  0
SECTION
  2
HEADER
  9
$ACADVER
  1
AC1024
  9
$ACADMAINTVER
 70
     6
  9
$DWGCODEPAGE
  3
UNDEFINED
  9
$INSBASE
 10
0.0
 20
0.0
 30
0.0
  9
$EXTMIN
 10
1.000000000000000E+20
 20
1.000000000000000E+20
 30
1.000000000000000E+20
  9
$EXTMAX
 10
-1.000000000000000E+20
 20
-1.000000000000000E+20
 30
-1.000000000000000E+20
  9
$LIMMIN
 10
0.0
 20
0.0
  9
$LIMMAX
 10
12.0
 20
9.0
  9
$ORTHOMODE
 70
     0
  9
$REGENMODE
 70
     1
  9
$FILLMODE
 70
     1
  9
$QTEXTMODE
 70
     0
  9
$MIRRTEXT
 70
     1
  9
$LTSCALE
 40
1.0
  9
$ATTMODE
 70
     1
  9
$TEXTSIZE
 40
0.2
  9
$TRACEWID
 40
0.05
  9
$TEXTSTYLE
  7
Standard
  9
$CLAYER
  8
0
  9
$CELTYPE
  6
ByLayer
  9
$CECOLOR
 62
   256
  9
$CELTSCALE
 40
1.0
  9
$DISPSILH
 70
     0
  9
$DIMSCALE
 40
1.0
  9
$DIMASZ
 40
0.18
  9
$DIMEXO
 40
0.0625
  9
$DIMDLI
 40
0.38
  9
$DIMRND
 40
0.0
  9
$DIMDLE
 40
0.0
  9
$DIMEXE
 40
0.18
  9
$DIMTP
 40
0.0
  9
$DIMTM
 40
0.0
  9
$DIMTXT
 40
0.18
  9
$DIMCEN
 40
0.09
  9
$DIMTSZ
 40
0.0
  9
$DIMTOL
 70
     0
  9
$DIMLIM
 70
     0
  9
$DIMTIH
 70
     1
  9
$DIMTOH
 70
     1
  9
$DIMSE1
 70
     0
  9
$DIMSE2
 70
     0
  9
$DIMTAD
 70
     0
  9
$DIMZIN
 70
     0
  9
$DIMBLK
  1

  9
$DIMASO
 70
     1
  9
$DIMSHO
 70
     1
  9
$DIMPOST
  1

  9
$DIMAPOST
  1

  9
$DIMALT
 70
     0
  9
$DIMALTD
 70
     2
  9
$DIMALTF
 40
25.4
  9
$DIMLFAC
 40
1.0
  9
$DIMTOFL
 70
     0
  9
$DIMTVP
 40
0.0
  9
$DIMTIX
 70
     0
  9
$DIMSOXD
 70
     0
  9
$DIMSAH
 70
     0
  9
$DIMBLK1
  1

  9
$DIMBLK2
  1

  9
$DIMSTYLE
  2
Standard
  9
$DIMCLRD
 70
     0
  9
$DIMCLRE
 70
     0
  9
$DIMCLRT
 70
     0
  9
$DIMTFAC
 40
1.0
  9
$DIMGAP
 40
0.09
  9
$DIMJUST
 70
     0
  9
$DIMSD1
 70
     0
  9
$DIMSD2
 70
     0
  9
$DIMTOLJ
 70
     1
  9
$DIMTZIN
 70
     0
  9
$DIMALTZ
 70
     0
  9
$DIMALTTZ
 70
     0
  9
$DIMUPT
 70
     0
  9
$DIMDEC
 70
     4
  9
$DIMTDEC
 70
     4
  9
$DIMALTU
 70
     2
  9
$DIMALTTD
 70
     2
  9
$DIMTXSTY
  7
Standard
  9
$DIMAUNIT
 70
     0
  9
$DIMADEC
 70
     0
  9
$DIMALTRND
 40
0.0
  9
$DIMAZIN
 70
     0
  9
$DIMDSEP
 70
    46
  9
$DIMATFIT
 70
     3
  9
$DIMFRAC
 70
     0
  9
$DIMLDRBLK
  1

  9
$DIMLUNIT
 70
     2
  9
$DIMLWD
 70
    -2
  9
$DIMLWE
 70
    -2
  9
$DIMTMOVE
 70
     0
  9
$DIMFXL
 40
1.0
  9
$DIMFXLON
 70
     0
  9
$DIMJOGANG
 40
0.7853981633974483
  9
$DIMTFILL
 70
     0
  9
$DIMTFILLCLR
 70
     0
  9
$DIMARCSYM
 70
     0
  9
$DIMLTYPE
  6

  9
$DIMLTEX1
  6

  9
$DIMLTEX2
  6

  9
$DIMTXTDIRECTION
 70
     0
  9
$LUNITS
 70
     2
  9
$LUPREC
 70
     4
  9
$SKETCHINC
 40
0.1
  9
$FILLETRAD
 40
0.5
  9
$AUNITS
 70
     0
  9
$AUPREC
 70
     0
  9
$MENU
  1
.
  9
$ELEVATION
 40
0.0
  9
$PELEVATION
 40
0.0
  9
$THICKNESS
 40
0.0
  9
$LIMCHECK
 70
     0
  9
$CHAMFERA
 40
0.5
  9
$CHAMFERB
 40
0.5
  9
$CHAMFERC
 40
1.0
  9
$CHAMFERD
 40
0.0
  9
$SKPOLY
 70
     0
  9
$TDCREATE
 40
2458263.581516204
  9
$TDUCREATE
 40
2458263.206516204
  9
$TDUPDATE
 40
2458263.581516204
  9
$TDUUPDATE
 40
2458263.206516204
  9
$TDINDWG
 40
0.0000000116
  9
$TDUSRTIMER
 40
0.0000000116
  9
$USRTIMER
 70
     1
  9
$ANGBASE
 50
0.0
  9
$ANGDIR
 70
     0
  9
$PDMODE
 70
     0
  9
$PDSIZE
 40
0.0
  9
$PLINEWID
 40
0.0
  9
$SPLFRAME
 70
     0
  9
$SPLINETYPE
 70
     6
  9
$SPLINESEGS
 70
     8
  9
$HANDSEED
  5
ED
  9
$SURFTAB1
 70
     6
  9
$SURFTAB2
 70
     6
  9
$SURFTYPE
 70
     6
  9
$SURFU
 70
     6
  9
$SURFV
 70
     6
  9
$UCSBASE
  2

  9
$UCSNAME
  2

  9
$UCSORG
 10
0.0
 20
0.0
 30
0.0
  9
$UCSXDIR
 10
1.0
 20
0.0
 30
0.0
  9
$UCSYDIR
 10
0.0
 20
1.0
 30
0.0
  9
$UCSORTHOREF
  2

  9
$UCSORTHOVIEW
 70
     0
  9
$UCSORGTOP
 10
0.0
 20
0.0
 30
0.0
  9
$UCSORGBOTTOM
 10
0.0
 20
0.0
 30
0.0
  9
$UCSORGLEFT
 10
0.0
 20
0.0
 30
0.0
  9
$UCSORGRIGHT
 10
0.0
 20
0.0
 30
0.0
  9
$UCSORGFRONT
 10
0.0
 20
0.0
 30
0.0
  9
$UCSORGBACK
 10
0.0
 20
0.0
 30
0.0
  9
$PUCSBASE
  2

  9
$PUCSNAME
  2

  9
$PUCSORG
 10
0.0
 20
0.0
 30
0.0
  9
$PUCSXDIR
 10
1.0
 20
0.0
 30
0.0
  9
$PUCSYDIR
 10
0.0
 20
1.0
 30
0.0
  9
$PUCSORTHOREF
  2

  9
$PUCSORTHOVIEW
 70
     0
  9
$PUCSORGTOP
 10
0.0
 20
0.0
 30
0.0
  9
$PUCSORGBOTTOM
 10
0.0
 20
0.0
 30
0.0
  9
$PUCSORGLEFT
 10
0.0
 20
0.0
 30
0.0
  9
$PUCSORGRIGHT
 10
0.0
 20
0.0
 30
0.0
  9
$PUCSORGFRONT
 10
0.0
 20
0.0
 30
0.0
  9
$PUCSORGBACK
 10
0.0
 20
0.0
 30
0.0
  9
$USERI1
 70
     0
  9
$USERI2
 70
     0
  9
$USERI3
 70
     0
  9
$USERI4
 70
     0
  9
$USERI5
 70
     0
  9
$USERR1
 40
0.0
  9
$USERR2
 40
0.0
  9
$USERR3
 40
0.0
  9
$USERR4
 40
0.0
  9
$USERR5
 40
0.0
  9
$WORLDVIEW
 70
     1
  9
$SHADEDGE
 70
     3
  9
$SHADEDIF
 70
    70
  9
$TILEMODE
 70
     1
  9
$MAXACTVP
 70
    64
  9
$PINSBASE
 10
0.0
 20
0.0
 30
0.0
  9
$PLIMCHECK
 70
     0
  9
$PEXTMIN
 10
1.000000000000000E+20
 20
1.000000000000000E+20
 30
1.000000000000000E+20
  9
$PEXTMAX
 10
-1.000000000000000E+20
 20
-1.000000000000000E+20
 30
-1.000000000000000E+20
  9
$PLIMMIN
 10
0.0
 20
0.0
  9
$PLIMMAX
 10
12.0
 20
9.0
  9
$UNITMODE
 70
     0
  9
$VISRETAIN
 70
     1
  9
$PLINEGEN
 70
     0
  9
$PSLTSCALE
 70
     1
  9
$TREEDEPTH
 70
  3020
  9
$CMLSTYLE
  2
Standard
  9
$CMLJUST
 70
     0
  9
$CMLSCALE
 40
1.0
  9
$PROXYGRAPHICS
 70
     1
  9
$MEASUREMENT
 70
     0
  9
$CELWEIGHT
370
    -1
  9
$ENDCAPS
280
     0
  9
$JOINSTYLE
280
     0
  9
$LWDISPLAY
290
     1
  9
$INSUNITS
 70
     1
  9
$HYPERLINKBASE
  1

  9
$STYLESHEET
  1

  9
$XEDIT
290
     1
  9
$CEPSNTYPE
380
     0
  9
$PSTYLEMODE
290
     1
  9
$FINGERPRINTGUID
  2
{269F58C9-E965-DE9F-086F-5A332F8732B9}
  9
$VERSIONGUID
  2
{FAEB1C32-E019-11D5-929B-00C0DF256EC4}
  9
$EXTNAMES
290
     1
  9
$PSVPSCALE
 40
0.0
  9
$OLESTARTUP
290
     0
  9
$SORTENTS
280
   127
  9
$INDEXCTL
280
     0
  9
$HIDETEXT
280
     1
  9
$XCLIPFRAME
280
     2
  9
$HALOGAP
280
     0
  9
$OBSCOLOR
 70
   257
  9
$OBSLTYPE
280
     0
  9
$INTERSECTIONDISPLAY
280
     0
  9
$INTERSECTIONCOLOR
 70
   257
  9
$DIMASSOC
280
     2
  9
$PROJECTNAME
  1

  9
$CAMERADISPLAY
290
     0
  9
$LENSLENGTH
 40
50.0
  9
$CAMERAHEIGHT
 40
0.0
  9
$STEPSPERSEC
 40
2.0
  9
$STEPSIZE
 40
6.0
  9
$3DDWFPREC
 40
2.0
  9
$PSOLWIDTH
 40
0.25
  9
$PSOLHEIGHT
 40
4.0
  9
$LOFTANG1
 40
1.570796326794897
  9
$LOFTANG2
 40
1.570796326794897
  9
$LOFTMAG1
 40
0.0
  9
$LOFTMAG2
 40
0.0
  9
$LOFTPARAM
 70
     7
  9
$LOFTNORMALS
280
     1
  9
$LATITUDE
 40
37.795
  9
$LONGITUDE
 40
-122.394
  9
$NORTHDIRECTION
 40
0.0
  9
$TIMEZONE
 70
 -8000
  9
$LIGHTGLYPHDISPLAY
280
     1
  9
$TILEMODELIGHTSYNCH
280
     1
  9
$CMATERIAL
347
3C
  9
$SOLIDHIST
280
     1
  9
$SHOWHIST
280
     1
  9
$DWFFRAME
280
     2
  9
$DGNFRAME
280
     2
  9
$REALWORLDSCALE
290
     1
  9
$INTERFERECOLOR
 62
   256
  9
$CSHADOW
280
     0
  9
$SHADOWPLANELOCATION
 40
0.0
  0
ENDSEC
  0
SECTION
  2
CLASSES
  0
CLASS
  1
ACDBDICTIONARYWDFLT
  2
AcDbDictionaryWithDefault
  3
ObjectDBX Classes
 90
        0
 91
        4
280
     0
281
     0
  0
CLASS
  1
VISUALSTYLE
  2
AcDbVisualStyle
  3
ObjectDBX Classes
 90
     4095
 91
        4
280
     0
281
     0
  0
CLASS
  1
MATERIAL
  2
AcDbMaterial
  3
ObjectDBX Classes
 90
     1153
 91
        4
280
     0
281
     0
  0
CLASS
  1
SUN
  2
AcDbSun
  3
SCENEOE
 90
     1024
 91
        4
280
     0
281
     0
  0
ENDSEC
  0
SECTION
  2
TABLES
  0
TABLE
  2
VPORT
  5
8
330
0
100
AcDbSymbolTable
 70
     1
  0
VPORT
  5
29
330
8
100
AcDbSymbolTableRecord
100
AcDbViewportTableRecord
  2
*Active
 70
     0
 10
0.0
 20
0.0
 11
1.0
 21
1.0
 12
0.0
 22
0.0
 13
0.0
 23
0.0
 14
0.5
 24
0.5
 15
0.5
 25
0.5
 16
0.0
 26
0.0
 36
1.0
 17
105.0007777515277
 27
-148.5000416295416
 37
0.0
 40
297.0000832590831
 41
0.7070757462376333
 42
50.0
 43
0.0
 44
0.0
 50
0.0
 51
0.0
 71
     0
 72
   100
 73
     1
 74
     3
 75
     0
 76
     0
 77
     0
 78
     0
281
     0
 65
     1
110
0.0
120
0.0
130
0.0
111
1.0
121
0.0
131
0.0
112
0.0
122
1.0
132
0.0
 79
     0
146
0.0
 60
     3
 61
     5
292
     1
282
     1
141
0.0
142
0.0
 63
   250
361
3F
  0
ENDTAB
  0
TABLE
  2
LTYPE
  5
5
330
0
100
AcDbSymbolTable
 70
     1
  0
LTYPE
  5
14
330
5
100
AcDbSymbolTableRecord
100
AcDbLinetypeTableRecord
  2
ByBlock
 70
     0
  3

 72
    65
 73
     0
 40
0.0
  0
LTYPE
  5
15
330
5
100
AcDbSymbolTableRecord
100
AcDbLinetypeTableRecord
  2
ByLayer
 70
     0
  3

 72
    65
 73
     0
 40
0.0
  0
LTYPE
  5
16
330
5
100
AcDbSymbolTableRecord
100
AcDbLinetypeTableRecord
  2
Continuous
 70
     0
  3
Solid line
 72
    65
 73
     0
 40
0.0
  0
ENDTAB
  0
TABLE
  2
LAYER
  5
2
330
0
100
AcDbSymbolTable
 70
     2
  0
LAYER
  5
10
330
2
100
AcDbSymbolTableRecord
100
AcDbLayerTableRecord
  2
0
 70
     0
 62
     7
  6
Continuous
370
    -3
390
F
347
3E
  0
LAYER
  5
40
330
2
100
AcDbSymbolTableRecord
100
AcDbLayerTableRecord
  2
_U+30EC_U+30A4_U+30E4_U+30FC 1
 70
     0
 62
     7
  6
Continuous
370
    -3
390
F
347
3E
  0
ENDTAB
  0
TABLE
  2
STYLE
  5
3
330
0
100
AcDbSymbolTable
 70
     1
  0
STYLE
  5
11
330
3
100
AcDbSymbolTableRecord
100
AcDbTextStyleTableRecord
  2
Standard
 70
     0
 40
0.0
 41
1.0
 50
0.0
 71
     0
 42
0.2
  3
txt
  4

  0
ENDTAB
  0
TABLE
  2
VIEW
  5
6
330
0
100
AcDbSymbolTable
 70
     0
  0
ENDTAB
  0
TABLE
  2
UCS
  5
7
330
0
100
AcDbSymbolTable
 70
     0
  0
ENDTAB
  0
TABLE
  2
APPID
  5
9
330
0
100
AcDbSymbolTable
 70
     1
  0
APPID
  5
12
330
9
100
AcDbSymbolTableRecord
100
AcDbRegAppTableRecord
  2
ACAD
 70
     0
  0
ENDTAB
  0
TABLE
  2
DIMSTYLE
  5
A
330
0
100
AcDbSymbolTable
 70
     1
100
AcDbDimStyleTable
  0
DIMSTYLE
105
27
330
A
100
AcDbSymbolTableRecord
100
AcDbDimStyleTableRecord
  2
Standard
 70
     0
178
     0
340
11
  0
ENDTAB
  0
TABLE
  2
BLOCK_RECORD
  5
1
330
0
100
AcDbSymbolTable
 70
     6
  0
BLOCK_RECORD
  5
1F
330
1
100
AcDbSymbolTableRecord
100
AcDbBlockTableRecord
  2
*Model_Space
340
22
 70
     0
280
     1
281
     0
  0
BLOCK_RECORD
  5
1B
330
1
100
AcDbSymbolTableRecord
100
AcDbBlockTableRecord
  2
*Paper_Space
340
1E
 70
     0
280
     1
281
     0
  0
BLOCK_RECORD
  5
23
330
1
100
AcDbSymbolTableRecord
100
AcDbBlockTableRecord
  2
*Paper_Space0
340
26
 70
     0
280
     1
281
     0
  0
BLOCK_RECORD
  5
8F
330
1
100
AcDbSymbolTableRecord
100
AcDbBlockTableRecord
  2
block 2
340
0
102
{BLKREFS
331
90
102
}
 70
     0
280
     1
281
     0
  0
BLOCK_RECORD
  5
A1
330
1
100
AcDbSymbolTableRecord
100
AcDbBlockTableRecord
  2
block 3
340
0
102
{BLKREFS
331
A2
102
}
 70
     0
280
     1
281
     0
  0
BLOCK_RECORD
  5
B6
330
1
100
AcDbSymbolTableRecord
100
AcDbBlockTableRecord
  2
block 4
340
0
102
{BLKREFS
331
B7
102
}
 70
     0
280
     1
281
     0
  0
BLOCK_RECORD
  5
CB
330
1
100
AcDbSymbolTableRecord
100
AcDbBlockTableRecord
  2
block 5
340
0
102
{BLKREFS
331
CC
102
}
 70
     0
280
     1
281
     0
  0
BLOCK_RECORD
  5
DA
330
1
100
AcDbSymbolTableRecord
100
AcDbBlockTableRecord
  2
block 6
340
0
102
{BLKREFS
331
DB
102
}
 70
     0
280
     1
281
     0
  0
ENDTAB
  0
ENDSEC
  0
SECTION
  2
BLOCKS
  0
BLOCK
  5
20
330
1F
100
AcDbEntity
  8
0
100
AcDbBlockBegin
  2
*Model_Space
 70
     0
 10
0.0
 20
0.0
 30
0.0
  3
*Model_Space
  1

  0
ENDBLK
  5
21
330
1F
100
AcDbEntity
  8
0
100
AcDbBlockEnd
  0
BLOCK
  5
1C
330
1B
100
AcDbEntity
 67
     1
  8
0
100
AcDbBlockBegin
  2
*Paper_Space
 70
     0
 10
0.0
 20
0.0
 30
0.0
  3
*Paper_Space
  1

  0
ENDBLK
  5
1D
330
1B
100
AcDbEntity
 67
     1
  8
0
100
AcDbBlockEnd
  0
BLOCK
  5
24
330
23
100
AcDbEntity
  8
0
100
AcDbBlockBegin
  2
*Paper_Space0
 70
     0
 10
0.0
 20
0.0
 30
0.0
  3
*Paper_Space0
  1

  0
ENDBLK
  5
25
330
23
100
AcDbEntity
  8
0
100
AcDbBlockEnd
  0
BLOCK
  5
91
330
8F
100
AcDbEntity
  8
0
100
AcDbBlockBegin
  2
block 2
 70
     0
 10
0.0
 20
0.0
 30
0.0
  3
block 2
  1

  0
SPLINE
  5
93
330
8F
100
AcDbEntity
  8
_U+30EC_U+30A4_U+30E4_U+30FC 1
370
     0
100
AcDbSpline
210
0.0
220
0.0
230
1.0
 70
    11
 71
     3
 72
    26
 73
    22
 74
     0
 42
0.0000000001
 43
0.0000000001
 12
1.0
 22
0.0
 32
0.0
 13
1.0
 23
0.0
 33
0.0
 40
0.0
 40
0.0
 40
0.0
 40
0.0
 40
1.0
 40
1.0
 40
1.0
 40
2.0
 40
2.0
 40
2.0
 40
3.0
 40
3.0
 40
3.0
 40
4.0
 40
4.0
 40
4.0
 40
5.0
 40
5.0
 40
5.0
 40
6.0
 40
6.0
 40
6.0
 40
7.0
 40
7.0
 40
7.0
 40
7.0
 10
120.8322455210072
 20
-144.6693779477736
 30
0.0
 10
120.8322455210072
 20
-144.6693779477736
 30
0.0
 10
119.7280924179847
 20
-144.6693779477736
 30
0.0
 10
119.7280924179847
 20
-144.6693779477736
 30
0.0
 10
119.7280924179847
 20
-144.6693779477736
 30
0.0
 10
119.7280924179847
 20
-144.9994180952606
 30
0.0
 10
119.7280924179847
 20
-144.9994180952606
 30
0.0
 10
119.7280924179847
 20
-144.9994180952606
 30
0.0
 10
119.5799533121189
 20
-144.9994180952606
 30
0.0
 10
119.5799533121189
 20
-144.9994180952606
 30
0.0
 10
119.5651394015323
 20
-144.6673108904825
 30
0.0
 10
119.40218638508
 20
-144.6208021014316
 30
0.0
 10
119.2878092149697
 20
-144.5911742802585
 30
0.0
 10
119.2878092149697
 20
-144.5911742802585
 30
0.0
 10
119.2878092149697
 20
-144.4451022316839
 30
0.0
 10
119.2878092149697
 20
-144.4451022316839
 30
0.0
 10
119.2878092149697
 20
-144.4451022316839
 30
0.0
 10
120.8322455210072
 20
-144.4451022316839
 30
0.0
 10
120.8322455210072
 20
-144.4451022316839
 30
0.0
 10
120.8322455210072
 20
-144.4451022316839
 30
0.0
 10
120.8322455210072
 20
-144.6693779477736
 30
0.0
 10
120.8322455210072
 20
-144.6693779477736
 30
0.0
  0
HATCH
  5
94
330
8F
100
AcDbEntity
  8
_U+30EC_U+30A4_U+30E4_U+30FC 1
 62
   179
420
  2234388
100
AcDbHatch
 10
0.0
 20
0.0
 30
0.0
210
0.0
220
0.0
230
1.0
  2
SOLID
 70
     1
 71
     0
 91
        1
 92
        1
 93
        1
 72
     4
 94
        3
 73
     0
 74
     1
 95
       26
 96
       22
 40
0.0
 40
0.0
 40
0.0
 40
0.0
 40
1.0
 40
1.0
 40
1.0
 40
2.0
 40
2.0
 40
2.0
 40
3.0
 40
3.0
 40
3.0
 40
4.0
 40
4.0
 40
4.0
 40
5.0
 40
5.0
 40
5.0
 40
6.0
 40
6.0
 40
6.0
 40
7.0
 40
7.0
 40
7.0
 40
7.0
 10
120.8322455210072
 20
-144.6693779477736
 10
120.8322455210072
 20
-144.6693779477736
 10
119.7280924179847
 20
-144.6693779477736
 10
119.7280924179847
 20
-144.6693779477736
 10
119.7280924179847
 20
-144.6693779477736
 10
119.7280924179847
 20
-144.9994180952606
 10
119.7280924179847
 20
-144.9994180952606
 10
119.7280924179847
 20
-144.9994180952606
 10
119.5799533121189
 20
-144.9994180952606
 10
119.5799533121189
 20
-144.9994180952606
 10
119.5651394015323
 20
-144.6673108904825
 10
119.40218638508
 20
-144.6208021014316
 10
119.2878092149697
 20
-144.5911742802585
 10
119.2878092149697
 20
-144.5911742802585
 10
119.2878092149697
 20
-144.4451022316839
 10
119.2878092149697
 20
-144.4451022316839
 10
119.2878092149697
 20
-144.4451022316839
 10
120.8322455210072
 20
-144.4451022316839
 10
120.8322455210072
 20
-144.4451022316839
 10
120.8322455210072
 20
-144.4451022316839
 10
120.8322455210072
 20
-144.6693779477736
 10
120.8322455210072
 20
-144.6693779477736
 97
        0
 97
        0
 75
     2
 76
     1
 98
        0
  0
ENDBLK
  5
92
330
8F
100
AcDbEntity
  8
0
100
AcDbBlockEnd
  0
BLOCK
  5
A3
330
A1
100
AcDbEntity
  8
0
100
AcDbBlockBegin
  2
block 3
 70
     0
 10
0.0
 20
0.0
 30
0.0
  3
block 3
  1

  0
SPLINE
  5
A5
330
A1
100
AcDbEntity
  8
_U+30EC_U+30A4_U+30E4_U+30FC 1
370
     0
100
AcDbSpline
210
0.0
220
0.0
230
1.0
 70
    11
 71
     3
 72
    62
 73
    58
 74
     0
 42
0.0000000001
 43
0.0000000001
 12
1.0
 22
0.0
 32
0.0
 13
1.0
 23
0.0
 33
0.0
 40
0.0
 40
0.0
 40
0.0
 40
0.0
 40
1.0
 40
1.0
 40
1.0
 40
2.0
 40
2.0
 40
2.0
 40
3.0
 40
3.0
 40
3.0
 40
4.0
 40
4.0
 40
4.0
 40
5.0
 40
5.0
 40
5.0
 40
6.0
 40
6.0
 40
6.0
 40
7.0
 40
7.0
 40
7.0
 40
8.0
 40
8.0
 40
8.0
 40
9.0
 40
9.0
 40
9.0
 40
10.0
 40
10.0
 40
10.0
 40
11.0
 40
11.0
 40
11.0
 40
12.0
 40
12.0
 40
12.0
 40
13.0
 40
13.0
 40
13.0
 40
14.0
 40
14.0
 40
14.0
 40
15.0
 40
15.0
 40
15.0
 40
16.0
 40
16.0
 40
16.0
 40
17.0
 40
17.0
 40
17.0
 40
18.0
 40
18.0
 40
18.0
 40
19.0
 40
19.0
 40
19.0
 40
19.0
 10
102.0563028716213
 20
-139.4159518423162
 30
0.0
 10
101.9610459814542
 20
-139.4159518423162
 30
0.0
 10
101.7431436920121
 20
-139.3949367598561
 30
0.0
 10
101.6184312354461
 20
-139.2089016036526
 30
0.0
 10
101.5443616825132
 20
-139.0965914908335
 30
0.0
 10
101.5400553131567
 20
-138.9973727408583
 30
0.0
 10
101.5359211985744
 20
-138.9126233919212
 30
0.0
 10
101.5359211985744
 20
-138.9126233919212
 30
0.0
 10
101.7558905453076
 20
-138.9126233919212
 30
0.0
 10
101.7558905453076
 20
-138.9126233919212
 30
0.0
 10
101.7579576025987
 20
-138.986692944854
 30
0.0
 10
101.768637398603
 20
-139.2213039473995
 30
0.0
 10
102.0519965022648
 20
-139.2213039473995
 30
0.0
 10
102.1896280669005
 20
-139.2213039473995
 30
0.0
 10
102.3419012873486
 20
-139.1517130185975
 30
0.0
 10
102.3419012873486
 20
-138.9233031879254
 30
0.0
 10
102.3419012873486
 20
-138.806858960524
 30
0.0
 10
102.3038329822365
 20
-138.7582831141819
 30
0.0
 10
102.2721381037722
 20
-138.7265882357177
 30
0.0
 10
102.1980685508394
 20
-138.6525186827848
 30
0.0
 10
102.0816243234379
 20
-138.6397718294894
 30
0.0
 10
102.0266750504482
 20
-138.6397718294894
 30
0.0
 10
102.0077270252793
 20
-138.6397718294894
 30
0.0
 10
101.9717257774585
 20
-138.6418388867805
 30
0.0
 10
101.9441650135765
 20
-138.6459730013628
 30
0.0
 10
101.9441650135765
 20
-138.6459730013628
 30
0.0
 10
101.9441650135765
 20
-138.4513251064462
 30
0.0
 10
101.9441650135765
 20
-138.4513251064462
 30
0.0
 10
101.9822333186885
 20
-138.4578707878682
 30
0.0
 10
102.024607993157
 20
-138.4599378451593
 30
0.0
 10
102.0309814198048
 20
-138.4599378451593
 30
0.0
 10
102.0964382340245
 20
-138.4599378451593
 30
0.0
 10
102.2953924982977
 20
-138.4385782531508
 30
0.0
 10
102.2953924982977
 20
-138.2019001933141
 30
0.0
 10
102.2953924982977
 20
-138.0241332662752
 30
0.0
 10
102.1641343603097
 20
-137.9690117385112
 30
0.0
 10
102.0542358143302
 20
-137.9690117385112
 30
0.0
 10
101.7898247358373
 20
-137.9690117385112
 30
0.0
 10
101.7812119971241
 20
-138.2019001933141
 30
0.0
 10
101.7770778825418
 20
-138.2735581794073
 30
0.0
 10
101.7770778825418
 20
-138.2735581794073
 30
0.0
 10
101.5739895036864
 20
-138.2735581794073
 30
0.0
 10
101.5739895036864
 20
-138.2735581794073
 30
0.0
 10
101.5824299876252
 20
-138.1488457228413
 30
0.0
 10
101.6099907515072
 20
-137.7722967863035
 30
0.0
 10
102.0668104128514
 20
-137.7722967863035
 30
0.0
 10
102.2910861289411
 20
-137.7722967863035
 30
0.0
 10
102.5322428129086
 20
-137.8994208097092
 30
0.0
 10
102.5322428129086
 20
-138.1953545118921
 30
0.0
 10
102.5322428129086
 20
-138.3817341776441
 30
0.0
 10
102.4371581775157
 20
-138.4640719597416
 30
0.0
 10
102.337594917992
 20
-138.5253946593791
 30
0.0
 10
102.3990898724037
 20
-138.5529554232611
 30
0.0
 10
102.5809909140249
 20
-138.6332261480674
 30
0.0
 10
102.5809909140249
 20
-138.91055633463
 30
0.0
 10
102.5809909140249
 20
-139.2488647112815
 30
0.0
 10
102.3334608034097
 20
-139.4159518423162
 30
0.0
 10
102.0563028716213
 20
-139.4159518423162
 30
0.0
  0
HATCH
  5
A6
330
A1
100
AcDbEntity
  8
_U+30EC_U+30A4_U+30E4_U+30FC 1
 62
   179
420
  2234388
100
AcDbHatch
 10
0.0
 20
0.0
 30
0.0
210
0.0
220
0.0
230
1.0
  2
SOLID
 70
     1
 71
     0
 91
        1
 92
        1
 93
        1
 72
     4
 94
        3
 73
     0
 74
     1
 95
       62
 96
       58
 40
0.0
 40
0.0
 40
0.0
 40
0.0
 40
1.0
 40
1.0
 40
1.0
 40
2.0
 40
2.0
 40
2.0
 40
3.0
 40
3.0
 40
3.0
 40
4.0
 40
4.0
 40
4.0
 40
5.0
 40
5.0
 40
5.0
 40
6.0
 40
6.0
 40
6.0
 40
7.0
 40
7.0
 40
7.0
 40
8.0
 40
8.0
 40
8.0
 40
9.0
 40
9.0
 40
9.0
 40
10.0
 40
10.0
 40
10.0
 40
11.0
 40
11.0
 40
11.0
 40
12.0
 40
12.0
 40
12.0
 40
13.0
 40
13.0
 40
13.0
 40
14.0
 40
14.0
 40
14.0
 40
15.0
 40
15.0
 40
15.0
 40
16.0
 40
16.0
 40
16.0
 40
17.0
 40
17.0
 40
17.0
 40
18.0
 40
18.0
 40
18.0
 40
19.0
 40
19.0
 40
19.0
 40
19.0
 10
102.0563028716213
 20
-139.4159518423162
 10
101.9610459814542
 20
-139.4159518423162
 10
101.7431436920121
 20
-139.3949367598561
 10
101.6184312354461
 20
-139.2089016036526
 10
101.5443616825132
 20
-139.0965914908335
 10
101.5400553131567
 20
-138.9973727408583
 10
101.5359211985744
 20
-138.9126233919212
 10
101.5359211985744
 20
-138.9126233919212
 10
101.7558905453076
 20
-138.9126233919212
 10
101.7558905453076
 20
-138.9126233919212
 10
101.7579576025987
 20
-138.986692944854
 10
101.768637398603
 20
-139.2213039473995
 10
102.0519965022648
 20
-139.2213039473995
 10
102.1896280669005
 20
-139.2213039473995
 10
102.3419012873486
 20
-139.1517130185975
 10
102.3419012873486
 20
-138.9233031879254
 10
102.3419012873486
 20
-138.806858960524
 10
102.3038329822365
 20
-138.7582831141819
 10
102.2721381037722
 20
-138.7265882357177
 10
102.1980685508394
 20
-138.6525186827848
 10
102.0816243234379
 20
-138.6397718294894
 10
102.0266750504482
 20
-138.6397718294894
 10
102.0077270252793
 20
-138.6397718294894
 10
101.9717257774585
 20
-138.6418388867805
 10
101.9441650135765
 20
-138.6459730013628
 10
101.9441650135765
 20
-138.6459730013628
 10
101.9441650135765
 20
-138.4513251064462
 10
101.9441650135765
 20
-138.4513251064462
 10
101.9822333186885
 20
-138.4578707878682
 10
102.024607993157
 20
-138.4599378451593
 10
102.0309814198048
 20
-138.4599378451593
 10
102.0964382340245
 20
-138.4599378451593
 10
102.2953924982977
 20
-138.4385782531508
 10
102.2953924982977
 20
-138.2019001933141
 10
102.2953924982977
 20
-138.0241332662752
 10
102.1641343603097
 20
-137.9690117385112
 10
102.0542358143302
 20
-137.9690117385112
 10
101.7898247358373
 20
-137.9690117385112
 10
101.7812119971241
 20
-138.2019001933141
 10
101.7770778825418
 20
-138.2735581794073
 10
101.7770778825418
 20
-138.2735581794073
 10
101.5739895036864
 20
-138.2735581794073
 10
101.5739895036864
 20
-138.2735581794073
 10
101.5824299876252
 20
-138.1488457228413
 10
101.6099907515072
 20
-137.7722967863035
 10
102.0668104128514
 20
-137.7722967863035
 10
102.2910861289411
 20
-137.7722967863035
 10
102.5322428129086
 20
-137.8994208097092
 10
102.5322428129086
 20
-138.1953545118921
 10
102.5322428129086
 20
-138.3817341776441
 10
102.4371581775157
 20
-138.4640719597416
 10
102.337594917992
 20
-138.5253946593791
 10
102.3990898724037
 20
-138.5529554232611
 10
102.5809909140249
 20
-138.6332261480674
 10
102.5809909140249
 20
-138.91055633463
 10
102.5809909140249
 20
-139.2488647112815
 10
102.3334608034097
 20
-139.4159518423162
 10
102.0563028716213
 20
-139.4159518423162
 97
        0
 97
        0
 75
     2
 76
     1
 98
        0
  0
SPLINE
  5
A7
330
A1
100
AcDbEntity
  8
_U+30EC_U+30A4_U+30E4_U+30FC 1
370
     0
100
AcDbSpline
210
0.0
220
0.0
230
1.0
 70
    11
 71
     3
 72
    29
 73
    25
 74
     0
 42
0.0000000001
 43
0.0000000001
 12
1.0
 22
0.0
 32
0.0
 13
1.0
 23
0.0
 33
0.0
 40
0.0
 40
0.0
 40
0.0
 40
0.0
 40
1.0
 40
1.0
 40
1.0
 40
2.0
 40
2.0
 40
2.0
 40
3.0
 40
3.0
 40
3.0
 40
4.0
 40
4.0
 40
4.0
 40
5.0
 40
5.0
 40
5.0
 40
6.0
 40
6.0
 40
6.0
 40
7.0
 40
7.0
 40
7.0
 40
8.0
 40
8.0
 40
8.0
 40
8.0
 10
103.6393242470936
 20
-139.1875420116441
 30
0.0
 10
103.5314927584053
 20
-139.3970038171473
 30
0.0
 10
103.358032200723
 20
-139.4159518423162
 30
0.0
 10
103.2415879733216
 20
-139.4159518423162
 30
0.0
 10
103.0808742689347
 20
-139.4159518423162
 30
0.0
 10
102.9391085897166
 20
-139.3694430532653
 30
0.0
 10
102.8438516995495
 20
-139.1875420116441
 30
0.0
 10
102.7403265802177
 20
-138.9928941167275
 30
0.0
 10
102.7212063002746
 20
-138.7562160568908
 30
0.0
 10
102.7212063002746
 20
-138.5932630404385
 30
0.0
 10
102.7212063002746
 20
-138.449258049155
 30
0.0
 10
102.7380872681523
 20
-138.1974215691833
 30
0.0
 10
102.8438516995495
 20
-137.9986395596844
 30
0.0
 10
102.951855443012
 20
-137.7957234356032
 30
0.0
 10
103.1125691473989
 20
-137.7722967863035
 30
0.0
 10
103.2415879733216
 20
-137.7722967863035
 30
0.0
 10
103.4002346204173
 20
-137.7722967863035
 30
0.0
 10
103.5440673569265
 20
-137.8167385180632
 30
0.0
 10
103.6393242470936
 20
-137.9986395596844
 30
0.0
 10
103.7387152518431
 20
-138.1912203973098
 30
0.0
 10
103.7619696463685
 20
-138.4196302279819
 30
0.0
 10
103.7619696463685
 20
-138.5932630404385
 30
0.0
 10
103.7619696463685
 20
-138.7644842860554
 30
0.0
 10
103.7409545639085
 20
-138.9949611740186
 30
0.0
 10
103.6393242470936
 20
-139.1875420116441
 30
0.0
  0
SPLINE
  5
A8
330
A1
100
AcDbEntity
  8
_U+30EC_U+30A4_U+30E4_U+30FC 1
370
     0
100
AcDbSpline
210
0.0
220
0.0
230
1.0
 70
    11
 71
     3
 72
    17
 73
    13
 74
     0
 42
0.0000000001
 43
0.0000000001
 12
1.0
 22
0.0
 32
0.0
 13
1.0
 23
0.0
 33
0.0
 40
0.0
 40
0.0
 40
0.0
 40
0.0
 40
1.0
 40
1.0
 40
1.0
 40
2.0
 40
2.0
 40
2.0
 40
3.0
 40
3.0
 40
3.0
 40
4.0
 40
4.0
 40
4.0
 40
4.0
 10
103.2415879733216
 20
-137.9648776239289
 30
0.0
 10
102.9919908054152
 20
-137.9648776239289
 30
0.0
 10
102.9454820163643
 20
-138.248408982365
 30
0.0
 10
102.9454820163643
 20
-138.5932630404385
 30
0.0
 10
102.9454820163643
 20
-138.9126233919212
 30
0.0
 10
102.9814832641852
 20
-139.2213039473995
 30
0.0
 10
103.2415879733216
 20
-139.2213039473995
 30
0.0
 10
103.4891180839368
 20
-139.2213039473995
 30
0.0
 10
103.537866185053
 20
-138.9401841558032
 30
0.0
 10
103.537866185053
 20
-138.5932630404385
 30
0.0
 10
103.537866185053
 20
-138.2735581794073
 30
0.0
 10
103.4996256251668
 20
-137.9648776239289
 30
0.0
 10
103.2415879733216
 20
-137.9648776239289
 30
0.0
  0
HATCH
  5
A9
330
A1
100
AcDbEntity
  8
_U+30EC_U+30A4_U+30E4_U+30FC 1
 62
   179
420
  2234388
100
AcDbHatch
 10
0.0
 20
0.0
 30
0.0
210
0.0
220
0.0
230
1.0
  2
SOLID
 70
     1
 71
     0
 91
        2
 92
        1
 93
        1
 72
     4
 94
        3
 73
     0
 74
     1
 95
       29
 96
       25
 40
0.0
 40
0.0
 40
0.0
 40
0.0
 40
1.0
 40
1.0
 40
1.0
 40
2.0
 40
2.0
 40
2.0
 40
3.0
 40
3.0
 40
3.0
 40
4.0
 40
4.0
 40
4.0
 40
5.0
 40
5.0
 40
5.0
 40
6.0
 40
6.0
 40
6.0
 40
7.0
 40
7.0
 40
7.0
 40
8.0
 40
8.0
 40
8.0
 40
8.0
 10
103.6393242470936
 20
-139.1875420116441
 10
103.5314927584053
 20
-139.3970038171473
 10
103.358032200723
 20
-139.4159518423162
 10
103.2415879733216
 20
-139.4159518423162
 10
103.0808742689347
 20
-139.4159518423162
 10
102.9391085897166
 20
-139.3694430532653
 10
102.8438516995495
 20
-139.1875420116441
 10
102.7403265802177
 20
-138.9928941167275
 10
102.7212063002746
 20
-138.7562160568908
 10
102.7212063002746
 20
-138.5932630404385
 10
102.7212063002746
 20
-138.449258049155
 10
102.7380872681523
 20
-138.1974215691833
 10
102.8438516995495
 20
-137.9986395596844
 10
102.951855443012
 20
-137.7957234356032
 10
103.1125691473989
 20
-137.7722967863035
 10
103.2415879733216
 20
-137.7722967863035
 10
103.4002346204173
 20
-137.7722967863035
 10
103.5440673569265
 20
-137.8167385180632
 10
103.6393242470936
 20
-137.9986395596844
 10
103.7387152518431
 20
-138.1912203973098
 10
103.7619696463685
 20
-138.4196302279819
 10
103.7619696463685
 20
-138.5932630404385
 10
103.7619696463685
 20
-138.7644842860554
 10
103.7409545639085
 20
-138.9949611740186
 10
103.6393242470936
 20
-139.1875420116441
 97
        0
 97
        0
 92
        1
 93
        1
 72
     4
 94
        3
 73
     0
 74
     1
 95
       17
 96
       13
 40
0.0
 40
0.0
 40
0.0
 40
0.0
 40
1.0
 40
1.0
 40
1.0
 40
2.0
 40
2.0
 40
2.0
 40
3.0
 40
3.0
 40
3.0
 40
4.0
 40
4.0
 40
4.0
 40
4.0
 10
103.2415879733216
 20
-137.9648776239289
 10
102.9919908054152
 20
-137.9648776239289
 10
102.9454820163643
 20
-138.248408982365
 10
102.9454820163643
 20
-138.5932630404385
 10
102.9454820163643
 20
-138.9126233919212
 10
102.9814832641852
 20
-139.2213039473995
 10
103.2415879733216
 20
-139.2213039473995
 10
103.4891180839368
 20
-139.2213039473995
 10
103.537866185053
 20
-138.9401841558032
 10
103.537866185053
 20
-138.5932630404385
 10
103.537866185053
 20
-138.2735581794073
 10
103.4996256251668
 20
-137.9648776239289
 10
103.2415879733216
 20
-137.9648776239289
 97
        0
 97
        0
 75
     2
 76
     1
 98
        0
  0
ENDBLK
  5
A4
330
A1
100
AcDbEntity
  8
0
100
AcDbBlockEnd
  0
BLOCK
  5
B8
330
B6
100
AcDbEntity
  8
0
100
AcDbBlockBegin
  2
block 4
 70
     0
 10
0.0
 20
0.0
 30
0.0
  3
block 4
  1

  0
SPLINE
  5
BA
330
B6
100
AcDbEntity
  8
_U+30EC_U+30A4_U+30E4_U+30FC 1
370
     0
100
AcDbSpline
210
0.0
220
0.0
230
1.0
 70
    11
 71
     3
 72
    26
 73
    22
 74
     0
 42
0.0000000001
 43
0.0000000001
 12
1.0
 22
0.0
 32
0.0
 13
1.0
 23
0.0
 33
0.0
 40
0.0
 40
0.0
 40
0.0
 40
0.0
 40
1.0
 40
1.0
 40
1.0
 40
2.0
 40
2.0
 40
2.0
 40
3.0
 40
3.0
 40
3.0
 40
4.0
 40
4.0
 40
4.0
 40
5.0
 40
5.0
 40
5.0
 40
6.0
 40
6.0
 40
6.0
 40
7.0
 40
7.0
 40
7.0
 40
7.0
 10
92.19368351644812
 20
-159.0652261972129
 30
0.0
 10
92.19368351644812
 20
-159.0652261972129
 30
0.0
 10
92.19368351644812
 20
-157.9610730941903
 30
0.0
 10
92.19368351644812
 20
-157.9610730941903
 30
0.0
 10
92.19368351644812
 20
-157.9610730941903
 30
0.0
 10
91.86364336896118
 20
-157.9610730941903
 30
0.0
 10
91.86364336896118
 20
-157.9610730941903
 30
0.0
 10
91.86364336896118
 20
-157.9610730941903
 30
0.0
 10
91.86364336896118
 20
-157.8129339883245
 30
0.0
 10
91.86364336896118
 20
-157.8129339883245
 30
0.0
 10
92.19575057373926
 20
-157.798120077738
 30
0.0
 10
92.24225936279014
 20
-157.6351670612857
 30
0.0
 10
92.27188718396329
 20
-157.5207898911754
 30
0.0
 10
92.27188718396329
 20
-157.5207898911754
 30
0.0
 10
92.41795923253788
 20
-157.5207898911754
 30
0.0
 10
92.41795923253788
 20
-157.5207898911754
 30
0.0
 10
92.41795923253788
 20
-157.5207898911754
 30
0.0
 10
92.41795923253788
 20
-159.0652261972129
 30
0.0
 10
92.41795923253788
 20
-159.0652261972129
 30
0.0
 10
92.41795923253788
 20
-159.0652261972129
 30
0.0
 10
92.19368351644812
 20
-159.0652261972129
 30
0.0
 10
92.19368351644812
 20
-159.0652261972129
 30
0.0
  0
HATCH
  5
BB
330
B6
100
AcDbEntity
  8
_U+30EC_U+30A4_U+30E4_U+30FC 1
 62
   179
420
  2234388
100
AcDbHatch
 10
0.0
 20
0.0
 30
0.0
210
0.0
220
0.0
230
1.0
  2
SOLID
 70
     1
 71
     0
 91
        1
 92
        1
 93
        1
 72
     4
 94
        3
 73
     0
 74
     1
 95
       26
 96
       22
 40
0.0
 40
0.0
 40
0.0
 40
0.0
 40
1.0
 40
1.0
 40
1.0
 40
2.0
 40
2.0
 40
2.0
 40
3.0
 40
3.0
 40
3.0
 40
4.0
 40
4.0
 40
4.0
 40
5.0
 40
5.0
 40
5.0
 40
6.0
 40
6.0
 40
6.0
 40
7.0
 40
7.0
 40
7.0
 40
7.0
 10
92.19368351644812
 20
-159.0652261972129
 10
92.19368351644812
 20
-159.0652261972129
 10
92.19368351644812
 20
-157.9610730941903
 10
92.19368351644812
 20
-157.9610730941903
 10
92.19368351644812
 20
-157.9610730941903
 10
91.86364336896118
 20
-157.9610730941903
 10
91.86364336896118
 20
-157.9610730941903
 10
91.86364336896118
 20
-157.9610730941903
 10
91.86364336896118
 20
-157.8129339883245
 10
91.86364336896118
 20
-157.8129339883245
 10
92.19575057373926
 20
-157.798120077738
 10
92.24225936279014
 20
-157.6351670612857
 10
92.27188718396329
 20
-157.5207898911754
 10
92.27188718396329
 20
-157.5207898911754
 10
92.41795923253788
 20
-157.5207898911754
 10
92.41795923253788
 20
-157.5207898911754
 10
92.41795923253788
 20
-157.5207898911754
 10
92.41795923253788
 20
-159.0652261972129
 10
92.41795923253788
 20
-159.0652261972129
 10
92.41795923253788
 20
-159.0652261972129
 10
92.19368351644812
 20
-159.0652261972129
 10
92.19368351644812
 20
-159.0652261972129
 97
        0
 97
        0
 75
     2
 76
     1
 98
        0
  0
SPLINE
  5
BC
330
B6
100
AcDbEntity
  8
_U+30EC_U+30A4_U+30E4_U+30FC 1
370
     0
100
AcDbSpline
210
0.0
220
0.0
230
1.0
 70
    11
 71
     3
 72
    29
 73
    25
 74
     0
 42
0.0000000001
 43
0.0000000001
 12
1.0
 22
0.0
 32
0.0
 13
1.0
 23
0.0
 33
0.0
 40
0.0
 40
0.0
 40
0.0
 40
0.0
 40
1.0
 40
1.0
 40
1.0
 40
2.0
 40
2.0
 40
2.0
 40
3.0
 40
3.0
 40
3.0
 40
4.0
 40
4.0
 40
4.0
 40
5.0
 40
5.0
 40
5.0
 40
6.0
 40
6.0
 40
6.0
 40
7.0
 40
7.0
 40
7.0
 40
8.0
 40
8.0
 40
8.0
 40
8.0
 10
93.81684025432357
 20
-158.887459270174
 30
0.0
 10
93.70900876563525
 20
-159.0969210756772
 30
0.0
 10
93.53554820795293
 20
-159.115869100846
 30
0.0
 10
93.41910398055148
 20
-159.115869100846
 30
0.0
 10
93.25839027616458
 20
-159.115869100846
 30
0.0
 10
93.11662459694654
 20
-159.0693603117952
 30
0.0
 10
93.02136770677939
 20
-158.887459270174
 30
0.0
 10
92.91784258744762
 20
-158.6928113752573
 30
0.0
 10
92.89872230750449
 20
-158.4557888058722
 30
0.0
 10
92.89872230750449
 20
-158.2931802989684
 30
0.0
 10
92.89872230750449
 20
-158.1491753076849
 30
0.0
 10
92.91560327538221
 20
-157.8973388277132
 30
0.0
 10
93.02136770677939
 20
-157.6985568182143
 30
0.0
 10
93.12937145024196
 20
-157.495640694133
 30
0.0
 10
93.29008515462887
 20
-157.4722140448334
 30
0.0
 10
93.41910398055148
 20
-157.4722140448334
 30
0.0
 10
93.57775062764723
 20
-157.4722140448334
 30
0.0
 10
93.72158336415642
 20
-157.5166557765931
 30
0.0
 10
93.81684025432357
 20
-157.6985568182143
 30
0.0
 10
93.91623125907303
 20
-157.8911376558397
 30
0.0
 10
93.93948565359847
 20
-158.1195474865118
 30
0.0
 10
93.93948565359847
 20
-158.2931802989684
 30
0.0
 10
93.93948565359847
 20
-158.4644015445853
 30
0.0
 10
93.91847057113844
 20
-158.6948784325485
 30
0.0
 10
93.81684025432357
 20
-158.887459270174
 30
0.0
  0
SPLINE
  5
BD
330
B6
100
AcDbEntity
  8
_U+30EC_U+30A4_U+30E4_U+30FC 1
370
     0
100
AcDbSpline
210
0.0
220
0.0
230
1.0
 70
    11
 71
     3
 72
    17
 73
    13
 74
     0
 42
0.0000000001
 43
0.0000000001
 12
1.0
 22
0.0
 32
0.0
 13
1.0
 23
0.0
 33
0.0
 40
0.0
 40
0.0
 40
0.0
 40
0.0
 40
1.0
 40
1.0
 40
1.0
 40
2.0
 40
2.0
 40
2.0
 40
3.0
 40
3.0
 40
3.0
 40
4.0
 40
4.0
 40
4.0
 40
4.0
 10
93.41910398055148
 20
-157.6647948824588
 30
0.0
 10
93.16950681264512
 20
-157.6647948824588
 30
0.0
 10
93.12299802359425
 20
-157.9483262408949
 30
0.0
 10
93.12299802359425
 20
-158.2931802989684
 30
0.0
 10
93.12299802359425
 20
-158.6125406504511
 30
0.0
 10
93.15899927141511
 20
-158.9212212059294
 30
0.0
 10
93.41910398055148
 20
-158.9212212059294
 30
0.0
 10
93.66663409116669
 20
-158.9212212059294
 30
0.0
 10
93.71538219228296
 20
-158.640101414333
 30
0.0
 10
93.71538219228296
 20
-158.2931802989684
 30
0.0
 10
93.71538219228296
 20
-157.9734754379372
 30
0.0
 10
93.67731388717095
 20
-157.6647948824588
 30
0.0
 10
93.41910398055148
 20
-157.6647948824588
 30
0.0
  0
HATCH
  5
BE
330
B6
100
AcDbEntity
  8
_U+30EC_U+30A4_U+30E4_U+30FC 1
 62
   179
420
  2234388
100
AcDbHatch
 10
0.0
 20
0.0
 30
0.0
210
0.0
220
0.0
230
1.0
  2
SOLID
 70
     1
 71
     0
 91
        2
 92
        1
 93
        1
 72
     4
 94
        3
 73
     0
 74
     1
 95
       29
 96
       25
 40
0.0
 40
0.0
 40
0.0
 40
0.0
 40
1.0
 40
1.0
 40
1.0
 40
2.0
 40
2.0
 40
2.0
 40
3.0
 40
3.0
 40
3.0
 40
4.0
 40
4.0
 40
4.0
 40
5.0
 40
5.0
 40
5.0
 40
6.0
 40
6.0
 40
6.0
 40
7.0
 40
7.0
 40
7.0
 40
8.0
 40
8.0
 40
8.0
 40
8.0
 10
93.81684025432357
 20
-158.887459270174
 10
93.70900876563525
 20
-159.0969210756772
 10
93.53554820795293
 20
-159.115869100846
 10
93.41910398055148
 20
-159.115869100846
 10
93.25839027616458
 20
-159.115869100846
 10
93.11662459694654
 20
-159.0693603117952
 10
93.02136770677939
 20
-158.887459270174
 10
92.91784258744762
 20
-158.6928113752573
 10
92.89872230750449
 20
-158.4557888058722
 10
92.89872230750449
 20
-158.2931802989684
 10
92.89872230750449
 20
-158.1491753076849
 10
92.91560327538221
 20
-157.8973388277132
 10
93.02136770677939
 20
-157.6985568182143
 10
93.12937145024196
 20
-157.495640694133
 10
93.29008515462887
 20
-157.4722140448334
 10
93.41910398055148
 20
-157.4722140448334
 10
93.57775062764723
 20
-157.4722140448334
 10
93.72158336415642
 20
-157.5166557765931
 10
93.81684025432357
 20
-157.6985568182143
 10
93.91623125907303
 20
-157.8911376558397
 10
93.93948565359847
 20
-158.1195474865118
 10
93.93948565359847
 20
-158.2931802989684
 10
93.93948565359847
 20
-158.4644015445853
 10
93.91847057113844
 20
-158.6948784325485
 10
93.81684025432357
 20
-158.887459270174
 97
        0
 97
        0
 92
        1
 93
        1
 72
     4
 94
        3
 73
     0
 74
     1
 95
       17
 96
       13
 40
0.0
 40
0.0
 40
0.0
 40
0.0
 40
1.0
 40
1.0
 40
1.0
 40
2.0
 40
2.0
 40
2.0
 40
3.0
 40
3.0
 40
3.0
 40
4.0
 40
4.0
 40
4.0
 40
4.0
 10
93.41910398055148
 20
-157.6647948824588
 10
93.16950681264512
 20
-157.6647948824588
 10
93.12299802359425
 20
-157.9483262408949
 10
93.12299802359425
 20
-158.2931802989684
 10
93.12299802359425
 20
-158.6125406504511
 10
93.15899927141511
 20
-158.9212212059294
 10
93.41910398055148
 20
-158.9212212059294
 10
93.66663409116669
 20
-158.9212212059294
 10
93.71538219228296
 20
-158.640101414333
 10
93.71538219228296
 20
-158.2931802989684
 10
93.71538219228296
 20
-157.9734754379372
 10
93.67731388717095
 20
-157.6647948824588
 10
93.41910398055148
 20
-157.6647948824588
 97
        0
 97
        0
 75
     2
 76
     1
 98
        0
  0
ENDBLK
  5
B9
330
B6
100
AcDbEntity
  8
0
100
AcDbBlockEnd
  0
BLOCK
  5
CD
330
CB
100
AcDbEntity
  8
0
100
AcDbBlockBegin
  2
block 5
 70
     0
 10
0.0
 20
0.0
 30
0.0
  3
block 5
  1

  0
SPLINE
  5
CF
330
CB
100
AcDbEntity
  8
_U+30EC_U+30A4_U+30E4_U+30FC 1
370
     0
100
AcDbSpline
210
0.0
220
0.0
230
1.0
 70
    11
 71
     3
 72
    32
 73
    28
 74
     0
 42
0.0000000001
 43
0.0000000001
 12
1.0
 22
0.0
 32
0.0
 13
1.0
 23
0.0
 33
0.0
 40
0.0
 40
0.0
 40
0.0
 40
0.0
 40
1.0
 40
1.0
 40
1.0
 40
2.0
 40
2.0
 40
2.0
 40
3.0
 40
3.0
 40
3.0
 40
4.0
 40
4.0
 40
4.0
 40
5.0
 40
5.0
 40
5.0
 40
6.0
 40
6.0
 40
6.0
 40
7.0
 40
7.0
 40
7.0
 40
8.0
 40
8.0
 40
8.0
 40
9.0
 40
9.0
 40
9.0
 40
9.0
 10
100.8350165221003
 20
-159.115869100846
 30
0.0
 10
100.3187689636356
 20
-159.115869100846
 30
0.0
 10
100.3103284796967
 20
-158.5618977468179
 30
0.0
 10
100.3103284796967
 20
-158.3479573171838
 30
0.0
 10
100.3103284796967
 20
-158.1174804292206
 30
0.0
 10
100.3294487596399
 20
-157.4701469875422
 30
0.0
 10
100.8730848272123
 20
-157.4701469875422
 30
0.0
 10
101.0465453848946
 20
-157.4701469875422
 30
0.0
 10
101.2920084382187
 20
-157.5400824258928
 30
0.0
 10
101.3300767433307
 20
-157.8721896306708
 30
0.0
 10
101.3300767433307
 20
-157.8721896306708
 30
0.0
 10
101.1163085684709
 20
-157.8721896306708
 30
0.0
 10
101.1163085684709
 20
-157.8721896306708
 30
0.0
 10
101.1058010272409
 20
-157.8150010456157
 30
0.0
 10
101.0741061487766
 20
-157.66686193975
 30
0.0
 10
100.8710177699211
 20
-157.66686193975
 30
0.0
 10
100.5790459275462
 20
-157.66686193975
 30
0.0
 10
100.5387383103688
 20
-157.9948350299457
 30
0.0
 10
100.5261637118476
 20
-158.1998182113181
 30
0.0
 10
100.6191812899494
 20
-158.1216145438029
 30
0.0
 10
100.6868774162345
 20
-158.0623589014566
 30
0.0
 10
100.8687784578557
 20
-158.0623589014566
 30
0.0
 10
101.0486124421858
 20
-158.0623589014566
 30
0.0
 10
101.3510918257907
 20
-158.1705348996935
 30
0.0
 10
101.3510918257907
 20
-158.5767116574044
 30
0.0
 10
101.3510918257907
 20
-158.8960720088871
 30
0.0
 10
101.1523098162918
 20
-159.115869100846
 30
0.0
 10
100.8350165221003
 20
-159.115869100846
 30
0.0
  0
SPLINE
  5
D0
330
CB
100
AcDbEntity
  8
_U+30EC_U+30A4_U+30E4_U+30FC 1
370
     0
100
AcDbSpline
210
0.0
220
0.0
230
1.0
 70
    11
 71
     3
 72
    17
 73
    13
 74
     0
 42
0.0000000001
 43
0.0000000001
 12
1.0
 22
0.0
 32
0.0
 13
1.0
 23
0.0
 33
0.0
 40
0.0
 40
0.0
 40
0.0
 40
0.0
 40
1.0
 40
1.0
 40
1.0
 40
2.0
 40
2.0
 40
2.0
 40
3.0
 40
3.0
 40
3.0
 40
4.0
 40
4.0
 40
4.0
 40
4.0
 10
100.851897489978
 20
-158.2570067963732
 30
0.0
 10
100.5895534687762
 20
-158.2570067963732
 30
0.0
 10
100.5514851636642
 20
-158.4685356591676
 30
0.0
 10
100.5514851636642
 20
-158.584979886569
 30
0.0
 10
100.5514851636642
 20
-158.7606797563168
 30
0.0
 10
100.6467420538314
 20
-158.9236327727691
 30
0.0
 10
100.8307101527437
 20
-158.9236327727691
 30
0.0
 10
100.9512884947275
 20
-158.9236327727691
 30
0.0
 10
101.1269883644752
 20
-158.8643771304228
 30
0.0
 10
101.1269883644752
 20
-158.5787787146956
 30
0.0
 10
101.1269883644752
 20
-158.3545029986058
 30
0.0
 10
100.9872897425483
 20
-158.2570067963732
 30
0.0
 10
100.851897489978
 20
-158.2570067963732
 30
0.0
  0
HATCH
  5
D1
330
CB
100
AcDbEntity
  8
_U+30EC_U+30A4_U+30E4_U+30FC 1
 62
   179
420
  2234388
100
AcDbHatch
 10
0.0
 20
0.0
 30
0.0
210
0.0
220
0.0
230
1.0
  2
SOLID
 70
     1
 71
     0
 91
        2
 92
        1
 93
        1
 72
     4
 94
        3
 73
     0
 74
     1
 95
       32
 96
       28
 40
0.0
 40
0.0
 40
0.0
 40
0.0
 40
1.0
 40
1.0
 40
1.0
 40
2.0
 40
2.0
 40
2.0
 40
3.0
 40
3.0
 40
3.0
 40
4.0
 40
4.0
 40
4.0
 40
5.0
 40
5.0
 40
5.0
 40
6.0
 40
6.0
 40
6.0
 40
7.0
 40
7.0
 40
7.0
 40
8.0
 40
8.0
 40
8.0
 40
9.0
 40
9.0
 40
9.0
 40
9.0
 10
100.8350165221003
 20
-159.115869100846
 10
100.3187689636356
 20
-159.115869100846
 10
100.3103284796967
 20
-158.5618977468179
 10
100.3103284796967
 20
-158.3479573171838
 10
100.3103284796967
 20
-158.1174804292206
 10
100.3294487596399
 20
-157.4701469875422
 10
100.8730848272123
 20
-157.4701469875422
 10
101.0465453848946
 20
-157.4701469875422
 10
101.2920084382187
 20
-157.5400824258928
 10
101.3300767433307
 20
-157.8721896306708
 10
101.3300767433307
 20
-157.8721896306708
 10
101.1163085684709
 20
-157.8721896306708
 10
101.1163085684709
 20
-157.8721896306708
 10
101.1058010272409
 20
-157.8150010456157
 10
101.0741061487766
 20
-157.66686193975
 10
100.8710177699211
 20
-157.66686193975
 10
100.5790459275462
 20
-157.66686193975
 10
100.5387383103688
 20
-157.9948350299457
 10
100.5261637118476
 20
-158.1998182113181
 10
100.6191812899494
 20
-158.1216145438029
 10
100.6868774162345
 20
-158.0623589014566
 10
100.8687784578557
 20
-158.0623589014566
 10
101.0486124421858
 20
-158.0623589014566
 10
101.3510918257907
 20
-158.1705348996935
 10
101.3510918257907
 20
-158.5767116574044
 10
101.3510918257907
 20
-158.8960720088871
 10
101.1523098162918
 20
-159.115869100846
 10
100.8350165221003
 20
-159.115869100846
 97
        0
 97
        0
 92
        1
 93
        1
 72
     4
 94
        3
 73
     0
 74
     1
 95
       17
 96
       13
 40
0.0
 40
0.0
 40
0.0
 40
0.0
 40
1.0
 40
1.0
 40
1.0
 40
2.0
 40
2.0
 40
2.0
 40
3.0
 40
3.0
 40
3.0
 40
4.0
 40
4.0
 40
4.0
 40
4.0
 10
100.851897489978
 20
-158.2570067963732
 10
100.5895534687762
 20
-158.2570067963732
 10
100.5514851636642
 20
-158.4685356591676
 10
100.5514851636642
 20
-158.584979886569
 10
100.5514851636642
 20
-158.7606797563168
 10
100.6467420538314
 20
-158.9236327727691
 10
100.8307101527437
 20
-158.9236327727691
 10
100.9512884947275
 20
-158.9236327727691
 10
101.1269883644752
 20
-158.8643771304228
 10
101.1269883644752
 20
-158.5787787146956
 10
101.1269883644752
 20
-158.3545029986058
 10
100.9872897425483
 20
-158.2570067963732
 10
100.851897489978
 20
-158.2570067963732
 97
        0
 97
        0
 75
     2
 76
     1
 98
        0
  0
ENDBLK
  5
CE
330
CB
100
AcDbEntity
  8
0
100
AcDbBlockEnd
  0
BLOCK
  5
DC
330
DA
100
AcDbEntity
  8
0
100
AcDbBlockBegin
  2
block 6
 70
     0
 10
0.0
 20
0.0
 30
0.0
  3
block 6
  1

  0
SPLINE
  5
DE
330
DA
100
AcDbEntity
  8
_U+30EC_U+30A4_U+30E4_U+30FC 1
370
     0
100
AcDbSpline
210
0.0
220
0.0
230
1.0
 70
    11
 71
     3
 72
    32
 73
    28
 74
     0
 42
0.0000000001
 43
0.0000000001
 12
1.0
 22
0.0
 32
0.0
 13
1.0
 23
0.0
 33
0.0
 40
0.0
 40
0.0
 40
0.0
 40
0.0
 40
1.0
 40
1.0
 40
1.0
 40
2.0
 40
2.0
 40
2.0
 40
3.0
 40
3.0
 40
3.0
 40
4.0
 40
4.0
 40
4.0
 40
5.0
 40
5.0
 40
5.0
 40
6.0
 40
6.0
 40
6.0
 40
7.0
 40
7.0
 40
7.0
 40
8.0
 40
8.0
 40
8.0
 40
9.0
 40
9.0
 40
9.0
 40
9.0
 10
121.236355221427
 20
-150.765302154149
 30
0.0
 10
121.236355221427
 20
-150.9389349666056
 30
0.0
 10
121.166764292625
 20
-151.1842257651553
 30
0.0
 10
120.8346570878469
 20
-151.2224663250416
 30
0.0
 10
120.8346570878469
 20
-151.2224663250416
 30
0.0
 10
120.8346570878469
 20
-151.0088704049561
 30
0.0
 10
120.8346570878469
 20
-151.0088704049561
 30
0.0
 10
120.8939127301932
 20
-150.9978460994033
 30
0.0
 10
121.0417073265104
 20
-150.966151220939
 30
0.0
 10
121.0417073265104
 20
-150.7632350968578
 30
0.0
 10
121.0417073265104
 20
-150.4714355092571
 30
0.0
 10
120.712011688572
 20
-150.4331949493709
 30
0.0
 10
120.5066839976511
 20
-150.4204480960755
 30
0.0
 10
120.5869547224574
 20
-150.5113986168861
 30
0.0
 10
120.6441433075126
 20
-150.5792669979455
 30
0.0
 10
120.6441433075126
 20
-150.7611680395667
 30
0.0
 10
120.6441433075126
 20
-150.9410020238967
 30
0.0
 10
120.5383788761154
 20
-151.2434814075016
 30
0.0
 10
120.1322021184045
 20
-151.2434814075016
 30
0.0
 10
119.8128417669218
 20
-151.2434814075016
 30
0.0
 10
119.5927001654143
 20
-151.0446993980027
 30
0.0
 10
119.5927001654143
 20
-150.7270615942627
 30
0.0
 10
119.5927001654143
 20
-150.2130533478634
 30
0.0
 10
120.147016028991
 20
-150.2027180614077
 30
0.0
 10
120.3606119490765
 20
-150.2027180614077
 30
0.0
 10
120.5910888370397
 20
-150.2027180614077
 30
0.0
 10
121.236355221427
 20
-150.2216660865765
 30
0.0
 10
121.236355221427
 20
-150.765302154149
 30
0.0
  0
SPLINE
  5
DF
330
DA
100
AcDbEntity
  8
_U+30EC_U+30A4_U+30E4_U+30FC 1
370
     0
100
AcDbSpline
210
0.0
220
0.0
230
1.0
 70
    11
 71
     3
 72
    17
 73
    13
 74
     0
 42
0.0000000001
 43
0.0000000001
 12
1.0
 22
0.0
 32
0.0
 13
1.0
 23
0.0
 33
0.0
 40
0.0
 40
0.0
 40
0.0
 40
0.0
 40
1.0
 40
1.0
 40
1.0
 40
2.0
 40
2.0
 40
2.0
 40
3.0
 40
3.0
 40
3.0
 40
4.0
 40
4.0
 40
4.0
 40
4.0
 10
119.7852810030398
 20
-150.7249945369715
 30
0.0
 10
119.7852810030398
 20
-150.8435058216641
 30
0.0
 10
119.8424695880949
 20
-151.0192056914119
 30
0.0
 10
120.1280680038222
 20
-151.0192056914119
 30
0.0
 10
120.3544107772031
 20
-151.0192056914119
 30
0.0
 10
120.449495412596
 20
-150.8796793242593
 30
0.0
 10
120.449495412596
 20
-150.7442870716889
 30
0.0
 10
120.449495412596
 20
-150.4817707957129
 30
0.0
 10
120.2400336070928
 20
-150.4438747453752
 30
0.0
 10
120.1235893796913
 20
-150.4438747453752
 30
0.0
 10
119.9482340194921
 20
-150.4438747453752
 30
0.0
 10
119.7852810030398
 20
-150.538959380768
 30
0.0
 10
119.7852810030398
 20
-150.7249945369715
 30
0.0
  0
HATCH
  5
E0
330
DA
100
AcDbEntity
  8
_U+30EC_U+30A4_U+30E4_U+30FC 1
 62
   179
420
  2234388
100
AcDbHatch
 10
0.0
 20
0.0
 30
0.0
210
0.0
220
0.0
230
1.0
  2
SOLID
 70
     1
 71
     0
 91
        2
 92
        1
 93
        1
 72
     4
 94
        3
 73
     0
 74
     1
 95
       32
 96
       28
 40
0.0
 40
0.0
 40
0.0
 40
0.0
 40
1.0
 40
1.0
 40
1.0
 40
2.0
 40
2.0
 40
2.0
 40
3.0
 40
3.0
 40
3.0
 40
4.0
 40
4.0
 40
4.0
 40
5.0
 40
5.0
 40
5.0
 40
6.0
 40
6.0
 40
6.0
 40
7.0
 40
7.0
 40
7.0
 40
8.0
 40
8.0
 40
8.0
 40
9.0
 40
9.0
 40
9.0
 40
9.0
 10
121.236355221427
 20
-150.765302154149
 10
121.236355221427
 20
-150.9389349666056
 10
121.166764292625
 20
-151.1842257651553
 10
120.8346570878469
 20
-151.2224663250416
 10
120.8346570878469
 20
-151.2224663250416
 10
120.8346570878469
 20
-151.0088704049561
 10
120.8346570878469
 20
-151.0088704049561
 10
120.8939127301932
 20
-150.9978460994033
 10
121.0417073265104
 20
-150.966151220939
 10
121.0417073265104
 20
-150.7632350968578
 10
121.0417073265104
 20
-150.4714355092571
 10
120.712011688572
 20
-150.4331949493709
 10
120.5066839976511
 20
-150.4204480960755
 10
120.5869547224574
 20
-150.5113986168861
 10
120.6441433075126
 20
-150.5792669979455
 10
120.6441433075126
 20
-150.7611680395667
 10
120.6441433075126
 20
-150.9410020238967
 10
120.5383788761154
 20
-151.2434814075016
 10
120.1322021184045
 20
-151.2434814075016
 10
119.8128417669218
 20
-151.2434814075016
 10
119.5927001654143
 20
-151.0446993980027
 10
119.5927001654143
 20
-150.7270615942627
 10
119.5927001654143
 20
-150.2130533478634
 10
120.147016028991
 20
-150.2027180614077
 10
120.3606119490765
 20
-150.2027180614077
 10
120.5910888370397
 20
-150.2027180614077
 10
121.236355221427
 20
-150.2216660865765
 10
121.236355221427
 20
-150.765302154149
 97
        0
 97
        0
 92
        1
 93
        1
 72
     4
 94
        3
 73
     0
 74
     1
 95
       17
 96
       13
 40
0.0
 40
0.0
 40
0.0
 40
0.0
 40
1.0
 40
1.0
 40
1.0
 40
2.0
 40
2.0
 40
2.0
 40
3.0
 40
3.0
 40
3.0
 40
4.0
 40
4.0
 40
4.0
 40
4.0
 10
119.7852810030398
 20
-150.7249945369715
 10
119.7852810030398
 20
-150.8435058216641
 10
119.8424695880949
 20
-151.0192056914119
 10
120.1280680038222
 20
-151.0192056914119
 10
120.3544107772031
 20
-151.0192056914119
 10
120.449495412596
 20
-150.8796793242593
 10
120.449495412596
 20
-150.7442870716889
 10
120.449495412596
 20
-150.4817707957129
 10
120.2400336070928
 20
-150.4438747453752
 10
120.1235893796913
 20
-150.4438747453752
 10
119.9482340194921
 20
-150.4438747453752
 10
119.7852810030398
 20
-150.538959380768
 10
119.7852810030398
 20
-150.7249945369715
 97
        0
 97
        0
 75
     2
 76
     1
 98
        0
  0
POLYLINE
  5
E1
330
DA
100
AcDbEntity
  8
_U+30EC_U+30A4_U+30E4_U+30FC 1
370
     0
100
AcDb2dPolyline
 66
     1
 10
0.0
 20
0.0
 30
0.0
  0
VERTEX
  5
E2
330
E1
100
AcDbEntity
  8
_U+30EC_U+30A4_U+30E4_U+30FC 1
370
     0
100
AcDbVertex
100
AcDb2dVertex
 10
121.1857123177939
 20
-149.986366064934
 30
0.0
  0
VERTEX
  5
E3
330
E1
100
AcDbEntity
  8
_U+30EC_U+30A4_U+30E4_U+30FC 1
370
     0
100
AcDbVertex
100
AcDb2dVertex
 10
120.9338758378221
 20
-149.986366064934
 30
0.0
  0
VERTEX
  5
E4
330
E1
100
AcDbEntity
  8
_U+30EC_U+30A4_U+30E4_U+30FC 1
370
     0
100
AcDbVertex
100
AcDb2dVertex
 10
120.9338758378221
 20
-149.7345295849622
 30
0.0
  0
VERTEX
  5
E5
330
E1
100
AcDbEntity
  8
_U+30EC_U+30A4_U+30E4_U+30FC 1
370
     0
100
AcDbVertex
100
AcDb2dVertex
 10
121.1857123177939
 20
-149.7345295849622
 30
0.0
  0
VERTEX
  5
E6
330
E1
100
AcDbEntity
  8
_U+30EC_U+30A4_U+30E4_U+30FC 1
370
     0
100
AcDbVertex
100
AcDb2dVertex
 10
121.1857123177939
 20
-149.986366064934
 30
0.0
  0
SEQEND
  5
E7
330
E1
100
AcDbEntity
  8
_U+30EC_U+30A4_U+30E4_U+30FC 1
370
     0
  0
HATCH
  5
E8
330
DA
100
AcDbEntity
  8
_U+30EC_U+30A4_U+30E4_U+30FC 1
 62
   179
420
  2234388
100
AcDbHatch
 10
0.0
 20
0.0
 30
0.0
210
0.0
220
0.0
230
1.0
  2
SOLID
 70
     1
 71
     0
 91
        1
 92
        1
 93
        4
 72
     1
 10
121.1857123177939
 20
-149.986366064934
 11
120.9338758378221
 21
-149.986366064934
 72
     1
 10
120.9338758378221
 20
-149.986366064934
 11
120.9338758378221
 21
-149.7345295849622
 72
     1
 10
120.9338758378221
 20
-149.7345295849622
 11
121.1857123177939
 21
-149.7345295849622
 72
     1
 10
121.1857123177939
 20
-149.7345295849622
 11
121.1857123177939
 21
-149.986366064934
 97
        0
 75
     2
 76
     1
 98
        0
  0
SPLINE
  5
E9
330
DA
100
AcDbEntity
  8
_U+30EC_U+30A4_U+30E4_U+30FC 1
370
     0
100
AcDbSpline
210
0.0
220
0.0
230
1.0
 70
    11
 71
     3
 72
    26
 73
    22
 74
     0
 42
0.0000000001
 43
0.0000000001
 12
1.0
 22
0.0
 32
0.0
 13
1.0
 23
0.0
 33
0.0
 40
0.0
 40
0.0
 40
0.0
 40
0.0
 40
1.0
 40
1.0
 40
1.0
 40
2.0
 40
2.0
 40
2.0
 40
3.0
 40
3.0
 40
3.0
 40
4.0
 40
4.0
 40
4.0
 40
5.0
 40
5.0
 40
5.0
 40
6.0
 40
6.0
 40
6.0
 40
7.0
 40
7.0
 40
7.0
 40
7.0
 10
121.1857123177939
 20
-149.0868516337353
 30
0.0
 10
121.1857123177939
 20
-149.0868516337353
 30
0.0
 10
121.1857123177939
 20
-149.3238742031204
 30
0.0
 10
121.1857123177939
 20
-149.3238742031204
 30
0.0
 10
120.8766872527669
 20
-149.2983804965296
 30
0.0
 10
120.3585448917854
 20
-149.1057996589041
 30
0.0
 10
119.8528048745507
 20
-148.6996229011932
 30
0.0
 10
119.8528048745507
 20
-148.6996229011932
 30
0.0
 10
119.8528048745507
 20
-149.5374701232059
 30
0.0
 10
119.8528048745507
 20
-149.5374701232059
 30
0.0
 10
119.8528048745507
 20
-149.5374701232059
 30
0.0
 10
119.6412760117563
 20
-149.5374701232059
 30
0.0
 10
119.6412760117563
 20
-149.5374701232059
 30
0.0
 10
119.6412760117563
 20
-149.5374701232059
 30
0.0
 10
119.6412760117563
 20
-148.462600331808
 30
0.0
 10
119.6412760117563
 20
-148.462600331808
 30
0.0
 10
119.6412760117563
 20
-148.462600331808
 30
0.0
 10
119.8528048745507
 20
-148.462600331808
 30
0.0
 10
119.8528048745507
 20
-148.462600331808
 30
0.0
 10
120.1428819144087
 20
-148.7864393074215
 30
0.0
 10
120.7350938283232
 20
-149.0530896979798
 30
0.0
 10
121.1857123177939
 20
-149.0868516337353
 30
0.0
  0
HATCH
  5
EA
330
DA
100
AcDbEntity
  8
_U+30EC_U+30A4_U+30E4_U+30FC 1
 62
   179
420
  2234388
100
AcDbHatch
 10
0.0
 20
0.0
 30
0.0
210
0.0
220
0.0
230
1.0
  2
SOLID
 70
     1
 71
     0
 91
        1
 92
        1
 93
        1
 72
     4
 94
        3
 73
     0
 74
     1
 95
       26
 96
       22
 40
0.0
 40
0.0
 40
0.0
 40
0.0
 40
1.0
 40
1.0
 40
1.0
 40
2.0
 40
2.0
 40
2.0
 40
3.0
 40
3.0
 40
3.0
 40
4.0
 40
4.0
 40
4.0
 40
5.0
 40
5.0
 40
5.0
 40
6.0
 40
6.0
 40
6.0
 40
7.0
 40
7.0
 40
7.0
 40
7.0
 10
121.1857123177939
 20
-149.0868516337353
 10
121.1857123177939
 20
-149.0868516337353
 10
121.1857123177939
 20
-149.3238742031204
 10
121.1857123177939
 20
-149.3238742031204
 10
120.8766872527669
 20
-149.2983804965296
 10
120.3585448917854
 20
-149.1057996589041
 10
119.8528048745507
 20
-148.6996229011932
 10
119.8528048745507
 20
-148.6996229011932
 10
119.8528048745507
 20
-149.5374701232059
 10
119.8528048745507
 20
-149.5374701232059
 10
119.8528048745507
 20
-149.5374701232059
 10
119.6412760117563
 20
-149.5374701232059
 10
119.6412760117563
 20
-149.5374701232059
 10
119.6412760117563
 20
-149.5374701232059
 10
119.6412760117563
 20
-148.462600331808
 10
119.6412760117563
 20
-148.462600331808
 10
119.6412760117563
 20
-148.462600331808
 10
119.8528048745507
 20
-148.462600331808
 10
119.8528048745507
 20
-148.462600331808
 10
120.1428819144087
 20
-148.7864393074215
 10
120.7350938283232
 20
-149.0530896979798
 10
121.1857123177939
 20
-149.0868516337353
 97
        0
 97
        0
 75
     2
 76
     1
 98
        0
  0
ENDBLK
  5
DD
330
DA
100
AcDbEntity
  8
0
100
AcDbBlockEnd
  0
ENDSEC
  0
SECTION
  2
ENTITIES
  0
POLYLINE
  5
41
330
1F
100
AcDbEntity
  8
_U+30EC_U+30A4_U+30E4_U+30FC 1
370
     0
100
AcDb2dPolyline
 66
     1
 10
0.0
 20
0.0
 30
0.0
  0
VERTEX
  5
42
330
41
100
AcDbEntity
  8
_U+30EC_U+30A4_U+30E4_U+30FC 1
370
     0
100
AcDbVertex
100
AcDb2dVertex
 10
87.76909893808649
 20
-145.0107223148215
 30
0.0
  0
VERTEX
  5
43
330
41
100
AcDbEntity
  8
_U+30EC_U+30A4_U+30E4_U+30FC 1
370
     0
100
AcDbVertex
100
AcDb2dVertex
 10
97.83243278600739
 20
-145.0107223148215
 30
0.0
  0
VERTEX
  5
44
330
41
100
AcDbEntity
  8
_U+30EC_U+30A4_U+30E4_U+30FC 1
370
     0
100
AcDbVertex
100
AcDb2dVertex
 10
97.83243278600739
 20
-155.711888677028
 30
0.0
  0
VERTEX
  5
45
330
41
100
AcDbEntity
  8
_U+30EC_U+30A4_U+30E4_U+30FC 1
370
     0
100
AcDbVertex
100
AcDb2dVertex
 10
103.8328309541308
 20
-155.711888677028
 30
0.0
  0
VERTEX
  5
46
330
41
100
AcDbEntity
  8
_U+30EC_U+30A4_U+30E4_U+30FC 1
370
     0
100
AcDbVertex
100
AcDb2dVertex
 10
103.8328309541308
 20
-154.7114114162646
 30
0.0
  0
VERTEX
  5
47
330
41
100
AcDbEntity
  8
_U+30EC_U+30A4_U+30E4_U+30FC 1
370
     0
100
AcDbVertex
100
AcDb2dVertex
 10
98.7327223636903
 20
-154.7114114162646
 30
0.0
  0
VERTEX
  5
48
330
41
100
AcDbEntity
  8
_U+30EC_U+30A4_U+30E4_U+30FC 1
370
     0
100
AcDbVertex
100
AcDb2dVertex
 10
98.7327223636903
 20
-145.0107223148215
 30
0.0
  0
VERTEX
  5
49
330
41
100
AcDbEntity
  8
_U+30EC_U+30A4_U+30E4_U+30FC 1
370
     0
100
AcDbVertex
100
AcDb2dVertex
 10
117.832816200468
 20
-145.0107223148215
 30
0.0
  0
VERTEX
  5
4A
330
41
100
AcDbEntity
  8
_U+30EC_U+30A4_U+30E4_U+30FC 1
370
     0
100
AcDbVertex
100
AcDb2dVertex
 10
117.832816200468
 20
-144.010955605002
 30
0.0
  0
VERTEX
  5
4B
330
41
100
AcDbEntity
  8
_U+30EC_U+30A4_U+30E4_U+30FC 1
370
     0
100
AcDbVertex
100
AcDb2dVertex
 10
87.76909893808649
 20
-144.010955605002
 30
0.0
  0
VERTEX
  5
4C
330
41
100
AcDbEntity
  8
_U+30EC_U+30A4_U+30E4_U+30FC 1
370
     0
100
AcDbVertex
100
AcDb2dVertex
 10
87.76909893808649
 20
-145.0107223148215
 30
0.0
  0
SEQEND
  5
4E
330
41
100
AcDbEntity
  8
_U+30EC_U+30A4_U+30E4_U+30FC 1
370
     0
  0
HATCH
  5
4D
330
1F
100
AcDbEntity
  8
_U+30EC_U+30A4_U+30E4_U+30FC 1
 62
     9
420
 13224394
100
AcDbHatch
 10
0.0
 20
0.0
 30
0.0
210
0.0
220
0.0
230
1.0
  2
SOLID
 70
     1
 71
     0
 91
        1
 92
        1
 93
       10
 72
     1
 10
87.76909893808649
 20
-145.0107223148215
 11
97.83243278600739
 21
-145.0107223148215
 72
     1
 10
97.83243278600739
 20
-145.0107223148215
 11
97.83243278600739
 21
-155.711888677028
 72
     1
 10
97.83243278600739
 20
-155.711888677028
 11
103.8328309541308
 21
-155.711888677028
 72
     1
 10
103.8328309541308
 20
-155.711888677028
 11
103.8328309541308
 21
-154.7114114162646
 72
     1
 10
103.8328309541308
 20
-154.7114114162646
 11
98.7327223636903
 21
-154.7114114162646
 72
     1
 10
98.7327223636903
 20
-154.7114114162646
 11
98.7327223636903
 21
-145.0107223148215
 72
     1
 10
98.7327223636903
 20
-145.0107223148215
 11
117.832816200468
 21
-145.0107223148215
 72
     1
 10
117.832816200468
 20
-145.0107223148215
 11
117.832816200468
 21
-144.010955605002
 72
     1
 10
117.832816200468
 20
-144.010955605002
 11
87.76909893808649
 21
-144.010955605002
 72
     1
 10
87.76909893808649
 20
-144.010955605002
 11
87.76909893808649
 21
-145.0107223148215
 97
        0
 75
     2
 76
     1
 98
        0
  0
POLYLINE
  5
4F
330
1F
100
AcDbEntity
  8
_U+30EC_U+30A4_U+30E4_U+30FC 1
 62
   179
420
  2234388
370
    25
100
AcDb2dPolyline
 66
     1
 10
0.0
 20
0.0
 30
0.0
  0
VERTEX
  5
50
330
4F
100
AcDbEntity
  8
_U+30EC_U+30A4_U+30E4_U+30FC 1
 62
   179
420
  2234388
370
    25
100
AcDbVertex
100
AcDb2dVertex
 10
87.8324940779771
 20
-144.0109125413085
 30
0.0
  0
VERTEX
  5
51
330
4F
100
AcDbEntity
  8
_U+30EC_U+30A4_U+30E4_U+30FC 1
 62
   179
420
  2234388
370
    25
100
AcDbVertex
100
AcDb2dVertex
 10
117.8327085412341
 20
-144.0109125413085
 30
0.0
  0
SEQEND
  5
52
330
4F
100
AcDbEntity
  8
_U+30EC_U+30A4_U+30E4_U+30FC 1
 62
   179
420
  2234388
370
    25
  0
POLYLINE
  5
53
330
1F
100
AcDbEntity
  8
_U+30EC_U+30A4_U+30E4_U+30FC 1
 62
   179
420
  2234388
370
    25
100
AcDb2dPolyline
 66
     1
 10
0.0
 20
0.0
 30
0.0
  0
VERTEX
  5
54
330
53
100
AcDbEntity
  8
_U+30EC_U+30A4_U+30E4_U+30FC 1
 62
   179
420
  2234388
370
    25
100
AcDbVertex
100
AcDb2dVertex
 10
87.83281167271683
 20
-145.0107223148215
 30
0.0
  0
VERTEX
  5
55
330
53
100
AcDbEntity
  8
_U+30EC_U+30A4_U+30E4_U+30FC 1
 62
   179
420
  2234388
370
    25
100
AcDbVertex
100
AcDb2dVertex
 10
97.83264810447523
 20
-145.0107223148215
 30
0.0
  0
SEQEND
  5
56
330
53
100
AcDbEntity
  8
_U+30EC_U+30A4_U+30E4_U+30FC 1
 62
   179
420
  2234388
370
    25
  0
POLYLINE
  5
57
330
1F
100
AcDbEntity
  8
_U+30EC_U+30A4_U+30E4_U+30FC 1
 62
   179
420
  2234388
370
    25
100
AcDb2dPolyline
 66
     1
 10
0.0
 20
0.0
 30
0.0
  0
VERTEX
  5
58
330
57
100
AcDbEntity
  8
_U+30EC_U+30A4_U+30E4_U+30FC 1
 62
   179
420
  2234388
370
    25
100
AcDbVertex
100
AcDb2dVertex
 10
97.8325404452413
 20
-145.0107223148215
 30
0.0
  0
VERTEX
  5
59
330
57
100
AcDbEntity
  8
_U+30EC_U+30A4_U+30E4_U+30FC 1
 62
   179
420
  2234388
370
    25
100
AcDbVertex
100
AcDb2dVertex
 10
97.8325404452413
 20
-155.711888677028
 30
0.0
  0
SEQEND
  5
5A
330
57
100
AcDbEntity
  8
_U+30EC_U+30A4_U+30E4_U+30FC 1
 62
   179
420
  2234388
370
    25
  0
POLYLINE
  5
5B
330
1F
100
AcDbEntity
  8
_U+30EC_U+30A4_U+30E4_U+30FC 1
 62
   179
420
  2234388
370
    25
100
AcDb2dPolyline
 66
     1
 10
0.0
 20
0.0
 30
0.0
  0
VERTEX
  5
5C
330
5B
100
AcDbEntity
  8
_U+30EC_U+30A4_U+30E4_U+30FC 1
 62
   179
420
  2234388
370
    25
100
AcDbVertex
100
AcDb2dVertex
 10
98.73276542738387
 20
-145.0107223148215
 30
0.0
  0
VERTEX
  5
5D
330
5B
100
AcDbEntity
  8
_U+30EC_U+30A4_U+30E4_U+30FC 1
 62
   179
420
  2234388
370
    25
100
AcDbVertex
100
AcDb2dVertex
 10
117.8328592641616
 20
-145.0107223148215
 30
0.0
  0
SEQEND
  5
5E
330
5B
100
AcDbEntity
  8
_U+30EC_U+30A4_U+30E4_U+30FC 1
 62
   179
420
  2234388
370
    25
  0
POLYLINE
  5
5F
330
1F
100
AcDbEntity
  8
_U+30EC_U+30A4_U+30E4_U+30FC 1
 62
   179
420
  2234388
370
    25
100
AcDb2dPolyline
 66
     1
 10
0.0
 20
0.0
 30
0.0
  0
VERTEX
  5
60
330
5F
100
AcDbEntity
  8
_U+30EC_U+30A4_U+30E4_U+30FC 1
 62
   179
420
  2234388
370
    25
100
AcDbVertex
100
AcDb2dVertex
 10
98.73276542738387
 20
-154.7113683525711
 30
0.0
  0
VERTEX
  5
61
330
5F
100
AcDbEntity
  8
_U+30EC_U+30A4_U+30E4_U+30FC 1
 62
   179
420
  2234388
370
    25
100
AcDbVertex
100
AcDb2dVertex
 10
103.8328632519009
 20
-154.7113683525711
 30
0.0
  0
SEQEND
  5
62
330
5F
100
AcDbEntity
  8
_U+30EC_U+30A4_U+30E4_U+30FC 1
 62
   179
420
  2234388
370
    25
  0
POLYLINE
  5
63
330
1F
100
AcDbEntity
  8
_U+30EC_U+30A4_U+30E4_U+30FC 1
 62
   179
420
  2234388
370
    25
100
AcDb2dPolyline
 66
     1
 10
0.0
 20
0.0
 30
0.0
  0
VERTEX
  5
64
330
63
100
AcDbEntity
  8
_U+30EC_U+30A4_U+30E4_U+30FC 1
 62
   179
420
  2234388
370
    25
100
AcDbVertex
100
AcDb2dVertex
 10
97.8325404452413
 20
-155.7118456133344
 30
0.0
  0
VERTEX
  5
65
330
63
100
AcDbEntity
  8
_U+30EC_U+30A4_U+30E4_U+30FC 1
 62
   179
420
  2234388
370
    25
100
AcDbVertex
100
AcDb2dVertex
 10
103.8329278474413
 20
-155.7118456133344
 30
0.0
  0
SEQEND
  5
66
330
63
100
AcDbEntity
  8
_U+30EC_U+30A4_U+30E4_U+30FC 1
 62
   179
420
  2234388
370
    25
  0
POLYLINE
  5
67
330
1F
100
AcDbEntity
  8
_U+30EC_U+30A4_U+30E4_U+30FC 1
 62
   179
420
  2234388
370
    25
100
AcDb2dPolyline
 66
     1
 10
0.0
 20
0.0
 30
0.0
  0
VERTEX
  5
68
330
67
100
AcDbEntity
  8
_U+30EC_U+30A4_U+30E4_U+30FC 1
 62
   179
420
  2234388
370
    25
100
AcDbVertex
100
AcDb2dVertex
 10
103.8329063155945
 20
-154.7113683525711
 30
0.0
  0
VERTEX
  5
69
330
67
100
AcDbEntity
  8
_U+30EC_U+30A4_U+30E4_U+30FC 1
 62
   179
420
  2234388
370
    25
100
AcDbVertex
100
AcDb2dVertex
 10
103.8329063155945
 20
-155.7118563792578
 30
0.0
  0
SEQEND
  5
6A
330
67
100
AcDbEntity
  8
_U+30EC_U+30A4_U+30E4_U+30FC 1
 62
   179
420
  2234388
370
    25
  0
POLYLINE
  5
6B
330
1F
100
AcDbEntity
  8
_U+30EC_U+30A4_U+30E4_U+30FC 1
 62
   179
420
  2234388
370
    25
100
AcDb2dPolyline
 66
     1
 10
0.0
 20
0.0
 30
0.0
  0
VERTEX
  5
6C
330
6B
100
AcDbEntity
  8
_U+30EC_U+30A4_U+30E4_U+30FC 1
 62
   179
420
  2234388
370
    25
100
AcDbVertex
100
AcDb2dVertex
 10
87.77220490698522
 20
-144.0109125413085
 30
0.0
  0
VERTEX
  5
6D
330
6B
100
AcDbEntity
  8
_U+30EC_U+30A4_U+30E4_U+30FC 1
 62
   179
420
  2234388
370
    25
100
AcDbVertex
100
AcDb2dVertex
 10
87.77220490698522
 20
-145.0106900170514
 30
0.0
  0
SEQEND
  5
6E
330
6B
100
AcDbEntity
  8
_U+30EC_U+30A4_U+30E4_U+30FC 1
 62
   179
420
  2234388
370
    25
  0
POLYLINE
  5
6F
330
1F
100
AcDbEntity
  8
_U+30EC_U+30A4_U+30E4_U+30FC 1
 62
   179
420
  2234388
370
    25
100
AcDb2dPolyline
 66
     1
 10
0.0
 20
0.0
 30
0.0
  0
VERTEX
  5
70
330
6F
100
AcDbEntity
  8
_U+30EC_U+30A4_U+30E4_U+30FC 1
 62
   179
420
  2234388
370
    25
100
AcDbVertex
100
AcDb2dVertex
 10
117.8327193071575
 20
-144.0109125413085
 30
0.0
  0
VERTEX
  5
71
330
6F
100
AcDbEntity
  8
_U+30EC_U+30A4_U+30E4_U+30FC 1
 62
   179
420
  2234388
370
    25
100
AcDbVertex
100
AcDb2dVertex
 10
117.8327193071575
 20
-145.0106900170514
 30
0.0
  0
SEQEND
  5
72
330
6F
100
AcDbEntity
  8
_U+30EC_U+30A4_U+30E4_U+30FC 1
 62
   179
420
  2234388
370
    25
  0
POLYLINE
  5
73
330
1F
100
AcDbEntity
  8
_U+30EC_U+30A4_U+30E4_U+30FC 1
 62
   179
420
  2234388
370
    25
100
AcDb2dPolyline
 66
     1
 10
0.0
 20
0.0
 30
0.0
  0
VERTEX
  5
74
330
73
100
AcDbEntity
  8
_U+30EC_U+30A4_U+30E4_U+30FC 1
 62
   179
420
  2234388
370
    25
100
AcDbVertex
100
AcDb2dVertex
 10
98.73276542738387
 20
-145.0107223148215
 30
0.0
  0
VERTEX
  5
75
330
73
100
AcDbEntity
  8
_U+30EC_U+30A4_U+30E4_U+30FC 1
 62
   179
420
  2234388
370
    25
100
AcDbVertex
100
AcDb2dVertex
 10
98.73276542738387
 20
-154.7114114162646
 30
0.0
  0
SEQEND
  5
76
330
73
100
AcDbEntity
  8
_U+30EC_U+30A4_U+30E4_U+30FC 1
 62
   179
420
  2234388
370
    25
  0
SPLINE
  5
77
330
1F
100
AcDbEntity
  8
_U+30EC_U+30A4_U+30E4_U+30FC 1
 62
   179
420
  2234388
370
     9
100
AcDbSpline
210
0.0
220
0.0
230
1.0
 70
    11
 71
     3
 72
    17
 73
    13
 74
     0
 42
0.0000000001
 43
0.0000000001
 12
1.0
 22
0.0
 32
0.0
 13
1.0
 23
0.0
 33
0.0
 40
0.0
 40
0.0
 40
0.0
 40
0.0
 40
1.0
 40
1.0
 40
1.0
 40
2.0
 40
2.0
 40
2.0
 40
3.0
 40
3.0
 40
3.0
 40
4.0
 40
4.0
 40
4.0
 40
4.0
 10
87.85006406495187
 20
-140.0104891956831
 30
0.0
 10
87.85006406495187
 20
-139.9554645612297
 30
0.0
 10
87.80525629179652
 20
-139.9106567880746
 30
0.0
 10
87.75022627438135
 20
-139.9106567880746
 30
0.0
 10
87.69519087400448
 20
-139.9106567880746
 30
0.0
 10
87.65038848381114
 20
-139.9554645612297
 30
0.0
 10
87.65038848381114
 20
-140.0104891956831
 30
0.0
 10
87.65038848381114
 20
-140.06552459606
 30
0.0
 10
87.69519087400448
 20
-140.1103323692151
 30
0.0
 10
87.75022627438135
 20
-140.1103323692151
 30
0.0
 10
87.80525629179652
 20
-140.1103323692151
 30
0.0
 10
87.85006406495187
 20
-140.06552459606
 30
0.0
 10
87.85006406495187
 20
-140.0104891956831
 30
0.0
  0
SPLINE
  5
78
330
1F
100
AcDbEntity
  8
_U+30EC_U+30A4_U+30E4_U+30FC 1
 62
   179
420
  2234388
370
     9
100
AcDbSpline
210
0.0
220
0.0
230
1.0
 70
    11
 71
     3
 72
    17
 73
    13
 74
     0
 42
0.0000000001
 43
0.0000000001
 12
1.0
 22
0.0
 32
0.0
 13
1.0
 23
0.0
 33
0.0
 40
0.0
 40
0.0
 40
0.0
 40
0.0
 40
1.0
 40
1.0
 40
1.0
 40
2.0
 40
2.0
 40
2.0
 40
3.0
 40
3.0
 40
3.0
 40
4.0
 40
4.0
 40
4.0
 40
4.0
 10
117.9326270762297
 20
-140.0104891956831
 30
0.0
 10
117.9326270762297
 20
-139.9554645612297
 30
0.0
 10
117.8885298540185
 20
-139.9106567880746
 30
0.0
 10
117.8327839026978
 20
-139.9106567880746
 30
0.0
 10
117.777748502321
 20
-139.9106567880746
 30
0.0
 10
117.7329514950893
 20
-139.9554645612297
 30
0.0
 10
117.7329514950893
 20
-140.0104891956831
 30
0.0
 10
117.7329514950893
 20
-140.06552459606
 30
0.0
 10
117.777748502321
 20
-140.1103323692151
 30
0.0
 10
117.8327839026978
 20
-140.1103323692151
 30
0.0
 10
117.8885298540185
 20
-140.1103323692151
 30
0.0
 10
117.9326270762297
 20
-140.06552459606
 30
0.0
 10
117.9326270762297
 20
-140.0104891956831
 30
0.0
  0
SPLINE
  5
79
330
1F
100
AcDbEntity
  8
_U+30EC_U+30A4_U+30E4_U+30FC 1
 62
   179
420
  2234388
370
     9
100
AcDbSpline
210
0.0
220
0.0
230
1.0
 70
    11
 71
     3
 72
    17
 73
    13
 74
     0
 42
0.0000000001
 43
0.0000000001
 12
1.0
 22
0.0
 32
0.0
 13
1.0
 23
0.0
 33
0.0
 40
0.0
 40
0.0
 40
0.0
 40
0.0
 40
1.0
 40
1.0
 40
1.0
 40
2.0
 40
2.0
 40
2.0
 40
3.0
 40
3.0
 40
3.0
 40
4.0
 40
4.0
 40
4.0
 40
4.0
 10
121.9330827196252
 20
-145.0107223148215
 30
0.0
 10
121.9330827196252
 20
-144.9556976803681
 30
0.0
 10
121.8882749464702
 20
-144.910889907213
 30
0.0
 10
121.8332395460933
 20
-144.910889907213
 30
0.0
 10
121.7782041457165
 20
-144.910889907213
 30
0.0
 10
121.7334071384848
 20
-144.9556976803681
 30
0.0
 10
121.7334071384848
 20
-145.0107223148215
 30
0.0
 10
121.7334071384848
 20
-145.0657577151984
 30
0.0
 10
121.7782041457165
 20
-145.1105654883538
 30
0.0
 10
121.8332395460933
 20
-145.1105654883538
 30
0.0
 10
121.8882749464702
 20
-145.1105654883538
 30
0.0
 10
121.9330827196252
 20
-145.0657577151984
 30
0.0
 10
121.9330827196252
 20
-145.0107223148215
 30
0.0
  0
SPLINE
  5
7A
330
1F
100
AcDbEntity
  8
_U+30EC_U+30A4_U+30E4_U+30FC 1
 62
   179
420
  2234388
370
     9
100
AcDbSpline
210
0.0
220
0.0
230
1.0
 70
    11
 71
     3
 72
    17
 73
    13
 74
     0
 42
0.0000000001
 43
0.0000000001
 12
1.0
 22
0.0
 32
0.0
 13
1.0
 23
0.0
 33
0.0
 40
0.0
 40
0.0
 40
0.0
 40
0.0
 40
1.0
 40
1.0
 40
1.0
 40
2.0
 40
2.0
 40
2.0
 40
3.0
 40
3.0
 40
3.0
 40
4.0
 40
4.0
 40
4.0
 40
4.0
 10
121.9330827196252
 20
-144.0109125413085
 30
0.0
 10
121.9330827196252
 20
-143.9551773559112
 30
0.0
 10
121.8882749464702
 20
-143.9103803486798
 30
0.0
 10
121.8332395460933
 20
-143.9103803486798
 30
0.0
 10
121.7782041457165
 20
-143.9103803486798
 30
0.0
 10
121.7334071384848
 20
-143.9551773559112
 30
0.0
 10
121.7334071384848
 20
-144.0109125413085
 30
0.0
 10
121.7334071384848
 20
-144.0659479416854
 30
0.0
 10
121.7782041457165
 20
-144.1107557148404
 30
0.0
 10
121.8332395460933
 20
-144.1107557148404
 30
0.0
 10
121.8882749464702
 20
-144.1107557148404
 30
0.0
 10
121.9330827196252
 20
-144.0659479416854
 30
0.0
 10
121.9330827196252
 20
-144.0109125413085
 30
0.0
  0
SPLINE
  5
7B
330
1F
100
AcDbEntity
  8
_U+30EC_U+30A4_U+30E4_U+30FC 1
 62
   179
420
  2234388
370
     9
100
AcDbSpline
210
0.0
220
0.0
230
1.0
 70
    11
 71
     3
 72
    17
 73
    13
 74
     0
 42
0.0000000001
 43
0.0000000001
 12
1.0
 22
0.0
 32
0.0
 13
1.0
 23
0.0
 33
0.0
 40
0.0
 40
0.0
 40
0.0
 40
0.0
 40
1.0
 40
1.0
 40
1.0
 40
2.0
 40
2.0
 40
2.0
 40
3.0
 40
3.0
 40
3.0
 40
4.0
 40
4.0
 40
4.0
 40
4.0
 10
121.9330827196252
 20
-154.7113683525711
 30
0.0
 10
121.9330827196252
 20
-154.6563437181176
 30
0.0
 10
121.8882749464702
 20
-154.6115359449626
 30
0.0
 10
121.8332395460933
 20
-154.6115359449626
 30
0.0
 10
121.7782041457165
 20
-154.6115359449626
 30
0.0
 10
121.7334071384848
 20
-154.6563437181176
 30
0.0
 10
121.7334071384848
 20
-154.7113683525711
 30
0.0
 10
121.7334071384848
 20
-154.766403752948
 30
0.0
 10
121.7782041457165
 20
-154.811211526103
 30
0.0
 10
121.8332395460933
 20
-154.811211526103
 30
0.0
 10
121.8882749464702
 20
-154.811211526103
 30
0.0
 10
121.9330827196252
 20
-154.766403752948
 30
0.0
 10
121.9330827196252
 20
-154.7113683525711
 30
0.0
  0
SPLINE
  5
7C
330
1F
100
AcDbEntity
  8
_U+30EC_U+30A4_U+30E4_U+30FC 1
 62
   179
420
  2234388
370
     9
100
AcDbSpline
210
0.0
220
0.0
230
1.0
 70
    11
 71
     3
 72
    17
 73
    13
 74
     0
 42
0.0000000001
 43
0.0000000001
 12
1.0
 22
0.0
 32
0.0
 13
1.0
 23
0.0
 33
0.0
 40
0.0
 40
0.0
 40
0.0
 40
0.0
 40
1.0
 40
1.0
 40
1.0
 40
2.0
 40
2.0
 40
2.0
 40
3.0
 40
3.0
 40
3.0
 40
4.0
 40
4.0
 40
4.0
 40
4.0
 10
97.93283578755565
 20
-159.7116122376329
 30
0.0
 10
97.93283578755565
 20
-159.6565876031794
 30
0.0
 10
97.8880280144006
 20
-159.6117798300244
 30
0.0
 10
97.83263733855183
 20
-159.6117798300244
 30
0.0
 10
97.77761270409836
 20
-159.6117798300244
 30
0.0
 10
97.73280493094332
 20
-159.6565876031794
 30
0.0
 10
97.73280493094332
 20
-159.7116122376329
 30
0.0
 10
97.73280493094332
 20
-159.7666476380097
 30
0.0
 10
97.77761270409836
 20
-159.8114554111648
 30
0.0
 10
97.83263733855183
 20
-159.8114554111648
 30
0.0
 10
97.8880280144006
 20
-159.8114554111648
 30
0.0
 10
97.93283578755565
 20
-159.7666476380097
 30
0.0
 10
97.93283578755565
 20
-159.7116122376329
 30
0.0
  0
SPLINE
  5
7D
330
1F
100
AcDbEntity
  8
_U+30EC_U+30A4_U+30E4_U+30FC 1
 62
   179
420
  2234388
370
     9
100
AcDbSpline
210
0.0
220
0.0
230
1.0
 70
    11
 71
     3
 72
    17
 73
    13
 74
     0
 42
0.0000000001
 43
0.0000000001
 12
1.0
 22
0.0
 32
0.0
 13
1.0
 23
0.0
 33
0.0
 40
0.0
 40
0.0
 40
0.0
 40
0.0
 40
1.0
 40
1.0
 40
1.0
 40
2.0
 40
2.0
 40
2.0
 40
3.0
 40
3.0
 40
3.0
 40
4.0
 40
4.0
 40
4.0
 40
4.0
 10
103.9328140846668
 20
-159.7116122376329
 30
0.0
 10
103.9328140846668
 20
-159.6565876031794
 30
0.0
 10
103.8880063115117
 20
-159.6117798300244
 30
0.0
 10
103.8329709111349
 20
-159.6117798300244
 30
0.0
 10
103.777935510758
 20
-159.6117798300244
 30
0.0
 10
103.7331385035264
 20
-159.6565876031794
 30
0.0
 10
103.7331385035264
 20
-159.7116122376329
 30
0.0
 10
103.7331385035264
 20
-159.7666476380097
 30
0.0
 10
103.777935510758
 20
-159.8114554111648
 30
0.0
 10
103.8329709111349
 20
-159.8114554111648
 30
0.0
 10
103.8880063115117
 20
-159.8114554111648
 30
0.0
 10
103.9328140846668
 20
-159.7666476380097
 30
0.0
 10
103.9328140846668
 20
-159.7116122376329
 30
0.0
  0
SPLINE
  5
7E
330
1F
100
AcDbEntity
  8
_U+30EC_U+30A4_U+30E4_U+30FC 1
 62
   179
420
  2234388
370
     9
100
AcDbSpline
210
0.0
220
0.0
230
1.0
 70
    11
 71
     3
 72
    17
 73
    13
 74
     0
 42
0.0000000001
 43
0.0000000001
 12
1.0
 22
0.0
 32
0.0
 13
1.0
 23
0.0
 33
0.0
 40
0.0
 40
0.0
 40
0.0
 40
0.0
 40
1.0
 40
1.0
 40
1.0
 40
2.0
 40
2.0
 40
2.0
 40
3.0
 40
3.0
 40
3.0
 40
4.0
 40
4.0
 40
4.0
 40
4.0
 10
87.93825850937426
 20
-159.7116122376329
 30
0.0
 10
87.93825850937426
 20
-159.6565876031794
 30
0.0
 10
87.89345073621891
 20
-159.6117798300244
 30
0.0
 10
87.83842071880375
 20
-159.6117798300244
 30
0.0
 10
87.78338531842688
 20
-159.6117798300244
 30
0.0
 10
87.73858292823354
 20
-159.6565876031794
 30
0.0
 10
87.73858292823354
 20
-159.7116122376329
 30
0.0
 10
87.73858292823354
 20
-159.7666476380097
 30
0.0
 10
87.78338531842688
 20
-159.8114554111648
 30
0.0
 10
87.83842071880375
 20
-159.8114554111648
 30
0.0
 10
87.89345073621891
 20
-159.8114554111648
 30
0.0
 10
87.93825850937426
 20
-159.7666476380097
 30
0.0
 10
87.93825850937426
 20
-159.7116122376329
 30
0.0
  0
POLYLINE
  5
7F
330
1F
100
AcDbEntity
  8
_U+30EC_U+30A4_U+30E4_U+30FC 1
 62
   179
420
  2234388
370
     9
100
AcDb2dPolyline
 66
     1
 10
0.0
 20
0.0
 30
0.0
  0
VERTEX
  5
80
330
7F
100
AcDbEntity
  8
_U+30EC_U+30A4_U+30E4_U+30FC 1
 62
   179
420
  2234388
370
     9
100
AcDbVertex
100
AcDb2dVertex
 10
121.8331857164764
 20
-144.0109125413085
 30
0.0
  0
VERTEX
  5
81
330
7F
100
AcDbEntity
  8
_U+30EC_U+30A4_U+30E4_U+30FC 1
 62
   179
420
  2234388
370
     9
100
AcDbVertex
100
AcDb2dVertex
 10
121.8331857164764
 20
-140.2404277874768
 30
0.0
  0
SEQEND
  5
82
330
7F
100
AcDbEntity
  8
_U+30EC_U+30A4_U+30E4_U+30FC 1
 62
   179
420
  2234388
370
     9
  0
POLYLINE
  5
83
330
1F
100
AcDbEntity
  8
_U+30EC_U+30A4_U+30E4_U+30FC 1
 62
   179
420
  2234388
370
     9
100
AcDb2dPolyline
 66
     1
 10
0.0
 20
0.0
 30
0.0
  0
VERTEX
  5
84
330
83
100
AcDbEntity
  8
_U+30EC_U+30A4_U+30E4_U+30FC 1
 62
   179
420
  2234388
370
     9
100
AcDbVertex
100
AcDb2dVertex
 10
121.8331857164764
 20
-145.0107223148215
 30
0.0
  0
VERTEX
  5
85
330
83
100
AcDbEntity
  8
_U+30EC_U+30A4_U+30E4_U+30FC 1
 62
   179
420
  2234388
370
     9
100
AcDbVertex
100
AcDb2dVertex
 10
121.8331857164764
 20
-144.010955605002
 30
0.0
  0
SEQEND
  5
86
330
83
100
AcDbEntity
  8
_U+30EC_U+30A4_U+30E4_U+30FC 1
 62
   179
420
  2234388
370
     9
  0
POLYLINE
  5
87
330
1F
100
AcDbEntity
  8
_U+30EC_U+30A4_U+30E4_U+30FC 1
 62
   179
420
  2234388
370
     9
100
AcDb2dPolyline
 66
     1
 10
0.0
 20
0.0
 30
0.0
  0
VERTEX
  5
88
330
87
100
AcDbEntity
  8
_U+30EC_U+30A4_U+30E4_U+30FC 1
 62
   179
420
  2234388
370
     9
100
AcDbVertex
100
AcDb2dVertex
 10
120.3731004202105
 20
-145.0107223148215
 30
0.0
  0
VERTEX
  5
89
330
87
100
AcDbEntity
  8
_U+30EC_U+30A4_U+30E4_U+30FC 1
 62
   179
420
  2234388
370
     9
100
AcDbVertex
100
AcDb2dVertex
 10
122.8330170218362
 20
-145.0107223148215
 30
0.0
  0
SEQEND
  5
8A
330
87
100
AcDbEntity
  8
_U+30EC_U+30A4_U+30E4_U+30FC 1
 62
   179
420
  2234388
370
     9
  0
POLYLINE
  5
8B
330
1F
100
AcDbEntity
  8
_U+30EC_U+30A4_U+30E4_U+30FC 1
 62
   179
420
  2234388
370
     9
100
AcDb2dPolyline
 66
     1
 10
0.0
 20
0.0
 30
0.0
  0
VERTEX
  5
8C
330
8B
100
AcDbEntity
  8
_U+30EC_U+30A4_U+30E4_U+30FC 1
 62
   179
420
  2234388
370
     9
100
AcDbVertex
100
AcDb2dVertex
 10
120.3731004202105
 20
-144.0109125413085
 30
0.0
  0
VERTEX
  5
8D
330
8B
100
AcDbEntity
  8
_U+30EC_U+30A4_U+30E4_U+30FC 1
 62
   179
420
  2234388
370
     9
100
AcDbVertex
100
AcDb2dVertex
 10
122.8330170218362
 20
-144.0109125413085
 30
0.0
  0
SEQEND
  5
8E
330
8B
100
AcDbEntity
  8
_U+30EC_U+30A4_U+30E4_U+30FC 1
 62
   179
420
  2234388
370
     9
  0
INSERT
  5
90
330
1F
100
AcDbEntity
  8
_U+30EC_U+30A4_U+30E4_U+30FC 1
100
AcDbBlockReference
  2
block 2
 10
0.0
 20
0.0
 30
0.0
  0
POLYLINE
  5
95
330
1F
100
AcDbEntity
  8
_U+30EC_U+30A4_U+30E4_U+30FC 1
 62
   179
420
  2234388
370
     9
100
AcDb2dPolyline
 66
     1
 10
0.0
 20
0.0
 30
0.0
  0
VERTEX
  5
96
330
95
100
AcDbEntity
  8
_U+30EC_U+30A4_U+30E4_U+30FC 1
 62
   179
420
  2234388
370
     9
100
AcDbVertex
100
AcDb2dVertex
 10
87.8324940779771
 20
-140.0104891956831
 30
0.0
  0
VERTEX
  5
97
330
95
100
AcDbEntity
  8
_U+30EC_U+30A4_U+30E4_U+30FC 1
 62
   179
420
  2234388
370
     9
100
AcDbVertex
100
AcDb2dVertex
 10
117.8327085412341
 20
-140.0104891956831
 30
0.0
  0
SEQEND
  5
98
330
95
100
AcDbEntity
  8
_U+30EC_U+30A4_U+30E4_U+30FC 1
 62
   179
420
  2234388
370
     9
  0
POLYLINE
  5
99
330
1F
100
AcDbEntity
  8
_U+30EC_U+30A4_U+30E4_U+30FC 1
 62
   179
420
  2234388
370
     9
100
AcDb2dPolyline
 66
     1
 10
0.0
 20
0.0
 30
0.0
  0
VERTEX
  5
9A
330
99
100
AcDbEntity
  8
_U+30EC_U+30A4_U+30E4_U+30FC 1
 62
   179
420
  2234388
370
     9
100
AcDbVertex
100
AcDb2dVertex
 10
87.75015629587962
 20
-141.4705314282554
 30
0.0
  0
VERTEX
  5
9B
330
99
100
AcDbEntity
  8
_U+30EC_U+30A4_U+30E4_U+30FC 1
 62
   179
420
  2234388
370
     9
100
AcDbVertex
100
AcDb2dVertex
 10
87.75015629587962
 20
-139.0106148266297
 30
0.0
  0
SEQEND
  5
9C
330
99
100
AcDbEntity
  8
_U+30EC_U+30A4_U+30E4_U+30FC 1
 62
   179
420
  2234388
370
     9
  0
POLYLINE
  5
9D
330
1F
100
AcDbEntity
  8
_U+30EC_U+30A4_U+30E4_U+30FC 1
 62
   179
420
  2234388
370
     9
100
AcDb2dPolyline
 66
     1
 10
0.0
 20
0.0
 30
0.0
  0
VERTEX
  5
9E
330
9D
100
AcDbEntity
  8
_U+30EC_U+30A4_U+30E4_U+30FC 1
 62
   179
420
  2234388
370
     9
100
AcDbVertex
100
AcDb2dVertex
 10
117.8327193071575
 20
-141.4705314282554
 30
0.0
  0
VERTEX
  5
9F
330
9D
100
AcDbEntity
  8
_U+30EC_U+30A4_U+30E4_U+30FC 1
 62
   179
420
  2234388
370
     9
100
AcDbVertex
100
AcDb2dVertex
 10
117.8327193071575
 20
-139.0106148266297
 30
0.0
  0
SEQEND
  5
A0
330
9D
100
AcDbEntity
  8
_U+30EC_U+30A4_U+30E4_U+30FC 1
 62
   179
420
  2234388
370
     9
  0
INSERT
  5
A2
330
1F
100
AcDbEntity
  8
_U+30EC_U+30A4_U+30E4_U+30FC 1
100
AcDbBlockReference
  2
block 3
 10
0.0
 20
0.0
 30
0.0
  0
POLYLINE
  5
AA
330
1F
100
AcDbEntity
  8
_U+30EC_U+30A4_U+30E4_U+30FC 1
 62
   179
420
  2234388
370
     9
100
AcDb2dPolyline
 66
     1
 10
0.0
 20
0.0
 30
0.0
  0
VERTEX
  5
AB
330
AA
100
AcDbEntity
  8
_U+30EC_U+30A4_U+30E4_U+30FC 1
 62
   179
420
  2234388
370
     9
100
AcDbVertex
100
AcDb2dVertex
 10
97.8325404452413
 20
-159.7116122376329
 30
0.0
  0
VERTEX
  5
AC
330
AA
100
AcDbEntity
  8
_U+30EC_U+30A4_U+30E4_U+30FC 1
 62
   179
420
  2234388
370
     9
100
AcDbVertex
100
AcDb2dVertex
 10
87.83269863052121
 20
-159.7116122376329
 30
0.0
  0
SEQEND
  5
AD
330
AA
100
AcDbEntity
  8
_U+30EC_U+30A4_U+30E4_U+30FC 1
 62
   179
420
  2234388
370
     9
  0
POLYLINE
  5
AE
330
1F
100
AcDbEntity
  8
_U+30EC_U+30A4_U+30E4_U+30FC 1
 62
   179
420
  2234388
370
     9
100
AcDb2dPolyline
 66
     1
 10
0.0
 20
0.0
 30
0.0
  0
VERTEX
  5
AF
330
AE
100
AcDbEntity
  8
_U+30EC_U+30A4_U+30E4_U+30FC 1
 62
   179
420
  2234388
370
     9
100
AcDbVertex
100
AcDb2dVertex
 10
97.8325404452413
 20
-158.2516023028308
 30
0.0
  0
VERTEX
  5
B0
330
AE
100
AcDbEntity
  8
_U+30EC_U+30A4_U+30E4_U+30FC 1
 62
   179
420
  2234388
370
     9
100
AcDbVertex
100
AcDb2dVertex
 10
97.8325404452413
 20
-160.7115296703799
 30
0.0
  0
SEQEND
  5
B1
330
AE
100
AcDbEntity
  8
_U+30EC_U+30A4_U+30E4_U+30FC 1
 62
   179
420
  2234388
370
     9
  0
POLYLINE
  5
B2
330
1F
100
AcDbEntity
  8
_U+30EC_U+30A4_U+30E4_U+30FC 1
 62
   179
420
  2234388
370
     9
100
AcDb2dPolyline
 66
     1
 10
0.0
 20
0.0
 30
0.0
  0
VERTEX
  5
B3
330
B2
100
AcDbEntity
  8
_U+30EC_U+30A4_U+30E4_U+30FC 1
 62
   179
420
  2234388
370
     9
100
AcDbVertex
100
AcDb2dVertex
 10
87.83835074030202
 20
-147.5507912160963
 30
0.0
  0
VERTEX
  5
B4
330
B2
100
AcDbEntity
  8
_U+30EC_U+30A4_U+30E4_U+30FC 1
 62
   179
420
  2234388
370
     9
100
AcDbVertex
100
AcDb2dVertex
 10
87.83835074030202
 20
-160.7115189044565
 30
0.0
  0
SEQEND
  5
B5
330
B2
100
AcDbEntity
  8
_U+30EC_U+30A4_U+30E4_U+30FC 1
 62
   179
420
  2234388
370
     9
  0
INSERT
  5
B7
330
1F
100
AcDbEntity
  8
_U+30EC_U+30A4_U+30E4_U+30FC 1
100
AcDbBlockReference
  2
block 4
 10
0.0
 20
0.0
 30
0.0
  0
POLYLINE
  5
BF
330
1F
100
AcDbEntity
  8
_U+30EC_U+30A4_U+30E4_U+30FC 1
 62
   179
420
  2234388
370
     9
100
AcDb2dPolyline
 66
     1
 10
0.0
 20
0.0
 30
0.0
  0
VERTEX
  5
C0
330
BF
100
AcDbEntity
  8
_U+30EC_U+30A4_U+30E4_U+30FC 1
 62
   179
420
  2234388
370
     9
100
AcDbVertex
100
AcDb2dVertex
 10
97.8325404452413
 20
-159.7116122376329
 30
0.0
  0
VERTEX
  5
C1
330
BF
100
AcDbEntity
  8
_U+30EC_U+30A4_U+30E4_U+30FC 1
 62
   179
420
  2234388
370
     9
100
AcDbVertex
100
AcDb2dVertex
 10
103.8329278474413
 20
-159.7116122376329
 30
0.0
  0
SEQEND
  5
C2
330
BF
100
AcDbEntity
  8
_U+30EC_U+30A4_U+30E4_U+30FC 1
 62
   179
420
  2234388
370
     9
  0
POLYLINE
  5
C3
330
1F
100
AcDbEntity
  8
_U+30EC_U+30A4_U+30E4_U+30FC 1
 62
   179
420
  2234388
370
     9
100
AcDb2dPolyline
 66
     1
 10
0.0
 20
0.0
 30
0.0
  0
VERTEX
  5
C4
330
C3
100
AcDbEntity
  8
_U+30EC_U+30A4_U+30E4_U+30FC 1
 62
   179
420
  2234388
370
     9
100
AcDbVertex
100
AcDb2dVertex
 10
97.8325404452413
 20
-158.2516023028308
 30
0.0
  0
VERTEX
  5
C5
330
C3
100
AcDbEntity
  8
_U+30EC_U+30A4_U+30E4_U+30FC 1
 62
   179
420
  2234388
370
     9
100
AcDbVertex
100
AcDb2dVertex
 10
97.8325404452413
 20
-160.7115296703799
 30
0.0
  0
SEQEND
  5
C6
330
C3
100
AcDbEntity
  8
_U+30EC_U+30A4_U+30E4_U+30FC 1
 62
   179
420
  2234388
370
     9
  0
POLYLINE
  5
C7
330
1F
100
AcDbEntity
  8
_U+30EC_U+30A4_U+30E4_U+30FC 1
 62
   179
420
  2234388
370
     9
100
AcDb2dPolyline
 66
     1
 10
0.0
 20
0.0
 30
0.0
  0
VERTEX
  5
C8
330
C7
100
AcDbEntity
  8
_U+30EC_U+30A4_U+30E4_U+30FC 1
 62
   179
420
  2234388
370
     9
100
AcDbVertex
100
AcDb2dVertex
 10
103.8329063155945
 20
-158.2516023028308
 30
0.0
  0
VERTEX
  5
C9
330
C7
100
AcDbEntity
  8
_U+30EC_U+30A4_U+30E4_U+30FC 1
 62
   179
420
  2234388
370
     9
100
AcDbVertex
100
AcDb2dVertex
 10
103.8329063155945
 20
-160.7115296703799
 30
0.0
  0
SEQEND
  5
CA
330
C7
100
AcDbEntity
  8
_U+30EC_U+30A4_U+30E4_U+30FC 1
 62
   179
420
  2234388
370
     9
  0
INSERT
  5
CC
330
1F
100
AcDbEntity
  8
_U+30EC_U+30A4_U+30E4_U+30FC 1
100
AcDbBlockReference
  2
block 5
 10
0.0
 20
0.0
 30
0.0
  0
POLYLINE
  5
D2
330
1F
100
AcDbEntity
  8
_U+30EC_U+30A4_U+30E4_U+30FC 1
 62
   179
420
  2234388
370
     9
100
AcDb2dPolyline
 66
     1
 10
0.0
 20
0.0
 30
0.0
  0
VERTEX
  5
D3
330
D2
100
AcDbEntity
  8
_U+30EC_U+30A4_U+30E4_U+30FC 1
 62
   179
420
  2234388
370
     9
100
AcDbVertex
100
AcDb2dVertex
 10
121.8331857164764
 20
-154.7113683525711
 30
0.0
  0
VERTEX
  5
D4
330
D2
100
AcDbEntity
  8
_U+30EC_U+30A4_U+30E4_U+30FC 1
 62
   179
420
  2234388
370
     9
100
AcDbVertex
100
AcDb2dVertex
 10
121.8331857164764
 20
-145.0106900170514
 30
0.0
  0
SEQEND
  5
D5
330
D2
100
AcDbEntity
  8
_U+30EC_U+30A4_U+30E4_U+30FC 1
 62
   179
420
  2234388
370
     9
  0
POLYLINE
  5
D6
330
1F
100
AcDbEntity
  8
_U+30EC_U+30A4_U+30E4_U+30FC 1
 62
   179
420
  2234388
370
     9
100
AcDb2dPolyline
 66
     1
 10
0.0
 20
0.0
 30
0.0
  0
VERTEX
  5
D7
330
D6
100
AcDbEntity
  8
_U+30EC_U+30A4_U+30E4_U+30FC 1
 62
   179
420
  2234388
370
     9
100
AcDbVertex
100
AcDb2dVertex
 10
106.3726199413973
 20
-154.7113683525711
 30
0.0
  0
VERTEX
  5
D8
330
D6
100
AcDbEntity
  8
_U+30EC_U+30A4_U+30E4_U+30FC 1
 62
   179
420
  2234388
370
     9
100
AcDbVertex
100
AcDb2dVertex
 10
122.8328770648321
 20
-154.7113683525711
 30
0.0
  0
SEQEND
  5
D9
330
D6
100
AcDbEntity
  8
_U+30EC_U+30A4_U+30E4_U+30FC 1
 62
   179
420
  2234388
370
     9
  0
INSERT
  5
DB
330
1F
100
AcDbEntity
  8
_U+30EC_U+30A4_U+30E4_U+30FC 1
100
AcDbBlockReference
  2
block 6
 10
0.0
 20
0.0
 30
0.0
  0
ENDSEC
  0
SECTION
  2
OBJECTS
  0
DICTIONARY
  5
C
330
0
100
AcDbDictionary
281
     1
  3
ACAD_GROUP
350
D
  3
ACAD_LAYOUT
350
1A
  3
ACAD_MATERIAL
350
3B
  3
ACAD_MLEADERSTYLE
350
EC
  3
ACAD_MLINESTYLE
350
17
  3
ACAD_PLOTSETTINGS
350
19
  3
ACAD_PLOTSTYLENAME
350
E
  3
ACAD_TABLESTYLE
350
EB
  3
ACAD_VISUALSTYLE
350
2A
  0
SUN
  5
3F
330
29
100
AcDbSun
 90
        1
290
     0
 63
     7
421
 16777215
 40
1.0
291
     1
 91
  2455826
 92
 54000000
292
     0
 70
     2
 71
   256
280
     1
  0
DICTIONARY
  5
D
102
{ACAD_REACTORS
330
C
102
}
330
C
100
AcDbDictionary
281
     1
  0
DICTIONARY
  5
1A
102
{ACAD_REACTORS
330
C
102
}
330
C
100
AcDbDictionary
281
     1
  3
Layout1
350
1E
  3
Layout2
350
26
  3
Model
350
22
  0
DICTIONARY
  5
3B
102
{ACAD_REACTORS
330
C
102
}
330
C
100
AcDbDictionary
281
     1
  3
ByBlock
350
3D
  3
ByLayer
350
3C
  3
Global
350
3E
  0
DICTIONARY
  5
EC
102
{ACAD_REACTORS
330
C
102
}
330
C
100
AcDbDictionary
281
     1
  0
DICTIONARY
  5
17
102
{ACAD_REACTORS
330
C
102
}
330
C
100
AcDbDictionary
281
     1
  3
Standard
350
18
  0
DICTIONARY
  5
19
102
{ACAD_REACTORS
330
C
102
}
330
C
100
AcDbDictionary
281
     1
  0
ACDBDICTIONARYWDFLT
  5
E
102
{ACAD_REACTORS
330
C
102
}
330
C
100
AcDbDictionary
281
     1
  3
Normal
350
F
100
AcDbDictionaryWithDefault
340
F
  0
DICTIONARY
  5
EB
102
{ACAD_REACTORS
330
C
102
}
330
C
100
AcDbDictionary
281
     1
  0
DICTIONARY
  5
2A
102
{ACAD_REACTORS
330
C
102
}
330
C
100
AcDbDictionary
281
     1
  3
2dWireframe
350
2F
  3
3D Hidden
350
31
  3
3dWireframe
350
30
  3
Basic
350
32
  3
Brighten
350
36
  3
ColorChange
350
3A
  3
Conceptual
350
34
  3
Dim
350
35
  3
Facepattern
350
39
  3
Flat
350
2B
  3
FlatWithEdges
350
2C
  3
Gouraud
350
2D
  3
GouraudWithEdges
350
2E
  3
Linepattern
350
38
  3
Realistic
350
33
  3
Thicken
350
37
  0
LAYOUT
  5
1E
102
{ACAD_REACTORS
330
1A
102
}
330
1A
100
AcDbPlotSettings
  1

  2
none_device
  4

  6

 40
0.0
 41
0.0
 42
0.0
 43
0.0
 44
0.0
 45
0.0
 46
0.0
 47
0.0
 48
0.0
 49
0.0
140
0.0
141
0.0
142
1.0
143
1.0
 70
   688
 72
     0
 73
     0
 74
     5
  7

 75
    16
 76
     0
 77
     2
 78
   300
147
1.0
148
0.0
149
0.0
100
AcDbLayout
  1
Layout1
 70
     1
 71
     1
 10
0.0
 20
0.0
 11
12.0
 21
9.0
 12
0.0
 22
0.0
 32
0.0
 14
1.000000000000000E+20
 24
1.000000000000000E+20
 34
1.000000000000000E+20
 15
-1.000000000000000E+20
 25
-1.000000000000000E+20
 35
-1.000000000000000E+20
146
0.0
 13
0.0
 23
0.0
 33
0.0
 16
1.0
 26
0.0
 36
0.0
 17
0.0
 27
1.0
 37
0.0
 76
     0
330
1B
  0
LAYOUT
  5
26
102
{ACAD_REACTORS
330
1A
102
}
330
1A
100
AcDbPlotSettings
  1

  2
none_device
  4

  6

 40
0.0
 41
0.0
 42
0.0
 43
0.0
 44
0.0
 45
0.0
 46
0.0
 47
0.0
 48
0.0
 49
0.0
140
0.0
141
0.0
142
1.0
143
1.0
 70
   688
 72
     0
 73
     0
 74
     5
  7

 75
    16
 76
     0
 77
     2
 78
   300
147
1.0
148
0.0
149
0.0
100
AcDbLayout
  1
Layout2
 70
     1
 71
     2
 10
0.0
 20
0.0
 11
0.0
 21
0.0
 12
0.0
 22
0.0
 32
0.0
 14
0.0
 24
0.0
 34
0.0
 15
0.0
 25
0.0
 35
0.0
146
0.0
 13
0.0
 23
0.0
 33
0.0
 16
1.0
 26
0.0
 36
0.0
 17
0.0
 27
1.0
 37
0.0
 76
     0
330
23
  0
LAYOUT
  5
22
102
{ACAD_REACTORS
330
1A
102
}
330
1A
100
AcDbPlotSettings
  1

  2
none_device
  4

  6

 40
0.0
 41
0.0
 42
0.0
 43
0.0
 44
0.0
 45
0.0
 46
0.0
 47
0.0
 48
0.0
 49
0.0
140
0.0
141
0.0
142
1.0
143
1.0
 70
  1712
 72
     0
 73
     0
 74
     0
  7

 75
     0
 76
     0
 77
     2
 78
   300
147
1.0
148
0.0
149
0.0
100
AcDbLayout
  1
Model
 70
     1
 71
     0
 10
0.0
 20
0.0
 11
12.0
 21
9.0
 12
0.0
 22
0.0
 32
0.0
 14
1.000000000000000E+20
 24
1.000000000000000E+20
 34
1.000000000000000E+20
 15
-1.000000000000000E+20
 25
-1.000000000000000E+20
 35
-1.000000000000000E+20
146
0.0
 13
0.0
 23
0.0
 33
0.0
 16
1.0
 26
0.0
 36
0.0
 17
0.0
 27
1.0
 37
0.0
 76
     0
330
1F
331
29
  0
MATERIAL
  5
3D
102
{ACAD_REACTORS
330
3B
102
}
330
3B
100
AcDbMaterial
  1
ByBlock
 72
     1
 94
      127
  0
MATERIAL
  5
3C
102
{ACAD_REACTORS
330
3B
102
}
330
3B
100
AcDbMaterial
  1
ByLayer
 72
     1
 94
      127
  0
MATERIAL
  5
3E
102
{ACAD_REACTORS
330
3B
102
}
330
3B
100
AcDbMaterial
  1
Global
 72
     1
 94
      127
  0
MLINESTYLE
  5
18
102
{ACAD_REACTORS
330
17
102
}
330
17
100
AcDbMlineStyle
  2
Standard
 70
     0
  3

 62
   256
 51
90.0
 52
90.0
 71
     2
 49
0.5
 62
   256
  6
BYLAYER
 49
-0.5
 62
   256
  6
BYLAYER
  0
ACDBPLACEHOLDER
  5
F
102
{ACAD_REACTORS
330
E
102
}
330
E
  0
VISUALSTYLE
  5
2F
102
{ACAD_REACTORS
330
2A
102
}
330
2A
100
AcDbVisualStyle
  2
2dWireframe
 70
     4
177
     2
291
     0
 71
     0
176
     1
 72
     2
176
     1
 73
     0
176
     1
 90
        0
176
     1
 40
-0.6
176
     1
 41
-30.0
176
     1
 62
     5
 63
     7
421
 16777215
176
     1
 74
     1
176
     1
 91
        4
176
     1
 64
     7
176
     1
 65
   257
176
     1
 75
     1
176
     1
175
     1
176
     1
 42
1.0
176
     1
 92
        0
176
     1
 66
   257
176
     1
 43
1.0
176
     1
 76
     1
176
     1
 77
     6
176
     1
 78
     2
176
     1
 67
     7
176
     1
 79
     5
176
     1
170
     0
176
     1
171
     0
176
     1
290
     0
176
     1
 93
        1
176
     1
 44
0.0
176
     1
173
     0
176
     1
  0
VISUALSTYLE
  5
31
102
{ACAD_REACTORS
330
2A
102
}
330
2A
100
AcDbVisualStyle
  2
3D Hidden
 70
     6
177
     2
291
     0
 71
     1
176
     1
 72
     2
176
     1
 73
     2
176
     1
 90
        0
176
     1
 40
-0.6
176
     1
 41
-30.0
176
     1
 62
     5
 63
     7
421
 16777215
176
     1
 74
     2
176
     1
 91
        2
176
     1
 64
     7
176
     1
 65
   257
176
     1
 75
     2
176
     1
175
     1
176
     1
 42
40.0
176
     1
 92
        0
176
     1
 66
   257
176
     1
 43
1.0
176
     1
 76
     1
176
     1
 77
     6
176
     1
 78
     2
176
     1
 67
     7
176
     1
 79
     3
176
     1
170
     0
176
     1
171
     0
176
     1
290
     0
176
     1
 93
        1
176
     1
 44
0.0
176
     1
173
     0
176
     1
  0
VISUALSTYLE
  5
30
102
{ACAD_REACTORS
330
2A
102
}
330
2A
100
AcDbVisualStyle
  2
3dWireframe
 70
     5
177
     2
291
     0
 71
     0
176
     1
 72
     2
176
     1
 73
     0
176
     1
 90
        0
176
     1
 40
-0.6
176
     1
 41
-30.0
176
     1
 62
     5
 63
     7
421
 16777215
176
     1
 74
     1
176
     1
 91
        4
176
     1
 64
     7
176
     1
 65
   257
176
     1
 75
     1
176
     1
175
     1
176
     1
 42
1.0
176
     1
 92
        0
176
     1
 66
   257
176
     1
 43
1.0
176
     1
 76
     1
176
     1
 77
     6
176
     1
 78
     2
176
     1
 67
     7
176
     1
 79
     5
176
     1
170
     0
176
     1
171
     0
176
     1
290
     0
176
     1
 93
        1
176
     1
 44
0.0
176
     1
173
     0
176
     1
  0
VISUALSTYLE
  5
32
102
{ACAD_REACTORS
330
2A
102
}
330
2A
100
AcDbVisualStyle
  2
Basic
 70
     7
177
     2
291
     1
 71
     1
176
     1
 72
     0
176
     1
 73
     1
176
     1
 90
        0
176
     1
 40
-0.6
176
     1
 41
-30.0
176
     1
 62
     5
 63
     7
421
 16777215
176
     1
 74
     0
176
     1
 91
        4
176
     1
 64
     7
176
     1
 65
   257
176
     1
 75
     1
176
     1
175
     1
176
     1
 42
1.0
176
     1
 92
        8
176
     1
 66
     7
176
     1
 43
1.0
176
     1
 76
     1
176
     1
 77
     6
176
     1
 78
     2
176
     1
 67
     7
176
     1
 79
     5
176
     1
170
     0
176
     1
171
     0
176
     1
290
     0
176
     1
 93
        1
176
     1
 44
0.0
176
     1
173
     0
176
     1
  0
VISUALSTYLE
  5
36
102
{ACAD_REACTORS
330
2A
102
}
330
2A
100
AcDbVisualStyle
  2
Brighten
 70
    12
177
     2
291
     1
 71
     2
176
     1
 72
     2
176
     1
 73
     0
176
     1
 90
        0
176
     1
 40
-0.6
176
     1
 41
-30.0
176
     1
 62
     5
 63
     7
421
 16777215
176
     1
 74
     1
176
     1
 91
        4
176
     1
 64
     7
176
     1
 65
   257
176
     1
 75
     1
176
     1
175
     1
176
     1
 42
1.0
176
     1
 92
        8
176
     1
 66
     7
176
     1
 43
1.0
176
     1
 76
     1
176
     1
 77
     6
176
     1
 78
     2
176
     1
 67
     7
176
     1
 79
     5
176
     1
170
     0
176
     1
171
     0
176
     1
290
     0
176
     1
 93
        1
176
     1
 44
50.0
176
     1
173
     0
176
     1
  0
VISUALSTYLE
  5
3A
102
{ACAD_REACTORS
330
2A
102
}
330
2A
100
AcDbVisualStyle
  2
ColorChange
 70
    16
177
     2
291
     1
 71
     2
176
     1
 72
     2
176
     1
 73
     3
176
     1
 90
        0
176
     1
 40
-0.6
176
     1
 41
-30.0
176
     1
 62
     5
 63
     8
421
  8421504
176
     1
 74
     1
176
     1
 91
        4
176
     1
 64
     7
176
     1
 65
   257
176
     1
 75
     1
176
     1
175
     1
176
     1
 42
1.0
176
     1
 92
        8
176
     1
 66
     8
424
  8421504
176
     1
 43
1.0
176
     1
 76
     1
176
     1
 77
     6
176
     1
 78
     2
176
     1
 67
     7
176
     1
 79
     5
176
     1
170
     0
176
     1
171
     0
176
     1
290
     0
176
     1
 93
        1
176
     1
 44
0.0
176
     1
173
     0
176
     1
  0
VISUALSTYLE
  5
34
102
{ACAD_REACTORS
330
2A
102
}
330
2A
100
AcDbVisualStyle
  2
Conceptual
 70
     9
177
     2
291
     0
 71
     3
176
     1
 72
     2
176
     1
 73
     0
176
     1
 90
        0
176
     1
 40
-0.6
176
     1
 41
-30.0
176
     1
 62
     5
 63
     7
421
 16777215
176
     1
 74
     2
176
     1
 91
        2
176
     1
 64
     7
176
     1
 65
   257
176
     1
 75
     1
176
     1
175
     1
176
     1
 42
40.0
176
     1
 92
        8
176
     1
 66
     7
176
     1
 43
1.0
176
     1
 76
     1
176
     1
 77
     6
176
     1
 78
     2
176
     1
 67
     7
176
     1
 79
     3
176
     1
170
     0
176
     1
171
     0
176
     1
290
     0
176
     1
 93
        1
176
     1
 44
0.0
176
     1
173
     0
176
     1
  0
VISUALSTYLE
  5
35
102
{ACAD_REACTORS
330
2A
102
}
330
2A
100
AcDbVisualStyle
  2
Dim
 70
    11
177
     2
291
     1
 71
     2
176
     1
 72
     2
176
     1
 73
     0
176
     1
 90
        0
176
     1
 40
-0.6
176
     1
 41
-30.0
176
     1
 62
     5
 63
     7
421
 16777215
176
     1
 74
     1
176
     1
 91
        4
176
     1
 64
     7
176
     1
 65
   257
176
     1
 75
     1
176
     1
175
     1
176
     1
 42
1.0
176
     1
 92
        8
176
     1
 66
     7
176
     1
 43
1.0
176
     1
 76
     1
176
     1
 77
     6
176
     1
 78
     2
176
     1
 67
     7
176
     1
 79
     5
176
     1
170
     0
176
     1
171
     0
176
     1
290
     0
176
     1
 93
        1
176
     1
 44
-50.0
176
     1
173
     0
176
     1
  0
VISUALSTYLE
  5
39
102
{ACAD_REACTORS
330
2A
102
}
330
2A
100
AcDbVisualStyle
  2
Facepattern
 70
    15
177
     2
291
     1
 71
     2
176
     1
 72
     2
176
     1
 73
     0
176
     1
 90
        0
176
     1
 40
-0.6
176
     1
 41
-30.0
176
     1
 62
     5
 63
     7
421
 16777215
176
     1
 74
     1
176
     1
 91
        4
176
     1
 64
     7
176
     1
 65
   257
176
     1
 75
     1
176
     1
175
     1
176
     1
 42
1.0
176
     1
 92
        8
176
     1
 66
     7
176
     1
 43
1.0
176
     1
 76
     1
176
     1
 77
     6
176
     1
 78
     2
176
     1
 67
     7
176
     1
 79
     5
176
     1
170
     0
176
     1
171
     0
176
     1
290
     0
176
     1
 93
        1
176
     1
 44
0.0
176
     1
173
     0
176
     1
  0
VISUALSTYLE
  5
2B
102
{ACAD_REACTORS
330
2A
102
}
330
2A
100
AcDbVisualStyle
  2
Flat
 70
     0
177
     2
291
     1
 71
     2
176
     1
 72
     1
176
     1
 73
     1
176
     1
 90
        2
176
     1
 40
-0.6
176
     1
 41
30.0
176
     1
 62
     5
 63
     7
421
 16777215
176
     1
 74
     0
176
     1
 91
        4
176
     1
 64
     7
176
     1
 65
   257
176
     1
 75
     1
176
     1
175
     1
176
     1
 42
1.0
176
     1
 92
        8
176
     1
 66
     7
176
     1
 43
1.0
176
     1
 76
     1
176
     1
 77
     6
176
     1
 78
     2
176
     1
 67
     7
176
     1
 79
     5
176
     1
170
     0
176
     1
171
     0
176
     1
290
     0
176
     1
 93
       13
176
     1
 44
0.0
176
     1
173
     0
176
     1
  0
VISUALSTYLE
  5
2C
102
{ACAD_REACTORS
330
2A
102
}
330
2A
100
AcDbVisualStyle
  2
FlatWithEdges
 70
     1
177
     2
291
     1
 71
     2
176
     1
 72
     1
176
     1
 73
     1
176
     1
 90
        2
176
     1
 40
-0.6
176
     1
 41
30.0
176
     1
 62
     5
 63
     7
421
 16777215
176
     1
 74
     1
176
     1
 91
        4
176
     1
 64
     7
176
     1
 65
   257
176
     1
 75
     1
176
     1
175
     1
176
     1
 42
1.0
176
     1
 92
        0
176
     1
 66
   257
176
     1
 43
1.0
176
     1
 76
     1
176
     1
 77
     6
176
     1
 78
     2
176
     1
 67
     7
176
     1
 79
     5
176
     1
170
     0
176
     1
171
     0
176
     1
290
     0
176
     1
 93
       13
176
     1
 44
0.0
176
     1
173
     0
176
     1
  0
VISUALSTYLE
  5
2D
102
{ACAD_REACTORS
330
2A
102
}
330
2A
100
AcDbVisualStyle
  2
Gouraud
 70
     2
177
     2
291
     1
 71
     2
176
     1
 72
     2
176
     1
 73
     1
176
     1
 90
        2
176
     1
 40
-0.6
176
     1
 41
30.0
176
     1
 62
     5
 63
     7
421
 16777215
176
     1
 74
     0
176
     1
 91
        4
176
     1
 64
     7
176
     1
 65
   257
176
     1
 75
     1
176
     1
175
     1
176
     1
 42
1.0
176
     1
 92
        0
176
     1
 66
     7
176
     1
 43
1.0
176
     1
 76
     1
176
     1
 77
     6
176
     1
 78
     2
176
     1
 67
     7
176
     1
 79
     5
176
     1
170
     0
176
     1
171
     0
176
     1
290
     0
176
     1
 93
       13
176
     1
 44
0.0
176
     1
173
     0
176
     1
  0
VISUALSTYLE
  5
2E
102
{ACAD_REACTORS
330
2A
102
}
330
2A
100
AcDbVisualStyle
  2
GouraudWithEdges
 70
     3
177
     2
291
     1
 71
     2
176
     1
 72
     2
176
     1
 73
     1
176
     1
 90
        2
176
     1
 40
-0.6
176
     1
 41
30.0
176
     1
 62
     5
 63
     7
421
 16777215
176
     1
 74
     1
176
     1
 91
        4
176
     1
 64
     7
176
     1
 65
   257
176
     1
 75
     1
176
     1
175
     1
176
     1
 42
1.0
176
     1
 92
        0
176
     1
 66
   257
176
     1
 43
1.0
176
     1
 76
     1
176
     1
 77
     6
176
     1
 78
     2
176
     1
 67
     7
176
     1
 79
     5
176
     1
170
     0
176
     1
171
     0
176
     1
290
     0
176
     1
 93
       13
176
     1
 44
0.0
176
     1
173
     0
176
     1
  0
VISUALSTYLE
  5
38
102
{ACAD_REACTORS
330
2A
102
}
330
2A
100
AcDbVisualStyle
  2
Linepattern
 70
    14
177
     2
291
     1
 71
     2
176
     1
 72
     2
176
     1
 73
     0
176
     1
 90
        0
176
     1
 40
-0.6
176
     1
 41
-30.0
176
     1
 62
     5
 63
     7
421
 16777215
176
     1
 74
     1
176
     1
 91
        4
176
     1
 64
     7
176
     1
 65
   257
176
     1
 75
     7
176
     1
175
     7
176
     1
 42
1.0
176
     1
 92
        8
176
     1
 66
     7
176
     1
 43
1.0
176
     1
 76
     1
176
     1
 77
     6
176
     1
 78
     2
176
     1
 67
     7
176
     1
 79
     5
176
     1
170
     0
176
     1
171
     0
176
     1
290
     0
176
     1
 93
        1
176
     1
 44
0.0
176
     1
173
     0
176
     1
  0
VISUALSTYLE
  5
33
102
{ACAD_REACTORS
330
2A
102
}
330
2A
100
AcDbVisualStyle
  2
Realistic
 70
     8
177
     2
291
     0
 71
     2
176
     1
 72
     2
176
     1
 73
     0
176
     1
 90
        0
176
     1
 40
-0.6
176
     1
 41
-30.0
176
     1
 62
     5
 63
     7
421
 16777215
176
     1
 74
     1
176
     1
 91
        0
176
     1
 64
     7
176
     1
 65
   257
176
     1
 75
     1
176
     1
175
     1
176
     1
 42
1.0
176
     1
 92
        8
176
     1
 66
     8
424
  7895160
176
     1
 43
1.0
176
     1
 76
     1
176
     1
 77
     6
176
     1
 78
     2
176
     1
 67
     7
176
     1
 79
     5
176
     1
170
     0
176
     1
171
     0
176
     1
290
     0
176
     1
 93
       13
176
     1
 44
0.0
176
     1
173
     0
176
     1
  0
VISUALSTYLE
  5
37
102
{ACAD_REACTORS
330
2A
102
}
330
2A
100
AcDbVisualStyle
  2
Thicken
 70
    13
177
     2
291
     1
 71
     2
176
     1
 72
     2
176
     1
 73
     0
176
     1
 90
        0
176
     1
 40
-0.6
176
     1
 41
-30.0
176
     1
 62
     5
 63
     7
421
 16777215
176
     1
 74
     1
176
     1
 91
        4
176
     1
 64
     7
176
     1
 65
   257
176
     1
 75
     1
176
     1
175
     1
176
     1
 42
1.0
176
     1
 92
       12
176
     1
 66
     7
176
     1
 43
1.0
176
     1
 76
     1
176
     1
 77
     6
176
     1
 78
     2
176
     1
 67
     7
176
     1
 79
     5
176
     1
170
     0
176
     1
171
     0
176
     1
290
     0
176
     1
 93
        1
176
     1
 44
0.0
176
     1
173
     0
176
     1
  0
ENDSEC
  0
EOF
