  0
SECTION
  2
HEADER
  9
$ACADVER
  1
AC1024
  9
$ACADMAINTVER
 70
     6
  9
$DWGCODEPAGE
  3
UNDEFINED
  9
$INSBASE
 10
0.0
 20
0.0
 30
0.0
  9
$EXTMIN
 10
1.000000000000000E+20
 20
1.000000000000000E+20
 30
1.000000000000000E+20
  9
$EXTMAX
 10
-1.000000000000000E+20
 20
-1.000000000000000E+20
 30
-1.000000000000000E+20
  9
$LIMMIN
 10
0.0
 20
0.0
  9
$LIMMAX
 10
12.0
 20
9.0
  9
$ORTHOMODE
 70
     0
  9
$REGENMODE
 70
     1
  9
$FILLMODE
 70
     1
  9
$QTEXTMODE
 70
     0
  9
$MIRRTEXT
 70
     1
  9
$LTSCALE
 40
1.0
  9
$ATTMODE
 70
     1
  9
$TEXTSIZE
 40
0.2
  9
$TRACEWID
 40
0.05
  9
$TEXTSTYLE
  7
Standard
  9
$CLAYER
  8
0
  9
$CELTYPE
  6
ByLayer
  9
$CECOLOR
 62
   256
  9
$CELTSCALE
 40
1.0
  9
$DISPSILH
 70
     0
  9
$DIMSCALE
 40
1.0
  9
$DIMASZ
 40
0.18
  9
$DIMEXO
 40
0.0625
  9
$DIMDLI
 40
0.38
  9
$DIMRND
 40
0.0
  9
$DIMDLE
 40
0.0
  9
$DIMEXE
 40
0.18
  9
$DIMTP
 40
0.0
  9
$DIMTM
 40
0.0
  9
$DIMTXT
 40
0.18
  9
$DIMCEN
 40
0.09
  9
$DIMTSZ
 40
0.0
  9
$DIMTOL
 70
     0
  9
$DIMLIM
 70
     0
  9
$DIMTIH
 70
     1
  9
$DIMTOH
 70
     1
  9
$DIMSE1
 70
     0
  9
$DIMSE2
 70
     0
  9
$DIMTAD
 70
     0
  9
$DIMZIN
 70
     0
  9
$DIMBLK
  1

  9
$DIMASO
 70
     1
  9
$DIMSHO
 70
     1
  9
$DIMPOST
  1

  9
$DIMAPOST
  1

  9
$DIMALT
 70
     0
  9
$DIMALTD
 70
     2
  9
$DIMALTF
 40
25.4
  9
$DIMLFAC
 40
1.0
  9
$DIMTOFL
 70
     0
  9
$DIMTVP
 40
0.0
  9
$DIMTIX
 70
     0
  9
$DIMSOXD
 70
     0
  9
$DIMSAH
 70
     0
  9
$DIMBLK1
  1

  9
$DIMBLK2
  1

  9
$DIMSTYLE
  2
Standard
  9
$DIMCLRD
 70
     0
  9
$DIMCLRE
 70
     0
  9
$DIMCLRT
 70
     0
  9
$DIMTFAC
 40
1.0
  9
$DIMGAP
 40
0.09
  9
$DIMJUST
 70
     0
  9
$DIMSD1
 70
     0
  9
$DIMSD2
 70
     0
  9
$DIMTOLJ
 70
     1
  9
$DIMTZIN
 70
     0
  9
$DIMALTZ
 70
     0
  9
$DIMALTTZ
 70
     0
  9
$DIMUPT
 70
     0
  9
$DIMDEC
 70
     4
  9
$DIMTDEC
 70
     4
  9
$DIMALTU
 70
     2
  9
$DIMALTTD
 70
     2
  9
$DIMTXSTY
  7
Standard
  9
$DIMAUNIT
 70
     0
  9
$DIMADEC
 70
     0
  9
$DIMALTRND
 40
0.0
  9
$DIMAZIN
 70
     0
  9
$DIMDSEP
 70
    46
  9
$DIMATFIT
 70
     3
  9
$DIMFRAC
 70
     0
  9
$DIMLDRBLK
  1

  9
$DIMLUNIT
 70
     2
  9
$DIMLWD
 70
    -2
  9
$DIMLWE
 70
    -2
  9
$DIMTMOVE
 70
     0
  9
$DIMFXL
 40
1.0
  9
$DIMFXLON
 70
     0
  9
$DIMJOGANG
 40
0.7853981633974483
  9
$DIMTFILL
 70
     0
  9
$DIMTFILLCLR
 70
     0
  9
$DIMARCSYM
 70
     0
  9
$DIMLTYPE
  6

  9
$DIMLTEX1
  6

  9
$DIMLTEX2
  6

  9
$DIMTXTDIRECTION
 70
     0
  9
$LUNITS
 70
     2
  9
$LUPREC
 70
     4
  9
$SKETCHINC
 40
0.1
  9
$FILLETRAD
 40
0.5
  9
$AUNITS
 70
     0
  9
$AUPREC
 70
     0
  9
$MENU
  1
.
  9
$ELEVATION
 40
0.0
  9
$PELEVATION
 40
0.0
  9
$THICKNESS
 40
0.0
  9
$LIMCHECK
 70
     0
  9
$CHAMFERA
 40
0.5
  9
$CHAMFERB
 40
0.5
  9
$CHAMFERC
 40
1.0
  9
$CHAMFERD
 40
0.0
  9
$SKPOLY
 70
     0
  9
$TDCREATE
 40
2458263.581469907
  9
$TDUCREATE
 40
2458263.206469907
  9
$TDUPDATE
 40
2458263.581469907
  9
$TDUUPDATE
 40
2458263.206469907
  9
$TDINDWG
 40
0.0000000116
  9
$TDUSRTIMER
 40
0.0000000116
  9
$USRTIMER
 70
     1
  9
$ANGBASE
 50
0.0
  9
$ANGDIR
 70
     0
  9
$PDMODE
 70
     0
  9
$PDSIZE
 40
0.0
  9
$PLINEWID
 40
0.0
  9
$SPLFRAME
 70
     0
  9
$SPLINETYPE
 70
     6
  9
$SPLINESEGS
 70
     8
  9
$HANDSEED
  5
ED
  9
$SURFTAB1
 70
     6
  9
$SURFTAB2
 70
     6
  9
$SURFTYPE
 70
     6
  9
$SURFU
 70
     6
  9
$SURFV
 70
     6
  9
$UCSBASE
  2

  9
$UCSNAME
  2

  9
$UCSORG
 10
0.0
 20
0.0
 30
0.0
  9
$UCSXDIR
 10
1.0
 20
0.0
 30
0.0
  9
$UCSYDIR
 10
0.0
 20
1.0
 30
0.0
  9
$UCSORTHOREF
  2

  9
$UCSORTHOVIEW
 70
     0
  9
$UCSORGTOP
 10
0.0
 20
0.0
 30
0.0
  9
$UCSORGBOTTOM
 10
0.0
 20
0.0
 30
0.0
  9
$UCSORGLEFT
 10
0.0
 20
0.0
 30
0.0
  9
$UCSORGRIGHT
 10
0.0
 20
0.0
 30
0.0
  9
$UCSORGFRONT
 10
0.0
 20
0.0
 30
0.0
  9
$UCSORGBACK
 10
0.0
 20
0.0
 30
0.0
  9
$PUCSBASE
  2

  9
$PUCSNAME
  2

  9
$PUCSORG
 10
0.0
 20
0.0
 30
0.0
  9
$PUCSXDIR
 10
1.0
 20
0.0
 30
0.0
  9
$PUCSYDIR
 10
0.0
 20
1.0
 30
0.0
  9
$PUCSORTHOREF
  2

  9
$PUCSORTHOVIEW
 70
     0
  9
$PUCSORGTOP
 10
0.0
 20
0.0
 30
0.0
  9
$PUCSORGBOTTOM
 10
0.0
 20
0.0
 30
0.0
  9
$PUCSORGLEFT
 10
0.0
 20
0.0
 30
0.0
  9
$PUCSORGRIGHT
 10
0.0
 20
0.0
 30
0.0
  9
$PUCSORGFRONT
 10
0.0
 20
0.0
 30
0.0
  9
$PUCSORGBACK
 10
0.0
 20
0.0
 30
0.0
  9
$USERI1
 70
     0
  9
$USERI2
 70
     0
  9
$USERI3
 70
     0
  9
$USERI4
 70
     0
  9
$USERI5
 70
     0
  9
$USERR1
 40
0.0
  9
$USERR2
 40
0.0
  9
$USERR3
 40
0.0
  9
$USERR4
 40
0.0
  9
$USERR5
 40
0.0
  9
$WORLDVIEW
 70
     1
  9
$SHADEDGE
 70
     3
  9
$SHADEDIF
 70
    70
  9
$TILEMODE
 70
     1
  9
$MAXACTVP
 70
    64
  9
$PINSBASE
 10
0.0
 20
0.0
 30
0.0
  9
$PLIMCHECK
 70
     0
  9
$PEXTMIN
 10
1.000000000000000E+20
 20
1.000000000000000E+20
 30
1.000000000000000E+20
  9
$PEXTMAX
 10
-1.000000000000000E+20
 20
-1.000000000000000E+20
 30
-1.000000000000000E+20
  9
$PLIMMIN
 10
0.0
 20
0.0
  9
$PLIMMAX
 10
12.0
 20
9.0
  9
$UNITMODE
 70
     0
  9
$VISRETAIN
 70
     1
  9
$PLINEGEN
 70
     0
  9
$PSLTSCALE
 70
     1
  9
$TREEDEPTH
 70
  3020
  9
$CMLSTYLE
  2
Standard
  9
$CMLJUST
 70
     0
  9
$CMLSCALE
 40
1.0
  9
$PROXYGRAPHICS
 70
     1
  9
$MEASUREMENT
 70
     0
  9
$CELWEIGHT
370
    -1
  9
$ENDCAPS
280
     0
  9
$JOINSTYLE
280
     0
  9
$LWDISPLAY
290
     1
  9
$INSUNITS
 70
     1
  9
$HYPERLINKBASE
  1

  9
$STYLESHEET
  1

  9
$XEDIT
290
     1
  9
$CEPSNTYPE
380
     0
  9
$PSTYLEMODE
290
     1
  9
$FINGERPRINTGUID
  2
{67F05763-2A2A-7F8D-5DD5-A70CB73ECC0D}
  9
$VERSIONGUID
  2
{FAEB1C32-E019-11D5-929B-00C0DF256EC4}
  9
$EXTNAMES
290
     1
  9
$PSVPSCALE
 40
0.0
  9
$OLESTARTUP
290
     0
  9
$SORTENTS
280
   127
  9
$INDEXCTL
280
     0
  9
$HIDETEXT
280
     1
  9
$XCLIPFRAME
280
     2
  9
$HALOGAP
280
     0
  9
$OBSCOLOR
 70
   257
  9
$OBSLTYPE
280
     0
  9
$INTERSECTIONDISPLAY
280
     0
  9
$INTERSECTIONCOLOR
 70
   257
  9
$DIMASSOC
280
     2
  9
$PROJECTNAME
  1

  9
$CAMERADISPLAY
290
     0
  9
$LENSLENGTH
 40
50.0
  9
$CAMERAHEIGHT
 40
0.0
  9
$STEPSPERSEC
 40
2.0
  9
$STEPSIZE
 40
6.0
  9
$3DDWFPREC
 40
2.0
  9
$PSOLWIDTH
 40
0.25
  9
$PSOLHEIGHT
 40
4.0
  9
$LOFTANG1
 40
1.570796326794897
  9
$LOFTANG2
 40
1.570796326794897
  9
$LOFTMAG1
 40
0.0
  9
$LOFTMAG2
 40
0.0
  9
$LOFTPARAM
 70
     7
  9
$LOFTNORMALS
280
     1
  9
$LATITUDE
 40
37.795
  9
$LONGITUDE
 40
-122.394
  9
$NORTHDIRECTION
 40
0.0
  9
$TIMEZONE
 70
 -8000
  9
$LIGHTGLYPHDISPLAY
280
     1
  9
$TILEMODELIGHTSYNCH
280
     1
  9
$CMATERIAL
347
3C
  9
$SOLIDHIST
280
     1
  9
$SHOWHIST
280
     1
  9
$DWFFRAME
280
     2
  9
$DGNFRAME
280
     2
  9
$REALWORLDSCALE
290
     1
  9
$INTERFERECOLOR
 62
   256
  9
$CSHADOW
280
     0
  9
$SHADOWPLANELOCATION
 40
0.0
  0
ENDSEC
  0
SECTION
  2
CLASSES
  0
CLASS
  1
ACDBDICTIONARYWDFLT
  2
AcDbDictionaryWithDefault
  3
ObjectDBX Classes
 90
        0
 91
        4
280
     0
281
     0
  0
CLASS
  1
VISUALSTYLE
  2
AcDbVisualStyle
  3
ObjectDBX Classes
 90
     4095
 91
        4
280
     0
281
     0
  0
CLASS
  1
MATERIAL
  2
AcDbMaterial
  3
ObjectDBX Classes
 90
     1153
 91
        4
280
     0
281
     0
  0
CLASS
  1
SUN
  2
AcDbSun
  3
SCENEOE
 90
     1024
 91
        4
280
     0
281
     0
  0
ENDSEC
  0
SECTION
  2
TABLES
  0
TABLE
  2
VPORT
  5
8
330
0
100
AcDbSymbolTable
 70
     1
  0
VPORT
  5
29
330
8
100
AcDbSymbolTableRecord
100
AcDbViewportTableRecord
  2
*Active
 70
     0
 10
0.0
 20
0.0
 11
1.0
 21
1.0
 12
0.0
 22
0.0
 13
0.0
 23
0.0
 14
0.5
 24
0.5
 15
0.5
 25
0.5
 16
0.0
 26
0.0
 36
1.0
 17
105.0007777515277
 27
-148.5000416295416
 37
0.0
 40
297.0000832590831
 41
0.7070757462376333
 42
50.0
 43
0.0
 44
0.0
 50
0.0
 51
0.0
 71
     0
 72
   100
 73
     1
 74
     3
 75
     0
 76
     0
 77
     0
 78
     0
281
     0
 65
     1
110
0.0
120
0.0
130
0.0
111
1.0
121
0.0
131
0.0
112
0.0
122
1.0
132
0.0
 79
     0
146
0.0
 60
     3
 61
     5
292
     1
282
     1
141
0.0
142
0.0
 63
   250
361
3F
  0
ENDTAB
  0
TABLE
  2
LTYPE
  5
5
330
0
100
AcDbSymbolTable
 70
     1
  0
LTYPE
  5
14
330
5
100
AcDbSymbolTableRecord
100
AcDbLinetypeTableRecord
  2
ByBlock
 70
     0
  3

 72
    65
 73
     0
 40
0.0
  0
LTYPE
  5
15
330
5
100
AcDbSymbolTableRecord
100
AcDbLinetypeTableRecord
  2
ByLayer
 70
     0
  3

 72
    65
 73
     0
 40
0.0
  0
LTYPE
  5
16
330
5
100
AcDbSymbolTableRecord
100
AcDbLinetypeTableRecord
  2
Continuous
 70
     0
  3
Solid line
 72
    65
 73
     0
 40
0.0
  0
ENDTAB
  0
TABLE
  2
LAYER
  5
2
330
0
100
AcDbSymbolTable
 70
     2
  0
LAYER
  5
10
330
2
100
AcDbSymbolTableRecord
100
AcDbLayerTableRecord
  2
0
 70
     0
 62
     7
  6
Continuous
370
    -3
390
F
347
3E
  0
LAYER
  5
40
330
2
100
AcDbSymbolTableRecord
100
AcDbLayerTableRecord
  2
_U+30EC_U+30A4_U+30E4_U+30FC 1
 70
     0
 62
     7
  6
Continuous
370
    -3
390
F
347
3E
  0
ENDTAB
  0
TABLE
  2
STYLE
  5
3
330
0
100
AcDbSymbolTable
 70
     1
  0
STYLE
  5
11
330
3
100
AcDbSymbolTableRecord
100
AcDbTextStyleTableRecord
  2
Standard
 70
     0
 40
0.0
 41
1.0
 50
0.0
 71
     0
 42
0.2
  3
txt
  4

  0
ENDTAB
  0
TABLE
  2
VIEW
  5
6
330
0
100
AcDbSymbolTable
 70
     0
  0
ENDTAB
  0
TABLE
  2
UCS
  5
7
330
0
100
AcDbSymbolTable
 70
     0
  0
ENDTAB
  0
TABLE
  2
APPID
  5
9
330
0
100
AcDbSymbolTable
 70
     1
  0
APPID
  5
12
330
9
100
AcDbSymbolTableRecord
100
AcDbRegAppTableRecord
  2
ACAD
 70
     0
  0
ENDTAB
  0
TABLE
  2
DIMSTYLE
  5
A
330
0
100
AcDbSymbolTable
 70
     1
100
AcDbDimStyleTable
  0
DIMSTYLE
105
27
330
A
100
AcDbSymbolTableRecord
100
AcDbDimStyleTableRecord
  2
Standard
 70
     0
178
     0
340
11
  0
ENDTAB
  0
TABLE
  2
BLOCK_RECORD
  5
1
330
0
100
AcDbSymbolTable
 70
     6
  0
BLOCK_RECORD
  5
1F
330
1
100
AcDbSymbolTableRecord
100
AcDbBlockTableRecord
  2
*Model_Space
340
22
 70
     0
280
     1
281
     0
  0
BLOCK_RECORD
  5
1B
330
1
100
AcDbSymbolTableRecord
100
AcDbBlockTableRecord
  2
*Paper_Space
340
1E
 70
     0
280
     1
281
     0
  0
BLOCK_RECORD
  5
23
330
1
100
AcDbSymbolTableRecord
100
AcDbBlockTableRecord
  2
*Paper_Space0
340
26
 70
     0
280
     1
281
     0
  0
BLOCK_RECORD
  5
8F
330
1
100
AcDbSymbolTableRecord
100
AcDbBlockTableRecord
  2
block 2
340
0
102
{BLKREFS
331
90
102
}
 70
     0
280
     1
281
     0
  0
BLOCK_RECORD
  5
A1
330
1
100
AcDbSymbolTableRecord
100
AcDbBlockTableRecord
  2
block 3
340
0
102
{BLKREFS
331
A2
102
}
 70
     0
280
     1
281
     0
  0
BLOCK_RECORD
  5
B6
330
1
100
AcDbSymbolTableRecord
100
AcDbBlockTableRecord
  2
block 4
340
0
102
{BLKREFS
331
B7
102
}
 70
     0
280
     1
281
     0
  0
BLOCK_RECORD
  5
CB
330
1
100
AcDbSymbolTableRecord
100
AcDbBlockTableRecord
  2
block 5
340
0
102
{BLKREFS
331
CC
102
}
 70
     0
280
     1
281
     0
  0
BLOCK_RECORD
  5
DA
330
1
100
AcDbSymbolTableRecord
100
AcDbBlockTableRecord
  2
block 6
340
0
102
{BLKREFS
331
DB
102
}
 70
     0
280
     1
281
     0
  0
ENDTAB
  0
ENDSEC
  0
SECTION
  2
BLOCKS
  0
BLOCK
  5
20
330
1F
100
AcDbEntity
  8
0
100
AcDbBlockBegin
  2
*Model_Space
 70
     0
 10
0.0
 20
0.0
 30
0.0
  3
*Model_Space
  1

  0
ENDBLK
  5
21
330
1F
100
AcDbEntity
  8
0
100
AcDbBlockEnd
  0
BLOCK
  5
1C
330
1B
100
AcDbEntity
 67
     1
  8
0
100
AcDbBlockBegin
  2
*Paper_Space
 70
     0
 10
0.0
 20
0.0
 30
0.0
  3
*Paper_Space
  1

  0
ENDBLK
  5
1D
330
1B
100
AcDbEntity
 67
     1
  8
0
100
AcDbBlockEnd
  0
BLOCK
  5
24
330
23
100
AcDbEntity
  8
0
100
AcDbBlockBegin
  2
*Paper_Space0
 70
     0
 10
0.0
 20
0.0
 30
0.0
  3
*Paper_Space0
  1

  0
ENDBLK
  5
25
330
23
100
AcDbEntity
  8
0
100
AcDbBlockEnd
  0
BLOCK
  5
91
330
8F
100
AcDbEntity
  8
0
100
AcDbBlockBegin
  2
block 2
 70
     0
 10
0.0
 20
0.0
 30
0.0
  3
block 2
  1

  0
SPLINE
  5
93
330
8F
100
AcDbEntity
  8
_U+30EC_U+30A4_U+30E4_U+30FC 1
370
     0
100
AcDbSpline
210
0.0
220
0.0
230
1.0
 70
    11
 71
     3
 72
    26
 73
    22
 74
     0
 42
0.0000000001
 43
0.0000000001
 12
1.0
 22
0.0
 32
0.0
 13
1.0
 23
0.0
 33
0.0
 40
0.0
 40
0.0
 40
0.0
 40
0.0
 40
1.0
 40
1.0
 40
1.0
 40
2.0
 40
2.0
 40
2.0
 40
3.0
 40
3.0
 40
3.0
 40
4.0
 40
4.0
 40
4.0
 40
5.0
 40
5.0
 40
5.0
 40
6.0
 40
6.0
 40
6.0
 40
7.0
 40
7.0
 40
7.0
 40
7.0
 10
120.5049614499085
 20
-146.405361562791
 30
0.0
 10
120.5049614499085
 20
-146.405361562791
 30
0.0
 10
119.4008083468859
 20
-146.405361562791
 30
0.0
 10
119.4008083468859
 20
-146.405361562791
 30
0.0
 10
119.4008083468859
 20
-146.405361562791
 30
0.0
 10
119.4008083468859
 20
-146.735401710278
 30
0.0
 10
119.4008083468859
 20
-146.735401710278
 30
0.0
 10
119.4008083468859
 20
-146.735401710278
 30
0.0
 10
119.2526692410202
 20
-146.735401710278
 30
0.0
 10
119.2526692410202
 20
-146.735401710278
 30
0.0
 10
119.2378553304336
 20
-146.4032945054999
 30
0.0
 10
119.0749023139813
 20
-146.356785716449
 30
0.0
 10
118.960525143871
 20
-146.3271578952759
 30
0.0
 10
118.960525143871
 20
-146.3271578952759
 30
0.0
 10
118.960525143871
 20
-146.1810858467013
 30
0.0
 10
118.960525143871
 20
-146.1810858467013
 30
0.0
 10
118.960525143871
 20
-146.1810858467013
 30
0.0
 10
120.5049614499085
 20
-146.1810858467013
 30
0.0
 10
120.5049614499085
 20
-146.1810858467013
 30
0.0
 10
120.5049614499085
 20
-146.1810858467013
 30
0.0
 10
120.5049614499085
 20
-146.405361562791
 30
0.0
 10
120.5049614499085
 20
-146.405361562791
 30
0.0
  0
HATCH
  5
94
330
8F
100
AcDbEntity
  8
_U+30EC_U+30A4_U+30E4_U+30FC 1
 62
   179
420
  2234388
100
AcDbHatch
 10
0.0
 20
0.0
 30
0.0
210
0.0
220
0.0
230
1.0
  2
SOLID
 70
     1
 71
     0
 91
        1
 92
        1
 93
        1
 72
     4
 94
        3
 73
     0
 74
     1
 95
       26
 96
       22
 40
0.0
 40
0.0
 40
0.0
 40
0.0
 40
1.0
 40
1.0
 40
1.0
 40
2.0
 40
2.0
 40
2.0
 40
3.0
 40
3.0
 40
3.0
 40
4.0
 40
4.0
 40
4.0
 40
5.0
 40
5.0
 40
5.0
 40
6.0
 40
6.0
 40
6.0
 40
7.0
 40
7.0
 40
7.0
 40
7.0
 10
120.5049614499085
 20
-146.405361562791
 10
120.5049614499085
 20
-146.405361562791
 10
119.4008083468859
 20
-146.405361562791
 10
119.4008083468859
 20
-146.405361562791
 10
119.4008083468859
 20
-146.405361562791
 10
119.4008083468859
 20
-146.735401710278
 10
119.4008083468859
 20
-146.735401710278
 10
119.4008083468859
 20
-146.735401710278
 10
119.2526692410202
 20
-146.735401710278
 10
119.2526692410202
 20
-146.735401710278
 10
119.2378553304336
 20
-146.4032945054999
 10
119.0749023139813
 20
-146.356785716449
 10
118.960525143871
 20
-146.3271578952759
 10
118.960525143871
 20
-146.3271578952759
 10
118.960525143871
 20
-146.1810858467013
 10
118.960525143871
 20
-146.1810858467013
 10
118.960525143871
 20
-146.1810858467013
 10
120.5049614499085
 20
-146.1810858467013
 10
120.5049614499085
 20
-146.1810858467013
 10
120.5049614499085
 20
-146.1810858467013
 10
120.5049614499085
 20
-146.405361562791
 10
120.5049614499085
 20
-146.405361562791
 97
        0
 97
        0
 75
     2
 76
     1
 98
        0
  0
ENDBLK
  5
92
330
8F
100
AcDbEntity
  8
0
100
AcDbBlockEnd
  0
BLOCK
  5
A3
330
A1
100
AcDbEntity
  8
0
100
AcDbBlockBegin
  2
block 3
 70
     0
 10
0.0
 20
0.0
 30
0.0
  3
block 3
  1

  0
SPLINE
  5
A5
330
A1
100
AcDbEntity
  8
_U+30EC_U+30A4_U+30E4_U+30FC 1
370
     0
100
AcDbSpline
210
0.0
220
0.0
230
1.0
 70
    11
 71
     3
 72
    62
 73
    58
 74
     0
 42
0.0000000001
 43
0.0000000001
 12
1.0
 22
0.0
 32
0.0
 13
1.0
 23
0.0
 33
0.0
 40
0.0
 40
0.0
 40
0.0
 40
0.0
 40
1.0
 40
1.0
 40
1.0
 40
2.0
 40
2.0
 40
2.0
 40
3.0
 40
3.0
 40
3.0
 40
4.0
 40
4.0
 40
4.0
 40
5.0
 40
5.0
 40
5.0
 40
6.0
 40
6.0
 40
6.0
 40
7.0
 40
7.0
 40
7.0
 40
8.0
 40
8.0
 40
8.0
 40
9.0
 40
9.0
 40
9.0
 40
10.0
 40
10.0
 40
10.0
 40
11.0
 40
11.0
 40
11.0
 40
12.0
 40
12.0
 40
12.0
 40
13.0
 40
13.0
 40
13.0
 40
14.0
 40
14.0
 40
14.0
 40
15.0
 40
15.0
 40
15.0
 40
16.0
 40
16.0
 40
16.0
 40
17.0
 40
17.0
 40
17.0
 40
18.0
 40
18.0
 40
18.0
 40
19.0
 40
19.0
 40
19.0
 40
19.0
 10
101.7285020361998
 20
-141.1519354573335
 30
0.0
 10
101.6332451460327
 20
-141.1519354573335
 30
0.0
 10
101.4153428565906
 20
-141.1309203748735
 30
0.0
 10
101.2906304000246
 20
-140.94488521867
 30
0.0
 10
101.2165608470917
 20
-140.8325751058509
 30
0.0
 10
101.2122544777351
 20
-140.7333563558757
 30
0.0
 10
101.2081203631528
 20
-140.6486070069386
 30
0.0
 10
101.2081203631528
 20
-140.6486070069386
 30
0.0
 10
101.428089709886
 20
-140.6486070069386
 30
0.0
 10
101.428089709886
 20
-140.6486070069386
 30
0.0
 10
101.4301567671772
 20
-140.7226765598714
 30
0.0
 10
101.4408365631815
 20
-140.9572875624169
 30
0.0
 10
101.7243679216175
 20
-140.9572875624169
 30
0.0
 10
101.861827231479
 20
-140.9572875624169
 30
0.0
 10
102.014100451927
 20
-140.8876966336149
 30
0.0
 10
102.014100451927
 20
-140.6592868029428
 30
0.0
 10
102.014100451927
 20
-140.5428425755414
 30
0.0
 10
101.976032146815
 20
-140.4942667291994
 30
0.0
 10
101.9443372683507
 20
-140.4625718507351
 30
0.0
 10
101.8702677154179
 20
-140.3885022978022
 30
0.0
 10
101.7538234880164
 20
-140.3757554445068
 30
0.0
 10
101.6988742150267
 20
-140.3757554445068
 30
0.0
 10
101.6799261898578
 20
-140.3757554445068
 30
0.0
 10
101.6439249420369
 20
-140.3778225017979
 30
0.0
 10
101.6163641781549
 20
-140.3819566163802
 30
0.0
 10
101.6163641781549
 20
-140.3819566163802
 30
0.0
 10
101.6163641781549
 20
-140.1873087214636
 30
0.0
 10
101.6163641781549
 20
-140.1873087214636
 30
0.0
 10
101.654432483267
 20
-140.1938544028856
 30
0.0
 10
101.6968071577355
 20
-140.1959214601767
 30
0.0
 10
101.7031805843832
 20
-140.1959214601767
 30
0.0
 10
101.768637398603
 20
-140.1959214601767
 30
0.0
 10
101.9675916628762
 20
-140.1745618681682
 30
0.0
 10
101.9675916628762
 20
-139.9378838083315
 30
0.0
 10
101.9675916628762
 20
-139.7601168812926
 30
0.0
 10
101.8363335248881
 20
-139.7049953535286
 30
0.0
 10
101.7264349789087
 20
-139.7049953535286
 30
0.0
 10
101.4620239004157
 20
-139.7049953535286
 30
0.0
 10
101.4535834164769
 20
-139.9378838083315
 30
0.0
 10
101.4492770471203
 20
-140.0095417944247
 30
0.0
 10
101.4492770471203
 20
-140.0095417944247
 30
0.0
 10
101.2461886682648
 20
-140.0095417944247
 30
0.0
 10
101.2461886682648
 20
-140.0095417944247
 30
0.0
 10
101.2546291522037
 20
-139.8848293378587
 30
0.0
 10
101.2821899160857
 20
-139.5082804013209
 30
0.0
 10
101.7390095774298
 20
-139.5082804013209
 30
0.0
 10
101.9632852935196
 20
-139.5082804013209
 30
0.0
 10
102.2044419774871
 20
-139.6354044247266
 30
0.0
 10
102.2044419774871
 20
-139.9313381269095
 30
0.0
 10
102.2044419774871
 20
-140.1177177926616
 30
0.0
 10
102.1093573420942
 20
-140.200055574759
 30
0.0
 10
102.0097940825705
 20
-140.2613782743965
 30
0.0
 10
102.0712890369822
 20
-140.2889390382785
 30
0.0
 10
102.2531900786034
 20
-140.3692097630848
 30
0.0
 10
102.2531900786034
 20
-140.6465399496474
 30
0.0
 10
102.2531900786034
 20
-140.9848483262989
 30
0.0
 10
102.0056599679882
 20
-141.1519354573335
 30
0.0
 10
101.7285020361998
 20
-141.1519354573335
 30
0.0
  0
HATCH
  5
A6
330
A1
100
AcDbEntity
  8
_U+30EC_U+30A4_U+30E4_U+30FC 1
 62
   179
420
  2234388
100
AcDbHatch
 10
0.0
 20
0.0
 30
0.0
210
0.0
220
0.0
230
1.0
  2
SOLID
 70
     1
 71
     0
 91
        1
 92
        1
 93
        1
 72
     4
 94
        3
 73
     0
 74
     1
 95
       62
 96
       58
 40
0.0
 40
0.0
 40
0.0
 40
0.0
 40
1.0
 40
1.0
 40
1.0
 40
2.0
 40
2.0
 40
2.0
 40
3.0
 40
3.0
 40
3.0
 40
4.0
 40
4.0
 40
4.0
 40
5.0
 40
5.0
 40
5.0
 40
6.0
 40
6.0
 40
6.0
 40
7.0
 40
7.0
 40
7.0
 40
8.0
 40
8.0
 40
8.0
 40
9.0
 40
9.0
 40
9.0
 40
10.0
 40
10.0
 40
10.0
 40
11.0
 40
11.0
 40
11.0
 40
12.0
 40
12.0
 40
12.0
 40
13.0
 40
13.0
 40
13.0
 40
14.0
 40
14.0
 40
14.0
 40
15.0
 40
15.0
 40
15.0
 40
16.0
 40
16.0
 40
16.0
 40
17.0
 40
17.0
 40
17.0
 40
18.0
 40
18.0
 40
18.0
 40
19.0
 40
19.0
 40
19.0
 40
19.0
 10
101.7285020361998
 20
-141.1519354573335
 10
101.6332451460327
 20
-141.1519354573335
 10
101.4153428565906
 20
-141.1309203748735
 10
101.2906304000246
 20
-140.94488521867
 10
101.2165608470917
 20
-140.8325751058509
 10
101.2122544777351
 20
-140.7333563558757
 10
101.2081203631528
 20
-140.6486070069386
 10
101.2081203631528
 20
-140.6486070069386
 10
101.428089709886
 20
-140.6486070069386
 10
101.428089709886
 20
-140.6486070069386
 10
101.4301567671772
 20
-140.7226765598714
 10
101.4408365631815
 20
-140.9572875624169
 10
101.7243679216175
 20
-140.9572875624169
 10
101.861827231479
 20
-140.9572875624169
 10
102.014100451927
 20
-140.8876966336149
 10
102.014100451927
 20
-140.6592868029428
 10
102.014100451927
 20
-140.5428425755414
 10
101.976032146815
 20
-140.4942667291994
 10
101.9443372683507
 20
-140.4625718507351
 10
101.8702677154179
 20
-140.3885022978022
 10
101.7538234880164
 20
-140.3757554445068
 10
101.6988742150267
 20
-140.3757554445068
 10
101.6799261898578
 20
-140.3757554445068
 10
101.6439249420369
 20
-140.3778225017979
 10
101.6163641781549
 20
-140.3819566163802
 10
101.6163641781549
 20
-140.3819566163802
 10
101.6163641781549
 20
-140.1873087214636
 10
101.6163641781549
 20
-140.1873087214636
 10
101.654432483267
 20
-140.1938544028856
 10
101.6968071577355
 20
-140.1959214601767
 10
101.7031805843832
 20
-140.1959214601767
 10
101.768637398603
 20
-140.1959214601767
 10
101.9675916628762
 20
-140.1745618681682
 10
101.9675916628762
 20
-139.9378838083315
 10
101.9675916628762
 20
-139.7601168812926
 10
101.8363335248881
 20
-139.7049953535286
 10
101.7264349789087
 20
-139.7049953535286
 10
101.4620239004157
 20
-139.7049953535286
 10
101.4535834164769
 20
-139.9378838083315
 10
101.4492770471203
 20
-140.0095417944247
 10
101.4492770471203
 20
-140.0095417944247
 10
101.2461886682648
 20
-140.0095417944247
 10
101.2461886682648
 20
-140.0095417944247
 10
101.2546291522037
 20
-139.8848293378587
 10
101.2821899160857
 20
-139.5082804013209
 10
101.7390095774298
 20
-139.5082804013209
 10
101.9632852935196
 20
-139.5082804013209
 10
102.2044419774871
 20
-139.6354044247266
 10
102.2044419774871
 20
-139.9313381269095
 10
102.2044419774871
 20
-140.1177177926616
 10
102.1093573420942
 20
-140.200055574759
 10
102.0097940825705
 20
-140.2613782743965
 10
102.0712890369822
 20
-140.2889390382785
 10
102.2531900786034
 20
-140.3692097630848
 10
102.2531900786034
 20
-140.6465399496474
 10
102.2531900786034
 20
-140.9848483262989
 10
102.0056599679882
 20
-141.1519354573335
 10
101.7285020361998
 20
-141.1519354573335
 97
        0
 97
        0
 75
     2
 76
     1
 98
        0
  0
SPLINE
  5
A7
330
A1
100
AcDbEntity
  8
_U+30EC_U+30A4_U+30E4_U+30FC 1
370
     0
100
AcDbSpline
210
0.0
220
0.0
230
1.0
 70
    11
 71
     3
 72
    29
 73
    25
 74
     0
 42
0.0000000001
 43
0.0000000001
 12
1.0
 22
0.0
 32
0.0
 13
1.0
 23
0.0
 33
0.0
 40
0.0
 40
0.0
 40
0.0
 40
0.0
 40
1.0
 40
1.0
 40
1.0
 40
2.0
 40
2.0
 40
2.0
 40
3.0
 40
3.0
 40
3.0
 40
4.0
 40
4.0
 40
4.0
 40
5.0
 40
5.0
 40
5.0
 40
6.0
 40
6.0
 40
6.0
 40
7.0
 40
7.0
 40
7.0
 40
8.0
 40
8.0
 40
8.0
 40
8.0
 10
103.3115234116721
 20
-140.9235256266615
 30
0.0
 10
103.2036919229838
 20
-141.1329874321647
 30
0.0
 10
103.0302313653015
 20
-141.1519354573335
 30
0.0
 10
102.9137871379
 20
-141.1519354573335
 30
0.0
 10
102.7530734335131
 20
-141.1519354573335
 30
0.0
 10
102.6113077542951
 20
-141.1054266682827
 30
0.0
 10
102.5160508641279
 20
-140.9235256266615
 30
0.0
 10
102.4125257447962
 20
-140.7288777317449
 30
0.0
 10
102.393405464853
 20
-140.4918551623597
 30
0.0
 10
102.393405464853
 20
-140.3292466554559
 30
0.0
 10
102.393405464853
 20
-140.1852416641725
 30
0.0
 10
102.4102864327308
 20
-139.9334051842007
 30
0.0
 10
102.5160508641279
 20
-139.7346231747018
 30
0.0
 10
102.6240546075905
 20
-139.5317070506206
 30
0.0
 10
102.7847683119774
 20
-139.5082804013209
 30
0.0
 10
102.9137871379
 20
-139.5082804013209
 30
0.0
 10
103.0724337849958
 20
-139.5082804013209
 30
0.0
 10
103.216266521505
 20
-139.5527221330806
 30
0.0
 10
103.3115234116721
 20
-139.7346231747018
 30
0.0
 10
103.4109144164216
 20
-139.9272040123272
 30
0.0
 10
103.434168810947
 20
-140.1556138429993
 30
0.0
 10
103.434168810947
 20
-140.3292466554559
 30
0.0
 10
103.434168810947
 20
-140.5004679010728
 30
0.0
 10
103.413153728487
 20
-140.730944789036
 30
0.0
 10
103.3115234116721
 20
-140.9235256266615
 30
0.0
  0
SPLINE
  5
A8
330
A1
100
AcDbEntity
  8
_U+30EC_U+30A4_U+30E4_U+30FC 1
370
     0
100
AcDbSpline
210
0.0
220
0.0
230
1.0
 70
    11
 71
     3
 72
    17
 73
    13
 74
     0
 42
0.0000000001
 43
0.0000000001
 12
1.0
 22
0.0
 32
0.0
 13
1.0
 23
0.0
 33
0.0
 40
0.0
 40
0.0
 40
0.0
 40
0.0
 40
1.0
 40
1.0
 40
1.0
 40
2.0
 40
2.0
 40
2.0
 40
3.0
 40
3.0
 40
3.0
 40
4.0
 40
4.0
 40
4.0
 40
4.0
 10
102.9137871379
 20
-139.7008612389463
 30
0.0
 10
102.6641899699937
 20
-139.7008612389463
 30
0.0
 10
102.6176811809428
 20
-139.9843925973824
 30
0.0
 10
102.6176811809428
 20
-140.3292466554559
 30
0.0
 10
102.6176811809428
 20
-140.6486070069386
 30
0.0
 10
102.6536824287637
 20
-140.9572875624169
 30
0.0
 10
102.9137871379
 20
-140.9572875624169
 30
0.0
 10
103.1613172485152
 20
-140.9572875624169
 30
0.0
 10
103.2100653496315
 20
-140.6761677708205
 30
0.0
 10
103.2100653496315
 20
-140.3292466554559
 30
0.0
 10
103.2100653496315
 20
-140.0095417944247
 30
0.0
 10
103.1719970445195
 20
-139.7008612389463
 30
0.0
 10
102.9137871379
 20
-139.7008612389463
 30
0.0
  0
HATCH
  5
A9
330
A1
100
AcDbEntity
  8
_U+30EC_U+30A4_U+30E4_U+30FC 1
 62
   179
420
  2234388
100
AcDbHatch
 10
0.0
 20
0.0
 30
0.0
210
0.0
220
0.0
230
1.0
  2
SOLID
 70
     1
 71
     0
 91
        2
 92
        1
 93
        1
 72
     4
 94
        3
 73
     0
 74
     1
 95
       29
 96
       25
 40
0.0
 40
0.0
 40
0.0
 40
0.0
 40
1.0
 40
1.0
 40
1.0
 40
2.0
 40
2.0
 40
2.0
 40
3.0
 40
3.0
 40
3.0
 40
4.0
 40
4.0
 40
4.0
 40
5.0
 40
5.0
 40
5.0
 40
6.0
 40
6.0
 40
6.0
 40
7.0
 40
7.0
 40
7.0
 40
8.0
 40
8.0
 40
8.0
 40
8.0
 10
103.3115234116721
 20
-140.9235256266615
 10
103.2036919229838
 20
-141.1329874321647
 10
103.0302313653015
 20
-141.1519354573335
 10
102.9137871379
 20
-141.1519354573335
 10
102.7530734335131
 20
-141.1519354573335
 10
102.6113077542951
 20
-141.1054266682827
 10
102.5160508641279
 20
-140.9235256266615
 10
102.4125257447962
 20
-140.7288777317449
 10
102.393405464853
 20
-140.4918551623597
 10
102.393405464853
 20
-140.3292466554559
 10
102.393405464853
 20
-140.1852416641725
 10
102.4102864327308
 20
-139.9334051842007
 10
102.5160508641279
 20
-139.7346231747018
 10
102.6240546075905
 20
-139.5317070506206
 10
102.7847683119774
 20
-139.5082804013209
 10
102.9137871379
 20
-139.5082804013209
 10
103.0724337849958
 20
-139.5082804013209
 10
103.216266521505
 20
-139.5527221330806
 10
103.3115234116721
 20
-139.7346231747018
 10
103.4109144164216
 20
-139.9272040123272
 10
103.434168810947
 20
-140.1556138429993
 10
103.434168810947
 20
-140.3292466554559
 10
103.434168810947
 20
-140.5004679010728
 10
103.413153728487
 20
-140.730944789036
 10
103.3115234116721
 20
-140.9235256266615
 97
        0
 97
        0
 92
        1
 93
        1
 72
     4
 94
        3
 73
     0
 74
     1
 95
       17
 96
       13
 40
0.0
 40
0.0
 40
0.0
 40
0.0
 40
1.0
 40
1.0
 40
1.0
 40
2.0
 40
2.0
 40
2.0
 40
3.0
 40
3.0
 40
3.0
 40
4.0
 40
4.0
 40
4.0
 40
4.0
 10
102.9137871379
 20
-139.7008612389463
 10
102.6641899699937
 20
-139.7008612389463
 10
102.6176811809428
 20
-139.9843925973824
 10
102.6176811809428
 20
-140.3292466554559
 10
102.6176811809428
 20
-140.6486070069386
 10
102.6536824287637
 20
-140.9572875624169
 10
102.9137871379
 20
-140.9572875624169
 10
103.1613172485152
 20
-140.9572875624169
 10
103.2100653496315
 20
-140.6761677708205
 10
103.2100653496315
 20
-140.3292466554559
 10
103.2100653496315
 20
-140.0095417944247
 10
103.1719970445195
 20
-139.7008612389463
 10
102.9137871379
 20
-139.7008612389463
 97
        0
 97
        0
 75
     2
 76
     1
 98
        0
  0
ENDBLK
  5
A4
330
A1
100
AcDbEntity
  8
0
100
AcDbBlockEnd
  0
BLOCK
  5
B8
330
B6
100
AcDbEntity
  8
0
100
AcDbBlockBegin
  2
block 4
 70
     0
 10
0.0
 20
0.0
 30
0.0
  3
block 4
  1

  0
SPLINE
  5
BA
330
B6
100
AcDbEntity
  8
_U+30EC_U+30A4_U+30E4_U+30FC 1
370
     0
100
AcDbSpline
210
0.0
220
0.0
230
1.0
 70
    11
 71
     3
 72
    26
 73
    22
 74
     0
 42
0.0000000001
 43
0.0000000001
 12
1.0
 22
0.0
 32
0.0
 13
1.0
 23
0.0
 33
0.0
 40
0.0
 40
0.0
 40
0.0
 40
0.0
 40
1.0
 40
1.0
 40
1.0
 40
2.0
 40
2.0
 40
2.0
 40
3.0
 40
3.0
 40
3.0
 40
4.0
 40
4.0
 40
4.0
 40
5.0
 40
5.0
 40
5.0
 40
6.0
 40
6.0
 40
6.0
 40
7.0
 40
7.0
 40
7.0
 40
7.0
 10
91.86588268102659
 20
-157.3013373087649
 30
0.0
 10
91.86588268102659
 20
-157.3013373087649
 30
0.0
 10
91.86588268102659
 20
-156.1971842057424
 30
0.0
 10
91.86588268102659
 20
-156.1971842057424
 30
0.0
 10
91.86588268102659
 20
-156.1971842057424
 30
0.0
 10
91.53584253353965
 20
-156.1971842057424
 30
0.0
 10
91.53584253353965
 20
-156.1971842057424
 30
0.0
 10
91.53584253353965
 20
-156.1971842057424
 30
0.0
 10
91.53584253353965
 20
-156.0490450998766
 30
0.0
 10
91.53584253353965
 20
-156.0490450998766
 30
0.0
 10
91.86794973831773
 20
-156.0342311892901
 30
0.0
 10
91.91445852736861
 20
-155.8712781728377
 30
0.0
 10
91.94408634854176
 20
-155.7569010027275
 30
0.0
 10
91.94408634854176
 20
-155.7569010027275
 30
0.0
 10
92.09015839711635
 20
-155.7569010027275
 30
0.0
 10
92.09015839711635
 20
-155.7569010027275
 30
0.0
 10
92.09015839711635
 20
-155.7569010027275
 30
0.0
 10
92.09015839711635
 20
-157.3013373087649
 30
0.0
 10
92.09015839711635
 20
-157.3013373087649
 30
0.0
 10
92.09015839711635
 20
-157.3013373087649
 30
0.0
 10
91.86588268102659
 20
-157.3013373087649
 30
0.0
 10
91.86588268102659
 20
-157.3013373087649
 30
0.0
  0
HATCH
  5
BB
330
B6
100
AcDbEntity
  8
_U+30EC_U+30A4_U+30E4_U+30FC 1
 62
   179
420
  2234388
100
AcDbHatch
 10
0.0
 20
0.0
 30
0.0
210
0.0
220
0.0
230
1.0
  2
SOLID
 70
     1
 71
     0
 91
        1
 92
        1
 93
        1
 72
     4
 94
        3
 73
     0
 74
     1
 95
       26
 96
       22
 40
0.0
 40
0.0
 40
0.0
 40
0.0
 40
1.0
 40
1.0
 40
1.0
 40
2.0
 40
2.0
 40
2.0
 40
3.0
 40
3.0
 40
3.0
 40
4.0
 40
4.0
 40
4.0
 40
5.0
 40
5.0
 40
5.0
 40
6.0
 40
6.0
 40
6.0
 40
7.0
 40
7.0
 40
7.0
 40
7.0
 10
91.86588268102659
 20
-157.3013373087649
 10
91.86588268102659
 20
-157.3013373087649
 10
91.86588268102659
 20
-156.1971842057424
 10
91.86588268102659
 20
-156.1971842057424
 10
91.86588268102659
 20
-156.1971842057424
 10
91.53584253353965
 20
-156.1971842057424
 10
91.53584253353965
 20
-156.1971842057424
 10
91.53584253353965
 20
-156.1971842057424
 10
91.53584253353965
 20
-156.0490450998766
 10
91.53584253353965
 20
-156.0490450998766
 10
91.86794973831773
 20
-156.0342311892901
 10
91.91445852736861
 20
-155.8712781728377
 10
91.94408634854176
 20
-155.7569010027275
 10
91.94408634854176
 20
-155.7569010027275
 10
92.09015839711635
 20
-155.7569010027275
 10
92.09015839711635
 20
-155.7569010027275
 10
92.09015839711635
 20
-155.7569010027275
 10
92.09015839711635
 20
-157.3013373087649
 10
92.09015839711635
 20
-157.3013373087649
 10
92.09015839711635
 20
-157.3013373087649
 10
91.86588268102659
 20
-157.3013373087649
 10
91.86588268102659
 20
-157.3013373087649
 97
        0
 97
        0
 75
     2
 76
     1
 98
        0
  0
SPLINE
  5
BC
330
B6
100
AcDbEntity
  8
_U+30EC_U+30A4_U+30E4_U+30FC 1
370
     0
100
AcDbSpline
210
0.0
220
0.0
230
1.0
 70
    11
 71
     3
 72
    29
 73
    25
 74
     0
 42
0.0000000001
 43
0.0000000001
 12
1.0
 22
0.0
 32
0.0
 13
1.0
 23
0.0
 33
0.0
 40
0.0
 40
0.0
 40
0.0
 40
0.0
 40
1.0
 40
1.0
 40
1.0
 40
2.0
 40
2.0
 40
2.0
 40
3.0
 40
3.0
 40
3.0
 40
4.0
 40
4.0
 40
4.0
 40
5.0
 40
5.0
 40
5.0
 40
6.0
 40
6.0
 40
6.0
 40
7.0
 40
7.0
 40
7.0
 40
8.0
 40
8.0
 40
8.0
 40
8.0
 10
93.48903941890205
 20
-157.1235703817261
 30
0.0
 10
93.38120793021373
 20
-157.3330321872292
 30
0.0
 10
93.2077473725314
 20
-157.3519802123981
 30
0.0
 10
93.09130314512996
 20
-157.3519802123981
 30
0.0
 10
92.93058944074305
 20
-157.3519802123981
 30
0.0
 10
92.78882376152502
 20
-157.3054714233473
 30
0.0
 10
92.69356687135786
 20
-157.1235703817261
 30
0.0
 10
92.59004175202611
 20
-156.9289224868095
 30
0.0
 10
92.57092147208297
 20
-156.6918999174243
 30
0.0
 10
92.57092147208297
 20
-156.5292914105205
 30
0.0
 10
92.57092147208297
 20
-156.385286419237
 30
0.0
 10
92.5878024399607
 20
-156.1334499392653
 30
0.0
 10
92.69356687135786
 20
-155.9346679297663
 30
0.0
 10
92.80157061482045
 20
-155.7317518056851
 30
0.0
 10
92.96228431920736
 20
-155.7083251563854
 30
0.0
 10
93.09130314512996
 20
-155.7083251563854
 30
0.0
 10
93.2499497922257
 20
-155.7083251563854
 30
0.0
 10
93.39378252873489
 20
-155.7527668881451
 30
0.0
 10
93.48903941890205
 20
-155.9346679297663
 30
0.0
 10
93.5884304236515
 20
-156.1272487673918
 30
0.0
 10
93.61168481817694
 20
-156.3556585980639
 30
0.0
 10
93.61168481817694
 20
-156.5292914105205
 30
0.0
 10
93.61168481817694
 20
-156.7005126561374
 30
0.0
 10
93.59066973571692
 20
-156.9309895441006
 30
0.0
 10
93.48903941890205
 20
-157.1235703817261
 30
0.0
  0
SPLINE
  5
BD
330
B6
100
AcDbEntity
  8
_U+30EC_U+30A4_U+30E4_U+30FC 1
370
     0
100
AcDbSpline
210
0.0
220
0.0
230
1.0
 70
    11
 71
     3
 72
    17
 73
    13
 74
     0
 42
0.0000000001
 43
0.0000000001
 12
1.0
 22
0.0
 32
0.0
 13
1.0
 23
0.0
 33
0.0
 40
0.0
 40
0.0
 40
0.0
 40
0.0
 40
1.0
 40
1.0
 40
1.0
 40
2.0
 40
2.0
 40
2.0
 40
3.0
 40
3.0
 40
3.0
 40
4.0
 40
4.0
 40
4.0
 40
4.0
 10
93.09130314512996
 20
-155.9009059940109
 30
0.0
 10
92.84170597722361
 20
-155.9009059940109
 30
0.0
 10
92.79519718817274
 20
-156.184437352447
 30
0.0
 10
92.79519718817274
 20
-156.5292914105205
 30
0.0
 10
92.79519718817274
 20
-156.8486517620031
 30
0.0
 10
92.8311984359936
 20
-157.1573323174815
 30
0.0
 10
93.09130314512996
 20
-157.1573323174815
 30
0.0
 10
93.33883325574516
 20
-157.1573323174815
 30
0.0
 10
93.38758135686145
 20
-156.8762125258851
 30
0.0
 10
93.38758135686145
 20
-156.5292914105205
 30
0.0
 10
93.38758135686145
 20
-156.2095865494893
 30
0.0
 10
93.34934079697517
 20
-155.9009059940109
 30
0.0
 10
93.09130314512996
 20
-155.9009059940109
 30
0.0
  0
HATCH
  5
BE
330
B6
100
AcDbEntity
  8
_U+30EC_U+30A4_U+30E4_U+30FC 1
 62
   179
420
  2234388
100
AcDbHatch
 10
0.0
 20
0.0
 30
0.0
210
0.0
220
0.0
230
1.0
  2
SOLID
 70
     1
 71
     0
 91
        2
 92
        1
 93
        1
 72
     4
 94
        3
 73
     0
 74
     1
 95
       29
 96
       25
 40
0.0
 40
0.0
 40
0.0
 40
0.0
 40
1.0
 40
1.0
 40
1.0
 40
2.0
 40
2.0
 40
2.0
 40
3.0
 40
3.0
 40
3.0
 40
4.0
 40
4.0
 40
4.0
 40
5.0
 40
5.0
 40
5.0
 40
6.0
 40
6.0
 40
6.0
 40
7.0
 40
7.0
 40
7.0
 40
8.0
 40
8.0
 40
8.0
 40
8.0
 10
93.48903941890205
 20
-157.1235703817261
 10
93.38120793021373
 20
-157.3330321872292
 10
93.2077473725314
 20
-157.3519802123981
 10
93.09130314512996
 20
-157.3519802123981
 10
92.93058944074305
 20
-157.3519802123981
 10
92.78882376152502
 20
-157.3054714233473
 10
92.69356687135786
 20
-157.1235703817261
 10
92.59004175202611
 20
-156.9289224868095
 10
92.57092147208297
 20
-156.6918999174243
 10
92.57092147208297
 20
-156.5292914105205
 10
92.57092147208297
 20
-156.385286419237
 10
92.5878024399607
 20
-156.1334499392653
 10
92.69356687135786
 20
-155.9346679297663
 10
92.80157061482045
 20
-155.7317518056851
 10
92.96228431920736
 20
-155.7083251563854
 10
93.09130314512996
 20
-155.7083251563854
 10
93.2499497922257
 20
-155.7083251563854
 10
93.39378252873489
 20
-155.7527668881451
 10
93.48903941890205
 20
-155.9346679297663
 10
93.5884304236515
 20
-156.1272487673918
 10
93.61168481817694
 20
-156.3556585980639
 10
93.61168481817694
 20
-156.5292914105205
 10
93.61168481817694
 20
-156.7005126561374
 10
93.59066973571692
 20
-156.9309895441006
 10
93.48903941890205
 20
-157.1235703817261
 97
        0
 97
        0
 92
        1
 93
        1
 72
     4
 94
        3
 73
     0
 74
     1
 95
       17
 96
       13
 40
0.0
 40
0.0
 40
0.0
 40
0.0
 40
1.0
 40
1.0
 40
1.0
 40
2.0
 40
2.0
 40
2.0
 40
3.0
 40
3.0
 40
3.0
 40
4.0
 40
4.0
 40
4.0
 40
4.0
 10
93.09130314512996
 20
-155.9009059940109
 10
92.84170597722361
 20
-155.9009059940109
 10
92.79519718817274
 20
-156.184437352447
 10
92.79519718817274
 20
-156.5292914105205
 10
92.79519718817274
 20
-156.8486517620031
 10
92.8311984359936
 20
-157.1573323174815
 10
93.09130314512996
 20
-157.1573323174815
 10
93.33883325574516
 20
-157.1573323174815
 10
93.38758135686145
 20
-156.8762125258851
 10
93.38758135686145
 20
-156.5292914105205
 10
93.38758135686145
 20
-156.2095865494893
 10
93.34934079697517
 20
-155.9009059940109
 10
93.09130314512996
 20
-155.9009059940109
 97
        0
 97
        0
 75
     2
 76
     1
 98
        0
  0
ENDBLK
  5
B9
330
B6
100
AcDbEntity
  8
0
100
AcDbBlockEnd
  0
BLOCK
  5
CD
330
CB
100
AcDbEntity
  8
0
100
AcDbBlockBegin
  2
block 5
 70
     0
 10
0.0
 20
0.0
 30
0.0
  3
block 5
  1

  0
SPLINE
  5
CF
330
CB
100
AcDbEntity
  8
_U+30EC_U+30A4_U+30E4_U+30FC 1
370
     0
100
AcDbSpline
210
0.0
220
0.0
230
1.0
 70
    11
 71
     3
 72
    32
 73
    28
 74
     0
 42
0.0000000001
 43
0.0000000001
 12
1.0
 22
0.0
 32
0.0
 13
1.0
 23
0.0
 33
0.0
 40
0.0
 40
0.0
 40
0.0
 40
0.0
 40
1.0
 40
1.0
 40
1.0
 40
2.0
 40
2.0
 40
2.0
 40
3.0
 40
3.0
 40
3.0
 40
4.0
 40
4.0
 40
4.0
 40
5.0
 40
5.0
 40
5.0
 40
6.0
 40
6.0
 40
6.0
 40
7.0
 40
7.0
 40
7.0
 40
8.0
 40
8.0
 40
8.0
 40
9.0
 40
9.0
 40
9.0
 40
9.0
 10
100.5072156866788
 20
-157.3519802123981
 30
0.0
 10
99.99096812821406
 20
-157.3519802123981
 30
0.0
 10
99.98252764427521
 20
-156.7980088583699
 30
0.0
 10
99.98252764427521
 20
-156.5840684287359
 30
0.0
 10
99.98252764427521
 20
-156.3535915407727
 30
0.0
 10
100.0016479242183
 20
-155.7062580990943
 30
0.0
 10
100.5452839917908
 20
-155.7062580990943
 30
0.0
 10
100.7187445494731
 20
-155.7062580990943
 30
0.0
 10
100.9640353480229
 20
-155.7761935374448
 30
0.0
 10
101.0022759079092
 20
-156.1083007422229
 30
0.0
 10
101.0022759079092
 20
-156.1083007422229
 30
0.0
 10
100.7885077330494
 20
-156.1083007422229
 30
0.0
 10
100.7885077330494
 20
-156.1083007422229
 30
0.0
 10
100.7780001918194
 20
-156.0511121571678
 30
0.0
 10
100.7463053133551
 20
-155.902973051302
 30
0.0
 10
100.5432169344996
 20
-155.902973051302
 30
0.0
 10
100.2512450921247
 20
-155.902973051302
 30
0.0
 10
100.2109374749473
 20
-156.2309461414978
 30
0.0
 10
100.1983628764261
 20
-156.4359293228702
 30
0.0
 10
100.2913804545279
 20
-156.357725655355
 30
0.0
 10
100.359076580813
 20
-156.2984700130087
 30
0.0
 10
100.5409776224342
 20
-156.2984700130087
 30
0.0
 10
100.7208116067642
 20
-156.2984700130087
 30
0.0
 10
101.0232909903692
 20
-156.4066460112456
 30
0.0
 10
101.0232909903692
 20
-156.8128227689565
 30
0.0
 10
101.0232909903692
 20
-157.1321831204392
 30
0.0
 10
100.8245089808703
 20
-157.3519802123981
 30
0.0
 10
100.5072156866788
 20
-157.3519802123981
 30
0.0
  0
SPLINE
  5
D0
330
CB
100
AcDbEntity
  8
_U+30EC_U+30A4_U+30E4_U+30FC 1
370
     0
100
AcDbSpline
210
0.0
220
0.0
230
1.0
 70
    11
 71
     3
 72
    17
 73
    13
 74
     0
 42
0.0000000001
 43
0.0000000001
 12
1.0
 22
0.0
 32
0.0
 13
1.0
 23
0.0
 33
0.0
 40
0.0
 40
0.0
 40
0.0
 40
0.0
 40
1.0
 40
1.0
 40
1.0
 40
2.0
 40
2.0
 40
2.0
 40
3.0
 40
3.0
 40
3.0
 40
4.0
 40
4.0
 40
4.0
 40
4.0
 10
100.5240966545565
 20
-156.4931179079254
 30
0.0
 10
100.2617526333547
 20
-156.4931179079254
 30
0.0
 10
100.2236843282427
 20
-156.7046467707197
 30
0.0
 10
100.2236843282427
 20
-156.8210909981211
 30
0.0
 10
100.2236843282427
 20
-156.9967908678689
 30
0.0
 10
100.3189412184098
 20
-157.1597438843212
 30
0.0
 10
100.5029093173222
 20
-157.1597438843212
 30
0.0
 10
100.6234876593059
 20
-157.1597438843212
 30
0.0
 10
100.7991875290537
 20
-157.1004882419749
 30
0.0
 10
100.7991875290537
 20
-156.8148898262477
 30
0.0
 10
100.7991875290537
 20
-156.5906141101579
 30
0.0
 10
100.6594889071268
 20
-156.4931179079254
 30
0.0
 10
100.5240966545565
 20
-156.4931179079254
 30
0.0
  0
HATCH
  5
D1
330
CB
100
AcDbEntity
  8
_U+30EC_U+30A4_U+30E4_U+30FC 1
 62
   179
420
  2234388
100
AcDbHatch
 10
0.0
 20
0.0
 30
0.0
210
0.0
220
0.0
230
1.0
  2
SOLID
 70
     1
 71
     0
 91
        2
 92
        1
 93
        1
 72
     4
 94
        3
 73
     0
 74
     1
 95
       32
 96
       28
 40
0.0
 40
0.0
 40
0.0
 40
0.0
 40
1.0
 40
1.0
 40
1.0
 40
2.0
 40
2.0
 40
2.0
 40
3.0
 40
3.0
 40
3.0
 40
4.0
 40
4.0
 40
4.0
 40
5.0
 40
5.0
 40
5.0
 40
6.0
 40
6.0
 40
6.0
 40
7.0
 40
7.0
 40
7.0
 40
8.0
 40
8.0
 40
8.0
 40
9.0
 40
9.0
 40
9.0
 40
9.0
 10
100.5072156866788
 20
-157.3519802123981
 10
99.99096812821406
 20
-157.3519802123981
 10
99.98252764427521
 20
-156.7980088583699
 10
99.98252764427521
 20
-156.5840684287359
 10
99.98252764427521
 20
-156.3535915407727
 10
100.0016479242183
 20
-155.7062580990943
 10
100.5452839917908
 20
-155.7062580990943
 10
100.7187445494731
 20
-155.7062580990943
 10
100.9640353480229
 20
-155.7761935374448
 10
101.0022759079092
 20
-156.1083007422229
 10
101.0022759079092
 20
-156.1083007422229
 10
100.7885077330494
 20
-156.1083007422229
 10
100.7885077330494
 20
-156.1083007422229
 10
100.7780001918194
 20
-156.0511121571678
 10
100.7463053133551
 20
-155.902973051302
 10
100.5432169344996
 20
-155.902973051302
 10
100.2512450921247
 20
-155.902973051302
 10
100.2109374749473
 20
-156.2309461414978
 10
100.1983628764261
 20
-156.4359293228702
 10
100.2913804545279
 20
-156.357725655355
 10
100.359076580813
 20
-156.2984700130087
 10
100.5409776224342
 20
-156.2984700130087
 10
100.7208116067642
 20
-156.2984700130087
 10
101.0232909903692
 20
-156.4066460112456
 10
101.0232909903692
 20
-156.8128227689565
 10
101.0232909903692
 20
-157.1321831204392
 10
100.8245089808703
 20
-157.3519802123981
 10
100.5072156866788
 20
-157.3519802123981
 97
        0
 97
        0
 92
        1
 93
        1
 72
     4
 94
        3
 73
     0
 74
     1
 95
       17
 96
       13
 40
0.0
 40
0.0
 40
0.0
 40
0.0
 40
1.0
 40
1.0
 40
1.0
 40
2.0
 40
2.0
 40
2.0
 40
3.0
 40
3.0
 40
3.0
 40
4.0
 40
4.0
 40
4.0
 40
4.0
 10
100.5240966545565
 20
-156.4931179079254
 10
100.2617526333547
 20
-156.4931179079254
 10
100.2236843282427
 20
-156.7046467707197
 10
100.2236843282427
 20
-156.8210909981211
 10
100.2236843282427
 20
-156.9967908678689
 10
100.3189412184098
 20
-157.1597438843212
 10
100.5029093173222
 20
-157.1597438843212
 10
100.6234876593059
 20
-157.1597438843212
 10
100.7991875290537
 20
-157.1004882419749
 10
100.7991875290537
 20
-156.8148898262477
 10
100.7991875290537
 20
-156.5906141101579
 10
100.6594889071268
 20
-156.4931179079254
 10
100.5240966545565
 20
-156.4931179079254
 97
        0
 97
        0
 75
     2
 76
     1
 98
        0
  0
ENDBLK
  5
CE
330
CB
100
AcDbEntity
  8
0
100
AcDbBlockEnd
  0
BLOCK
  5
DC
330
DA
100
AcDbEntity
  8
0
100
AcDbBlockBegin
  2
block 6
 70
     0
 10
0.0
 20
0.0
 30
0.0
  3
block 6
  1

  0
SPLINE
  5
DE
330
DA
100
AcDbEntity
  8
_U+30EC_U+30A4_U+30E4_U+30FC 1
370
     0
100
AcDbSpline
210
0.0
220
0.0
230
1.0
 70
    11
 71
     3
 72
    32
 73
    28
 74
     0
 42
0.0000000001
 43
0.0000000001
 12
1.0
 22
0.0
 32
0.0
 13
1.0
 23
0.0
 33
0.0
 40
0.0
 40
0.0
 40
0.0
 40
0.0
 40
1.0
 40
1.0
 40
1.0
 40
2.0
 40
2.0
 40
2.0
 40
3.0
 40
3.0
 40
3.0
 40
4.0
 40
4.0
 40
4.0
 40
5.0
 40
5.0
 40
5.0
 40
6.0
 40
6.0
 40
6.0
 40
7.0
 40
7.0
 40
7.0
 40
8.0
 40
8.0
 40
8.0
 40
9.0
 40
9.0
 40
9.0
 40
9.0
 10
120.9083821312312
 20
-150.70432396406
 30
0.0
 10
120.9083821312312
 20
-151.2203992677505
 30
0.0
 10
120.3544107772031
 20
-151.2290120064636
 30
0.0
 10
120.140470347569
 20
-151.2290120064636
 30
0.0
 10
119.9099934596058
 20
-151.2290120064636
 30
0.0
 10
119.2626600179274
 20
-151.2100639812947
 30
0.0
 10
119.2626600179274
 20
-150.6664279137223
 30
0.0
 10
119.2626600179274
 20
-150.4927951012657
 30
0.0
 10
119.332595456278
 20
-150.2475043027159
 30
0.0
 10
119.6647026610561
 20
-150.2092637428296
 30
0.0
 10
119.6647026610561
 20
-150.2092637428296
 30
0.0
 10
119.6647026610561
 20
-150.4232041724636
 30
0.0
 10
119.6647026610561
 20
-150.4232041724636
 30
0.0
 10
119.6075140760009
 20
-150.4335394589194
 30
0.0
 10
119.4593749701352
 20
-150.4652343373837
 30
0.0
 10
119.4593749701352
 20
-150.6684949710134
 30
0.0
 10
119.4593749701352
 20
-150.9602945586141
 30
0.0
 10
119.7873480603309
 20
-151.0006021757915
 30
0.0
 10
119.9923312417033
 20
-151.0130045195384
 30
0.0
 10
119.9141275741881
 20
-150.9199869414367
 30
0.0
 10
119.8548719318418
 20
-150.8524630699258
 30
0.0
 10
119.8548719318418
 20
-150.6705620283046
 30
0.0
 10
119.8548719318418
 20
-150.4907280439745
 30
0.0
 10
119.9630479300787
 20
-150.1882486603696
 30
0.0
 10
120.3692246877896
 20
-150.1882486603696
 30
0.0
 10
120.6885850392723
 20
-150.1882486603696
 30
0.0
 10
120.9083821312312
 20
-150.3870306698685
 30
0.0
 10
120.9083821312312
 20
-150.70432396406
 30
0.0
  0
SPLINE
  5
DF
330
DA
100
AcDbEntity
  8
_U+30EC_U+30A4_U+30E4_U+30FC 1
370
     0
100
AcDbSpline
210
0.0
220
0.0
230
1.0
 70
    11
 71
     3
 72
    17
 73
    13
 74
     0
 42
0.0000000001
 43
0.0000000001
 12
1.0
 22
0.0
 32
0.0
 13
1.0
 23
0.0
 33
0.0
 40
0.0
 40
0.0
 40
0.0
 40
0.0
 40
1.0
 40
1.0
 40
1.0
 40
2.0
 40
2.0
 40
2.0
 40
3.0
 40
3.0
 40
3.0
 40
4.0
 40
4.0
 40
4.0
 40
4.0
 10
120.0495198267585
 20
-150.6874429961823
 30
0.0
 10
120.0495198267585
 20
-150.9496147626098
 30
0.0
 10
120.2610486895528
 20
-150.9878553224961
 30
0.0
 10
120.3774929169542
 20
-150.9878553224961
 30
0.0
 10
120.553192786702
 20
-150.9878553224961
 30
0.0
 10
120.7161458031543
 20
-150.8924261775547
 30
0.0
 10
120.7161458031543
 20
-150.7084580786423
 30
0.0
 10
120.7161458031543
 20
-150.5878797366586
 30
0.0
 10
120.656890160808
 20
-150.4121798669109
 30
0.0
 10
120.3712917450808
 20
-150.4121798669109
 30
0.0
 10
120.147016028991
 20
-150.4121798669109
 30
0.0
 10
120.0495198267585
 20
-150.552050743612
 30
0.0
 10
120.0495198267585
 20
-150.6874429961823
 30
0.0
  0
HATCH
  5
E0
330
DA
100
AcDbEntity
  8
_U+30EC_U+30A4_U+30E4_U+30FC 1
 62
   179
420
  2234388
100
AcDbHatch
 10
0.0
 20
0.0
 30
0.0
210
0.0
220
0.0
230
1.0
  2
SOLID
 70
     1
 71
     0
 91
        2
 92
        1
 93
        1
 72
     4
 94
        3
 73
     0
 74
     1
 95
       32
 96
       28
 40
0.0
 40
0.0
 40
0.0
 40
0.0
 40
1.0
 40
1.0
 40
1.0
 40
2.0
 40
2.0
 40
2.0
 40
3.0
 40
3.0
 40
3.0
 40
4.0
 40
4.0
 40
4.0
 40
5.0
 40
5.0
 40
5.0
 40
6.0
 40
6.0
 40
6.0
 40
7.0
 40
7.0
 40
7.0
 40
8.0
 40
8.0
 40
8.0
 40
9.0
 40
9.0
 40
9.0
 40
9.0
 10
120.9083821312312
 20
-150.70432396406
 10
120.9083821312312
 20
-151.2203992677505
 10
120.3544107772031
 20
-151.2290120064636
 10
120.140470347569
 20
-151.2290120064636
 10
119.9099934596058
 20
-151.2290120064636
 10
119.2626600179274
 20
-151.2100639812947
 10
119.2626600179274
 20
-150.6664279137223
 10
119.2626600179274
 20
-150.4927951012657
 10
119.332595456278
 20
-150.2475043027159
 10
119.6647026610561
 20
-150.2092637428296
 10
119.6647026610561
 20
-150.2092637428296
 10
119.6647026610561
 20
-150.4232041724636
 10
119.6647026610561
 20
-150.4232041724636
 10
119.6075140760009
 20
-150.4335394589194
 10
119.4593749701352
 20
-150.4652343373837
 10
119.4593749701352
 20
-150.6684949710134
 10
119.4593749701352
 20
-150.9602945586141
 10
119.7873480603309
 20
-151.0006021757915
 10
119.9923312417033
 20
-151.0130045195384
 10
119.9141275741881
 20
-150.9199869414367
 10
119.8548719318418
 20
-150.8524630699258
 10
119.8548719318418
 20
-150.6705620283046
 10
119.8548719318418
 20
-150.4907280439745
 10
119.9630479300787
 20
-150.1882486603696
 10
120.3692246877896
 20
-150.1882486603696
 10
120.6885850392723
 20
-150.1882486603696
 10
120.9083821312312
 20
-150.3870306698685
 10
120.9083821312312
 20
-150.70432396406
 97
        0
 97
        0
 92
        1
 93
        1
 72
     4
 94
        3
 73
     0
 74
     1
 95
       17
 96
       13
 40
0.0
 40
0.0
 40
0.0
 40
0.0
 40
1.0
 40
1.0
 40
1.0
 40
2.0
 40
2.0
 40
2.0
 40
3.0
 40
3.0
 40
3.0
 40
4.0
 40
4.0
 40
4.0
 40
4.0
 10
120.0495198267585
 20
-150.6874429961823
 10
120.0495198267585
 20
-150.9496147626098
 10
120.2610486895528
 20
-150.9878553224961
 10
120.3774929169542
 20
-150.9878553224961
 10
120.553192786702
 20
-150.9878553224961
 10
120.7161458031543
 20
-150.8924261775547
 10
120.7161458031543
 20
-150.7084580786423
 10
120.7161458031543
 20
-150.5878797366586
 10
120.656890160808
 20
-150.4121798669109
 10
120.3712917450808
 20
-150.4121798669109
 10
120.147016028991
 20
-150.4121798669109
 10
120.0495198267585
 20
-150.552050743612
 10
120.0495198267585
 20
-150.6874429961823
 97
        0
 97
        0
 75
     2
 76
     1
 98
        0
  0
POLYLINE
  5
E1
330
DA
100
AcDbEntity
  8
_U+30EC_U+30A4_U+30E4_U+30FC 1
370
     0
100
AcDb2dPolyline
 66
     1
 10
0.0
 20
0.0
 30
0.0
  0
VERTEX
  5
E2
330
E1
100
AcDbEntity
  8
_U+30EC_U+30A4_U+30E4_U+30FC 1
370
     0
100
AcDbVertex
100
AcDb2dVertex
 10
120.8577392275981
 20
-149.9718966638959
 30
0.0
  0
VERTEX
  5
E3
330
E1
100
AcDbEntity
  8
_U+30EC_U+30A4_U+30E4_U+30FC 1
370
     0
100
AcDbVertex
100
AcDb2dVertex
 10
120.6059027476263
 20
-149.9718966638959
 30
0.0
  0
VERTEX
  5
E4
330
E1
100
AcDbEntity
  8
_U+30EC_U+30A4_U+30E4_U+30FC 1
370
     0
100
AcDbVertex
100
AcDb2dVertex
 10
120.6059027476263
 20
-149.7200601839241
 30
0.0
  0
VERTEX
  5
E5
330
E1
100
AcDbEntity
  8
_U+30EC_U+30A4_U+30E4_U+30FC 1
370
     0
100
AcDbVertex
100
AcDb2dVertex
 10
120.8577392275981
 20
-149.7200601839241
 30
0.0
  0
VERTEX
  5
E6
330
E1
100
AcDbEntity
  8
_U+30EC_U+30A4_U+30E4_U+30FC 1
370
     0
100
AcDbVertex
100
AcDb2dVertex
 10
120.8577392275981
 20
-149.9718966638959
 30
0.0
  0
SEQEND
  5
E7
330
E1
100
AcDbEntity
  8
_U+30EC_U+30A4_U+30E4_U+30FC 1
370
     0
  0
HATCH
  5
E8
330
DA
100
AcDbEntity
  8
_U+30EC_U+30A4_U+30E4_U+30FC 1
 62
   179
420
  2234388
100
AcDbHatch
 10
0.0
 20
0.0
 30
0.0
210
0.0
220
0.0
230
1.0
  2
SOLID
 70
     1
 71
     0
 91
        1
 92
        1
 93
        4
 72
     1
 10
120.8577392275981
 20
-149.9718966638959
 11
120.6059027476263
 21
-149.9718966638959
 72
     1
 10
120.6059027476263
 20
-149.9718966638959
 11
120.6059027476263
 21
-149.7200601839241
 72
     1
 10
120.6059027476263
 20
-149.7200601839241
 11
120.8577392275981
 21
-149.7200601839241
 72
     1
 10
120.8577392275981
 20
-149.7200601839241
 11
120.8577392275981
 21
-149.9718966638959
 97
        0
 75
     2
 76
     1
 98
        0
  0
SPLINE
  5
E9
330
DA
100
AcDbEntity
  8
_U+30EC_U+30A4_U+30E4_U+30FC 1
370
     0
100
AcDbSpline
210
0.0
220
0.0
230
1.0
 70
    11
 71
     3
 72
    44
 73
    40
 74
     0
 42
0.0000000001
 43
0.0000000001
 12
1.0
 22
0.0
 32
0.0
 13
1.0
 23
0.0
 33
0.0
 40
0.0
 40
0.0
 40
0.0
 40
0.0
 40
1.0
 40
1.0
 40
1.0
 40
2.0
 40
2.0
 40
2.0
 40
3.0
 40
3.0
 40
3.0
 40
4.0
 40
4.0
 40
4.0
 40
5.0
 40
5.0
 40
5.0
 40
6.0
 40
6.0
 40
6.0
 40
7.0
 40
7.0
 40
7.0
 40
8.0
 40
8.0
 40
8.0
 40
9.0
 40
9.0
 40
9.0
 40
10.0
 40
10.0
 40
10.0
 40
11.0
 40
11.0
 40
11.0
 40
12.0
 40
12.0
 40
12.0
 40
13.0
 40
13.0
 40
13.0
 40
13.0
 10
120.2758626001394
 20
-148.8901366815275
 30
0.0
 10
120.4346815020094
 20
-149.1082112257438
 30
0.0
 10
120.5087510549423
 20
-149.2015733133941
 30
0.0
 10
120.6524115366772
 20
-149.2498046501875
 30
0.0
 10
120.6524115366772
 20
-149.2498046501875
 30
0.0
 10
120.6524115366772
 20
-148.4715575800696
 30
0.0
 10
120.6524115366772
 20
-148.4715575800696
 30
0.0
 10
120.6524115366772
 20
-148.4715575800696
 30
0.0
 10
120.8577392275981
 20
-148.4715575800696
 30
0.0
 10
120.8577392275981
 20
-148.4715575800696
 30
0.0
 10
120.8577392275981
 20
-148.4715575800696
 30
0.0
 10
120.8577392275981
 20
-149.4995740728682
 30
0.0
 10
120.8577392275981
 20
-149.4995740728682
 30
0.0
 10
120.5001383162291
 20
-149.4678791944039
 30
0.0
 10
120.421934648714
 20
-149.4024223801841
 30
0.0
 10
120.1235893796913
 20
-149.0172607049332
 30
0.0
 10
119.9248073701924
 20
-148.7612901103791
 30
0.0
 10
119.856938989133
 20
-148.6958332961594
 30
0.0
 10
119.7194796792715
 20
-148.6958332961594
 30
0.0
 10
119.6009683945789
 20
-148.6958332961594
 30
0.0
 10
119.4700547661394
 20
-148.7676635370268
 30
0.0
 10
119.4700547661394
 20
-148.9645507440089
 30
0.0
 10
119.4700547661394
 20
-149.2246554531452
 30
0.0
 10
119.7005316541026
 20
-149.2332681918583
 30
0.0
 10
119.8169758815041
 20
-149.2374023064407
 30
0.0
 10
119.8169758815041
 20
-149.2374023064407
 30
0.0
 10
119.8169758815041
 20
-149.4613335129819
 30
0.0
 10
119.8169758815041
 20
-149.4613335129819
 30
0.0
 10
119.6898518580984
 20
-149.4530652838173
 30
0.0
 10
119.5778862548278
 20
-149.4427299973615
 30
0.0
 10
119.4593749701352
 20
-149.3621147630067
 30
0.0
 10
119.298489010974
 20
-149.2522162170272
 30
0.0
 10
119.2647270752185
 20
-149.0658365512752
 30
0.0
 10
119.2647270752185
 20
-148.9493923238738
 30
0.0
 10
119.2647270752185
 20
-148.6724066468597
 30
0.0
 10
119.4486951741309
 20
-148.4651841534219
 30
0.0
 10
119.7215467365627
 20
-148.4651841534219
 30
0.0
 10
119.9503010767833
 20
-148.4651841534219
 30
0.0
 10
120.0495198267585
 20
-148.5814561260491
 30
0.0
 10
120.2758626001394
 20
-148.8901366815275
 30
0.0
  0
HATCH
  5
EA
330
DA
100
AcDbEntity
  8
_U+30EC_U+30A4_U+30E4_U+30FC 1
 62
   179
420
  2234388
100
AcDbHatch
 10
0.0
 20
0.0
 30
0.0
210
0.0
220
0.0
230
1.0
  2
SOLID
 70
     1
 71
     0
 91
        1
 92
        1
 93
        1
 72
     4
 94
        3
 73
     0
 74
     1
 95
       44
 96
       40
 40
0.0
 40
0.0
 40
0.0
 40
0.0
 40
1.0
 40
1.0
 40
1.0
 40
2.0
 40
2.0
 40
2.0
 40
3.0
 40
3.0
 40
3.0
 40
4.0
 40
4.0
 40
4.0
 40
5.0
 40
5.0
 40
5.0
 40
6.0
 40
6.0
 40
6.0
 40
7.0
 40
7.0
 40
7.0
 40
8.0
 40
8.0
 40
8.0
 40
9.0
 40
9.0
 40
9.0
 40
10.0
 40
10.0
 40
10.0
 40
11.0
 40
11.0
 40
11.0
 40
12.0
 40
12.0
 40
12.0
 40
13.0
 40
13.0
 40
13.0
 40
13.0
 10
120.2758626001394
 20
-148.8901366815275
 10
120.4346815020094
 20
-149.1082112257438
 10
120.5087510549423
 20
-149.2015733133941
 10
120.6524115366772
 20
-149.2498046501875
 10
120.6524115366772
 20
-149.2498046501875
 10
120.6524115366772
 20
-148.4715575800696
 10
120.6524115366772
 20
-148.4715575800696
 10
120.6524115366772
 20
-148.4715575800696
 10
120.8577392275981
 20
-148.4715575800696
 10
120.8577392275981
 20
-148.4715575800696
 10
120.8577392275981
 20
-148.4715575800696
 10
120.8577392275981
 20
-149.4995740728682
 10
120.8577392275981
 20
-149.4995740728682
 10
120.5001383162291
 20
-149.4678791944039
 10
120.421934648714
 20
-149.4024223801841
 10
120.1235893796913
 20
-149.0172607049332
 10
119.9248073701924
 20
-148.7612901103791
 10
119.856938989133
 20
-148.6958332961594
 10
119.7194796792715
 20
-148.6958332961594
 10
119.6009683945789
 20
-148.6958332961594
 10
119.4700547661394
 20
-148.7676635370268
 10
119.4700547661394
 20
-148.9645507440089
 10
119.4700547661394
 20
-149.2246554531452
 10
119.7005316541026
 20
-149.2332681918583
 10
119.8169758815041
 20
-149.2374023064407
 10
119.8169758815041
 20
-149.2374023064407
 10
119.8169758815041
 20
-149.4613335129819
 10
119.8169758815041
 20
-149.4613335129819
 10
119.6898518580984
 20
-149.4530652838173
 10
119.5778862548278
 20
-149.4427299973615
 10
119.4593749701352
 20
-149.3621147630067
 10
119.298489010974
 20
-149.2522162170272
 10
119.2647270752185
 20
-149.0658365512752
 10
119.2647270752185
 20
-148.9493923238738
 10
119.2647270752185
 20
-148.6724066468597
 10
119.4486951741309
 20
-148.4651841534219
 10
119.7215467365627
 20
-148.4651841534219
 10
119.9503010767833
 20
-148.4651841534219
 10
120.0495198267585
 20
-148.5814561260491
 10
120.2758626001394
 20
-148.8901366815275
 97
        0
 97
        0
 75
     2
 76
     1
 98
        0
  0
ENDBLK
  5
DD
330
DA
100
AcDbEntity
  8
0
100
AcDbBlockEnd
  0
ENDSEC
  0
SECTION
  2
ENTITIES
  0
POLYLINE
  5
41
330
1F
100
AcDbEntity
  8
_U+30EC_U+30A4_U+30E4_U+30FC 1
370
     0
100
AcDb2dPolyline
 66
     1
 10
0.0
 20
0.0
 30
0.0
  0
VERTEX
  5
42
330
41
100
AcDbEntity
  8
_U+30EC_U+30A4_U+30E4_U+30FC 1
370
     0
100
AcDbVertex
100
AcDb2dVertex
 10
87.44045297767873
 20
-146.7467059298389
 30
0.0
  0
VERTEX
  5
43
330
41
100
AcDbEntity
  8
_U+30EC_U+30A4_U+30E4_U+30FC 1
370
     0
100
AcDbVertex
100
AcDb2dVertex
 10
97.50378951708049
 20
-146.7467059298389
 30
0.0
  0
VERTEX
  5
44
330
41
100
AcDbEntity
  8
_U+30EC_U+30A4_U+30E4_U+30FC 1
370
     0
100
AcDbVertex
100
AcDb2dVertex
 10
97.50378951708049
 20
-153.9479674908099
 30
0.0
  0
VERTEX
  5
45
330
41
100
AcDbEntity
  8
_U+30EC_U+30A4_U+30E4_U+30FC 1
370
     0
100
AcDbVertex
100
AcDb2dVertex
 10
103.504184993723
 20
-153.9479674908099
 30
0.0
  0
VERTEX
  5
46
330
41
100
AcDbEntity
  8
_U+30EC_U+30A4_U+30E4_U+30FC 1
370
     0
100
AcDbVertex
100
AcDb2dVertex
 10
103.504184993723
 20
-152.9474902300466
 30
0.0
  0
VERTEX
  5
47
330
41
100
AcDbEntity
  8
_U+30EC_U+30A4_U+30E4_U+30FC 1
370
     0
100
AcDbVertex
100
AcDb2dVertex
 10
98.4040790947634
 20
-152.9474902300466
 30
0.0
  0
VERTEX
  5
48
330
41
100
AcDbEntity
  8
_U+30EC_U+30A4_U+30E4_U+30FC 1
370
     0
100
AcDbVertex
100
AcDb2dVertex
 10
98.4040790947634
 20
-146.7467059298389
 30
0.0
  0
VERTEX
  5
49
330
41
100
AcDbEntity
  8
_U+30EC_U+30A4_U+30E4_U+30FC 1
370
     0
100
AcDbVertex
100
AcDb2dVertex
 10
117.50382034755
 20
-146.7467059298389
 30
0.0
  0
VERTEX
  5
4A
330
41
100
AcDbEntity
  8
_U+30EC_U+30A4_U+30E4_U+30FC 1
370
     0
100
AcDbVertex
100
AcDb2dVertex
 10
117.50382034755
 20
-145.7469392200194
 30
0.0
  0
VERTEX
  5
4B
330
41
100
AcDbEntity
  8
_U+30EC_U+30A4_U+30E4_U+30FC 1
370
     0
100
AcDbVertex
100
AcDb2dVertex
 10
87.44045297767873
 20
-145.7469392200194
 30
0.0
  0
VERTEX
  5
4C
330
41
100
AcDbEntity
  8
_U+30EC_U+30A4_U+30E4_U+30FC 1
370
     0
100
AcDbVertex
100
AcDb2dVertex
 10
87.44045297767873
 20
-146.7467059298389
 30
0.0
  0
SEQEND
  5
4E
330
41
100
AcDbEntity
  8
_U+30EC_U+30A4_U+30E4_U+30FC 1
370
     0
  0
HATCH
  5
4D
330
1F
100
AcDbEntity
  8
_U+30EC_U+30A4_U+30E4_U+30FC 1
 62
     9
420
 13224394
100
AcDbHatch
 10
0.0
 20
0.0
 30
0.0
210
0.0
220
0.0
230
1.0
  2
SOLID
 70
     1
 71
     0
 91
        1
 92
        1
 93
       10
 72
     1
 10
87.44045297767873
 20
-146.7467059298389
 11
97.50378951708049
 21
-146.7467059298389
 72
     1
 10
97.50378951708049
 20
-146.7467059298389
 11
97.50378951708049
 21
-153.9479674908099
 72
     1
 10
97.50378951708049
 20
-153.9479674908099
 11
103.504184993723
 21
-153.9479674908099
 72
     1
 10
103.504184993723
 20
-153.9479674908099
 11
103.504184993723
 21
-152.9474902300466
 72
     1
 10
103.504184993723
 20
-152.9474902300466
 11
98.4040790947634
 21
-152.9474902300466
 72
     1
 10
98.4040790947634
 20
-152.9474902300466
 11
98.4040790947634
 21
-146.7467059298389
 72
     1
 10
98.4040790947634
 20
-146.7467059298389
 11
117.50382034755
 21
-146.7467059298389
 72
     1
 10
117.50382034755
 20
-146.7467059298389
 11
117.50382034755
 21
-145.7469392200194
 72
     1
 10
117.50382034755
 20
-145.7469392200194
 11
87.44045297767873
 21
-145.7469392200194
 72
     1
 10
87.44045297767873
 20
-145.7469392200194
 11
87.44045297767873
 21
-146.7467059298389
 97
        0
 75
     2
 76
     1
 98
        0
  0
POLYLINE
  5
4F
330
1F
100
AcDbEntity
  8
_U+30EC_U+30A4_U+30E4_U+30FC 1
 62
   179
420
  2234388
370
    25
100
AcDb2dPolyline
 66
     1
 10
0.0
 20
0.0
 30
0.0
  0
VERTEX
  5
50
330
4F
100
AcDbEntity
  8
_U+30EC_U+30A4_U+30E4_U+30FC 1
 62
   179
420
  2234388
370
    25
100
AcDbVertex
100
AcDb2dVertex
 10
87.50384542608818
 20
-145.7469392200194
 30
0.0
  0
VERTEX
  5
51
330
4F
100
AcDbEntity
  8
_U+30EC_U+30A4_U+30E4_U+30FC 1
 62
   179
420
  2234388
370
    25
100
AcDbVertex
100
AcDb2dVertex
 10
117.504067963788
 20
-145.7469392200194
 30
0.0
  0
SEQEND
  5
52
330
4F
100
AcDbEntity
  8
_U+30EC_U+30A4_U+30E4_U+30FC 1
 62
   179
420
  2234388
370
    25
  0
POLYLINE
  5
53
330
1F
100
AcDbEntity
  8
_U+30EC_U+30A4_U+30E4_U+30FC 1
 62
   179
420
  2234388
370
    25
100
AcDb2dPolyline
 66
     1
 10
0.0
 20
0.0
 30
0.0
  0
VERTEX
  5
54
330
53
100
AcDbEntity
  8
_U+30EC_U+30A4_U+30E4_U+30FC 1
 62
   179
420
  2234388
370
    25
100
AcDbVertex
100
AcDb2dVertex
 10
87.5042007015601
 20
-146.7467059298389
 30
0.0
  0
VERTEX
  5
55
330
53
100
AcDbEntity
  8
_U+30EC_U+30A4_U+30E4_U+30FC 1
 62
   179
420
  2234388
370
    25
100
AcDbVertex
100
AcDb2dVertex
 10
97.50403982479934
 20
-146.7467059298389
 30
0.0
  0
SEQEND
  5
56
330
53
100
AcDbEntity
  8
_U+30EC_U+30A4_U+30E4_U+30FC 1
 62
   179
420
  2234388
370
    25
  0
POLYLINE
  5
57
330
1F
100
AcDbEntity
  8
_U+30EC_U+30A4_U+30E4_U+30FC 1
 62
   179
420
  2234388
370
    25
100
AcDb2dPolyline
 66
     1
 10
0.0
 20
0.0
 30
0.0
  0
VERTEX
  5
58
330
57
100
AcDbEntity
  8
_U+30EC_U+30A4_U+30E4_U+30FC 1
 62
   179
420
  2234388
370
    25
100
AcDbVertex
100
AcDb2dVertex
 10
97.50393216556543
 20
-146.7467059298389
 30
0.0
  0
VERTEX
  5
59
330
57
100
AcDbEntity
  8
_U+30EC_U+30A4_U+30E4_U+30FC 1
 62
   179
420
  2234388
370
    25
100
AcDbVertex
100
AcDb2dVertex
 10
97.50393216556543
 20
-153.9479674908099
 30
0.0
  0
SEQEND
  5
5A
330
57
100
AcDbEntity
  8
_U+30EC_U+30A4_U+30E4_U+30FC 1
 62
   179
420
  2234388
370
    25
  0
POLYLINE
  5
5B
330
1F
100
AcDbEntity
  8
_U+30EC_U+30A4_U+30E4_U+30FC 1
 62
   179
420
  2234388
370
    25
100
AcDb2dPolyline
 66
     1
 10
0.0
 20
0.0
 30
0.0
  0
VERTEX
  5
5C
330
5B
100
AcDbEntity
  8
_U+30EC_U+30A4_U+30E4_U+30FC 1
 62
   179
420
  2234388
370
    25
100
AcDbVertex
100
AcDb2dVertex
 10
98.40411677549527
 20
-146.7467059298389
 30
0.0
  0
VERTEX
  5
5D
330
5B
100
AcDbEntity
  8
_U+30EC_U+30A4_U+30E4_U+30FC 1
 62
   179
420
  2234388
370
    25
100
AcDbVertex
100
AcDb2dVertex
 10
117.5038580282819
 20
-146.7467059298389
 30
0.0
  0
SEQEND
  5
5E
330
5B
100
AcDbEntity
  8
_U+30EC_U+30A4_U+30E4_U+30FC 1
 62
   179
420
  2234388
370
    25
  0
POLYLINE
  5
5F
330
1F
100
AcDbEntity
  8
_U+30EC_U+30A4_U+30E4_U+30FC 1
 62
   179
420
  2234388
370
    25
100
AcDb2dPolyline
 66
     1
 10
0.0
 20
0.0
 30
0.0
  0
VERTEX
  5
60
330
5F
100
AcDbEntity
  8
_U+30EC_U+30A4_U+30E4_U+30FC 1
 62
   179
420
  2234388
370
    25
100
AcDbVertex
100
AcDb2dVertex
 10
98.40411677549527
 20
-152.9474794641232
 30
0.0
  0
VERTEX
  5
61
330
5F
100
AcDbEntity
  8
_U+30EC_U+30A4_U+30E4_U+30FC 1
 62
   179
420
  2234388
370
    25
100
AcDbVertex
100
AcDb2dVertex
 10
103.5042226744549
 20
-152.9474794641232
 30
0.0
  0
SEQEND
  5
62
330
5F
100
AcDbEntity
  8
_U+30EC_U+30A4_U+30E4_U+30FC 1
 62
   179
420
  2234388
370
    25
  0
POLYLINE
  5
63
330
1F
100
AcDbEntity
  8
_U+30EC_U+30A4_U+30E4_U+30FC 1
 62
   179
420
  2234388
370
    25
100
AcDb2dPolyline
 66
     1
 10
0.0
 20
0.0
 30
0.0
  0
VERTEX
  5
64
330
63
100
AcDbEntity
  8
_U+30EC_U+30A4_U+30E4_U+30FC 1
 62
   179
420
  2234388
370
    25
100
AcDbVertex
100
AcDb2dVertex
 10
97.50393216556543
 20
-153.9479567248865
 30
0.0
  0
VERTEX
  5
65
330
63
100
AcDbEntity
  8
_U+30EC_U+30A4_U+30E4_U+30FC 1
 62
   179
420
  2234388
370
    25
100
AcDbVertex
100
AcDb2dVertex
 10
103.5039750582172
 20
-153.9479567248865
 30
0.0
  0
SEQEND
  5
66
330
63
100
AcDbEntity
  8
_U+30EC_U+30A4_U+30E4_U+30FC 1
 62
   179
420
  2234388
370
    25
  0
POLYLINE
  5
67
330
1F
100
AcDbEntity
  8
_U+30EC_U+30A4_U+30E4_U+30FC 1
 62
   179
420
  2234388
370
    25
100
AcDb2dPolyline
 66
     1
 10
0.0
 20
0.0
 30
0.0
  0
VERTEX
  5
68
330
67
100
AcDbEntity
  8
_U+30EC_U+30A4_U+30E4_U+30FC 1
 62
   179
420
  2234388
370
    25
100
AcDbVertex
100
AcDb2dVertex
 10
103.5040827174508
 20
-152.9474794641232
 30
0.0
  0
VERTEX
  5
69
330
67
100
AcDbEntity
  8
_U+30EC_U+30A4_U+30E4_U+30FC 1
 62
   179
420
  2234388
370
    25
100
AcDbVertex
100
AcDb2dVertex
 10
103.5040827174508
 20
-153.9479674908099
 30
0.0
  0
SEQEND
  5
6A
330
67
100
AcDbEntity
  8
_U+30EC_U+30A4_U+30E4_U+30FC 1
 62
   179
420
  2234388
370
    25
  0
POLYLINE
  5
6B
330
1F
100
AcDbEntity
  8
_U+30EC_U+30A4_U+30E4_U+30FC 1
 62
   179
420
  2234388
370
    25
100
AcDb2dPolyline
 66
     1
 10
0.0
 20
0.0
 30
0.0
  0
VERTEX
  5
6C
330
6B
100
AcDbEntity
  8
_U+30EC_U+30A4_U+30E4_U+30FC 1
 62
   179
420
  2234388
370
    25
100
AcDbVertex
100
AcDb2dVertex
 10
87.44355625509631
 20
-145.7469392200194
 30
0.0
  0
VERTEX
  5
6D
330
6B
100
AcDbEntity
  8
_U+30EC_U+30A4_U+30E4_U+30FC 1
 62
   179
420
  2234388
370
    25
100
AcDbVertex
100
AcDb2dVertex
 10
87.44355625509631
 20
-146.7467166957623
 30
0.0
  0
SEQEND
  5
6E
330
6B
100
AcDbEntity
  8
_U+30EC_U+30A4_U+30E4_U+30FC 1
 62
   179
420
  2234388
370
    25
  0
POLYLINE
  5
6F
330
1F
100
AcDbEntity
  8
_U+30EC_U+30A4_U+30E4_U+30FC 1
 62
   179
420
  2234388
370
    25
100
AcDb2dPolyline
 66
     1
 10
0.0
 20
0.0
 30
0.0
  0
VERTEX
  5
70
330
6F
100
AcDbEntity
  8
_U+30EC_U+30A4_U+30E4_U+30FC 1
 62
   179
420
  2234388
370
    25
100
AcDbVertex
100
AcDb2dVertex
 10
117.5038580282819
 20
-145.7469392200194
 30
0.0
  0
VERTEX
  5
71
330
6F
100
AcDbEntity
  8
_U+30EC_U+30A4_U+30E4_U+30FC 1
 62
   179
420
  2234388
370
    25
100
AcDbVertex
100
AcDb2dVertex
 10
117.5038580282819
 20
-146.7467166957623
 30
0.0
  0
SEQEND
  5
72
330
6F
100
AcDbEntity
  8
_U+30EC_U+30A4_U+30E4_U+30FC 1
 62
   179
420
  2234388
370
    25
  0
POLYLINE
  5
73
330
1F
100
AcDbEntity
  8
_U+30EC_U+30A4_U+30E4_U+30FC 1
 62
   179
420
  2234388
370
    25
100
AcDb2dPolyline
 66
     1
 10
0.0
 20
0.0
 30
0.0
  0
VERTEX
  5
74
330
73
100
AcDbEntity
  8
_U+30EC_U+30A4_U+30E4_U+30FC 1
 62
   179
420
  2234388
370
    25
100
AcDbVertex
100
AcDb2dVertex
 10
98.40411677549527
 20
-146.7467059298389
 30
0.0
  0
VERTEX
  5
75
330
73
100
AcDbEntity
  8
_U+30EC_U+30A4_U+30E4_U+30FC 1
 62
   179
420
  2234388
370
    25
100
AcDbVertex
100
AcDb2dVertex
 10
98.40411677549527
 20
-152.9474902300466
 30
0.0
  0
SEQEND
  5
76
330
73
100
AcDbEntity
  8
_U+30EC_U+30A4_U+30E4_U+30FC 1
 62
   179
420
  2234388
370
    25
  0
SPLINE
  5
77
330
1F
100
AcDbEntity
  8
_U+30EC_U+30A4_U+30E4_U+30FC 1
 62
   179
420
  2234388
370
     9
100
AcDbSpline
210
0.0
220
0.0
230
1.0
 70
    11
 71
     3
 72
    17
 73
    13
 74
     0
 42
0.0000000001
 43
0.0000000001
 12
1.0
 22
0.0
 32
0.0
 13
1.0
 23
0.0
 33
0.0
 40
0.0
 40
0.0
 40
0.0
 40
0.0
 40
1.0
 40
1.0
 40
1.0
 40
2.0
 40
2.0
 40
2.0
 40
3.0
 40
3.0
 40
3.0
 40
4.0
 40
4.0
 40
4.0
 40
4.0
 10
87.52138042381193
 20
-141.7464728107005
 30
0.0
 10
87.52138042381193
 20
-141.6914481762471
 30
0.0
 10
87.47657534213775
 20
-141.646640403092
 30
0.0
 10
87.42154263324173
 20
-141.646640403092
 30
0.0
 10
87.36650992434572
 20
-141.646640403092
 30
0.0
 10
87.32170753415238
 20
-141.6914481762471
 30
0.0
 10
87.32170753415238
 20
-141.7464728107005
 30
0.0
 10
87.32170753415238
 20
-141.8015082110774
 30
0.0
 10
87.36650992434572
 20
-141.8463159842324
 30
0.0
 10
87.42154263324173
 20
-141.8463159842324
 30
0.0
 10
87.47657534213775
 20
-141.8463159842324
 30
0.0
 10
87.52138042381193
 20
-141.8015082110774
 30
0.0
 10
87.52138042381193
 20
-141.7464728107005
 30
0.0
  0
SPLINE
  5
78
330
1F
100
AcDbEntity
  8
_U+30EC_U+30A4_U+30E4_U+30FC 1
 62
   179
420
  2234388
370
     9
100
AcDbSpline
210
0.0
220
0.0
230
1.0
 70
    11
 71
     3
 72
    17
 73
    13
 74
     0
 42
0.0000000001
 43
0.0000000001
 12
1.0
 22
0.0
 32
0.0
 13
1.0
 23
0.0
 33
0.0
 40
0.0
 40
0.0
 40
0.0
 40
0.0
 40
1.0
 40
1.0
 40
1.0
 40
2.0
 40
2.0
 40
2.0
 40
3.0
 40
3.0
 40
3.0
 40
4.0
 40
4.0
 40
4.0
 40
4.0
 10
117.6037980951243
 20
-141.7464728107005
 30
0.0
 10
117.6037980951243
 20
-141.6914481762471
 30
0.0
 10
117.5597008729131
 20
-141.646640403092
 30
0.0
 10
117.5039603045541
 20
-141.646640403092
 30
0.0
 10
117.4489249041773
 20
-141.646640403092
 30
0.0
 10
117.4041225139839
 20
-141.6914481762471
 30
0.0
 10
117.4041225139839
 20
-141.7464728107005
 30
0.0
 10
117.4041225139839
 20
-141.8015082110774
 30
0.0
 10
117.4489249041773
 20
-141.8463159842324
 30
0.0
 10
117.5039603045541
 20
-141.8463159842324
 30
0.0
 10
117.5597008729131
 20
-141.8463159842324
 30
0.0
 10
117.6037980951243
 20
-141.8015082110774
 30
0.0
 10
117.6037980951243
 20
-141.7464728107005
 30
0.0
  0
SPLINE
  5
79
330
1F
100
AcDbEntity
  8
_U+30EC_U+30A4_U+30E4_U+30FC 1
 62
   179
420
  2234388
370
     9
100
AcDbSpline
210
0.0
220
0.0
230
1.0
 70
    11
 71
     3
 72
    17
 73
    13
 74
     0
 42
0.0000000001
 43
0.0000000001
 12
1.0
 22
0.0
 32
0.0
 13
1.0
 23
0.0
 33
0.0
 40
0.0
 40
0.0
 40
0.0
 40
0.0
 40
1.0
 40
1.0
 40
1.0
 40
2.0
 40
2.0
 40
2.0
 40
3.0
 40
3.0
 40
3.0
 40
4.0
 40
4.0
 40
4.0
 40
4.0
 10
121.6042645044432
 20
-146.7467059298389
 30
0.0
 10
121.6042645044432
 20
-146.6916812953855
 30
0.0
 10
121.5594567312882
 20
-146.6468735222304
 30
0.0
 10
121.504426713873
 20
-146.6468735222304
 30
0.0
 10
121.4493913134962
 20
-146.6468735222304
 30
0.0
 10
121.4045889233028
 20
-146.6916812953855
 30
0.0
 10
121.4045889233028
 20
-146.7467059298389
 30
0.0
 10
121.4045889233028
 20
-146.8017413302158
 30
0.0
 10
121.4493913134962
 20
-146.8465491033712
 30
0.0
 10
121.504426713873
 20
-146.8465491033712
 30
0.0
 10
121.5594567312882
 20
-146.8465491033712
 30
0.0
 10
121.6042645044432
 20
-146.8017413302158
 30
0.0
 10
121.6042645044432
 20
-146.7467059298389
 30
0.0
  0
SPLINE
  5
7A
330
1F
100
AcDbEntity
  8
_U+30EC_U+30A4_U+30E4_U+30FC 1
 62
   179
420
  2234388
370
     9
100
AcDbSpline
210
0.0
220
0.0
230
1.0
 70
    11
 71
     3
 72
    17
 73
    13
 74
     0
 42
0.0000000001
 43
0.0000000001
 12
1.0
 22
0.0
 32
0.0
 13
1.0
 23
0.0
 33
0.0
 40
0.0
 40
0.0
 40
0.0
 40
0.0
 40
1.0
 40
1.0
 40
1.0
 40
2.0
 40
2.0
 40
2.0
 40
3.0
 40
3.0
 40
3.0
 40
4.0
 40
4.0
 40
4.0
 40
4.0
 10
121.6042645044432
 20
-145.7469392200194
 30
0.0
 10
121.6042645044432
 20
-145.6912040346221
 30
0.0
 10
121.5594567312882
 20
-145.6464070273905
 30
0.0
 10
121.504426713873
 20
-145.6464070273905
 30
0.0
 10
121.4493913134962
 20
-145.6464070273905
 30
0.0
 10
121.4045889233028
 20
-145.6912040346221
 30
0.0
 10
121.4045889233028
 20
-145.7469392200194
 30
0.0
 10
121.4045889233028
 20
-145.8019746203963
 30
0.0
 10
121.4493913134962
 20
-145.8467823935516
 30
0.0
 10
121.504426713873
 20
-145.8467823935516
 30
0.0
 10
121.5594567312882
 20
-145.8467823935516
 30
0.0
 10
121.6042645044432
 20
-145.8019746203963
 30
0.0
 10
121.6042645044432
 20
-145.7469392200194
 30
0.0
  0
SPLINE
  5
7B
330
1F
100
AcDbEntity
  8
_U+30EC_U+30A4_U+30E4_U+30FC 1
 62
   179
420
  2234388
370
     9
100
AcDbSpline
210
0.0
220
0.0
230
1.0
 70
    11
 71
     3
 72
    17
 73
    13
 74
     0
 42
0.0000000001
 43
0.0000000001
 12
1.0
 22
0.0
 32
0.0
 13
1.0
 23
0.0
 33
0.0
 40
0.0
 40
0.0
 40
0.0
 40
0.0
 40
1.0
 40
1.0
 40
1.0
 40
2.0
 40
2.0
 40
2.0
 40
3.0
 40
3.0
 40
3.0
 40
4.0
 40
4.0
 40
4.0
 40
4.0
 10
121.6042645044432
 20
-152.9474794641232
 30
0.0
 10
121.6042645044432
 20
-152.8924548296697
 30
0.0
 10
121.5594567312882
 20
-152.8476470565147
 30
0.0
 10
121.504426713873
 20
-152.8476470565147
 30
0.0
 10
121.4493913134962
 20
-152.8476470565147
 30
0.0
 10
121.4045889233028
 20
-152.8924548296697
 30
0.0
 10
121.4045889233028
 20
-152.9474794641232
 30
0.0
 10
121.4045889233028
 20
-153.0025148645
 30
0.0
 10
121.4493913134962
 20
-153.0473226376551
 30
0.0
 10
121.504426713873
 20
-153.0473226376551
 30
0.0
 10
121.5594567312882
 20
-153.0473226376551
 30
0.0
 10
121.6042645044432
 20
-153.0025148645
 30
0.0
 10
121.6042645044432
 20
-152.9474794641232
 30
0.0
  0
SPLINE
  5
7C
330
1F
100
AcDbEntity
  8
_U+30EC_U+30A4_U+30E4_U+30FC 1
 62
   179
420
  2234388
370
     9
100
AcDbSpline
210
0.0
220
0.0
230
1.0
 70
    11
 71
     3
 72
    17
 73
    13
 74
     0
 42
0.0000000001
 43
0.0000000001
 12
1.0
 22
0.0
 32
0.0
 13
1.0
 23
0.0
 33
0.0
 40
0.0
 40
0.0
 40
0.0
 40
0.0
 40
1.0
 40
1.0
 40
1.0
 40
2.0
 40
2.0
 40
2.0
 40
3.0
 40
3.0
 40
3.0
 40
4.0
 40
4.0
 40
4.0
 40
4.0
 10
97.60415752937772
 20
-157.9477233491849
 30
0.0
 10
97.60415752937772
 20
-157.8926987147315
 30
0.0
 10
97.55935244770353
 20
-157.8478909415765
 30
0.0
 10
97.50396715481645
 20
-157.8478909415765
 30
0.0
 10
97.44893444592043
 20
-157.8478909415765
 30
0.0
 10
97.4041320557271
 20
-157.8926987147315
 30
0.0
 10
97.4041320557271
 20
-157.9477233491849
 30
0.0
 10
97.4041320557271
 20
-158.0027587495618
 30
0.0
 10
97.44893444592043
 20
-158.0475665227168
 30
0.0
 10
97.50396715481645
 20
-158.0475665227168
 30
0.0
 10
97.55935244770353
 20
-158.0475665227168
 30
0.0
 10
97.60415752937772
 20
-158.0027587495618
 30
0.0
 10
97.60415752937772
 20
-157.9477233491849
 30
0.0
  0
SPLINE
  5
7D
330
1F
100
AcDbEntity
  8
_U+30EC_U+30A4_U+30E4_U+30FC 1
 62
   179
420
  2234388
370
     9
100
AcDbSpline
210
0.0
220
0.0
230
1.0
 70
    11
 71
     3
 72
    17
 73
    13
 74
     0
 42
0.0000000001
 43
0.0000000001
 12
1.0
 22
0.0
 32
0.0
 13
1.0
 23
0.0
 33
0.0
 40
0.0
 40
0.0
 40
0.0
 40
0.0
 40
1.0
 40
1.0
 40
1.0
 40
2.0
 40
2.0
 40
2.0
 40
3.0
 40
3.0
 40
3.0
 40
4.0
 40
4.0
 40
4.0
 40
4.0
 10
103.6039528057912
 20
-157.9477233491849
 30
0.0
 10
103.6039528057912
 20
-157.8926987147315
 30
0.0
 10
103.5591450326362
 20
-157.8478909415765
 30
0.0
 10
103.504115015221
 20
-157.8478909415765
 30
0.0
 10
103.4490796148441
 20
-157.8478909415765
 30
0.0
 10
103.4042772246508
 20
-157.8926987147315
 30
0.0
 10
103.4042772246508
 20
-157.9477233491849
 30
0.0
 10
103.4042772246508
 20
-158.0027587495618
 30
0.0
 10
103.4490796148441
 20
-158.0475665227168
 30
0.0
 10
103.504115015221
 20
-158.0475665227168
 30
0.0
 10
103.5591450326362
 20
-158.0475665227168
 30
0.0
 10
103.6039528057912
 20
-158.0027587495618
 30
0.0
 10
103.6039528057912
 20
-157.9477233491849
 30
0.0
  0
SPLINE
  5
7E
330
1F
100
AcDbEntity
  8
_U+30EC_U+30A4_U+30E4_U+30FC 1
 62
   179
420
  2234388
370
     9
100
AcDbSpline
210
0.0
220
0.0
230
1.0
 70
    11
 71
     3
 72
    17
 73
    13
 74
     0
 42
0.0000000001
 43
0.0000000001
 12
1.0
 22
0.0
 32
0.0
 13
1.0
 23
0.0
 33
0.0
 40
0.0
 40
0.0
 40
0.0
 40
0.0
 40
1.0
 40
1.0
 40
1.0
 40
2.0
 40
2.0
 40
2.0
 40
3.0
 40
3.0
 40
3.0
 40
4.0
 40
4.0
 40
4.0
 40
4.0
 10
87.60957486823433
 20
-157.9477233491849
 30
0.0
 10
87.60957486823433
 20
-157.8926987147315
 30
0.0
 10
87.56476978656015
 20
-157.8478909415765
 30
0.0
 10
87.50973707766413
 20
-157.8478909415765
 30
0.0
 10
87.4547043687681
 20
-157.8478909415765
 30
0.0
 10
87.40990197857478
 20
-157.8926987147315
 30
0.0
 10
87.40990197857478
 20
-157.9477233491849
 30
0.0
 10
87.40990197857478
 20
-158.0027587495618
 30
0.0
 10
87.4547043687681
 20
-158.0475665227168
 30
0.0
 10
87.50973707766413
 20
-158.0475665227168
 30
0.0
 10
87.56476978656015
 20
-158.0475665227168
 30
0.0
 10
87.60957486823433
 20
-158.0027587495618
 30
0.0
 10
87.60957486823433
 20
-157.9477233491849
 30
0.0
  0
POLYLINE
  5
7F
330
1F
100
AcDbEntity
  8
_U+30EC_U+30A4_U+30E4_U+30FC 1
 62
   179
420
  2234388
370
     9
100
AcDb2dPolyline
 66
     1
 10
0.0
 20
0.0
 30
0.0
  0
VERTEX
  5
80
330
7F
100
AcDbEntity
  8
_U+30EC_U+30A4_U+30E4_U+30FC 1
 62
   179
420
  2234388
370
     9
100
AcDbVertex
100
AcDb2dVertex
 10
121.504356735371
 20
-145.7469392200194
 30
0.0
  0
VERTEX
  5
81
330
7F
100
AcDbEntity
  8
_U+30EC_U+30A4_U+30E4_U+30FC 1
 62
   179
420
  2234388
370
     9
100
AcDbVertex
100
AcDb2dVertex
 10
121.504356735371
 20
-141.9764544661878
 30
0.0
  0
SEQEND
  5
82
330
7F
100
AcDbEntity
  8
_U+30EC_U+30A4_U+30E4_U+30FC 1
 62
   179
420
  2234388
370
     9
  0
POLYLINE
  5
83
330
1F
100
AcDbEntity
  8
_U+30EC_U+30A4_U+30E4_U+30FC 1
 62
   179
420
  2234388
370
     9
100
AcDb2dPolyline
 66
     1
 10
0.0
 20
0.0
 30
0.0
  0
VERTEX
  5
84
330
83
100
AcDbEntity
  8
_U+30EC_U+30A4_U+30E4_U+30FC 1
 62
   179
420
  2234388
370
     9
100
AcDbVertex
100
AcDb2dVertex
 10
121.504356735371
 20
-146.7467059298389
 30
0.0
  0
VERTEX
  5
85
330
83
100
AcDbEntity
  8
_U+30EC_U+30A4_U+30E4_U+30FC 1
 62
   179
420
  2234388
370
     9
100
AcDbVertex
100
AcDb2dVertex
 10
121.504356735371
 20
-145.7469392200194
 30
0.0
  0
SEQEND
  5
86
330
83
100
AcDbEntity
  8
_U+30EC_U+30A4_U+30E4_U+30FC 1
 62
   179
420
  2234388
370
     9
  0
POLYLINE
  5
87
330
1F
100
AcDbEntity
  8
_U+30EC_U+30A4_U+30E4_U+30FC 1
 62
   179
420
  2234388
370
     9
100
AcDb2dPolyline
 66
     1
 10
0.0
 20
0.0
 30
0.0
  0
VERTEX
  5
88
330
87
100
AcDbEntity
  8
_U+30EC_U+30A4_U+30E4_U+30FC 1
 62
   179
420
  2234388
370
     9
100
AcDbVertex
100
AcDb2dVertex
 10
120.0443145027987
 20
-146.7467059298389
 30
0.0
  0
VERTEX
  5
89
330
87
100
AcDbEntity
  8
_U+30EC_U+30A4_U+30E4_U+30FC 1
 62
   179
420
  2234388
370
     9
100
AcDbVertex
100
AcDb2dVertex
 10
122.5042311044244
 20
-146.7467059298389
 30
0.0
  0
SEQEND
  5
8A
330
87
100
AcDbEntity
  8
_U+30EC_U+30A4_U+30E4_U+30FC 1
 62
   179
420
  2234388
370
     9
  0
POLYLINE
  5
8B
330
1F
100
AcDbEntity
  8
_U+30EC_U+30A4_U+30E4_U+30FC 1
 62
   179
420
  2234388
370
     9
100
AcDb2dPolyline
 66
     1
 10
0.0
 20
0.0
 30
0.0
  0
VERTEX
  5
8C
330
8B
100
AcDbEntity
  8
_U+30EC_U+30A4_U+30E4_U+30FC 1
 62
   179
420
  2234388
370
     9
100
AcDbVertex
100
AcDb2dVertex
 10
120.0443145027987
 20
-145.7469392200194
 30
0.0
  0
VERTEX
  5
8D
330
8B
100
AcDbEntity
  8
_U+30EC_U+30A4_U+30E4_U+30FC 1
 62
   179
420
  2234388
370
     9
100
AcDbVertex
100
AcDb2dVertex
 10
122.5042311044244
 20
-145.7469392200194
 30
0.0
  0
SEQEND
  5
8E
330
8B
100
AcDbEntity
  8
_U+30EC_U+30A4_U+30E4_U+30FC 1
 62
   179
420
  2234388
370
     9
  0
INSERT
  5
90
330
1F
100
AcDbEntity
  8
_U+30EC_U+30A4_U+30E4_U+30FC 1
100
AcDbBlockReference
  2
block 2
 10
0.0
 20
0.0
 30
0.0
  0
POLYLINE
  5
95
330
1F
100
AcDbEntity
  8
_U+30EC_U+30A4_U+30E4_U+30FC 1
 62
   179
420
  2234388
370
     9
100
AcDb2dPolyline
 66
     1
 10
0.0
 20
0.0
 30
0.0
  0
VERTEX
  5
96
330
95
100
AcDbEntity
  8
_U+30EC_U+30A4_U+30E4_U+30FC 1
 62
   179
420
  2234388
370
     9
100
AcDbVertex
100
AcDb2dVertex
 10
87.50384542608818
 20
-141.7464728107005
 30
0.0
  0
VERTEX
  5
97
330
95
100
AcDbEntity
  8
_U+30EC_U+30A4_U+30E4_U+30FC 1
 62
   179
420
  2234388
370
     9
100
AcDbVertex
100
AcDb2dVertex
 10
117.504067963788
 20
-141.7464728107005
 30
0.0
  0
SEQEND
  5
98
330
95
100
AcDbEntity
  8
_U+30EC_U+30A4_U+30E4_U+30FC 1
 62
   179
420
  2234388
370
     9
  0
POLYLINE
  5
99
330
1F
100
AcDbEntity
  8
_U+30EC_U+30A4_U+30E4_U+30FC 1
 62
   179
420
  2234388
370
     9
100
AcDb2dPolyline
 66
     1
 10
0.0
 20
0.0
 30
0.0
  0
VERTEX
  5
9A
330
99
100
AcDbEntity
  8
_U+30EC_U+30A4_U+30E4_U+30FC 1
 62
   179
420
  2234388
370
     9
100
AcDbVertex
100
AcDb2dVertex
 10
87.42150764399071
 20
-143.2065150432728
 30
0.0
  0
VERTEX
  5
9B
330
99
100
AcDbEntity
  8
_U+30EC_U+30A4_U+30E4_U+30FC 1
 62
   179
420
  2234388
370
     9
100
AcDbVertex
100
AcDb2dVertex
 10
87.42150764399071
 20
-140.7465984416471
 30
0.0
  0
SEQEND
  5
9C
330
99
100
AcDbEntity
  8
_U+30EC_U+30A4_U+30E4_U+30FC 1
 62
   179
420
  2234388
370
     9
  0
POLYLINE
  5
9D
330
1F
100
AcDbEntity
  8
_U+30EC_U+30A4_U+30E4_U+30FC 1
 62
   179
420
  2234388
370
     9
100
AcDb2dPolyline
 66
     1
 10
0.0
 20
0.0
 30
0.0
  0
VERTEX
  5
9E
330
9D
100
AcDbEntity
  8
_U+30EC_U+30A4_U+30E4_U+30FC 1
 62
   179
420
  2234388
370
     9
100
AcDbVertex
100
AcDb2dVertex
 10
117.5038580282819
 20
-143.2065150432728
 30
0.0
  0
VERTEX
  5
9F
330
9D
100
AcDbEntity
  8
_U+30EC_U+30A4_U+30E4_U+30FC 1
 62
   179
420
  2234388
370
     9
100
AcDbVertex
100
AcDb2dVertex
 10
117.5038580282819
 20
-140.7465984416471
 30
0.0
  0
SEQEND
  5
A0
330
9D
100
AcDbEntity
  8
_U+30EC_U+30A4_U+30E4_U+30FC 1
 62
   179
420
  2234388
370
     9
  0
INSERT
  5
A2
330
1F
100
AcDbEntity
  8
_U+30EC_U+30A4_U+30E4_U+30FC 1
100
AcDbBlockReference
  2
block 3
 10
0.0
 20
0.0
 30
0.0
  0
POLYLINE
  5
AA
330
1F
100
AcDbEntity
  8
_U+30EC_U+30A4_U+30E4_U+30FC 1
 62
   179
420
  2234388
370
     9
100
AcDb2dPolyline
 66
     1
 10
0.0
 20
0.0
 30
0.0
  0
VERTEX
  5
AB
330
AA
100
AcDbEntity
  8
_U+30EC_U+30A4_U+30E4_U+30FC 1
 62
   179
420
  2234388
370
     9
100
AcDbVertex
100
AcDb2dVertex
 10
97.50393216556543
 20
-157.9477233491849
 30
0.0
  0
VERTEX
  5
AC
330
AA
100
AcDbEntity
  8
_U+30EC_U+30A4_U+30E4_U+30FC 1
 62
   179
420
  2234388
370
     9
100
AcDbVertex
100
AcDb2dVertex
 10
87.50409304232619
 20
-157.9477233491849
 30
0.0
  0
SEQEND
  5
AD
330
AA
100
AcDbEntity
  8
_U+30EC_U+30A4_U+30E4_U+30FC 1
 62
   179
420
  2234388
370
     9
  0
POLYLINE
  5
AE
330
1F
100
AcDbEntity
  8
_U+30EC_U+30A4_U+30E4_U+30FC 1
 62
   179
420
  2234388
370
     9
100
AcDb2dPolyline
 66
     1
 10
0.0
 20
0.0
 30
0.0
  0
VERTEX
  5
AF
330
AE
100
AcDbEntity
  8
_U+30EC_U+30A4_U+30E4_U+30FC 1
 62
   179
420
  2234388
370
     9
100
AcDbVertex
100
AcDb2dVertex
 10
97.50393216556543
 20
-156.4877134143829
 30
0.0
  0
VERTEX
  5
B0
330
AE
100
AcDbEntity
  8
_U+30EC_U+30A4_U+30E4_U+30FC 1
 62
   179
420
  2234388
370
     9
100
AcDbVertex
100
AcDb2dVertex
 10
97.50393216556543
 20
-158.9476407819319
 30
0.0
  0
SEQEND
  5
B1
330
AE
100
AcDbEntity
  8
_U+30EC_U+30A4_U+30E4_U+30FC 1
 62
   179
420
  2234388
370
     9
  0
POLYLINE
  5
B2
330
1F
100
AcDbEntity
  8
_U+30EC_U+30A4_U+30E4_U+30FC 1
 62
   179
420
  2234388
370
     9
100
AcDb2dPolyline
 66
     1
 10
0.0
 20
0.0
 30
0.0
  0
VERTEX
  5
B3
330
B2
100
AcDbEntity
  8
_U+30EC_U+30A4_U+30E4_U+30FC 1
 62
   179
420
  2234388
370
     9
100
AcDbVertex
100
AcDb2dVertex
 10
87.5097020884131
 20
-149.2867748311136
 30
0.0
  0
VERTEX
  5
B4
330
B2
100
AcDbEntity
  8
_U+30EC_U+30A4_U+30E4_U+30FC 1
 62
   179
420
  2234388
370
     9
100
AcDbVertex
100
AcDb2dVertex
 10
87.5097020884131
 20
-158.9475977182384
 30
0.0
  0
SEQEND
  5
B5
330
B2
100
AcDbEntity
  8
_U+30EC_U+30A4_U+30E4_U+30FC 1
 62
   179
420
  2234388
370
     9
  0
INSERT
  5
B7
330
1F
100
AcDbEntity
  8
_U+30EC_U+30A4_U+30E4_U+30FC 1
100
AcDbBlockReference
  2
block 4
 10
0.0
 20
0.0
 30
0.0
  0
POLYLINE
  5
BF
330
1F
100
AcDbEntity
  8
_U+30EC_U+30A4_U+30E4_U+30FC 1
 62
   179
420
  2234388
370
     9
100
AcDb2dPolyline
 66
     1
 10
0.0
 20
0.0
 30
0.0
  0
VERTEX
  5
C0
330
BF
100
AcDbEntity
  8
_U+30EC_U+30A4_U+30E4_U+30FC 1
 62
   179
420
  2234388
370
     9
100
AcDbVertex
100
AcDb2dVertex
 10
97.50393216556543
 20
-157.9477233491849
 30
0.0
  0
VERTEX
  5
C1
330
BF
100
AcDbEntity
  8
_U+30EC_U+30A4_U+30E4_U+30FC 1
 62
   179
420
  2234388
370
     9
100
AcDbVertex
100
AcDb2dVertex
 10
103.5039750582172
 20
-157.9477233491849
 30
0.0
  0
SEQEND
  5
C2
330
BF
100
AcDbEntity
  8
_U+30EC_U+30A4_U+30E4_U+30FC 1
 62
   179
420
  2234388
370
     9
  0
POLYLINE
  5
C3
330
1F
100
AcDbEntity
  8
_U+30EC_U+30A4_U+30E4_U+30FC 1
 62
   179
420
  2234388
370
     9
100
AcDb2dPolyline
 66
     1
 10
0.0
 20
0.0
 30
0.0
  0
VERTEX
  5
C4
330
C3
100
AcDbEntity
  8
_U+30EC_U+30A4_U+30E4_U+30FC 1
 62
   179
420
  2234388
370
     9
100
AcDbVertex
100
AcDb2dVertex
 10
97.50393216556543
 20
-156.4877134143829
 30
0.0
  0
VERTEX
  5
C5
330
C3
100
AcDbEntity
  8
_U+30EC_U+30A4_U+30E4_U+30FC 1
 62
   179
420
  2234388
370
     9
100
AcDbVertex
100
AcDb2dVertex
 10
97.50393216556543
 20
-158.9476407819319
 30
0.0
  0
SEQEND
  5
C6
330
C3
100
AcDbEntity
  8
_U+30EC_U+30A4_U+30E4_U+30FC 1
 62
   179
420
  2234388
370
     9
  0
POLYLINE
  5
C7
330
1F
100
AcDbEntity
  8
_U+30EC_U+30A4_U+30E4_U+30FC 1
 62
   179
420
  2234388
370
     9
100
AcDb2dPolyline
 66
     1
 10
0.0
 20
0.0
 30
0.0
  0
VERTEX
  5
C8
330
C7
100
AcDbEntity
  8
_U+30EC_U+30A4_U+30E4_U+30FC 1
 62
   179
420
  2234388
370
     9
100
AcDbVertex
100
AcDb2dVertex
 10
103.5040827174508
 20
-156.4877134143829
 30
0.0
  0
VERTEX
  5
C9
330
C7
100
AcDbEntity
  8
_U+30EC_U+30A4_U+30E4_U+30FC 1
 62
   179
420
  2234388
370
     9
100
AcDbVertex
100
AcDb2dVertex
 10
103.5040827174508
 20
-158.9476407819319
 30
0.0
  0
SEQEND
  5
CA
330
C7
100
AcDbEntity
  8
_U+30EC_U+30A4_U+30E4_U+30FC 1
 62
   179
420
  2234388
370
     9
  0
INSERT
  5
CC
330
1F
100
AcDbEntity
  8
_U+30EC_U+30A4_U+30E4_U+30FC 1
100
AcDbBlockReference
  2
block 5
 10
0.0
 20
0.0
 30
0.0
  0
POLYLINE
  5
D2
330
1F
100
AcDbEntity
  8
_U+30EC_U+30A4_U+30E4_U+30FC 1
 62
   179
420
  2234388
370
     9
100
AcDb2dPolyline
 66
     1
 10
0.0
 20
0.0
 30
0.0
  0
VERTEX
  5
D3
330
D2
100
AcDbEntity
  8
_U+30EC_U+30A4_U+30E4_U+30FC 1
 62
   179
420
  2234388
370
     9
100
AcDbVertex
100
AcDb2dVertex
 10
121.504356735371
 20
-152.9474794641232
 30
0.0
  0
VERTEX
  5
D4
330
D2
100
AcDbEntity
  8
_U+30EC_U+30A4_U+30E4_U+30FC 1
 62
   179
420
  2234388
370
     9
100
AcDbVertex
100
AcDb2dVertex
 10
121.504356735371
 20
-146.7467059298389
 30
0.0
  0
SEQEND
  5
D5
330
D2
100
AcDbEntity
  8
_U+30EC_U+30A4_U+30E4_U+30FC 1
 62
   179
420
  2234388
370
     9
  0
POLYLINE
  5
D6
330
1F
100
AcDbEntity
  8
_U+30EC_U+30A4_U+30E4_U+30FC 1
 62
   179
420
  2234388
370
     9
100
AcDb2dPolyline
 66
     1
 10
0.0
 20
0.0
 30
0.0
  0
VERTEX
  5
D7
330
D6
100
AcDbEntity
  8
_U+30EC_U+30A4_U+30E4_U+30FC 1
 62
   179
420
  2234388
370
     9
100
AcDbVertex
100
AcDb2dVertex
 10
106.0438017262153
 20
-152.9474794641232
 30
0.0
  0
VERTEX
  5
D8
330
D6
100
AcDbEntity
  8
_U+30EC_U+30A4_U+30E4_U+30FC 1
 62
   179
420
  2234388
370
     9
100
AcDbVertex
100
AcDb2dVertex
 10
122.5040588496501
 20
-152.9474794641232
 30
0.0
  0
SEQEND
  5
D9
330
D6
100
AcDbEntity
  8
_U+30EC_U+30A4_U+30E4_U+30FC 1
 62
   179
420
  2234388
370
     9
  0
INSERT
  5
DB
330
1F
100
AcDbEntity
  8
_U+30EC_U+30A4_U+30E4_U+30FC 1
100
AcDbBlockReference
  2
block 6
 10
0.0
 20
0.0
 30
0.0
  0
ENDSEC
  0
SECTION
  2
OBJECTS
  0
DICTIONARY
  5
C
330
0
100
AcDbDictionary
281
     1
  3
ACAD_GROUP
350
D
  3
ACAD_LAYOUT
350
1A
  3
ACAD_MATERIAL
350
3B
  3
ACAD_MLEADERSTYLE
350
EC
  3
ACAD_MLINESTYLE
350
17
  3
ACAD_PLOTSETTINGS
350
19
  3
ACAD_PLOTSTYLENAME
350
E
  3
ACAD_TABLESTYLE
350
EB
  3
ACAD_VISUALSTYLE
350
2A
  0
SUN
  5
3F
330
29
100
AcDbSun
 90
        1
290
     0
 63
     7
421
 16777215
 40
1.0
291
     1
 91
  2455826
 92
 54000000
292
     0
 70
     2
 71
   256
280
     1
  0
DICTIONARY
  5
D
102
{ACAD_REACTORS
330
C
102
}
330
C
100
AcDbDictionary
281
     1
  0
DICTIONARY
  5
1A
102
{ACAD_REACTORS
330
C
102
}
330
C
100
AcDbDictionary
281
     1
  3
Layout1
350
1E
  3
Layout2
350
26
  3
Model
350
22
  0
DICTIONARY
  5
3B
102
{ACAD_REACTORS
330
C
102
}
330
C
100
AcDbDictionary
281
     1
  3
ByBlock
350
3D
  3
ByLayer
350
3C
  3
Global
350
3E
  0
DICTIONARY
  5
EC
102
{ACAD_REACTORS
330
C
102
}
330
C
100
AcDbDictionary
281
     1
  0
DICTIONARY
  5
17
102
{ACAD_REACTORS
330
C
102
}
330
C
100
AcDbDictionary
281
     1
  3
Standard
350
18
  0
DICTIONARY
  5
19
102
{ACAD_REACTORS
330
C
102
}
330
C
100
AcDbDictionary
281
     1
  0
ACDBDICTIONARYWDFLT
  5
E
102
{ACAD_REACTORS
330
C
102
}
330
C
100
AcDbDictionary
281
     1
  3
Normal
350
F
100
AcDbDictionaryWithDefault
340
F
  0
DICTIONARY
  5
EB
102
{ACAD_REACTORS
330
C
102
}
330
C
100
AcDbDictionary
281
     1
  0
DICTIONARY
  5
2A
102
{ACAD_REACTORS
330
C
102
}
330
C
100
AcDbDictionary
281
     1
  3
2dWireframe
350
2F
  3
3D Hidden
350
31
  3
3dWireframe
350
30
  3
Basic
350
32
  3
Brighten
350
36
  3
ColorChange
350
3A
  3
Conceptual
350
34
  3
Dim
350
35
  3
Facepattern
350
39
  3
Flat
350
2B
  3
FlatWithEdges
350
2C
  3
Gouraud
350
2D
  3
GouraudWithEdges
350
2E
  3
Linepattern
350
38
  3
Realistic
350
33
  3
Thicken
350
37
  0
LAYOUT
  5
1E
102
{ACAD_REACTORS
330
1A
102
}
330
1A
100
AcDbPlotSettings
  1

  2
none_device
  4

  6

 40
0.0
 41
0.0
 42
0.0
 43
0.0
 44
0.0
 45
0.0
 46
0.0
 47
0.0
 48
0.0
 49
0.0
140
0.0
141
0.0
142
1.0
143
1.0
 70
   688
 72
     0
 73
     0
 74
     5
  7

 75
    16
 76
     0
 77
     2
 78
   300
147
1.0
148
0.0
149
0.0
100
AcDbLayout
  1
Layout1
 70
     1
 71
     1
 10
0.0
 20
0.0
 11
12.0
 21
9.0
 12
0.0
 22
0.0
 32
0.0
 14
1.000000000000000E+20
 24
1.000000000000000E+20
 34
1.000000000000000E+20
 15
-1.000000000000000E+20
 25
-1.000000000000000E+20
 35
-1.000000000000000E+20
146
0.0
 13
0.0
 23
0.0
 33
0.0
 16
1.0
 26
0.0
 36
0.0
 17
0.0
 27
1.0
 37
0.0
 76
     0
330
1B
  0
LAYOUT
  5
26
102
{ACAD_REACTORS
330
1A
102
}
330
1A
100
AcDbPlotSettings
  1

  2
none_device
  4

  6

 40
0.0
 41
0.0
 42
0.0
 43
0.0
 44
0.0
 45
0.0
 46
0.0
 47
0.0
 48
0.0
 49
0.0
140
0.0
141
0.0
142
1.0
143
1.0
 70
   688
 72
     0
 73
     0
 74
     5
  7

 75
    16
 76
     0
 77
     2
 78
   300
147
1.0
148
0.0
149
0.0
100
AcDbLayout
  1
Layout2
 70
     1
 71
     2
 10
0.0
 20
0.0
 11
0.0
 21
0.0
 12
0.0
 22
0.0
 32
0.0
 14
0.0
 24
0.0
 34
0.0
 15
0.0
 25
0.0
 35
0.0
146
0.0
 13
0.0
 23
0.0
 33
0.0
 16
1.0
 26
0.0
 36
0.0
 17
0.0
 27
1.0
 37
0.0
 76
     0
330
23
  0
LAYOUT
  5
22
102
{ACAD_REACTORS
330
1A
102
}
330
1A
100
AcDbPlotSettings
  1

  2
none_device
  4

  6

 40
0.0
 41
0.0
 42
0.0
 43
0.0
 44
0.0
 45
0.0
 46
0.0
 47
0.0
 48
0.0
 49
0.0
140
0.0
141
0.0
142
1.0
143
1.0
 70
  1712
 72
     0
 73
     0
 74
     0
  7

 75
     0
 76
     0
 77
     2
 78
   300
147
1.0
148
0.0
149
0.0
100
AcDbLayout
  1
Model
 70
     1
 71
     0
 10
0.0
 20
0.0
 11
12.0
 21
9.0
 12
0.0
 22
0.0
 32
0.0
 14
1.000000000000000E+20
 24
1.000000000000000E+20
 34
1.000000000000000E+20
 15
-1.000000000000000E+20
 25
-1.000000000000000E+20
 35
-1.000000000000000E+20
146
0.0
 13
0.0
 23
0.0
 33
0.0
 16
1.0
 26
0.0
 36
0.0
 17
0.0
 27
1.0
 37
0.0
 76
     0
330
1F
331
29
  0
MATERIAL
  5
3D
102
{ACAD_REACTORS
330
3B
102
}
330
3B
100
AcDbMaterial
  1
ByBlock
 72
     1
 94
      127
  0
MATERIAL
  5
3C
102
{ACAD_REACTORS
330
3B
102
}
330
3B
100
AcDbMaterial
  1
ByLayer
 72
     1
 94
      127
  0
MATERIAL
  5
3E
102
{ACAD_REACTORS
330
3B
102
}
330
3B
100
AcDbMaterial
  1
Global
 72
     1
 94
      127
  0
MLINESTYLE
  5
18
102
{ACAD_REACTORS
330
17
102
}
330
17
100
AcDbMlineStyle
  2
Standard
 70
     0
  3

 62
   256
 51
90.0
 52
90.0
 71
     2
 49
0.5
 62
   256
  6
BYLAYER
 49
-0.5
 62
   256
  6
BYLAYER
  0
ACDBPLACEHOLDER
  5
F
102
{ACAD_REACTORS
330
E
102
}
330
E
  0
VISUALSTYLE
  5
2F
102
{ACAD_REACTORS
330
2A
102
}
330
2A
100
AcDbVisualStyle
  2
2dWireframe
 70
     4
177
     2
291
     0
 71
     0
176
     1
 72
     2
176
     1
 73
     0
176
     1
 90
        0
176
     1
 40
-0.6
176
     1
 41
-30.0
176
     1
 62
     5
 63
     7
421
 16777215
176
     1
 74
     1
176
     1
 91
        4
176
     1
 64
     7
176
     1
 65
   257
176
     1
 75
     1
176
     1
175
     1
176
     1
 42
1.0
176
     1
 92
        0
176
     1
 66
   257
176
     1
 43
1.0
176
     1
 76
     1
176
     1
 77
     6
176
     1
 78
     2
176
     1
 67
     7
176
     1
 79
     5
176
     1
170
     0
176
     1
171
     0
176
     1
290
     0
176
     1
 93
        1
176
     1
 44
0.0
176
     1
173
     0
176
     1
  0
VISUALSTYLE
  5
31
102
{ACAD_REACTORS
330
2A
102
}
330
2A
100
AcDbVisualStyle
  2
3D Hidden
 70
     6
177
     2
291
     0
 71
     1
176
     1
 72
     2
176
     1
 73
     2
176
     1
 90
        0
176
     1
 40
-0.6
176
     1
 41
-30.0
176
     1
 62
     5
 63
     7
421
 16777215
176
     1
 74
     2
176
     1
 91
        2
176
     1
 64
     7
176
     1
 65
   257
176
     1
 75
     2
176
     1
175
     1
176
     1
 42
40.0
176
     1
 92
        0
176
     1
 66
   257
176
     1
 43
1.0
176
     1
 76
     1
176
     1
 77
     6
176
     1
 78
     2
176
     1
 67
     7
176
     1
 79
     3
176
     1
170
     0
176
     1
171
     0
176
     1
290
     0
176
     1
 93
        1
176
     1
 44
0.0
176
     1
173
     0
176
     1
  0
VISUALSTYLE
  5
30
102
{ACAD_REACTORS
330
2A
102
}
330
2A
100
AcDbVisualStyle
  2
3dWireframe
 70
     5
177
     2
291
     0
 71
     0
176
     1
 72
     2
176
     1
 73
     0
176
     1
 90
        0
176
     1
 40
-0.6
176
     1
 41
-30.0
176
     1
 62
     5
 63
     7
421
 16777215
176
     1
 74
     1
176
     1
 91
        4
176
     1
 64
     7
176
     1
 65
   257
176
     1
 75
     1
176
     1
175
     1
176
     1
 42
1.0
176
     1
 92
        0
176
     1
 66
   257
176
     1
 43
1.0
176
     1
 76
     1
176
     1
 77
     6
176
     1
 78
     2
176
     1
 67
     7
176
     1
 79
     5
176
     1
170
     0
176
     1
171
     0
176
     1
290
     0
176
     1
 93
        1
176
     1
 44
0.0
176
     1
173
     0
176
     1
  0
VISUALSTYLE
  5
32
102
{ACAD_REACTORS
330
2A
102
}
330
2A
100
AcDbVisualStyle
  2
Basic
 70
     7
177
     2
291
     1
 71
     1
176
     1
 72
     0
176
     1
 73
     1
176
     1
 90
        0
176
     1
 40
-0.6
176
     1
 41
-30.0
176
     1
 62
     5
 63
     7
421
 16777215
176
     1
 74
     0
176
     1
 91
        4
176
     1
 64
     7
176
     1
 65
   257
176
     1
 75
     1
176
     1
175
     1
176
     1
 42
1.0
176
     1
 92
        8
176
     1
 66
     7
176
     1
 43
1.0
176
     1
 76
     1
176
     1
 77
     6
176
     1
 78
     2
176
     1
 67
     7
176
     1
 79
     5
176
     1
170
     0
176
     1
171
     0
176
     1
290
     0
176
     1
 93
        1
176
     1
 44
0.0
176
     1
173
     0
176
     1
  0
VISUALSTYLE
  5
36
102
{ACAD_REACTORS
330
2A
102
}
330
2A
100
AcDbVisualStyle
  2
Brighten
 70
    12
177
     2
291
     1
 71
     2
176
     1
 72
     2
176
     1
 73
     0
176
     1
 90
        0
176
     1
 40
-0.6
176
     1
 41
-30.0
176
     1
 62
     5
 63
     7
421
 16777215
176
     1
 74
     1
176
     1
 91
        4
176
     1
 64
     7
176
     1
 65
   257
176
     1
 75
     1
176
     1
175
     1
176
     1
 42
1.0
176
     1
 92
        8
176
     1
 66
     7
176
     1
 43
1.0
176
     1
 76
     1
176
     1
 77
     6
176
     1
 78
     2
176
     1
 67
     7
176
     1
 79
     5
176
     1
170
     0
176
     1
171
     0
176
     1
290
     0
176
     1
 93
        1
176
     1
 44
50.0
176
     1
173
     0
176
     1
  0
VISUALSTYLE
  5
3A
102
{ACAD_REACTORS
330
2A
102
}
330
2A
100
AcDbVisualStyle
  2
ColorChange
 70
    16
177
     2
291
     1
 71
     2
176
     1
 72
     2
176
     1
 73
     3
176
     1
 90
        0
176
     1
 40
-0.6
176
     1
 41
-30.0
176
     1
 62
     5
 63
     8
421
  8421504
176
     1
 74
     1
176
     1
 91
        4
176
     1
 64
     7
176
     1
 65
   257
176
     1
 75
     1
176
     1
175
     1
176
     1
 42
1.0
176
     1
 92
        8
176
     1
 66
     8
424
  8421504
176
     1
 43
1.0
176
     1
 76
     1
176
     1
 77
     6
176
     1
 78
     2
176
     1
 67
     7
176
     1
 79
     5
176
     1
170
     0
176
     1
171
     0
176
     1
290
     0
176
     1
 93
        1
176
     1
 44
0.0
176
     1
173
     0
176
     1
  0
VISUALSTYLE
  5
34
102
{ACAD_REACTORS
330
2A
102
}
330
2A
100
AcDbVisualStyle
  2
Conceptual
 70
     9
177
     2
291
     0
 71
     3
176
     1
 72
     2
176
     1
 73
     0
176
     1
 90
        0
176
     1
 40
-0.6
176
     1
 41
-30.0
176
     1
 62
     5
 63
     7
421
 16777215
176
     1
 74
     2
176
     1
 91
        2
176
     1
 64
     7
176
     1
 65
   257
176
     1
 75
     1
176
     1
175
     1
176
     1
 42
40.0
176
     1
 92
        8
176
     1
 66
     7
176
     1
 43
1.0
176
     1
 76
     1
176
     1
 77
     6
176
     1
 78
     2
176
     1
 67
     7
176
     1
 79
     3
176
     1
170
     0
176
     1
171
     0
176
     1
290
     0
176
     1
 93
        1
176
     1
 44
0.0
176
     1
173
     0
176
     1
  0
VISUALSTYLE
  5
35
102
{ACAD_REACTORS
330
2A
102
}
330
2A
100
AcDbVisualStyle
  2
Dim
 70
    11
177
     2
291
     1
 71
     2
176
     1
 72
     2
176
     1
 73
     0
176
     1
 90
        0
176
     1
 40
-0.6
176
     1
 41
-30.0
176
     1
 62
     5
 63
     7
421
 16777215
176
     1
 74
     1
176
     1
 91
        4
176
     1
 64
     7
176
     1
 65
   257
176
     1
 75
     1
176
     1
175
     1
176
     1
 42
1.0
176
     1
 92
        8
176
     1
 66
     7
176
     1
 43
1.0
176
     1
 76
     1
176
     1
 77
     6
176
     1
 78
     2
176
     1
 67
     7
176
     1
 79
     5
176
     1
170
     0
176
     1
171
     0
176
     1
290
     0
176
     1
 93
        1
176
     1
 44
-50.0
176
     1
173
     0
176
     1
  0
VISUALSTYLE
  5
39
102
{ACAD_REACTORS
330
2A
102
}
330
2A
100
AcDbVisualStyle
  2
Facepattern
 70
    15
177
     2
291
     1
 71
     2
176
     1
 72
     2
176
     1
 73
     0
176
     1
 90
        0
176
     1
 40
-0.6
176
     1
 41
-30.0
176
     1
 62
     5
 63
     7
421
 16777215
176
     1
 74
     1
176
     1
 91
        4
176
     1
 64
     7
176
     1
 65
   257
176
     1
 75
     1
176
     1
175
     1
176
     1
 42
1.0
176
     1
 92
        8
176
     1
 66
     7
176
     1
 43
1.0
176
     1
 76
     1
176
     1
 77
     6
176
     1
 78
     2
176
     1
 67
     7
176
     1
 79
     5
176
     1
170
     0
176
     1
171
     0
176
     1
290
     0
176
     1
 93
        1
176
     1
 44
0.0
176
     1
173
     0
176
     1
  0
VISUALSTYLE
  5
2B
102
{ACAD_REACTORS
330
2A
102
}
330
2A
100
AcDbVisualStyle
  2
Flat
 70
     0
177
     2
291
     1
 71
     2
176
     1
 72
     1
176
     1
 73
     1
176
     1
 90
        2
176
     1
 40
-0.6
176
     1
 41
30.0
176
     1
 62
     5
 63
     7
421
 16777215
176
     1
 74
     0
176
     1
 91
        4
176
     1
 64
     7
176
     1
 65
   257
176
     1
 75
     1
176
     1
175
     1
176
     1
 42
1.0
176
     1
 92
        8
176
     1
 66
     7
176
     1
 43
1.0
176
     1
 76
     1
176
     1
 77
     6
176
     1
 78
     2
176
     1
 67
     7
176
     1
 79
     5
176
     1
170
     0
176
     1
171
     0
176
     1
290
     0
176
     1
 93
       13
176
     1
 44
0.0
176
     1
173
     0
176
     1
  0
VISUALSTYLE
  5
2C
102
{ACAD_REACTORS
330
2A
102
}
330
2A
100
AcDbVisualStyle
  2
FlatWithEdges
 70
     1
177
     2
291
     1
 71
     2
176
     1
 72
     1
176
     1
 73
     1
176
     1
 90
        2
176
     1
 40
-0.6
176
     1
 41
30.0
176
     1
 62
     5
 63
     7
421
 16777215
176
     1
 74
     1
176
     1
 91
        4
176
     1
 64
     7
176
     1
 65
   257
176
     1
 75
     1
176
     1
175
     1
176
     1
 42
1.0
176
     1
 92
        0
176
     1
 66
   257
176
     1
 43
1.0
176
     1
 76
     1
176
     1
 77
     6
176
     1
 78
     2
176
     1
 67
     7
176
     1
 79
     5
176
     1
170
     0
176
     1
171
     0
176
     1
290
     0
176
     1
 93
       13
176
     1
 44
0.0
176
     1
173
     0
176
     1
  0
VISUALSTYLE
  5
2D
102
{ACAD_REACTORS
330
2A
102
}
330
2A
100
AcDbVisualStyle
  2
Gouraud
 70
     2
177
     2
291
     1
 71
     2
176
     1
 72
     2
176
     1
 73
     1
176
     1
 90
        2
176
     1
 40
-0.6
176
     1
 41
30.0
176
     1
 62
     5
 63
     7
421
 16777215
176
     1
 74
     0
176
     1
 91
        4
176
     1
 64
     7
176
     1
 65
   257
176
     1
 75
     1
176
     1
175
     1
176
     1
 42
1.0
176
     1
 92
        0
176
     1
 66
     7
176
     1
 43
1.0
176
     1
 76
     1
176
     1
 77
     6
176
     1
 78
     2
176
     1
 67
     7
176
     1
 79
     5
176
     1
170
     0
176
     1
171
     0
176
     1
290
     0
176
     1
 93
       13
176
     1
 44
0.0
176
     1
173
     0
176
     1
  0
VISUALSTYLE
  5
2E
102
{ACAD_REACTORS
330
2A
102
}
330
2A
100
AcDbVisualStyle
  2
GouraudWithEdges
 70
     3
177
     2
291
     1
 71
     2
176
     1
 72
     2
176
     1
 73
     1
176
     1
 90
        2
176
     1
 40
-0.6
176
     1
 41
30.0
176
     1
 62
     5
 63
     7
421
 16777215
176
     1
 74
     1
176
     1
 91
        4
176
     1
 64
     7
176
     1
 65
   257
176
     1
 75
     1
176
     1
175
     1
176
     1
 42
1.0
176
     1
 92
        0
176
     1
 66
   257
176
     1
 43
1.0
176
     1
 76
     1
176
     1
 77
     6
176
     1
 78
     2
176
     1
 67
     7
176
     1
 79
     5
176
     1
170
     0
176
     1
171
     0
176
     1
290
     0
176
     1
 93
       13
176
     1
 44
0.0
176
     1
173
     0
176
     1
  0
VISUALSTYLE
  5
38
102
{ACAD_REACTORS
330
2A
102
}
330
2A
100
AcDbVisualStyle
  2
Linepattern
 70
    14
177
     2
291
     1
 71
     2
176
     1
 72
     2
176
     1
 73
     0
176
     1
 90
        0
176
     1
 40
-0.6
176
     1
 41
-30.0
176
     1
 62
     5
 63
     7
421
 16777215
176
     1
 74
     1
176
     1
 91
        4
176
     1
 64
     7
176
     1
 65
   257
176
     1
 75
     7
176
     1
175
     7
176
     1
 42
1.0
176
     1
 92
        8
176
     1
 66
     7
176
     1
 43
1.0
176
     1
 76
     1
176
     1
 77
     6
176
     1
 78
     2
176
     1
 67
     7
176
     1
 79
     5
176
     1
170
     0
176
     1
171
     0
176
     1
290
     0
176
     1
 93
        1
176
     1
 44
0.0
176
     1
173
     0
176
     1
  0
VISUALSTYLE
  5
33
102
{ACAD_REACTORS
330
2A
102
}
330
2A
100
AcDbVisualStyle
  2
Realistic
 70
     8
177
     2
291
     0
 71
     2
176
     1
 72
     2
176
     1
 73
     0
176
     1
 90
        0
176
     1
 40
-0.6
176
     1
 41
-30.0
176
     1
 62
     5
 63
     7
421
 16777215
176
     1
 74
     1
176
     1
 91
        0
176
     1
 64
     7
176
     1
 65
   257
176
     1
 75
     1
176
     1
175
     1
176
     1
 42
1.0
176
     1
 92
        8
176
     1
 66
     8
424
  7895160
176
     1
 43
1.0
176
     1
 76
     1
176
     1
 77
     6
176
     1
 78
     2
176
     1
 67
     7
176
     1
 79
     5
176
     1
170
     0
176
     1
171
     0
176
     1
290
     0
176
     1
 93
       13
176
     1
 44
0.0
176
     1
173
     0
176
     1
  0
VISUALSTYLE
  5
37
102
{ACAD_REACTORS
330
2A
102
}
330
2A
100
AcDbVisualStyle
  2
Thicken
 70
    13
177
     2
291
     1
 71
     2
176
     1
 72
     2
176
     1
 73
     0
176
     1
 90
        0
176
     1
 40
-0.6
176
     1
 41
-30.0
176
     1
 62
     5
 63
     7
421
 16777215
176
     1
 74
     1
176
     1
 91
        4
176
     1
 64
     7
176
     1
 65
   257
176
     1
 75
     1
176
     1
175
     1
176
     1
 42
1.0
176
     1
 92
       12
176
     1
 66
     7
176
     1
 43
1.0
176
     1
 76
     1
176
     1
 77
     6
176
     1
 78
     2
176
     1
 67
     7
176
     1
 79
     5
176
     1
170
     0
176
     1
171
     0
176
     1
290
     0
176
     1
 93
        1
176
     1
 44
0.0
176
     1
173
     0
176
     1
  0
ENDSEC
  0
EOF
