  0
SECTION
  2
HEADER
  9
$ACADVER
  1
AC1024
  9
$ACADMAINTVER
 70
     6
  9
$DWGCODEPAGE
  3
UNDEFINED
  9
$INSBASE
 10
0.0
 20
0.0
 30
0.0
  9
$EXTMIN
 10
1.000000000000000E+20
 20
1.000000000000000E+20
 30
1.000000000000000E+20
  9
$EXTMAX
 10
-1.000000000000000E+20
 20
-1.000000000000000E+20
 30
-1.000000000000000E+20
  9
$LIMMIN
 10
0.0
 20
0.0
  9
$LIMMAX
 10
12.0
 20
9.0
  9
$ORTHOMODE
 70
     0
  9
$REGENMODE
 70
     1
  9
$FILLMODE
 70
     1
  9
$QTEXTMODE
 70
     0
  9
$MIRRTEXT
 70
     1
  9
$LTSCALE
 40
1.0
  9
$ATTMODE
 70
     1
  9
$TEXTSIZE
 40
0.2
  9
$TRACEWID
 40
0.05
  9
$TEXTSTYLE
  7
Standard
  9
$CLAYER
  8
0
  9
$CELTYPE
  6
ByLayer
  9
$CECOLOR
 62
   256
  9
$CELTSCALE
 40
1.0
  9
$DISPSILH
 70
     0
  9
$DIMSCALE
 40
1.0
  9
$DIMASZ
 40
0.18
  9
$DIMEXO
 40
0.0625
  9
$DIMDLI
 40
0.38
  9
$DIMRND
 40
0.0
  9
$DIMDLE
 40
0.0
  9
$DIMEXE
 40
0.18
  9
$DIMTP
 40
0.0
  9
$DIMTM
 40
0.0
  9
$DIMTXT
 40
0.18
  9
$DIMCEN
 40
0.09
  9
$DIMTSZ
 40
0.0
  9
$DIMTOL
 70
     0
  9
$DIMLIM
 70
     0
  9
$DIMTIH
 70
     1
  9
$DIMTOH
 70
     1
  9
$DIMSE1
 70
     0
  9
$DIMSE2
 70
     0
  9
$DIMTAD
 70
     0
  9
$DIMZIN
 70
     0
  9
$DIMBLK
  1

  9
$DIMASO
 70
     1
  9
$DIMSHO
 70
     1
  9
$DIMPOST
  1

  9
$DIMAPOST
  1

  9
$DIMALT
 70
     0
  9
$DIMALTD
 70
     2
  9
$DIMALTF
 40
25.4
  9
$DIMLFAC
 40
1.0
  9
$DIMTOFL
 70
     0
  9
$DIMTVP
 40
0.0
  9
$DIMTIX
 70
     0
  9
$DIMSOXD
 70
     0
  9
$DIMSAH
 70
     0
  9
$DIMBLK1
  1

  9
$DIMBLK2
  1

  9
$DIMSTYLE
  2
Standard
  9
$DIMCLRD
 70
     0
  9
$DIMCLRE
 70
     0
  9
$DIMCLRT
 70
     0
  9
$DIMTFAC
 40
1.0
  9
$DIMGAP
 40
0.09
  9
$DIMJUST
 70
     0
  9
$DIMSD1
 70
     0
  9
$DIMSD2
 70
     0
  9
$DIMTOLJ
 70
     1
  9
$DIMTZIN
 70
     0
  9
$DIMALTZ
 70
     0
  9
$DIMALTTZ
 70
     0
  9
$DIMUPT
 70
     0
  9
$DIMDEC
 70
     4
  9
$DIMTDEC
 70
     4
  9
$DIMALTU
 70
     2
  9
$DIMALTTD
 70
     2
  9
$DIMTXSTY
  7
Standard
  9
$DIMAUNIT
 70
     0
  9
$DIMADEC
 70
     0
  9
$DIMALTRND
 40
0.0
  9
$DIMAZIN
 70
     0
  9
$DIMDSEP
 70
    46
  9
$DIMATFIT
 70
     3
  9
$DIMFRAC
 70
     0
  9
$DIMLDRBLK
  1

  9
$DIMLUNIT
 70
     2
  9
$DIMLWD
 70
    -2
  9
$DIMLWE
 70
    -2
  9
$DIMTMOVE
 70
     0
  9
$DIMFXL
 40
1.0
  9
$DIMFXLON
 70
     0
  9
$DIMJOGANG
 40
0.7853981633974483
  9
$DIMTFILL
 70
     0
  9
$DIMTFILLCLR
 70
     0
  9
$DIMARCSYM
 70
     0
  9
$DIMLTYPE
  6

  9
$DIMLTEX1
  6

  9
$DIMLTEX2
  6

  9
$DIMTXTDIRECTION
 70
     0
  9
$LUNITS
 70
     2
  9
$LUPREC
 70
     4
  9
$SKETCHINC
 40
0.1
  9
$FILLETRAD
 40
0.5
  9
$AUNITS
 70
     0
  9
$AUPREC
 70
     0
  9
$MENU
  1
.
  9
$ELEVATION
 40
0.0
  9
$PELEVATION
 40
0.0
  9
$THICKNESS
 40
0.0
  9
$LIMCHECK
 70
     0
  9
$CHAMFERA
 40
0.5
  9
$CHAMFERB
 40
0.5
  9
$CHAMFERC
 40
1.0
  9
$CHAMFERD
 40
0.0
  9
$SKPOLY
 70
     0
  9
$TDCREATE
 40
2458263.581412025
  9
$TDUCREATE
 40
2458263.206412037
  9
$TDUPDATE
 40
2458263.581412025
  9
$TDUUPDATE
 40
2458263.206412037
  9
$TDINDWG
 40
0.0000000116
  9
$TDUSRTIMER
 40
0.0000000116
  9
$USRTIMER
 70
     1
  9
$ANGBASE
 50
0.0
  9
$ANGDIR
 70
     0
  9
$PDMODE
 70
     0
  9
$PDSIZE
 40
0.0
  9
$PLINEWID
 40
0.0
  9
$SPLFRAME
 70
     0
  9
$SPLINETYPE
 70
     6
  9
$SPLINESEGS
 70
     8
  9
$HANDSEED
  5
EC
  9
$SURFTAB1
 70
     6
  9
$SURFTAB2
 70
     6
  9
$SURFTYPE
 70
     6
  9
$SURFU
 70
     6
  9
$SURFV
 70
     6
  9
$UCSBASE
  2

  9
$UCSNAME
  2

  9
$UCSORG
 10
0.0
 20
0.0
 30
0.0
  9
$UCSXDIR
 10
1.0
 20
0.0
 30
0.0
  9
$UCSYDIR
 10
0.0
 20
1.0
 30
0.0
  9
$UCSORTHOREF
  2

  9
$UCSORTHOVIEW
 70
     0
  9
$UCSORGTOP
 10
0.0
 20
0.0
 30
0.0
  9
$UCSORGBOTTOM
 10
0.0
 20
0.0
 30
0.0
  9
$UCSORGLEFT
 10
0.0
 20
0.0
 30
0.0
  9
$UCSORGRIGHT
 10
0.0
 20
0.0
 30
0.0
  9
$UCSORGFRONT
 10
0.0
 20
0.0
 30
0.0
  9
$UCSORGBACK
 10
0.0
 20
0.0
 30
0.0
  9
$PUCSBASE
  2

  9
$PUCSNAME
  2

  9
$PUCSORG
 10
0.0
 20
0.0
 30
0.0
  9
$PUCSXDIR
 10
1.0
 20
0.0
 30
0.0
  9
$PUCSYDIR
 10
0.0
 20
1.0
 30
0.0
  9
$PUCSORTHOREF
  2

  9
$PUCSORTHOVIEW
 70
     0
  9
$PUCSORGTOP
 10
0.0
 20
0.0
 30
0.0
  9
$PUCSORGBOTTOM
 10
0.0
 20
0.0
 30
0.0
  9
$PUCSORGLEFT
 10
0.0
 20
0.0
 30
0.0
  9
$PUCSORGRIGHT
 10
0.0
 20
0.0
 30
0.0
  9
$PUCSORGFRONT
 10
0.0
 20
0.0
 30
0.0
  9
$PUCSORGBACK
 10
0.0
 20
0.0
 30
0.0
  9
$USERI1
 70
     0
  9
$USERI2
 70
     0
  9
$USERI3
 70
     0
  9
$USERI4
 70
     0
  9
$USERI5
 70
     0
  9
$USERR1
 40
0.0
  9
$USERR2
 40
0.0
  9
$USERR3
 40
0.0
  9
$USERR4
 40
0.0
  9
$USERR5
 40
0.0
  9
$WORLDVIEW
 70
     1
  9
$SHADEDGE
 70
     3
  9
$SHADEDIF
 70
    70
  9
$TILEMODE
 70
     1
  9
$MAXACTVP
 70
    64
  9
$PINSBASE
 10
0.0
 20
0.0
 30
0.0
  9
$PLIMCHECK
 70
     0
  9
$PEXTMIN
 10
1.000000000000000E+20
 20
1.000000000000000E+20
 30
1.000000000000000E+20
  9
$PEXTMAX
 10
-1.000000000000000E+20
 20
-1.000000000000000E+20
 30
-1.000000000000000E+20
  9
$PLIMMIN
 10
0.0
 20
0.0
  9
$PLIMMAX
 10
12.0
 20
9.0
  9
$UNITMODE
 70
     0
  9
$VISRETAIN
 70
     1
  9
$PLINEGEN
 70
     0
  9
$PSLTSCALE
 70
     1
  9
$TREEDEPTH
 70
  3020
  9
$CMLSTYLE
  2
Standard
  9
$CMLJUST
 70
     0
  9
$CMLSCALE
 40
1.0
  9
$PROXYGRAPHICS
 70
     1
  9
$MEASUREMENT
 70
     0
  9
$CELWEIGHT
370
    -1
  9
$ENDCAPS
280
     0
  9
$JOINSTYLE
280
     0
  9
$LWDISPLAY
290
     1
  9
$INSUNITS
 70
     1
  9
$HYPERLINKBASE
  1

  9
$STYLESHEET
  1

  9
$XEDIT
290
     1
  9
$CEPSNTYPE
380
     0
  9
$PSTYLEMODE
290
     1
  9
$FINGERPRINTGUID
  2
{20F959DE-1FC7-EBF0-DBA7-3C48AA81DA33}
  9
$VERSIONGUID
  2
{FAEB1C32-E019-11D5-929B-00C0DF256EC4}
  9
$EXTNAMES
290
     1
  9
$PSVPSCALE
 40
0.0
  9
$OLESTARTUP
290
     0
  9
$SORTENTS
280
   127
  9
$INDEXCTL
280
     0
  9
$HIDETEXT
280
     1
  9
$XCLIPFRAME
280
     2
  9
$HALOGAP
280
     0
  9
$OBSCOLOR
 70
   257
  9
$OBSLTYPE
280
     0
  9
$INTERSECTIONDISPLAY
280
     0
  9
$INTERSECTIONCOLOR
 70
   257
  9
$DIMASSOC
280
     2
  9
$PROJECTNAME
  1

  9
$CAMERADISPLAY
290
     0
  9
$LENSLENGTH
 40
50.0
  9
$CAMERAHEIGHT
 40
0.0
  9
$STEPSPERSEC
 40
2.0
  9
$STEPSIZE
 40
6.0
  9
$3DDWFPREC
 40
2.0
  9
$PSOLWIDTH
 40
0.25
  9
$PSOLHEIGHT
 40
4.0
  9
$LOFTANG1
 40
1.570796326794897
  9
$LOFTANG2
 40
1.570796326794897
  9
$LOFTMAG1
 40
0.0
  9
$LOFTMAG2
 40
0.0
  9
$LOFTPARAM
 70
     7
  9
$LOFTNORMALS
280
     1
  9
$LATITUDE
 40
37.795
  9
$LONGITUDE
 40
-122.394
  9
$NORTHDIRECTION
 40
0.0
  9
$TIMEZONE
 70
 -8000
  9
$LIGHTGLYPHDISPLAY
280
     1
  9
$TILEMODELIGHTSYNCH
280
     1
  9
$CMATERIAL
347
3C
  9
$SOLIDHIST
280
     1
  9
$SHOWHIST
280
     1
  9
$DWFFRAME
280
     2
  9
$DGNFRAME
280
     2
  9
$REALWORLDSCALE
290
     1
  9
$INTERFERECOLOR
 62
   256
  9
$CSHADOW
280
     0
  9
$SHADOWPLANELOCATION
 40
0.0
  0
ENDSEC
  0
SECTION
  2
CLASSES
  0
CLASS
  1
ACDBDICTIONARYWDFLT
  2
AcDbDictionaryWithDefault
  3
ObjectDBX Classes
 90
        0
 91
        4
280
     0
281
     0
  0
CLASS
  1
VISUALSTYLE
  2
AcDbVisualStyle
  3
ObjectDBX Classes
 90
     4095
 91
        4
280
     0
281
     0
  0
CLASS
  1
MATERIAL
  2
AcDbMaterial
  3
ObjectDBX Classes
 90
     1153
 91
        4
280
     0
281
     0
  0
CLASS
  1
SUN
  2
AcDbSun
  3
SCENEOE
 90
     1024
 91
        4
280
     0
281
     0
  0
ENDSEC
  0
SECTION
  2
TABLES
  0
TABLE
  2
VPORT
  5
8
330
0
100
AcDbSymbolTable
 70
     1
  0
VPORT
  5
29
330
8
100
AcDbSymbolTableRecord
100
AcDbViewportTableRecord
  2
*Active
 70
     0
 10
0.0
 20
0.0
 11
1.0
 21
1.0
 12
0.0
 22
0.0
 13
0.0
 23
0.0
 14
0.5
 24
0.5
 15
0.5
 25
0.5
 16
0.0
 26
0.0
 36
1.0
 17
105.0007777515277
 27
-148.5000416295416
 37
0.0
 40
297.0000832590831
 41
0.7070757462376333
 42
50.0
 43
0.0
 44
0.0
 50
0.0
 51
0.0
 71
     0
 72
   100
 73
     1
 74
     3
 75
     0
 76
     0
 77
     0
 78
     0
281
     0
 65
     1
110
0.0
120
0.0
130
0.0
111
1.0
121
0.0
131
0.0
112
0.0
122
1.0
132
0.0
 79
     0
146
0.0
 60
     3
 61
     5
292
     1
282
     1
141
0.0
142
0.0
 63
   250
361
3F
  0
ENDTAB
  0
TABLE
  2
LTYPE
  5
5
330
0
100
AcDbSymbolTable
 70
     1
  0
LTYPE
  5
14
330
5
100
AcDbSymbolTableRecord
100
AcDbLinetypeTableRecord
  2
ByBlock
 70
     0
  3

 72
    65
 73
     0
 40
0.0
  0
LTYPE
  5
15
330
5
100
AcDbSymbolTableRecord
100
AcDbLinetypeTableRecord
  2
ByLayer
 70
     0
  3

 72
    65
 73
     0
 40
0.0
  0
LTYPE
  5
16
330
5
100
AcDbSymbolTableRecord
100
AcDbLinetypeTableRecord
  2
Continuous
 70
     0
  3
Solid line
 72
    65
 73
     0
 40
0.0
  0
ENDTAB
  0
TABLE
  2
LAYER
  5
2
330
0
100
AcDbSymbolTable
 70
     2
  0
LAYER
  5
10
330
2
100
AcDbSymbolTableRecord
100
AcDbLayerTableRecord
  2
0
 70
     0
 62
     7
  6
Continuous
370
    -3
390
F
347
3E
  0
LAYER
  5
40
330
2
100
AcDbSymbolTableRecord
100
AcDbLayerTableRecord
  2
_U+30EC_U+30A4_U+30E4_U+30FC 1
 70
     0
 62
     7
  6
Continuous
370
    -3
390
F
347
3E
  0
ENDTAB
  0
TABLE
  2
STYLE
  5
3
330
0
100
AcDbSymbolTable
 70
     1
  0
STYLE
  5
11
330
3
100
AcDbSymbolTableRecord
100
AcDbTextStyleTableRecord
  2
Standard
 70
     0
 40
0.0
 41
1.0
 50
0.0
 71
     0
 42
0.2
  3
txt
  4

  0
ENDTAB
  0
TABLE
  2
VIEW
  5
6
330
0
100
AcDbSymbolTable
 70
     0
  0
ENDTAB
  0
TABLE
  2
UCS
  5
7
330
0
100
AcDbSymbolTable
 70
     0
  0
ENDTAB
  0
TABLE
  2
APPID
  5
9
330
0
100
AcDbSymbolTable
 70
     1
  0
APPID
  5
12
330
9
100
AcDbSymbolTableRecord
100
AcDbRegAppTableRecord
  2
ACAD
 70
     0
  0
ENDTAB
  0
TABLE
  2
DIMSTYLE
  5
A
330
0
100
AcDbSymbolTable
 70
     1
100
AcDbDimStyleTable
  0
DIMSTYLE
105
27
330
A
100
AcDbSymbolTableRecord
100
AcDbDimStyleTableRecord
  2
Standard
 70
     0
178
     0
340
11
  0
ENDTAB
  0
TABLE
  2
BLOCK_RECORD
  5
1
330
0
100
AcDbSymbolTable
 70
     6
  0
BLOCK_RECORD
  5
1F
330
1
100
AcDbSymbolTableRecord
100
AcDbBlockTableRecord
  2
*Model_Space
340
22
 70
     0
280
     1
281
     0
  0
BLOCK_RECORD
  5
1B
330
1
100
AcDbSymbolTableRecord
100
AcDbBlockTableRecord
  2
*Paper_Space
340
1E
 70
     0
280
     1
281
     0
  0
BLOCK_RECORD
  5
23
330
1
100
AcDbSymbolTableRecord
100
AcDbBlockTableRecord
  2
*Paper_Space0
340
26
 70
     0
280
     1
281
     0
  0
BLOCK_RECORD
  5
8F
330
1
100
AcDbSymbolTableRecord
100
AcDbBlockTableRecord
  2
block 2
340
0
102
{BLKREFS
331
90
102
}
 70
     0
280
     1
281
     0
  0
BLOCK_RECORD
  5
A1
330
1
100
AcDbSymbolTableRecord
100
AcDbBlockTableRecord
  2
block 3
340
0
102
{BLKREFS
331
A2
102
}
 70
     0
280
     1
281
     0
  0
BLOCK_RECORD
  5
B6
330
1
100
AcDbSymbolTableRecord
100
AcDbBlockTableRecord
  2
block 4
340
0
102
{BLKREFS
331
B7
102
}
 70
     0
280
     1
281
     0
  0
BLOCK_RECORD
  5
C9
330
1
100
AcDbSymbolTableRecord
100
AcDbBlockTableRecord
  2
block 5
340
0
102
{BLKREFS
331
CA
102
}
 70
     0
280
     1
281
     0
  0
BLOCK_RECORD
  5
D8
330
1
100
AcDbSymbolTableRecord
100
AcDbBlockTableRecord
  2
block 6
340
0
102
{BLKREFS
331
D9
102
}
 70
     0
280
     1
281
     0
  0
ENDTAB
  0
ENDSEC
  0
SECTION
  2
BLOCKS
  0
BLOCK
  5
20
330
1F
100
AcDbEntity
  8
0
100
AcDbBlockBegin
  2
*Model_Space
 70
     0
 10
0.0
 20
0.0
 30
0.0
  3
*Model_Space
  1

  0
ENDBLK
  5
21
330
1F
100
AcDbEntity
  8
0
100
AcDbBlockEnd
  0
BLOCK
  5
1C
330
1B
100
AcDbEntity
 67
     1
  8
0
100
AcDbBlockBegin
  2
*Paper_Space
 70
     0
 10
0.0
 20
0.0
 30
0.0
  3
*Paper_Space
  1

  0
ENDBLK
  5
1D
330
1B
100
AcDbEntity
 67
     1
  8
0
100
AcDbBlockEnd
  0
BLOCK
  5
24
330
23
100
AcDbEntity
  8
0
100
AcDbBlockBegin
  2
*Paper_Space0
 70
     0
 10
0.0
 20
0.0
 30
0.0
  3
*Paper_Space0
  1

  0
ENDBLK
  5
25
330
23
100
AcDbEntity
  8
0
100
AcDbBlockEnd
  0
BLOCK
  5
91
330
8F
100
AcDbEntity
  8
0
100
AcDbBlockBegin
  2
block 2
 70
     0
 10
0.0
 20
0.0
 30
0.0
  3
block 2
  1

  0
SPLINE
  5
93
330
8F
100
AcDbEntity
  8
_U+30EC_U+30A4_U+30E4_U+30FC 1
370
     0
100
AcDbSpline
210
0.0
220
0.0
230
1.0
 70
    11
 71
     3
 72
    26
 73
    22
 74
     0
 42
0.0000000001
 43
0.0000000001
 12
1.0
 22
0.0
 32
0.0
 13
1.0
 23
0.0
 33
0.0
 40
0.0
 40
0.0
 40
0.0
 40
0.0
 40
1.0
 40
1.0
 40
1.0
 40
2.0
 40
2.0
 40
2.0
 40
3.0
 40
3.0
 40
3.0
 40
4.0
 40
4.0
 40
4.0
 40
5.0
 40
5.0
 40
5.0
 40
6.0
 40
6.0
 40
6.0
 40
7.0
 40
7.0
 40
7.0
 40
7.0
 10
118.5788085641053
 20
-142.8863687793826
 30
0.0
 10
118.5788085641053
 20
-142.8863687793826
 30
0.0
 10
117.4743109515342
 20
-142.8863687793826
 30
0.0
 10
117.4743109515342
 20
-142.8863687793826
 30
0.0
 10
117.4743109515342
 20
-142.8863687793826
 30
0.0
 10
117.4743109515342
 20
-143.2164089268695
 30
0.0
 10
117.4743109515342
 20
-143.2164089268695
 30
0.0
 10
117.4743109515342
 20
-143.2164089268695
 30
0.0
 10
117.326516355217
 20
-143.2164089268695
 30
0.0
 10
117.326516355217
 20
-143.2164089268695
 30
0.0
 10
117.3117024446304
 20
-142.8843017220914
 30
0.0
 10
117.1487494281781
 20
-142.8377929330406
 30
0.0
 10
117.0343722580678
 20
-142.8081651118674
 30
0.0
 10
117.0343722580678
 20
-142.8081651118674
 30
0.0
 10
117.0343722580678
 20
-142.6620930632928
 30
0.0
 10
117.0343722580678
 20
-142.6620930632928
 30
0.0
 10
117.0343722580678
 20
-142.6620930632928
 30
0.0
 10
118.5788085641053
 20
-142.6620930632928
 30
0.0
 10
118.5788085641053
 20
-142.6620930632928
 30
0.0
 10
118.5788085641053
 20
-142.6620930632928
 30
0.0
 10
118.5788085641053
 20
-142.8863687793826
 30
0.0
 10
118.5788085641053
 20
-142.8863687793826
 30
0.0
  0
HATCH
  5
94
330
8F
100
AcDbEntity
  8
_U+30EC_U+30A4_U+30E4_U+30FC 1
 62
   179
420
  2234388
100
AcDbHatch
 10
0.0
 20
0.0
 30
0.0
210
0.0
220
0.0
230
1.0
  2
SOLID
 70
     1
 71
     0
 91
        1
 92
        1
 93
        1
 72
     4
 94
        3
 73
     0
 74
     1
 95
       26
 96
       22
 40
0.0
 40
0.0
 40
0.0
 40
0.0
 40
1.0
 40
1.0
 40
1.0
 40
2.0
 40
2.0
 40
2.0
 40
3.0
 40
3.0
 40
3.0
 40
4.0
 40
4.0
 40
4.0
 40
5.0
 40
5.0
 40
5.0
 40
6.0
 40
6.0
 40
6.0
 40
7.0
 40
7.0
 40
7.0
 40
7.0
 10
118.5788085641053
 20
-142.8863687793826
 10
118.5788085641053
 20
-142.8863687793826
 10
117.4743109515342
 20
-142.8863687793826
 10
117.4743109515342
 20
-142.8863687793826
 10
117.4743109515342
 20
-142.8863687793826
 10
117.4743109515342
 20
-143.2164089268695
 10
117.4743109515342
 20
-143.2164089268695
 10
117.4743109515342
 20
-143.2164089268695
 10
117.326516355217
 20
-143.2164089268695
 10
117.326516355217
 20
-143.2164089268695
 10
117.3117024446304
 20
-142.8843017220914
 10
117.1487494281781
 20
-142.8377929330406
 10
117.0343722580678
 20
-142.8081651118674
 10
117.0343722580678
 20
-142.8081651118674
 10
117.0343722580678
 20
-142.6620930632928
 10
117.0343722580678
 20
-142.6620930632928
 10
117.0343722580678
 20
-142.6620930632928
 10
118.5788085641053
 20
-142.6620930632928
 10
118.5788085641053
 20
-142.6620930632928
 10
118.5788085641053
 20
-142.6620930632928
 10
118.5788085641053
 20
-142.8863687793826
 10
118.5788085641053
 20
-142.8863687793826
 97
        0
 97
        0
 75
     2
 76
     1
 98
        0
  0
ENDBLK
  5
92
330
8F
100
AcDbEntity
  8
0
100
AcDbBlockEnd
  0
BLOCK
  5
A3
330
A1
100
AcDbEntity
  8
0
100
AcDbBlockBegin
  2
block 3
 70
     0
 10
0.0
 20
0.0
 30
0.0
  3
block 3
  1

  0
SPLINE
  5
A5
330
A1
100
AcDbEntity
  8
_U+30EC_U+30A4_U+30E4_U+30FC 1
370
     0
100
AcDbSpline
210
0.0
220
0.0
230
1.0
 70
    11
 71
     3
 72
    44
 73
    40
 74
     0
 42
0.0000000001
 43
0.0000000001
 12
1.0
 22
0.0
 32
0.0
 13
1.0
 23
0.0
 33
0.0
 40
0.0
 40
0.0
 40
0.0
 40
0.0
 40
1.0
 40
1.0
 40
1.0
 40
2.0
 40
2.0
 40
2.0
 40
3.0
 40
3.0
 40
3.0
 40
4.0
 40
4.0
 40
4.0
 40
5.0
 40
5.0
 40
5.0
 40
6.0
 40
6.0
 40
6.0
 40
7.0
 40
7.0
 40
7.0
 40
8.0
 40
8.0
 40
8.0
 40
9.0
 40
9.0
 40
9.0
 40
10.0
 40
10.0
 40
10.0
 40
11.0
 40
11.0
 40
11.0
 40
12.0
 40
12.0
 40
12.0
 40
13.0
 40
13.0
 40
13.0
 40
13.0
 10
102.0657768842058
 20
-137.0012844167046
 30
0.0
 10
101.848046849538
 20
-137.1599310638003
 30
0.0
 10
101.7550292714362
 20
-137.2340006167332
 30
0.0
 10
101.7061089155457
 20
-137.3778333532424
 30
0.0
 10
101.7061089155457
 20
-137.3778333532424
 30
0.0
 10
102.4847004952122
 20
-137.3778333532424
 30
0.0
 10
102.4847004952122
 20
-137.3778333532424
 30
0.0
 10
102.4847004952122
 20
-137.3778333532424
 30
0.0
 10
102.4847004952122
 20
-137.582988789389
 30
0.0
 10
102.4847004952122
 20
-137.582988789389
 30
0.0
 10
102.4847004952122
 20
-137.582988789389
 30
0.0
 10
101.4566840024136
 20
-137.582988789389
 30
0.0
 10
101.4566840024136
 20
-137.582988789389
 30
0.0
 10
101.4883788808779
 20
-137.2253878780201
 30
0.0
 10
101.5538356950977
 20
-137.1471842105049
 30
0.0
 10
101.9389973703486
 20
-136.8488389414822
 30
0.0
 10
102.1949679649026
 20
-136.6500569319833
 30
0.0
 10
102.2604247791224
 20
-136.5823608056982
 30
0.0
 10
102.2604247791224
 20
-136.4449014958367
 30
0.0
 10
102.2604247791224
 20
-136.3263902111441
 30
0.0
 10
102.1884222834807
 20
-136.1951320731561
 30
0.0
 10
101.9917073312729
 20
-136.1951320731561
 30
0.0
 10
101.7316026221365
 20
-136.1951320731561
 30
0.0
 10
101.7233343929719
 20
-136.4257812158936
 30
0.0
 10
101.7188557688411
 20
-136.542225443295
 30
0.0
 10
101.7188557688411
 20
-136.542225443295
 30
0.0
 10
101.4945800527514
 20
-136.542225443295
 30
0.0
 10
101.4945800527514
 20
-136.542225443295
 30
0.0
 10
101.5031927914645
 20
-136.4152736746636
 30
0.0
 10
101.5138725874688
 20
-136.3031358166187
 30
0.0
 10
101.5941433122751
 20
-136.1846245319261
 30
0.0
 10
101.7040418582546
 20
-136.0239108275392
 30
0.0
 10
101.8904215240066
 20
-135.9899766370094
 30
0.0
 10
102.0065212418595
 20
-135.9899766370094
 30
0.0
 10
102.2838514284221
 20
-135.9899766370094
 30
0.0
 10
102.4912461766341
 20
-136.1741169906961
 30
0.0
 10
102.4912461766341
 20
-136.4469685531278
 30
0.0
 10
102.4912461766341
 20
-136.6753783837999
 30
0.0
 10
102.3748019492327
 20
-136.7749416433236
 30
0.0
 10
102.0657768842058
 20
-137.0012844167046
 30
0.0
  0
HATCH
  5
A6
330
A1
100
AcDbEntity
  8
_U+30EC_U+30A4_U+30E4_U+30FC 1
 62
   179
420
  2234388
100
AcDbHatch
 10
0.0
 20
0.0
 30
0.0
210
0.0
220
0.0
230
1.0
  2
SOLID
 70
     1
 71
     0
 91
        1
 92
        1
 93
        1
 72
     4
 94
        3
 73
     0
 74
     1
 95
       44
 96
       40
 40
0.0
 40
0.0
 40
0.0
 40
0.0
 40
1.0
 40
1.0
 40
1.0
 40
2.0
 40
2.0
 40
2.0
 40
3.0
 40
3.0
 40
3.0
 40
4.0
 40
4.0
 40
4.0
 40
5.0
 40
5.0
 40
5.0
 40
6.0
 40
6.0
 40
6.0
 40
7.0
 40
7.0
 40
7.0
 40
8.0
 40
8.0
 40
8.0
 40
9.0
 40
9.0
 40
9.0
 40
10.0
 40
10.0
 40
10.0
 40
11.0
 40
11.0
 40
11.0
 40
12.0
 40
12.0
 40
12.0
 40
13.0
 40
13.0
 40
13.0
 40
13.0
 10
102.0657768842058
 20
-137.0012844167046
 10
101.848046849538
 20
-137.1599310638003
 10
101.7550292714362
 20
-137.2340006167332
 10
101.7061089155457
 20
-137.3778333532424
 10
101.7061089155457
 20
-137.3778333532424
 10
102.4847004952122
 20
-137.3778333532424
 10
102.4847004952122
 20
-137.3778333532424
 10
102.4847004952122
 20
-137.3778333532424
 10
102.4847004952122
 20
-137.582988789389
 10
102.4847004952122
 20
-137.582988789389
 10
102.4847004952122
 20
-137.582988789389
 10
101.4566840024136
 20
-137.582988789389
 10
101.4566840024136
 20
-137.582988789389
 10
101.4883788808779
 20
-137.2253878780201
 10
101.5538356950977
 20
-137.1471842105049
 10
101.9389973703486
 20
-136.8488389414822
 10
102.1949679649026
 20
-136.6500569319833
 10
102.2604247791224
 20
-136.5823608056982
 10
102.2604247791224
 20
-136.4449014958367
 10
102.2604247791224
 20
-136.3263902111441
 10
102.1884222834807
 20
-136.1951320731561
 10
101.9917073312729
 20
-136.1951320731561
 10
101.7316026221365
 20
-136.1951320731561
 10
101.7233343929719
 20
-136.4257812158936
 10
101.7188557688411
 20
-136.542225443295
 10
101.7188557688411
 20
-136.542225443295
 10
101.4945800527514
 20
-136.542225443295
 10
101.4945800527514
 20
-136.542225443295
 10
101.5031927914645
 20
-136.4152736746636
 10
101.5138725874688
 20
-136.3031358166187
 10
101.5941433122751
 20
-136.1846245319261
 10
101.7040418582546
 20
-136.0239108275392
 10
101.8904215240066
 20
-135.9899766370094
 10
102.0065212418595
 20
-135.9899766370094
 10
102.2838514284221
 20
-135.9899766370094
 10
102.4912461766341
 20
-136.1741169906961
 10
102.4912461766341
 20
-136.4469685531278
 10
102.4912461766341
 20
-136.6753783837999
 10
102.3748019492327
 20
-136.7749416433236
 10
102.0657768842058
 20
-137.0012844167046
 97
        0
 97
        0
 75
     2
 76
     1
 98
        0
  0
SPLINE
  5
A7
330
A1
100
AcDbEntity
  8
_U+30EC_U+30A4_U+30E4_U+30FC 1
370
     0
100
AcDbSpline
210
0.0
220
0.0
230
1.0
 70
    11
 71
     3
 72
    32
 73
    28
 74
     0
 42
0.0000000001
 43
0.0000000001
 12
1.0
 22
0.0
 32
0.0
 13
1.0
 23
0.0
 33
0.0
 40
0.0
 40
0.0
 40
0.0
 40
0.0
 40
1.0
 40
1.0
 40
1.0
 40
2.0
 40
2.0
 40
2.0
 40
3.0
 40
3.0
 40
3.0
 40
4.0
 40
4.0
 40
4.0
 40
5.0
 40
5.0
 40
5.0
 40
6.0
 40
6.0
 40
6.0
 40
7.0
 40
7.0
 40
7.0
 40
8.0
 40
8.0
 40
8.0
 40
9.0
 40
9.0
 40
9.0
 40
9.0
 10
103.1537380384477
 20
-137.6338039477964
 30
0.0
 10
102.6376627347573
 20
-137.6338039477964
 30
0.0
 10
102.6293945055927
 20
-137.0794880842197
 30
0.0
 10
102.6293945055927
 20
-136.8658921641342
 30
0.0
 10
102.6293945055927
 20
-136.6352430213967
 30
0.0
 10
102.6483425307615
 20
-135.9879095797183
 30
0.0
 10
103.191978598334
 20
-135.9879095797183
 30
0.0
 10
103.365266901242
 20
-135.9879095797183
 30
0.0
 10
103.6109022093403
 20
-136.0576727632946
 30
0.0
 10
103.6487982596781
 20
-136.3897799680727
 30
0.0
 10
103.6487982596781
 20
-136.3897799680727
 30
0.0
 10
103.4352023395926
 20
-136.3897799680727
 30
0.0
 10
103.4352023395926
 20
-136.3897799680727
 30
0.0
 10
103.4245225435883
 20
-136.3327636377918
 30
0.0
 10
103.392827665124
 20
-136.1846245319261
 30
0.0
 10
103.1899115410428
 20
-136.1846245319261
 30
0.0
 10
102.8977674438936
 20
-136.1846245319261
 30
0.0
 10
102.8578043362647
 20
-136.5125976221219
 30
0.0
 10
102.8450574829693
 20
-136.7177530582685
 30
0.0
 10
102.938075061071
 20
-136.6395493907533
 30
0.0
 10
103.0059434421305
 20
-136.580293748407
 30
0.0
 10
103.1878444837517
 20
-136.580293748407
 30
0.0
 10
103.3676784680817
 20
-136.580293748407
 30
0.0
 10
103.6701578516866
 20
-136.6881252370953
 30
0.0
 10
103.6701578516866
 20
-137.0943019948063
 30
0.0
 10
103.6701578516866
 20
-137.413662346289
 30
0.0
 10
103.4710313326392
 20
-137.6338039477964
 30
0.0
 10
103.1537380384477
 20
-137.6338039477964
 30
0.0
  0
SPLINE
  5
A8
330
A1
100
AcDbEntity
  8
_U+30EC_U+30A4_U+30E4_U+30FC 1
370
     0
100
AcDbSpline
210
0.0
220
0.0
230
1.0
 70
    11
 71
     3
 72
    17
 73
    13
 74
     0
 42
0.0000000001
 43
0.0000000001
 12
1.0
 22
0.0
 32
0.0
 13
1.0
 23
0.0
 33
0.0
 40
0.0
 40
0.0
 40
0.0
 40
0.0
 40
1.0
 40
1.0
 40
1.0
 40
2.0
 40
2.0
 40
2.0
 40
3.0
 40
3.0
 40
3.0
 40
4.0
 40
4.0
 40
4.0
 40
4.0
 10
103.1709635158739
 20
-136.7749416433236
 30
0.0
 10
102.9084472398979
 20
-136.7749416433236
 30
0.0
 10
102.8705511895601
 20
-136.986470506118
 30
0.0
 10
102.8705511895601
 20
-137.1027424787451
 30
0.0
 10
102.8705511895601
 20
-137.2782700937186
 30
0.0
 10
102.965635824953
 20
-137.4412231101709
 30
0.0
 10
103.1496039238654
 20
-137.4412231101709
 30
0.0
 10
103.2701822658491
 20
-137.4412231101709
 30
0.0
 10
103.4458821355969
 20
-137.3819674678247
 30
0.0
 10
103.4458821355969
 20
-137.0963690520974
 30
0.0
 10
103.4458821355969
 20
-136.8720933360077
 30
0.0
 10
103.3060112588957
 20
-136.7749416433236
 30
0.0
 10
103.1709635158739
 20
-136.7749416433236
 30
0.0
  0
HATCH
  5
A9
330
A1
100
AcDbEntity
  8
_U+30EC_U+30A4_U+30E4_U+30FC 1
 62
   179
420
  2234388
100
AcDbHatch
 10
0.0
 20
0.0
 30
0.0
210
0.0
220
0.0
230
1.0
  2
SOLID
 70
     1
 71
     0
 91
        2
 92
        1
 93
        1
 72
     4
 94
        3
 73
     0
 74
     1
 95
       32
 96
       28
 40
0.0
 40
0.0
 40
0.0
 40
0.0
 40
1.0
 40
1.0
 40
1.0
 40
2.0
 40
2.0
 40
2.0
 40
3.0
 40
3.0
 40
3.0
 40
4.0
 40
4.0
 40
4.0
 40
5.0
 40
5.0
 40
5.0
 40
6.0
 40
6.0
 40
6.0
 40
7.0
 40
7.0
 40
7.0
 40
8.0
 40
8.0
 40
8.0
 40
9.0
 40
9.0
 40
9.0
 40
9.0
 10
103.1537380384477
 20
-137.6338039477964
 10
102.6376627347573
 20
-137.6338039477964
 10
102.6293945055927
 20
-137.0794880842197
 10
102.6293945055927
 20
-136.8658921641342
 10
102.6293945055927
 20
-136.6352430213967
 10
102.6483425307615
 20
-135.9879095797183
 10
103.191978598334
 20
-135.9879095797183
 10
103.365266901242
 20
-135.9879095797183
 10
103.6109022093403
 20
-136.0576727632946
 10
103.6487982596781
 20
-136.3897799680727
 10
103.6487982596781
 20
-136.3897799680727
 10
103.4352023395926
 20
-136.3897799680727
 10
103.4352023395926
 20
-136.3897799680727
 10
103.4245225435883
 20
-136.3327636377918
 10
103.392827665124
 20
-136.1846245319261
 10
103.1899115410428
 20
-136.1846245319261
 10
102.8977674438936
 20
-136.1846245319261
 10
102.8578043362647
 20
-136.5125976221219
 10
102.8450574829693
 20
-136.7177530582685
 10
102.938075061071
 20
-136.6395493907533
 10
103.0059434421305
 20
-136.580293748407
 10
103.1878444837517
 20
-136.580293748407
 10
103.3676784680817
 20
-136.580293748407
 10
103.6701578516866
 20
-136.6881252370953
 10
103.6701578516866
 20
-137.0943019948063
 10
103.6701578516866
 20
-137.413662346289
 10
103.4710313326392
 20
-137.6338039477964
 10
103.1537380384477
 20
-137.6338039477964
 97
        0
 97
        0
 92
        1
 93
        1
 72
     4
 94
        3
 73
     0
 74
     1
 95
       17
 96
       13
 40
0.0
 40
0.0
 40
0.0
 40
0.0
 40
1.0
 40
1.0
 40
1.0
 40
2.0
 40
2.0
 40
2.0
 40
3.0
 40
3.0
 40
3.0
 40
4.0
 40
4.0
 40
4.0
 40
4.0
 10
103.1709635158739
 20
-136.7749416433236
 10
102.9084472398979
 20
-136.7749416433236
 10
102.8705511895601
 20
-136.986470506118
 10
102.8705511895601
 20
-137.1027424787451
 10
102.8705511895601
 20
-137.2782700937186
 10
102.965635824953
 20
-137.4412231101709
 10
103.1496039238654
 20
-137.4412231101709
 10
103.2701822658491
 20
-137.4412231101709
 10
103.4458821355969
 20
-137.3819674678247
 10
103.4458821355969
 20
-137.0963690520974
 10
103.4458821355969
 20
-136.8720933360077
 10
103.3060112588957
 20
-136.7749416433236
 10
103.1709635158739
 20
-136.7749416433236
 97
        0
 97
        0
 75
     2
 76
     1
 98
        0
  0
ENDBLK
  5
A4
330
A1
100
AcDbEntity
  8
0
100
AcDbBlockEnd
  0
BLOCK
  5
B8
330
B6
100
AcDbEntity
  8
0
100
AcDbBlockBegin
  2
block 4
 70
     0
 10
0.0
 20
0.0
 30
0.0
  3
block 4
  1

  0
SPLINE
  5
BA
330
B6
100
AcDbEntity
  8
_U+30EC_U+30A4_U+30E4_U+30FC 1
370
     0
100
AcDbSpline
210
0.0
220
0.0
230
1.0
 70
    11
 71
     3
 72
    32
 73
    28
 74
     0
 42
0.0000000001
 43
0.0000000001
 12
1.0
 22
0.0
 32
0.0
 13
1.0
 23
0.0
 33
0.0
 40
0.0
 40
0.0
 40
0.0
 40
0.0
 40
1.0
 40
1.0
 40
1.0
 40
2.0
 40
2.0
 40
2.0
 40
3.0
 40
3.0
 40
3.0
 40
4.0
 40
4.0
 40
4.0
 40
5.0
 40
5.0
 40
5.0
 40
6.0
 40
6.0
 40
6.0
 40
7.0
 40
7.0
 40
7.0
 40
8.0
 40
8.0
 40
8.0
 40
9.0
 40
9.0
 40
9.0
 40
9.0
 10
92.65859915218257
 20
-160.3333658453333
 30
0.0
 10
92.14252384849215
 20
-160.3333658453333
 30
0.0
 10
92.13425561932755
 20
-159.7793944913052
 30
0.0
 10
92.13425561932755
 20
-159.5654540616711
 30
0.0
 10
92.13425561932755
 20
-159.3349771737079
 30
0.0
 10
92.15320364449643
 20
-158.6876437320295
 30
0.0
 10
92.69683971206885
 20
-158.6876437320295
 30
0.0
 10
92.87012801497691
 20
-158.6876437320295
 30
0.0
 10
93.11576332307523
 20
-158.7575791703801
 30
0.0
 10
93.15365937341298
 20
-159.0896863751582
 30
0.0
 10
93.15365937341298
 20
-159.0896863751582
 30
0.0
 10
92.94006345332748
 20
-159.0896863751582
 30
0.0
 10
92.94006345332748
 20
-159.0896863751582
 30
0.0
 10
92.92938365732321
 20
-159.032497790103
 30
0.0
 10
92.89768877885892
 20
-158.8843586842372
 30
0.0
 10
92.6947726547777
 20
-158.8843586842372
 30
0.0
 10
92.40262855762852
 20
-158.8843586842372
 30
0.0
 10
92.36266544999961
 20
-159.212331774433
 30
0.0
 10
92.34991859670419
 20
-159.4173149558054
 30
0.0
 10
92.44293617480594
 20
-159.3391112882902
 30
0.0
 10
92.51080455586536
 20
-159.2798556459439
 30
0.0
 10
92.69270559748655
 20
-159.2798556459439
 30
0.0
 10
92.8725395818166
 20
-159.2798556459439
 30
0.0
 10
93.17501896542153
 20
-159.3880316441808
 30
0.0
 10
93.17501896542153
 20
-159.7942084018917
 30
0.0
 10
93.17501896542153
 20
-160.1135687533744
 30
0.0
 10
92.97589244637409
 20
-160.3333658453333
 30
0.0
 10
92.65859915218257
 20
-160.3333658453333
 30
0.0
  0
SPLINE
  5
BB
330
B6
100
AcDbEntity
  8
_U+30EC_U+30A4_U+30E4_U+30FC 1
370
     0
100
AcDbSpline
210
0.0
220
0.0
230
1.0
 70
    11
 71
     3
 72
    17
 73
    13
 74
     0
 42
0.0000000001
 43
0.0000000001
 12
1.0
 22
0.0
 32
0.0
 13
1.0
 23
0.0
 33
0.0
 40
0.0
 40
0.0
 40
0.0
 40
0.0
 40
1.0
 40
1.0
 40
1.0
 40
2.0
 40
2.0
 40
2.0
 40
3.0
 40
3.0
 40
3.0
 40
4.0
 40
4.0
 40
4.0
 40
4.0
 10
92.67582462960883
 20
-159.4745035408606
 30
0.0
 10
92.41330835363279
 20
-159.4745035408606
 30
0.0
 10
92.37541230329504
 20
-159.6860324036549
 30
0.0
 10
92.37541230329504
 20
-159.8024766310563
 30
0.0
 10
92.37541230329504
 20
-159.9781765008041
 30
0.0
 10
92.47049693868793
 20
-160.1411295172564
 30
0.0
 10
92.65446503760027
 20
-160.1411295172564
 30
0.0
 10
92.77504337958402
 20
-160.1411295172564
 30
0.0
 10
92.95074324933177
 20
-160.0818738749101
 30
0.0
 10
92.95074324933177
 20
-159.7962754591829
 30
0.0
 10
92.95074324933177
 20
-159.5719997430931
 30
0.0
 10
92.81087237263061
 20
-159.4745035408606
 30
0.0
 10
92.67582462960883
 20
-159.4745035408606
 30
0.0
  0
HATCH
  5
BC
330
B6
100
AcDbEntity
  8
_U+30EC_U+30A4_U+30E4_U+30FC 1
 62
   179
420
  2234388
100
AcDbHatch
 10
0.0
 20
0.0
 30
0.0
210
0.0
220
0.0
230
1.0
  2
SOLID
 70
     1
 71
     0
 91
        2
 92
        1
 93
        1
 72
     4
 94
        3
 73
     0
 74
     1
 95
       32
 96
       28
 40
0.0
 40
0.0
 40
0.0
 40
0.0
 40
1.0
 40
1.0
 40
1.0
 40
2.0
 40
2.0
 40
2.0
 40
3.0
 40
3.0
 40
3.0
 40
4.0
 40
4.0
 40
4.0
 40
5.0
 40
5.0
 40
5.0
 40
6.0
 40
6.0
 40
6.0
 40
7.0
 40
7.0
 40
7.0
 40
8.0
 40
8.0
 40
8.0
 40
9.0
 40
9.0
 40
9.0
 40
9.0
 10
92.65859915218257
 20
-160.3333658453333
 10
92.14252384849215
 20
-160.3333658453333
 10
92.13425561932755
 20
-159.7793944913052
 10
92.13425561932755
 20
-159.5654540616711
 10
92.13425561932755
 20
-159.3349771737079
 10
92.15320364449643
 20
-158.6876437320295
 10
92.69683971206885
 20
-158.6876437320295
 10
92.87012801497691
 20
-158.6876437320295
 10
93.11576332307523
 20
-158.7575791703801
 10
93.15365937341298
 20
-159.0896863751582
 10
93.15365937341298
 20
-159.0896863751582
 10
92.94006345332748
 20
-159.0896863751582
 10
92.94006345332748
 20
-159.0896863751582
 10
92.92938365732321
 20
-159.032497790103
 10
92.89768877885892
 20
-158.8843586842372
 10
92.6947726547777
 20
-158.8843586842372
 10
92.40262855762852
 20
-158.8843586842372
 10
92.36266544999961
 20
-159.212331774433
 10
92.34991859670419
 20
-159.4173149558054
 10
92.44293617480594
 20
-159.3391112882902
 10
92.51080455586536
 20
-159.2798556459439
 10
92.69270559748655
 20
-159.2798556459439
 10
92.8725395818166
 20
-159.2798556459439
 10
93.17501896542153
 20
-159.3880316441808
 10
93.17501896542153
 20
-159.7942084018917
 10
93.17501896542153
 20
-160.1135687533744
 10
92.97589244637409
 20
-160.3333658453333
 10
92.65859915218257
 20
-160.3333658453333
 97
        0
 97
        0
 92
        1
 93
        1
 72
     4
 94
        3
 73
     0
 74
     1
 95
       17
 96
       13
 40
0.0
 40
0.0
 40
0.0
 40
0.0
 40
1.0
 40
1.0
 40
1.0
 40
2.0
 40
2.0
 40
2.0
 40
3.0
 40
3.0
 40
3.0
 40
4.0
 40
4.0
 40
4.0
 40
4.0
 10
92.67582462960883
 20
-159.4745035408606
 10
92.41330835363279
 20
-159.4745035408606
 10
92.37541230329504
 20
-159.6860324036549
 10
92.37541230329504
 20
-159.8024766310563
 10
92.37541230329504
 20
-159.9781765008041
 10
92.47049693868793
 20
-160.1411295172564
 10
92.65446503760027
 20
-160.1411295172564
 10
92.77504337958402
 20
-160.1411295172564
 10
92.95074324933177
 20
-160.0818738749101
 10
92.95074324933177
 20
-159.7962754591829
 10
92.95074324933177
 20
-159.5719997430931
 10
92.81087237263061
 20
-159.4745035408606
 10
92.67582462960883
 20
-159.4745035408606
 97
        0
 97
        0
 75
     2
 76
     1
 98
        0
  0
ENDBLK
  5
B9
330
B6
100
AcDbEntity
  8
0
100
AcDbBlockEnd
  0
BLOCK
  5
CB
330
C9
100
AcDbEntity
  8
0
100
AcDbBlockBegin
  2
block 5
 70
     0
 10
0.0
 20
0.0
 30
0.0
  3
block 5
  1

  0
SPLINE
  5
CD
330
C9
100
AcDbEntity
  8
_U+30EC_U+30A4_U+30E4_U+30FC 1
370
     0
100
AcDbSpline
210
0.0
220
0.0
230
1.0
 70
    11
 71
     3
 72
    32
 73
    28
 74
     0
 42
0.0000000001
 43
0.0000000001
 12
1.0
 22
0.0
 32
0.0
 13
1.0
 23
0.0
 33
0.0
 40
0.0
 40
0.0
 40
0.0
 40
0.0
 40
1.0
 40
1.0
 40
1.0
 40
2.0
 40
2.0
 40
2.0
 40
3.0
 40
3.0
 40
3.0
 40
4.0
 40
4.0
 40
4.0
 40
5.0
 40
5.0
 40
5.0
 40
6.0
 40
6.0
 40
6.0
 40
7.0
 40
7.0
 40
7.0
 40
8.0
 40
8.0
 40
8.0
 40
9.0
 40
9.0
 40
9.0
 40
9.0
 10
98.58106280087557
 20
-160.3333658453333
 30
0.0
 10
98.06498749718514
 20
-160.3333658453333
 30
0.0
 10
98.05637475847202
 20
-159.7793944913052
 30
0.0
 10
98.05637475847202
 20
-159.5654540616711
 30
0.0
 10
98.05637475847202
 20
-159.3349771737079
 30
0.0
 10
98.07566729318943
 20
-158.6876437320295
 30
0.0
 10
98.61930336076185
 20
-158.6876437320295
 30
0.0
 10
98.79259166366991
 20
-158.6876437320295
 30
0.0
 10
99.03822697176822
 20
-158.7575791703801
 30
0.0
 10
99.07612302210597
 20
-159.0896863751582
 30
0.0
 10
99.07612302210597
 20
-159.0896863751582
 30
0.0
 10
98.86252710202048
 20
-159.0896863751582
 30
0.0
 10
98.86252710202048
 20
-159.0896863751582
 30
0.0
 10
98.85184730601621
 20
-159.032497790103
 30
0.0
 10
98.82015242755192
 20
-158.8843586842372
 30
0.0
 10
98.61723630347069
 20
-158.8843586842372
 30
0.0
 10
98.32509220632151
 20
-158.8843586842372
 30
0.0
 10
98.28512909869261
 20
-159.212331774433
 30
0.0
 10
98.27238224539718
 20
-159.4173149558054
 30
0.0
 10
98.36539982349893
 20
-159.3391112882902
 30
0.0
 10
98.43326820455836
 20
-159.2798556459439
 30
0.0
 10
98.61516924617955
 20
-159.2798556459439
 30
0.0
 10
98.7950032305096
 20
-159.2798556459439
 30
0.0
 10
99.09748261411453
 20
-159.3880316441808
 30
0.0
 10
99.09748261411453
 20
-159.7942084018917
 30
0.0
 10
99.09748261411453
 20
-160.1135687533744
 30
0.0
 10
98.89835609506709
 20
-160.3333658453333
 30
0.0
 10
98.58106280087557
 20
-160.3333658453333
 30
0.0
  0
SPLINE
  5
CE
330
C9
100
AcDbEntity
  8
_U+30EC_U+30A4_U+30E4_U+30FC 1
370
     0
100
AcDbSpline
210
0.0
220
0.0
230
1.0
 70
    11
 71
     3
 72
    17
 73
    13
 74
     0
 42
0.0000000001
 43
0.0000000001
 12
1.0
 22
0.0
 32
0.0
 13
1.0
 23
0.0
 33
0.0
 40
0.0
 40
0.0
 40
0.0
 40
0.0
 40
1.0
 40
1.0
 40
1.0
 40
2.0
 40
2.0
 40
2.0
 40
3.0
 40
3.0
 40
3.0
 40
4.0
 40
4.0
 40
4.0
 40
4.0
 10
98.5979437687533
 20
-159.4745035408606
 30
0.0
 10
98.33577200232578
 20
-159.4745035408606
 30
0.0
 10
98.29787595198803
 20
-159.6860324036549
 30
0.0
 10
98.29787595198803
 20
-159.8024766310563
 30
0.0
 10
98.29787595198803
 20
-159.9781765008041
 30
0.0
 10
98.39296058738093
 20
-160.1411295172564
 30
0.0
 10
98.57692868629327
 20
-160.1411295172564
 30
0.0
 10
98.69750702827702
 20
-160.1411295172564
 30
0.0
 10
98.87320689802476
 20
-160.0818738749101
 30
0.0
 10
98.87320689802476
 20
-159.7962754591829
 30
0.0
 10
98.87320689802476
 20
-159.5719997430931
 30
0.0
 10
98.73368053087214
 20
-159.4745035408606
 30
0.0
 10
98.5979437687533
 20
-159.4745035408606
 30
0.0
  0
HATCH
  5
CF
330
C9
100
AcDbEntity
  8
_U+30EC_U+30A4_U+30E4_U+30FC 1
 62
   179
420
  2234388
100
AcDbHatch
 10
0.0
 20
0.0
 30
0.0
210
0.0
220
0.0
230
1.0
  2
SOLID
 70
     1
 71
     0
 91
        2
 92
        1
 93
        1
 72
     4
 94
        3
 73
     0
 74
     1
 95
       32
 96
       28
 40
0.0
 40
0.0
 40
0.0
 40
0.0
 40
1.0
 40
1.0
 40
1.0
 40
2.0
 40
2.0
 40
2.0
 40
3.0
 40
3.0
 40
3.0
 40
4.0
 40
4.0
 40
4.0
 40
5.0
 40
5.0
 40
5.0
 40
6.0
 40
6.0
 40
6.0
 40
7.0
 40
7.0
 40
7.0
 40
8.0
 40
8.0
 40
8.0
 40
9.0
 40
9.0
 40
9.0
 40
9.0
 10
98.58106280087557
 20
-160.3333658453333
 10
98.06498749718514
 20
-160.3333658453333
 10
98.05637475847202
 20
-159.7793944913052
 10
98.05637475847202
 20
-159.5654540616711
 10
98.05637475847202
 20
-159.3349771737079
 10
98.07566729318943
 20
-158.6876437320295
 10
98.61930336076185
 20
-158.6876437320295
 10
98.79259166366991
 20
-158.6876437320295
 10
99.03822697176822
 20
-158.7575791703801
 10
99.07612302210597
 20
-159.0896863751582
 10
99.07612302210597
 20
-159.0896863751582
 10
98.86252710202048
 20
-159.0896863751582
 10
98.86252710202048
 20
-159.0896863751582
 10
98.85184730601621
 20
-159.032497790103
 10
98.82015242755192
 20
-158.8843586842372
 10
98.61723630347069
 20
-158.8843586842372
 10
98.32509220632151
 20
-158.8843586842372
 10
98.28512909869261
 20
-159.212331774433
 10
98.27238224539718
 20
-159.4173149558054
 10
98.36539982349893
 20
-159.3391112882902
 10
98.43326820455836
 20
-159.2798556459439
 10
98.61516924617955
 20
-159.2798556459439
 10
98.7950032305096
 20
-159.2798556459439
 10
99.09748261411453
 20
-159.3880316441808
 10
99.09748261411453
 20
-159.7942084018917
 10
99.09748261411453
 20
-160.1135687533744
 10
98.89835609506709
 20
-160.3333658453333
 10
98.58106280087557
 20
-160.3333658453333
 97
        0
 97
        0
 92
        1
 93
        1
 72
     4
 94
        3
 73
     0
 74
     1
 95
       17
 96
       13
 40
0.0
 40
0.0
 40
0.0
 40
0.0
 40
1.0
 40
1.0
 40
1.0
 40
2.0
 40
2.0
 40
2.0
 40
3.0
 40
3.0
 40
3.0
 40
4.0
 40
4.0
 40
4.0
 40
4.0
 10
98.5979437687533
 20
-159.4745035408606
 10
98.33577200232578
 20
-159.4745035408606
 10
98.29787595198803
 20
-159.6860324036549
 10
98.29787595198803
 20
-159.8024766310563
 10
98.29787595198803
 20
-159.9781765008041
 10
98.39296058738093
 20
-160.1411295172564
 10
98.57692868629327
 20
-160.1411295172564
 10
98.69750702827702
 20
-160.1411295172564
 10
98.87320689802476
 20
-160.0818738749101
 10
98.87320689802476
 20
-159.7962754591829
 10
98.87320689802476
 20
-159.5719997430931
 10
98.73368053087214
 20
-159.4745035408606
 10
98.5979437687533
 20
-159.4745035408606
 97
        0
 97
        0
 75
     2
 76
     1
 98
        0
  0
ENDBLK
  5
CC
330
C9
100
AcDbEntity
  8
0
100
AcDbBlockEnd
  0
BLOCK
  5
DA
330
D8
100
AcDbEntity
  8
0
100
AcDbBlockBegin
  2
block 6
 70
     0
 10
0.0
 20
0.0
 30
0.0
  3
block 6
  1

  0
SPLINE
  5
DC
330
D8
100
AcDbEntity
  8
_U+30EC_U+30A4_U+30E4_U+30FC 1
370
     0
100
AcDbSpline
210
0.0
220
0.0
230
1.0
 70
    11
 71
     3
 72
    26
 73
    22
 74
     0
 42
0.0000000001
 43
0.0000000001
 12
1.0
 22
0.0
 32
0.0
 13
1.0
 23
0.0
 33
0.0
 40
0.0
 40
0.0
 40
0.0
 40
0.0
 40
1.0
 40
1.0
 40
1.0
 40
2.0
 40
2.0
 40
2.0
 40
3.0
 40
3.0
 40
3.0
 40
4.0
 40
4.0
 40
4.0
 40
5.0
 40
5.0
 40
5.0
 40
6.0
 40
6.0
 40
6.0
 40
7.0
 40
7.0
 40
7.0
 40
7.0
 10
118.9312418322464
 20
-151.0767387860155
 30
0.0
 10
118.9312418322464
 20
-151.0767387860155
 30
0.0
 10
117.8270887292238
 20
-151.0767387860155
 30
0.0
 10
117.8270887292238
 20
-151.0767387860155
 30
0.0
 10
117.8270887292238
 20
-151.0767387860155
 30
0.0
 10
117.8270887292238
 20
-151.4067789335025
 30
0.0
 10
117.8270887292238
 20
-151.4067789335025
 30
0.0
 10
117.8270887292238
 20
-151.4067789335025
 30
0.0
 10
117.6789496233581
 20
-151.4067789335025
 30
0.0
 10
117.6789496233581
 20
-151.4067789335025
 30
0.0
 10
117.6641357127715
 20
-151.0746717287244
 30
0.0
 10
117.5011826963191
 20
-151.0281629396735
 30
0.0
 10
117.3868055262089
 20
-150.9985351185004
 30
0.0
 10
117.3868055262089
 20
-150.9985351185004
 30
0.0
 10
117.3868055262089
 20
-150.8524630699258
 30
0.0
 10
117.3868055262089
 20
-150.8524630699258
 30
0.0
 10
117.3868055262089
 20
-150.8524630699258
 30
0.0
 10
118.9312418322464
 20
-150.8524630699258
 30
0.0
 10
118.9312418322464
 20
-150.8524630699258
 30
0.0
 10
118.9312418322464
 20
-150.8524630699258
 30
0.0
 10
118.9312418322464
 20
-151.0767387860155
 30
0.0
 10
118.9312418322464
 20
-151.0767387860155
 30
0.0
  0
HATCH
  5
DD
330
D8
100
AcDbEntity
  8
_U+30EC_U+30A4_U+30E4_U+30FC 1
 62
   179
420
  2234388
100
AcDbHatch
 10
0.0
 20
0.0
 30
0.0
210
0.0
220
0.0
230
1.0
  2
SOLID
 70
     1
 71
     0
 91
        1
 92
        1
 93
        1
 72
     4
 94
        3
 73
     0
 74
     1
 95
       26
 96
       22
 40
0.0
 40
0.0
 40
0.0
 40
0.0
 40
1.0
 40
1.0
 40
1.0
 40
2.0
 40
2.0
 40
2.0
 40
3.0
 40
3.0
 40
3.0
 40
4.0
 40
4.0
 40
4.0
 40
5.0
 40
5.0
 40
5.0
 40
6.0
 40
6.0
 40
6.0
 40
7.0
 40
7.0
 40
7.0
 40
7.0
 10
118.9312418322464
 20
-151.0767387860155
 10
118.9312418322464
 20
-151.0767387860155
 10
117.8270887292238
 20
-151.0767387860155
 10
117.8270887292238
 20
-151.0767387860155
 10
117.8270887292238
 20
-151.0767387860155
 10
117.8270887292238
 20
-151.4067789335025
 10
117.8270887292238
 20
-151.4067789335025
 10
117.8270887292238
 20
-151.4067789335025
 10
117.6789496233581
 20
-151.4067789335025
 10
117.6789496233581
 20
-151.4067789335025
 10
117.6641357127715
 20
-151.0746717287244
 10
117.5011826963191
 20
-151.0281629396735
 10
117.3868055262089
 20
-150.9985351185004
 10
117.3868055262089
 20
-150.9985351185004
 10
117.3868055262089
 20
-150.8524630699258
 10
117.3868055262089
 20
-150.8524630699258
 10
117.3868055262089
 20
-150.8524630699258
 10
118.9312418322464
 20
-150.8524630699258
 10
118.9312418322464
 20
-150.8524630699258
 10
118.9312418322464
 20
-150.8524630699258
 10
118.9312418322464
 20
-151.0767387860155
 10
118.9312418322464
 20
-151.0767387860155
 97
        0
 97
        0
 75
     2
 76
     1
 98
        0
  0
SPLINE
  5
DE
330
D8
100
AcDbEntity
  8
_U+30EC_U+30A4_U+30E4_U+30FC 1
370
     0
100
AcDbSpline
210
0.0
220
0.0
230
1.0
 70
    11
 71
     3
 72
    44
 73
    40
 74
     0
 42
0.0000000001
 43
0.0000000001
 12
1.0
 22
0.0
 32
0.0
 13
1.0
 23
0.0
 33
0.0
 40
0.0
 40
0.0
 40
0.0
 40
0.0
 40
1.0
 40
1.0
 40
1.0
 40
2.0
 40
2.0
 40
2.0
 40
3.0
 40
3.0
 40
3.0
 40
4.0
 40
4.0
 40
4.0
 40
5.0
 40
5.0
 40
5.0
 40
6.0
 40
6.0
 40
6.0
 40
7.0
 40
7.0
 40
7.0
 40
8.0
 40
8.0
 40
8.0
 40
9.0
 40
9.0
 40
9.0
 40
10.0
 40
10.0
 40
10.0
 40
11.0
 40
11.0
 40
11.0
 40
12.0
 40
12.0
 40
12.0
 40
13.0
 40
13.0
 40
13.0
 40
13.0
 10
118.3493652047877
 20
-149.7583007438104
 30
0.0
 10
118.5081841066577
 20
-149.9760307784782
 30
0.0
 10
118.5822536595905
 20
-150.06904835658
 30
0.0
 10
118.7259141413255
 20
-150.1179687124705
 30
0.0
 10
118.7259141413255
 20
-150.1179687124705
 30
0.0
 10
118.7259141413255
 20
-149.3393771328041
 30
0.0
 10
118.7259141413255
 20
-149.3393771328041
 30
0.0
 10
118.7259141413255
 20
-149.3393771328041
 30
0.0
 10
118.9312418322464
 20
-149.3393771328041
 30
0.0
 10
118.9312418322464
 20
-149.3393771328041
 30
0.0
 10
118.9312418322464
 20
-149.3393771328041
 30
0.0
 10
118.9312418322464
 20
-150.3673936256026
 30
0.0
 10
118.9312418322464
 20
-150.3673936256026
 30
0.0
 10
118.5736409208774
 20
-150.3356987471383
 30
0.0
 10
118.4954372533623
 20
-150.2702419329186
 30
0.0
 10
118.1970919843396
 20
-149.8850802576676
 30
0.0
 10
117.9983099748407
 20
-149.6291096631136
 30
0.0
 10
117.9304415937813
 20
-149.5636528488938
 30
0.0
 10
117.7929822839198
 20
-149.5636528488938
 30
0.0
 10
117.6744709992272
 20
-149.5636528488938
 30
0.0
 10
117.5435573707877
 20
-149.6356553445355
 30
0.0
 10
117.5435573707877
 20
-149.8323702967433
 30
0.0
 10
117.5435573707877
 20
-150.0924750058797
 30
0.0
 10
117.7740342587509
 20
-150.1007432350443
 30
0.0
 10
117.8904784861524
 20
-150.1052218591751
 30
0.0
 10
117.8904784861524
 20
-150.1052218591751
 30
0.0
 10
117.8904784861524
 20
-150.3294975752649
 30
0.0
 10
117.8904784861524
 20
-150.3294975752649
 30
0.0
 10
117.7633544627467
 20
-150.3208848365517
 30
0.0
 10
117.651388859476
 20
-150.3102050405475
 30
0.0
 10
117.5328775747835
 20
-150.2299343157411
 30
0.0
 10
117.3719916156223
 20
-150.1200357697617
 30
0.0
 10
117.3382296798668
 20
-149.9336561040097
 30
0.0
 10
117.3382296798668
 20
-149.8175563861567
 30
0.0
 10
117.3382296798668
 20
-149.5402261995941
 30
0.0
 10
117.5221977787792
 20
-149.3328314513821
 30
0.0
 10
117.795049341211
 20
-149.3328314513821
 30
0.0
 10
118.0238036814316
 20
-149.3328314513821
 30
0.0
 10
118.1230224314068
 20
-149.4492756787835
 30
0.0
 10
118.3493652047877
 20
-149.7583007438104
 30
0.0
  0
HATCH
  5
DF
330
D8
100
AcDbEntity
  8
_U+30EC_U+30A4_U+30E4_U+30FC 1
 62
   179
420
  2234388
100
AcDbHatch
 10
0.0
 20
0.0
 30
0.0
210
0.0
220
0.0
230
1.0
  2
SOLID
 70
     1
 71
     0
 91
        1
 92
        1
 93
        1
 72
     4
 94
        3
 73
     0
 74
     1
 95
       44
 96
       40
 40
0.0
 40
0.0
 40
0.0
 40
0.0
 40
1.0
 40
1.0
 40
1.0
 40
2.0
 40
2.0
 40
2.0
 40
3.0
 40
3.0
 40
3.0
 40
4.0
 40
4.0
 40
4.0
 40
5.0
 40
5.0
 40
5.0
 40
6.0
 40
6.0
 40
6.0
 40
7.0
 40
7.0
 40
7.0
 40
8.0
 40
8.0
 40
8.0
 40
9.0
 40
9.0
 40
9.0
 40
10.0
 40
10.0
 40
10.0
 40
11.0
 40
11.0
 40
11.0
 40
12.0
 40
12.0
 40
12.0
 40
13.0
 40
13.0
 40
13.0
 40
13.0
 10
118.3493652047877
 20
-149.7583007438104
 10
118.5081841066577
 20
-149.9760307784782
 10
118.5822536595905
 20
-150.06904835658
 10
118.7259141413255
 20
-150.1179687124705
 10
118.7259141413255
 20
-150.1179687124705
 10
118.7259141413255
 20
-149.3393771328041
 10
118.7259141413255
 20
-149.3393771328041
 10
118.7259141413255
 20
-149.3393771328041
 10
118.9312418322464
 20
-149.3393771328041
 10
118.9312418322464
 20
-149.3393771328041
 10
118.9312418322464
 20
-149.3393771328041
 10
118.9312418322464
 20
-150.3673936256026
 10
118.9312418322464
 20
-150.3673936256026
 10
118.5736409208774
 20
-150.3356987471383
 10
118.4954372533623
 20
-150.2702419329186
 10
118.1970919843396
 20
-149.8850802576676
 10
117.9983099748407
 20
-149.6291096631136
 10
117.9304415937813
 20
-149.5636528488938
 10
117.7929822839198
 20
-149.5636528488938
 10
117.6744709992272
 20
-149.5636528488938
 10
117.5435573707877
 20
-149.6356553445355
 10
117.5435573707877
 20
-149.8323702967433
 10
117.5435573707877
 20
-150.0924750058797
 10
117.7740342587509
 20
-150.1007432350443
 10
117.8904784861524
 20
-150.1052218591751
 10
117.8904784861524
 20
-150.1052218591751
 10
117.8904784861524
 20
-150.3294975752649
 10
117.8904784861524
 20
-150.3294975752649
 10
117.7633544627467
 20
-150.3208848365517
 10
117.651388859476
 20
-150.3102050405475
 10
117.5328775747835
 20
-150.2299343157411
 10
117.3719916156223
 20
-150.1200357697617
 10
117.3382296798668
 20
-149.9336561040097
 10
117.3382296798668
 20
-149.8175563861567
 10
117.3382296798668
 20
-149.5402261995941
 10
117.5221977787792
 20
-149.3328314513821
 10
117.795049341211
 20
-149.3328314513821
 10
118.0238036814316
 20
-149.3328314513821
 10
118.1230224314068
 20
-149.4492756787835
 10
118.3493652047877
 20
-149.7583007438104
 97
        0
 97
        0
 75
     2
 76
     1
 98
        0
  0
POLYLINE
  5
E0
330
D8
100
AcDbEntity
  8
_U+30EC_U+30A4_U+30E4_U+30FC 1
370
     0
100
AcDb2dPolyline
 66
     1
 10
0.0
 20
0.0
 30
0.0
  0
VERTEX
  5
E1
330
E0
100
AcDbEntity
  8
_U+30EC_U+30A4_U+30E4_U+30FC 1
370
     0
100
AcDbVertex
100
AcDb2dVertex
 10
118.9312418322464
 20
-149.1144123976172
 30
0.0
  0
VERTEX
  5
E2
330
E0
100
AcDbEntity
  8
_U+30EC_U+30A4_U+30E4_U+30FC 1
370
     0
100
AcDbVertex
100
AcDb2dVertex
 10
118.6794053522746
 20
-149.1144123976172
 30
0.0
  0
VERTEX
  5
E3
330
E0
100
AcDbEntity
  8
_U+30EC_U+30A4_U+30E4_U+30FC 1
370
     0
100
AcDbVertex
100
AcDb2dVertex
 10
118.6794053522746
 20
-148.8625759176455
 30
0.0
  0
VERTEX
  5
E4
330
E0
100
AcDbEntity
  8
_U+30EC_U+30A4_U+30E4_U+30FC 1
370
     0
100
AcDbVertex
100
AcDb2dVertex
 10
118.9312418322464
 20
-148.8625759176455
 30
0.0
  0
VERTEX
  5
E5
330
E0
100
AcDbEntity
  8
_U+30EC_U+30A4_U+30E4_U+30FC 1
370
     0
100
AcDbVertex
100
AcDb2dVertex
 10
118.9312418322464
 20
-149.1144123976172
 30
0.0
  0
SEQEND
  5
E6
330
E0
100
AcDbEntity
  8
_U+30EC_U+30A4_U+30E4_U+30FC 1
370
     0
  0
HATCH
  5
E7
330
D8
100
AcDbEntity
  8
_U+30EC_U+30A4_U+30E4_U+30FC 1
 62
   179
420
  2234388
100
AcDbHatch
 10
0.0
 20
0.0
 30
0.0
210
0.0
220
0.0
230
1.0
  2
SOLID
 70
     1
 71
     0
 91
        1
 92
        1
 93
        4
 72
     1
 10
118.9312418322464
 20
-149.1144123976172
 11
118.6794053522746
 21
-149.1144123976172
 72
     1
 10
118.6794053522746
 20
-149.1144123976172
 11
118.6794053522746
 21
-148.8625759176455
 72
     1
 10
118.6794053522746
 20
-148.8625759176455
 11
118.9312418322464
 21
-148.8625759176455
 72
     1
 10
118.9312418322464
 20
-148.8625759176455
 11
118.9312418322464
 21
-149.1144123976172
 97
        0
 75
     2
 76
     1
 98
        0
  0
SPLINE
  5
E8
330
D8
100
AcDbEntity
  8
_U+30EC_U+30A4_U+30E4_U+30FC 1
370
     0
100
AcDbSpline
210
0.0
220
0.0
230
1.0
 70
    11
 71
     3
 72
    26
 73
    22
 74
     0
 42
0.0000000001
 43
0.0000000001
 12
1.0
 22
0.0
 32
0.0
 13
1.0
 23
0.0
 33
0.0
 40
0.0
 40
0.0
 40
0.0
 40
0.0
 40
1.0
 40
1.0
 40
1.0
 40
2.0
 40
2.0
 40
2.0
 40
3.0
 40
3.0
 40
3.0
 40
4.0
 40
4.0
 40
4.0
 40
5.0
 40
5.0
 40
5.0
 40
6.0
 40
6.0
 40
6.0
 40
7.0
 40
7.0
 40
7.0
 40
7.0
 10
118.9312418322464
 20
-148.215242475967
 30
0.0
 10
118.9312418322464
 20
-148.215242475967
 30
0.0
 10
118.9312418322464
 20
-148.4522650453522
 30
0.0
 10
118.9312418322464
 20
-148.4522650453522
 30
0.0
 10
118.6222167672195
 20
-148.4267713387614
 30
0.0
 10
118.1040744062379
 20
-148.2341905011359
 30
0.0
 10
117.5983343890032
 20
-147.8280137434249
 30
0.0
 10
117.5983343890032
 20
-147.8280137434249
 30
0.0
 10
117.5983343890032
 20
-148.6658609654377
 30
0.0
 10
117.5983343890032
 20
-148.6658609654377
 30
0.0
 10
117.5983343890032
 20
-148.6658609654377
 30
0.0
 10
117.3868055262089
 20
-148.6658609654377
 30
0.0
 10
117.3868055262089
 20
-148.6658609654377
 30
0.0
 10
117.3868055262089
 20
-148.6658609654377
 30
0.0
 10
117.3868055262089
 20
-147.5909911740398
 30
0.0
 10
117.3868055262089
 20
-147.5909911740398
 30
0.0
 10
117.3868055262089
 20
-147.5909911740398
 30
0.0
 10
117.5983343890032
 20
-147.5909911740398
 30
0.0
 10
117.5983343890032
 20
-147.5909911740398
 30
0.0
 10
117.8884114288612
 20
-147.9148301496533
 30
0.0
 10
118.4806233427757
 20
-148.1814805402116
 30
0.0
 10
118.9312418322464
 20
-148.215242475967
 30
0.0
  0
HATCH
  5
E9
330
D8
100
AcDbEntity
  8
_U+30EC_U+30A4_U+30E4_U+30FC 1
 62
   179
420
  2234388
100
AcDbHatch
 10
0.0
 20
0.0
 30
0.0
210
0.0
220
0.0
230
1.0
  2
SOLID
 70
     1
 71
     0
 91
        1
 92
        1
 93
        1
 72
     4
 94
        3
 73
     0
 74
     1
 95
       26
 96
       22
 40
0.0
 40
0.0
 40
0.0
 40
0.0
 40
1.0
 40
1.0
 40
1.0
 40
2.0
 40
2.0
 40
2.0
 40
3.0
 40
3.0
 40
3.0
 40
4.0
 40
4.0
 40
4.0
 40
5.0
 40
5.0
 40
5.0
 40
6.0
 40
6.0
 40
6.0
 40
7.0
 40
7.0
 40
7.0
 40
7.0
 10
118.9312418322464
 20
-148.215242475967
 10
118.9312418322464
 20
-148.215242475967
 10
118.9312418322464
 20
-148.4522650453522
 10
118.9312418322464
 20
-148.4522650453522
 10
118.6222167672195
 20
-148.4267713387614
 10
118.1040744062379
 20
-148.2341905011359
 10
117.5983343890032
 20
-147.8280137434249
 10
117.5983343890032
 20
-147.8280137434249
 10
117.5983343890032
 20
-148.6658609654377
 10
117.5983343890032
 20
-148.6658609654377
 10
117.5983343890032
 20
-148.6658609654377
 10
117.3868055262089
 20
-148.6658609654377
 10
117.3868055262089
 20
-148.6658609654377
 10
117.3868055262089
 20
-148.6658609654377
 10
117.3868055262089
 20
-147.5909911740398
 10
117.3868055262089
 20
-147.5909911740398
 10
117.3868055262089
 20
-147.5909911740398
 10
117.5983343890032
 20
-147.5909911740398
 10
117.5983343890032
 20
-147.5909911740398
 10
117.8884114288612
 20
-147.9148301496533
 10
118.4806233427757
 20
-148.1814805402116
 10
118.9312418322464
 20
-148.215242475967
 97
        0
 97
        0
 75
     2
 76
     1
 98
        0
  0
ENDBLK
  5
DB
330
D8
100
AcDbEntity
  8
0
100
AcDbBlockEnd
  0
ENDSEC
  0
SECTION
  2
ENTITIES
  0
POLYLINE
  5
41
330
1F
100
AcDbEntity
  8
_U+30EC_U+30A4_U+30E4_U+30FC 1
370
     0
100
AcDb2dPolyline
 66
     1
 10
0.0
 20
0.0
 30
0.0
  0
VERTEX
  5
42
330
41
100
AcDbEntity
  8
_U+30EC_U+30A4_U+30E4_U+30FC 1
370
     0
100
AcDbVertex
100
AcDb2dVertex
 10
89.51440045979913
 20
-143.2278961671281
 30
0.0
  0
VERTEX
  5
43
330
41
100
AcDbEntity
  8
_U+30EC_U+30A4_U+30E4_U+30FC 1
370
     0
100
AcDbVertex
100
AcDb2dVertex
 10
95.57794076861312
 20
-143.2278961671281
 30
0.0
  0
VERTEX
  5
44
330
41
100
AcDbEntity
  8
_U+30EC_U+30A4_U+30E4_U+30FC 1
370
     0
100
AcDbVertex
100
AcDb2dVertex
 10
95.57794076861312
 20
-156.9294392511322
 30
0.0
  0
VERTEX
  5
45
330
41
100
AcDbEntity
  8
_U+30EC_U+30A4_U+30E4_U+30FC 1
370
     0
100
AcDbVertex
100
AcDb2dVertex
 10
101.5779836612646
 20
-156.9294392511322
 30
0.0
  0
VERTEX
  5
46
330
41
100
AcDbEntity
  8
_U+30EC_U+30A4_U+30E4_U+30FC 1
370
     0
100
AcDbVertex
100
AcDb2dVertex
 10
101.5779836612646
 20
-155.9289619903689
 30
0.0
  0
VERTEX
  5
47
330
41
100
AcDbEntity
  8
_U+30EC_U+30A4_U+30E4_U+30FC 1
370
     0
100
AcDbVertex
100
AcDb2dVertex
 10
96.47823034629603
 20
-155.9289619903689
 30
0.0
  0
VERTEX
  5
48
330
41
100
AcDbEntity
  8
_U+30EC_U+30A4_U+30E4_U+30FC 1
370
     0
100
AcDbVertex
100
AcDb2dVertex
 10
96.47823034629603
 20
-143.2278961671281
 30
0.0
  0
VERTEX
  5
49
330
41
100
AcDbEntity
  8
_U+30EC_U+30A4_U+30E4_U+30FC 1
370
     0
100
AcDbVertex
100
AcDb2dVertex
 10
115.5779581416784
 20
-143.2278961671281
 30
0.0
  0
VERTEX
  5
4A
330
41
100
AcDbEntity
  8
_U+30EC_U+30A4_U+30E4_U+30FC 1
370
     0
100
AcDbVertex
100
AcDb2dVertex
 10
115.5779581416784
 20
-142.2281294573087
 30
0.0
  0
VERTEX
  5
4B
330
41
100
AcDbEntity
  8
_U+30EC_U+30A4_U+30E4_U+30FC 1
370
     0
100
AcDbVertex
100
AcDb2dVertex
 10
89.51440045979913
 20
-142.2281294573087
 30
0.0
  0
VERTEX
  5
4C
330
41
100
AcDbEntity
  8
_U+30EC_U+30A4_U+30E4_U+30FC 1
370
     0
100
AcDbVertex
100
AcDb2dVertex
 10
89.51440045979913
 20
-143.2278961671281
 30
0.0
  0
SEQEND
  5
4E
330
41
100
AcDbEntity
  8
_U+30EC_U+30A4_U+30E4_U+30FC 1
370
     0
  0
HATCH
  5
4D
330
1F
100
AcDbEntity
  8
_U+30EC_U+30A4_U+30E4_U+30FC 1
 62
     9
420
 13224394
100
AcDbHatch
 10
0.0
 20
0.0
 30
0.0
210
0.0
220
0.0
230
1.0
  2
SOLID
 70
     1
 71
     0
 91
        1
 92
        1
 93
       10
 72
     1
 10
89.51440045979913
 20
-143.2278961671281
 11
95.57794076861312
 21
-143.2278961671281
 72
     1
 10
95.57794076861312
 20
-143.2278961671281
 11
95.57794076861312
 21
-156.9294392511322
 72
     1
 10
95.57794076861312
 20
-156.9294392511322
 11
101.5779836612646
 21
-156.9294392511322
 72
     1
 10
101.5779836612646
 20
-156.9294392511322
 11
101.5779836612646
 21
-155.9289619903689
 72
     1
 10
101.5779836612646
 20
-155.9289619903689
 11
96.47823034629603
 21
-155.9289619903689
 72
     1
 10
96.47823034629603
 20
-155.9289619903689
 11
96.47823034629603
 21
-143.2278961671281
 72
     1
 10
96.47823034629603
 20
-143.2278961671281
 11
115.5779581416784
 21
-143.2278961671281
 72
     1
 10
115.5779581416784
 20
-143.2278961671281
 11
115.5779581416784
 21
-142.2281294573087
 72
     1
 10
115.5779581416784
 20
-142.2281294573087
 11
89.51440045979913
 21
-142.2281294573087
 72
     1
 10
89.51440045979913
 20
-142.2281294573087
 11
89.51440045979913
 21
-143.2278961671281
 97
        0
 75
     2
 76
     1
 98
        0
  0
POLYLINE
  5
4F
330
1F
100
AcDbEntity
  8
_U+30EC_U+30A4_U+30E4_U+30FC 1
 62
   179
420
  2234388
370
    25
100
AcDb2dPolyline
 66
     1
 10
0.0
 20
0.0
 30
0.0
  0
VERTEX
  5
50
330
4F
100
AcDbEntity
  8
_U+30EC_U+30A4_U+30E4_U+30FC 1
 62
   179
420
  2234388
370
    25
100
AcDbVertex
100
AcDb2dVertex
 10
89.57779021672773
 20
-142.2281186913852
 30
0.0
  0
VERTEX
  5
51
330
4F
100
AcDbEntity
  8
_U+30EC_U+30A4_U+30E4_U+30FC 1
 62
   179
420
  2234388
370
    25
100
AcDbVertex
100
AcDb2dVertex
 10
115.5778504824445
 20
-142.2281186913852
 30
0.0
  0
SEQEND
  5
52
330
4F
100
AcDbEntity
  8
_U+30EC_U+30A4_U+30E4_U+30FC 1
 62
   179
420
  2234388
370
    25
  0
POLYLINE
  5
53
330
1F
100
AcDbEntity
  8
_U+30EC_U+30A4_U+30E4_U+30FC 1
 62
   179
420
  2234388
370
    25
100
AcDb2dPolyline
 66
     1
 10
0.0
 20
0.0
 30
0.0
  0
VERTEX
  5
54
330
53
100
AcDbEntity
  8
_U+30EC_U+30A4_U+30E4_U+30FC 1
 62
   179
420
  2234388
370
    25
100
AcDbVertex
100
AcDb2dVertex
 10
89.57814549219965
 20
-143.2278961671281
 30
0.0
  0
VERTEX
  5
55
330
53
100
AcDbEntity
  8
_U+30EC_U+30A4_U+30E4_U+30FC 1
 62
   179
420
  2234388
370
    25
100
AcDbVertex
100
AcDb2dVertex
 10
95.57818838485144
 20
-143.2278961671281
 30
0.0
  0
SEQEND
  5
56
330
53
100
AcDbEntity
  8
_U+30EC_U+30A4_U+30E4_U+30FC 1
 62
   179
420
  2234388
370
    25
  0
POLYLINE
  5
57
330
1F
100
AcDbEntity
  8
_U+30EC_U+30A4_U+30E4_U+30FC 1
 62
   179
420
  2234388
370
    25
100
AcDb2dPolyline
 66
     1
 10
0.0
 20
0.0
 30
0.0
  0
VERTEX
  5
58
330
57
100
AcDbEntity
  8
_U+30EC_U+30A4_U+30E4_U+30FC 1
 62
   179
420
  2234388
370
    25
100
AcDbVertex
100
AcDb2dVertex
 10
95.57812378931077
 20
-143.2278961671281
 30
0.0
  0
VERTEX
  5
59
330
57
100
AcDbEntity
  8
_U+30EC_U+30A4_U+30E4_U+30FC 1
 62
   179
420
  2234388
370
    25
100
AcDbVertex
100
AcDb2dVertex
 10
95.57812378931077
 20
-156.9294392511322
 30
0.0
  0
SEQEND
  5
5A
330
57
100
AcDbEntity
  8
_U+30EC_U+30A4_U+30E4_U+30FC 1
 62
   179
420
  2234388
370
    25
  0
POLYLINE
  5
5B
330
1F
100
AcDbEntity
  8
_U+30EC_U+30A4_U+30E4_U+30FC 1
 62
   179
420
  2234388
370
    25
100
AcDb2dPolyline
 66
     1
 10
0.0
 20
0.0
 30
0.0
  0
VERTEX
  5
5C
330
5B
100
AcDbEntity
  8
_U+30EC_U+30A4_U+30E4_U+30FC 1
 62
   179
420
  2234388
370
    25
100
AcDbVertex
100
AcDb2dVertex
 10
96.47830570776009
 20
-143.2278961671281
 30
0.0
  0
VERTEX
  5
5D
330
5B
100
AcDbEntity
  8
_U+30EC_U+30A4_U+30E4_U+30FC 1
 62
   179
420
  2234388
370
    25
100
AcDbVertex
100
AcDb2dVertex
 10
115.5780442690656
 20
-143.2278961671281
 30
0.0
  0
SEQEND
  5
5E
330
5B
100
AcDbEntity
  8
_U+30EC_U+30A4_U+30E4_U+30FC 1
 62
   179
420
  2234388
370
    25
  0
POLYLINE
  5
5F
330
1F
100
AcDbEntity
  8
_U+30EC_U+30A4_U+30E4_U+30FC 1
 62
   179
420
  2234388
370
    25
100
AcDb2dPolyline
 66
     1
 10
0.0
 20
0.0
 30
0.0
  0
VERTEX
  5
60
330
5F
100
AcDbEntity
  8
_U+30EC_U+30A4_U+30E4_U+30FC 1
 62
   179
420
  2234388
370
    25
100
AcDbVertex
100
AcDb2dVertex
 10
96.47830570776009
 20
-155.9289189266753
 30
0.0
  0
VERTEX
  5
61
330
5F
100
AcDbEntity
  8
_U+30EC_U+30A4_U+30E4_U+30FC 1
 62
   179
420
  2234388
370
    25
100
AcDbVertex
100
AcDb2dVertex
 10
101.5780590227283
 20
-155.9289189266753
 30
0.0
  0
SEQEND
  5
62
330
5F
100
AcDbEntity
  8
_U+30EC_U+30A4_U+30E4_U+30FC 1
 62
   179
420
  2234388
370
    25
  0
POLYLINE
  5
63
330
1F
100
AcDbEntity
  8
_U+30EC_U+30A4_U+30E4_U+30FC 1
 62
   179
420
  2234388
370
    25
100
AcDb2dPolyline
 66
     1
 10
0.0
 20
0.0
 30
0.0
  0
VERTEX
  5
64
330
63
100
AcDbEntity
  8
_U+30EC_U+30A4_U+30E4_U+30FC 1
 62
   179
420
  2234388
370
    25
100
AcDbVertex
100
AcDb2dVertex
 10
95.57812378931077
 20
-156.9293531237451
 30
0.0
  0
VERTEX
  5
65
330
63
100
AcDbEntity
  8
_U+30EC_U+30A4_U+30E4_U+30FC 1
 62
   179
420
  2234388
370
    25
100
AcDbVertex
100
AcDb2dVertex
 10
101.5781666819626
 20
-156.9293531237451
 30
0.0
  0
SEQEND
  5
66
330
63
100
AcDbEntity
  8
_U+30EC_U+30A4_U+30E4_U+30FC 1
 62
   179
420
  2234388
370
    25
  0
POLYLINE
  5
67
330
1F
100
AcDbEntity
  8
_U+30EC_U+30A4_U+30E4_U+30FC 1
 62
   179
420
  2234388
370
    25
100
AcDb2dPolyline
 66
     1
 10
0.0
 20
0.0
 30
0.0
  0
VERTEX
  5
68
330
67
100
AcDbEntity
  8
_U+30EC_U+30A4_U+30E4_U+30FC 1
 62
   179
420
  2234388
370
    25
100
AcDbVertex
100
AcDb2dVertex
 10
101.5780913204985
 20
-155.9289189266753
 30
0.0
  0
VERTEX
  5
69
330
67
100
AcDbEntity
  8
_U+30EC_U+30A4_U+30E4_U+30FC 1
 62
   179
420
  2234388
370
    25
100
AcDbVertex
100
AcDb2dVertex
 10
101.5780913204985
 20
-156.929406953362
 30
0.0
  0
SEQEND
  5
6A
330
67
100
AcDbEntity
  8
_U+30EC_U+30A4_U+30E4_U+30FC 1
 62
   179
420
  2234388
370
    25
  0
POLYLINE
  5
6B
330
1F
100
AcDbEntity
  8
_U+30EC_U+30A4_U+30E4_U+30FC 1
 62
   179
420
  2234388
370
    25
100
AcDb2dPolyline
 66
     1
 10
0.0
 20
0.0
 30
0.0
  0
VERTEX
  5
6C
330
6B
100
AcDbEntity
  8
_U+30EC_U+30A4_U+30E4_U+30FC 1
 62
   179
420
  2234388
370
    25
100
AcDbVertex
100
AcDb2dVertex
 10
89.51750104573587
 20
-142.2281186913852
 30
0.0
  0
VERTEX
  5
6D
330
6B
100
AcDbEntity
  8
_U+30EC_U+30A4_U+30E4_U+30FC 1
 62
   179
420
  2234388
370
    25
100
AcDbVertex
100
AcDb2dVertex
 10
89.51750104573587
 20
-143.2278961671281
 30
0.0
  0
SEQEND
  5
6E
330
6B
100
AcDbEntity
  8
_U+30EC_U+30A4_U+30E4_U+30FC 1
 62
   179
420
  2234388
370
    25
  0
POLYLINE
  5
6F
330
1F
100
AcDbEntity
  8
_U+30EC_U+30A4_U+30E4_U+30FC 1
 62
   179
420
  2234388
370
    25
100
AcDb2dPolyline
 66
     1
 10
0.0
 20
0.0
 30
0.0
  0
VERTEX
  5
70
330
6F
100
AcDbEntity
  8
_U+30EC_U+30A4_U+30E4_U+30FC 1
 62
   179
420
  2234388
370
    25
100
AcDbVertex
100
AcDb2dVertex
 10
115.5778935461381
 20
-142.2281186913852
 30
0.0
  0
VERTEX
  5
71
330
6F
100
AcDbEntity
  8
_U+30EC_U+30A4_U+30E4_U+30FC 1
 62
   179
420
  2234388
370
    25
100
AcDbVertex
100
AcDb2dVertex
 10
115.5778935461381
 20
-143.2278961671281
 30
0.0
  0
SEQEND
  5
72
330
6F
100
AcDbEntity
  8
_U+30EC_U+30A4_U+30E4_U+30FC 1
 62
   179
420
  2234388
370
    25
  0
POLYLINE
  5
73
330
1F
100
AcDbEntity
  8
_U+30EC_U+30A4_U+30E4_U+30FC 1
 62
   179
420
  2234388
370
    25
100
AcDb2dPolyline
 66
     1
 10
0.0
 20
0.0
 30
0.0
  0
VERTEX
  5
74
330
73
100
AcDbEntity
  8
_U+30EC_U+30A4_U+30E4_U+30FC 1
 62
   179
420
  2234388
370
    25
100
AcDbVertex
100
AcDb2dVertex
 10
96.47830570776009
 20
-143.2278961671281
 30
0.0
  0
VERTEX
  5
75
330
73
100
AcDbEntity
  8
_U+30EC_U+30A4_U+30E4_U+30FC 1
 62
   179
420
  2234388
370
    25
100
AcDbVertex
100
AcDb2dVertex
 10
96.47830570776009
 20
-155.9289619903689
 30
0.0
  0
SEQEND
  5
76
330
73
100
AcDbEntity
  8
_U+30EC_U+30A4_U+30E4_U+30FC 1
 62
   179
420
  2234388
370
    25
  0
SPLINE
  5
77
330
1F
100
AcDbEntity
  8
_U+30EC_U+30A4_U+30E4_U+30FC 1
 62
   179
420
  2234388
370
     9
100
AcDbSpline
210
0.0
220
0.0
230
1.0
 70
    11
 71
     3
 72
    17
 73
    13
 74
     0
 42
0.0000000001
 43
0.0000000001
 12
1.0
 22
0.0
 32
0.0
 13
1.0
 23
0.0
 33
0.0
 40
0.0
 40
0.0
 40
0.0
 40
0.0
 40
1.0
 40
1.0
 40
1.0
 40
2.0
 40
2.0
 40
2.0
 40
3.0
 40
3.0
 40
3.0
 40
4.0
 40
4.0
 40
4.0
 40
4.0
 10
89.59536020370251
 20
-138.2276522820663
 30
0.0
 10
89.59536020370251
 20
-138.1726276476129
 30
0.0
 10
89.55055243054748
 20
-138.1278198744579
 30
0.0
 10
89.49551703017062
 20
-138.1278198744579
 30
0.0
 10
89.44048162979375
 20
-138.1278198744579
 30
0.0
 10
89.3956846225621
 20
-138.1726276476129
 30
0.0
 10
89.3956846225621
 20
-138.2276522820663
 30
0.0
 10
89.3956846225621
 20
-138.2826876824432
 30
0.0
 10
89.44048162979375
 20
-138.3274954555983
 30
0.0
 10
89.49551703017062
 20
-138.3274954555983
 30
0.0
 10
89.55055243054748
 20
-138.3274954555983
 30
0.0
 10
89.59536020370251
 20
-138.2826876824432
 30
0.0
 10
89.59536020370251
 20
-138.2276522820663
 30
0.0
  0
SPLINE
  5
78
330
1F
100
AcDbEntity
  8
_U+30EC_U+30A4_U+30E4_U+30FC 1
 62
   179
420
  2234388
370
     9
100
AcDbSpline
210
0.0
220
0.0
230
1.0
 70
    11
 71
     3
 72
    17
 73
    13
 74
     0
 42
0.0000000001
 43
0.0000000001
 12
1.0
 22
0.0
 32
0.0
 13
1.0
 23
0.0
 33
0.0
 40
0.0
 40
0.0
 40
0.0
 40
0.0
 40
1.0
 40
1.0
 40
1.0
 40
2.0
 40
2.0
 40
2.0
 40
3.0
 40
3.0
 40
3.0
 40
4.0
 40
4.0
 40
4.0
 40
4.0
 10
115.6778013152103
 20
-138.2276522820663
 30
0.0
 10
115.6778013152103
 20
-138.1726276476129
 30
0.0
 10
115.6337040929991
 20
-138.1278198744579
 30
0.0
 10
115.5779581416784
 20
-138.1278198744579
 30
0.0
 10
115.5229227413016
 20
-138.1278198744579
 30
0.0
 10
115.4781149681465
 20
-138.1726276476129
 30
0.0
 10
115.4781149681465
 20
-138.2276522820663
 30
0.0
 10
115.4781149681465
 20
-138.2826876824432
 30
0.0
 10
115.5229227413016
 20
-138.3274954555983
 30
0.0
 10
115.5779581416784
 20
-138.3274954555983
 30
0.0
 10
115.6337040929991
 20
-138.3274954555983
 30
0.0
 10
115.6778013152103
 20
-138.2826876824432
 30
0.0
 10
115.6778013152103
 20
-138.2276522820663
 30
0.0
  0
SPLINE
  5
79
330
1F
100
AcDbEntity
  8
_U+30EC_U+30A4_U+30E4_U+30FC 1
 62
   179
420
  2234388
370
     9
100
AcDbSpline
210
0.0
220
0.0
230
1.0
 70
    11
 71
     3
 72
    17
 73
    13
 74
     0
 42
0.0000000001
 43
0.0000000001
 12
1.0
 22
0.0
 32
0.0
 13
1.0
 23
0.0
 33
0.0
 40
0.0
 40
0.0
 40
0.0
 40
0.0
 40
1.0
 40
1.0
 40
1.0
 40
2.0
 40
2.0
 40
2.0
 40
3.0
 40
3.0
 40
3.0
 40
4.0
 40
4.0
 40
4.0
 40
4.0
 10
119.6782677245292
 20
-143.2278961671281
 30
0.0
 10
119.6782677245292
 20
-143.172871532675
 30
0.0
 10
119.6334599513742
 20
-143.1280637595196
 30
0.0
 10
119.5784245509973
 20
-143.1280637595196
 30
0.0
 10
119.5233891506205
 20
-143.1280637595196
 30
0.0
 10
119.4785813774654
 20
-143.172871532675
 30
0.0
 10
119.4785813774654
 20
-143.2278961671281
 30
0.0
 10
119.4785813774654
 20
-143.282931567505
 30
0.0
 10
119.5233891506205
 20
-143.32773934066
 30
0.0
 10
119.5784245509973
 20
-143.32773934066
 30
0.0
 10
119.6334599513742
 20
-143.32773934066
 30
0.0
 10
119.6782677245292
 20
-143.282931567505
 30
0.0
 10
119.6782677245292
 20
-143.2278961671281
 30
0.0
  0
SPLINE
  5
7A
330
1F
100
AcDbEntity
  8
_U+30EC_U+30A4_U+30E4_U+30FC 1
 62
   179
420
  2234388
370
     9
100
AcDbSpline
210
0.0
220
0.0
230
1.0
 70
    11
 71
     3
 72
    17
 73
    13
 74
     0
 42
0.0000000001
 43
0.0000000001
 12
1.0
 22
0.0
 32
0.0
 13
1.0
 23
0.0
 33
0.0
 40
0.0
 40
0.0
 40
0.0
 40
0.0
 40
1.0
 40
1.0
 40
1.0
 40
2.0
 40
2.0
 40
2.0
 40
3.0
 40
3.0
 40
3.0
 40
4.0
 40
4.0
 40
4.0
 40
4.0
 10
119.6782677245292
 20
-142.2281186913852
 30
0.0
 10
119.6782677245292
 20
-142.1723835059879
 30
0.0
 10
119.6334599513742
 20
-142.1275864987563
 30
0.0
 10
119.5784245509973
 20
-142.1275864987563
 30
0.0
 10
119.5233891506205
 20
-142.1275864987563
 30
0.0
 10
119.4785813774654
 20
-142.1723835059879
 30
0.0
 10
119.4785813774654
 20
-142.2281186913852
 30
0.0
 10
119.4785813774654
 20
-142.2831540917621
 30
0.0
 10
119.5233891506205
 20
-142.3279618649175
 30
0.0
 10
119.5784245509973
 20
-142.3279618649175
 30
0.0
 10
119.6334599513742
 20
-142.3279618649175
 30
0.0
 10
119.6782677245292
 20
-142.2831540917621
 30
0.0
 10
119.6782677245292
 20
-142.2281186913852
 30
0.0
  0
SPLINE
  5
7B
330
1F
100
AcDbEntity
  8
_U+30EC_U+30A4_U+30E4_U+30FC 1
 62
   179
420
  2234388
370
     9
100
AcDbSpline
210
0.0
220
0.0
230
1.0
 70
    11
 71
     3
 72
    17
 73
    13
 74
     0
 42
0.0000000001
 43
0.0000000001
 12
1.0
 22
0.0
 32
0.0
 13
1.0
 23
0.0
 33
0.0
 40
0.0
 40
0.0
 40
0.0
 40
0.0
 40
1.0
 40
1.0
 40
1.0
 40
2.0
 40
2.0
 40
2.0
 40
3.0
 40
3.0
 40
3.0
 40
4.0
 40
4.0
 40
4.0
 40
4.0
 10
119.6782677245292
 20
-155.9289189266753
 30
0.0
 10
119.6782677245292
 20
-155.8738942922218
 30
0.0
 10
119.6334599513742
 20
-155.8290865190668
 30
0.0
 10
119.5784245509973
 20
-155.8290865190668
 30
0.0
 10
119.5233891506205
 20
-155.8290865190668
 30
0.0
 10
119.4785813774654
 20
-155.8738942922218
 30
0.0
 10
119.4785813774654
 20
-155.9289189266753
 30
0.0
 10
119.4785813774654
 20
-155.9839543270522
 30
0.0
 10
119.5233891506205
 20
-156.0287621002072
 30
0.0
 10
119.5784245509973
 20
-156.0287621002072
 30
0.0
 10
119.6334599513742
 20
-156.0287621002072
 30
0.0
 10
119.6782677245292
 20
-155.9839543270522
 30
0.0
 10
119.6782677245292
 20
-155.9289189266753
 30
0.0
  0
SPLINE
  5
7C
330
1F
100
AcDbEntity
  8
_U+30EC_U+30A4_U+30E4_U+30FC 1
 62
   179
420
  2234388
370
     9
100
AcDbSpline
210
0.0
220
0.0
230
1.0
 70
    11
 71
     3
 72
    17
 73
    13
 74
     0
 42
0.0000000001
 43
0.0000000001
 12
1.0
 22
0.0
 32
0.0
 13
1.0
 23
0.0
 33
0.0
 40
0.0
 40
0.0
 40
0.0
 40
0.0
 40
1.0
 40
1.0
 40
1.0
 40
2.0
 40
2.0
 40
2.0
 40
3.0
 40
3.0
 40
3.0
 40
4.0
 40
4.0
 40
4.0
 40
4.0
 10
95.67837606793154
 20
-160.92907668435
 30
0.0
 10
95.67837606793154
 20
-160.8740520498965
 30
0.0
 10
95.63356829477682
 20
-160.8292442767415
 30
0.0
 10
95.57817761892773
 20
-160.8292442767415
 30
0.0
 10
95.52315298447458
 20
-160.8292442767415
 30
0.0
 10
95.47834521131922
 20
-160.8740520498965
 30
0.0
 10
95.47834521131922
 20
-160.92907668435
 30
0.0
 10
95.47834521131922
 20
-160.9841120847269
 30
0.0
 10
95.52315298447458
 20
-161.0289198578819
 30
0.0
 10
95.57817761892773
 20
-161.0289198578819
 30
0.0
 10
95.63356829477682
 20
-161.0289198578819
 30
0.0
 10
95.67837606793154
 20
-160.9841120847269
 30
0.0
 10
95.67837606793154
 20
-160.92907668435
 30
0.0
  0
SPLINE
  5
7D
330
1F
100
AcDbEntity
  8
_U+30EC_U+30A4_U+30E4_U+30FC 1
 62
   179
420
  2234388
370
     9
100
AcDbSpline
210
0.0
220
0.0
230
1.0
 70
    11
 71
     3
 72
    17
 73
    13
 74
     0
 42
0.0000000001
 43
0.0000000001
 12
1.0
 22
0.0
 32
0.0
 13
1.0
 23
0.0
 33
0.0
 40
0.0
 40
0.0
 40
0.0
 40
0.0
 40
1.0
 40
1.0
 40
1.0
 40
2.0
 40
2.0
 40
2.0
 40
3.0
 40
3.0
 40
3.0
 40
4.0
 40
4.0
 40
4.0
 40
4.0
 10
101.6779990895707
 20
-160.92907668435
 30
0.0
 10
101.6779990895707
 20
-160.8740520498965
 30
0.0
 10
101.6331913164157
 20
-160.8292442767415
 30
0.0
 10
101.5781559160388
 20
-160.8292442767415
 30
0.0
 10
101.523120515662
 20
-160.8292442767415
 30
0.0
 10
101.4783235084303
 20
-160.8740520498965
 30
0.0
 10
101.4783235084303
 20
-160.92907668435
 30
0.0
 10
101.4783235084303
 20
-160.9841120847269
 30
0.0
 10
101.523120515662
 20
-161.0289198578819
 30
0.0
 10
101.5781559160388
 20
-161.0289198578819
 30
0.0
 10
101.6331913164157
 20
-161.0289198578819
 30
0.0
 10
101.6779990895707
 20
-160.9841120847269
 30
0.0
 10
101.6779990895707
 20
-160.92907668435
 30
0.0
  0
SPLINE
  5
7E
330
1F
100
AcDbEntity
  8
_U+30EC_U+30A4_U+30E4_U+30FC 1
 62
   179
420
  2234388
370
     9
100
AcDbSpline
210
0.0
220
0.0
230
1.0
 70
    11
 71
     3
 72
    17
 73
    13
 74
     0
 42
0.0000000001
 43
0.0000000001
 12
1.0
 22
0.0
 32
0.0
 13
1.0
 23
0.0
 33
0.0
 40
0.0
 40
0.0
 40
0.0
 40
0.0
 40
1.0
 40
1.0
 40
1.0
 40
2.0
 40
2.0
 40
2.0
 40
3.0
 40
3.0
 40
3.0
 40
4.0
 40
4.0
 40
4.0
 40
4.0
 10
89.68355464812491
 20
-160.92907668435
 30
0.0
 10
89.68355464812491
 20
-160.8740520498965
 30
0.0
 10
89.63874687496987
 20
-160.8292442767415
 30
0.0
 10
89.583711474593
 20
-160.8292442767415
 30
0.0
 10
89.52867607421614
 20
-160.8292442767415
 30
0.0
 10
89.4838790669845
 20
-160.8740520498965
 30
0.0
 10
89.4838790669845
 20
-160.92907668435
 30
0.0
 10
89.4838790669845
 20
-160.9841120847269
 30
0.0
 10
89.52867607421614
 20
-161.0289198578819
 30
0.0
 10
89.583711474593
 20
-161.0289198578819
 30
0.0
 10
89.63874687496987
 20
-161.0289198578819
 30
0.0
 10
89.68355464812491
 20
-160.9841120847269
 30
0.0
 10
89.68355464812491
 20
-160.92907668435
 30
0.0
  0
POLYLINE
  5
7F
330
1F
100
AcDbEntity
  8
_U+30EC_U+30A4_U+30E4_U+30FC 1
 62
   179
420
  2234388
370
     9
100
AcDb2dPolyline
 66
     1
 10
0.0
 20
0.0
 30
0.0
  0
VERTEX
  5
80
330
7F
100
AcDbEntity
  8
_U+30EC_U+30A4_U+30E4_U+30FC 1
 62
   179
420
  2234388
370
     9
100
AcDbVertex
100
AcDb2dVertex
 10
119.578359955457
 20
-142.2281186913852
 30
0.0
  0
VERTEX
  5
81
330
7F
100
AcDbEntity
  8
_U+30EC_U+30A4_U+30E4_U+30FC 1
 62
   179
420
  2234388
370
     9
100
AcDbVertex
100
AcDb2dVertex
 10
119.578359955457
 20
-138.4576339375536
 30
0.0
  0
SEQEND
  5
82
330
7F
100
AcDbEntity
  8
_U+30EC_U+30A4_U+30E4_U+30FC 1
 62
   179
420
  2234388
370
     9
  0
POLYLINE
  5
83
330
1F
100
AcDbEntity
  8
_U+30EC_U+30A4_U+30E4_U+30FC 1
 62
   179
420
  2234388
370
     9
100
AcDb2dPolyline
 66
     1
 10
0.0
 20
0.0
 30
0.0
  0
VERTEX
  5
84
330
83
100
AcDbEntity
  8
_U+30EC_U+30A4_U+30E4_U+30FC 1
 62
   179
420
  2234388
370
     9
100
AcDbVertex
100
AcDb2dVertex
 10
119.578359955457
 20
-143.2278961671281
 30
0.0
  0
VERTEX
  5
85
330
83
100
AcDbEntity
  8
_U+30EC_U+30A4_U+30E4_U+30FC 1
 62
   179
420
  2234388
370
     9
100
AcDbVertex
100
AcDb2dVertex
 10
119.578359955457
 20
-142.2281294573087
 30
0.0
  0
SEQEND
  5
86
330
83
100
AcDbEntity
  8
_U+30EC_U+30A4_U+30E4_U+30FC 1
 62
   179
420
  2234388
370
     9
  0
POLYLINE
  5
87
330
1F
100
AcDbEntity
  8
_U+30EC_U+30A4_U+30E4_U+30FC 1
 62
   179
420
  2234388
370
     9
100
AcDb2dPolyline
 66
     1
 10
0.0
 20
0.0
 30
0.0
  0
VERTEX
  5
88
330
87
100
AcDbEntity
  8
_U+30EC_U+30A4_U+30E4_U+30FC 1
 62
   179
420
  2234388
370
     9
100
AcDbVertex
100
AcDb2dVertex
 10
118.1182854251145
 20
-143.2278961671281
 30
0.0
  0
VERTEX
  5
89
330
87
100
AcDbEntity
  8
_U+30EC_U+30A4_U+30E4_U+30FC 1
 62
   179
420
  2234388
370
     9
100
AcDbVertex
100
AcDb2dVertex
 10
120.5781912608168
 20
-143.2278961671281
 30
0.0
  0
SEQEND
  5
8A
330
87
100
AcDbEntity
  8
_U+30EC_U+30A4_U+30E4_U+30FC 1
 62
   179
420
  2234388
370
     9
  0
POLYLINE
  5
8B
330
1F
100
AcDbEntity
  8
_U+30EC_U+30A4_U+30E4_U+30FC 1
 62
   179
420
  2234388
370
     9
100
AcDb2dPolyline
 66
     1
 10
0.0
 20
0.0
 30
0.0
  0
VERTEX
  5
8C
330
8B
100
AcDbEntity
  8
_U+30EC_U+30A4_U+30E4_U+30FC 1
 62
   179
420
  2234388
370
     9
100
AcDbVertex
100
AcDb2dVertex
 10
118.1182854251145
 20
-142.2281186913852
 30
0.0
  0
VERTEX
  5
8D
330
8B
100
AcDbEntity
  8
_U+30EC_U+30A4_U+30E4_U+30FC 1
 62
   179
420
  2234388
370
     9
100
AcDbVertex
100
AcDb2dVertex
 10
120.5781912608168
 20
-142.2281186913852
 30
0.0
  0
SEQEND
  5
8E
330
8B
100
AcDbEntity
  8
_U+30EC_U+30A4_U+30E4_U+30FC 1
 62
   179
420
  2234388
370
     9
  0
INSERT
  5
90
330
1F
100
AcDbEntity
  8
_U+30EC_U+30A4_U+30E4_U+30FC 1
100
AcDbBlockReference
  2
block 2
 10
0.0
 20
0.0
 30
0.0
  0
POLYLINE
  5
95
330
1F
100
AcDbEntity
  8
_U+30EC_U+30A4_U+30E4_U+30FC 1
 62
   179
420
  2234388
370
     9
100
AcDb2dPolyline
 66
     1
 10
0.0
 20
0.0
 30
0.0
  0
VERTEX
  5
96
330
95
100
AcDbEntity
  8
_U+30EC_U+30A4_U+30E4_U+30FC 1
 62
   179
420
  2234388
370
     9
100
AcDbVertex
100
AcDb2dVertex
 10
89.57779021672773
 20
-138.2276522820663
 30
0.0
  0
VERTEX
  5
97
330
95
100
AcDbEntity
  8
_U+30EC_U+30A4_U+30E4_U+30FC 1
 62
   179
420
  2234388
370
     9
100
AcDbVertex
100
AcDb2dVertex
 10
115.5778504824445
 20
-138.2276522820663
 30
0.0
  0
SEQEND
  5
98
330
95
100
AcDbEntity
  8
_U+30EC_U+30A4_U+30E4_U+30FC 1
 62
   179
420
  2234388
370
     9
  0
POLYLINE
  5
99
330
1F
100
AcDbEntity
  8
_U+30EC_U+30A4_U+30E4_U+30FC 1
 62
   179
420
  2234388
370
     9
100
AcDb2dPolyline
 66
     1
 10
0.0
 20
0.0
 30
0.0
  0
VERTEX
  5
9A
330
99
100
AcDbEntity
  8
_U+30EC_U+30A4_U+30E4_U+30FC 1
 62
   179
420
  2234388
370
     9
100
AcDbVertex
100
AcDb2dVertex
 10
89.49545243463027
 20
-139.6876945146386
 30
0.0
  0
VERTEX
  5
9B
330
99
100
AcDbEntity
  8
_U+30EC_U+30A4_U+30E4_U+30FC 1
 62
   179
420
  2234388
370
     9
100
AcDbVertex
100
AcDb2dVertex
 10
89.49545243463027
 20
-137.2277779130129
 30
0.0
  0
SEQEND
  5
9C
330
99
100
AcDbEntity
  8
_U+30EC_U+30A4_U+30E4_U+30FC 1
 62
   179
420
  2234388
370
     9
  0
POLYLINE
  5
9D
330
1F
100
AcDbEntity
  8
_U+30EC_U+30A4_U+30E4_U+30FC 1
 62
   179
420
  2234388
370
     9
100
AcDb2dPolyline
 66
     1
 10
0.0
 20
0.0
 30
0.0
  0
VERTEX
  5
9E
330
9D
100
AcDbEntity
  8
_U+30EC_U+30A4_U+30E4_U+30FC 1
 62
   179
420
  2234388
370
     9
100
AcDbVertex
100
AcDb2dVertex
 10
115.5778935461381
 20
-139.6876945146386
 30
0.0
  0
VERTEX
  5
9F
330
9D
100
AcDbEntity
  8
_U+30EC_U+30A4_U+30E4_U+30FC 1
 62
   179
420
  2234388
370
     9
100
AcDbVertex
100
AcDb2dVertex
 10
115.5778935461381
 20
-137.2277779130129
 30
0.0
  0
SEQEND
  5
A0
330
9D
100
AcDbEntity
  8
_U+30EC_U+30A4_U+30E4_U+30FC 1
 62
   179
420
  2234388
370
     9
  0
INSERT
  5
A2
330
1F
100
AcDbEntity
  8
_U+30EC_U+30A4_U+30E4_U+30FC 1
100
AcDbBlockReference
  2
block 3
 10
0.0
 20
0.0
 30
0.0
  0
POLYLINE
  5
AA
330
1F
100
AcDbEntity
  8
_U+30EC_U+30A4_U+30E4_U+30FC 1
 62
   179
420
  2234388
370
     9
100
AcDb2dPolyline
 66
     1
 10
0.0
 20
0.0
 30
0.0
  0
VERTEX
  5
AB
330
AA
100
AcDbEntity
  8
_U+30EC_U+30A4_U+30E4_U+30FC 1
 62
   179
420
  2234388
370
     9
100
AcDbVertex
100
AcDb2dVertex
 10
95.57812378931077
 20
-160.92907668435
 30
0.0
  0
VERTEX
  5
AC
330
AA
100
AcDbEntity
  8
_U+30EC_U+30A4_U+30E4_U+30FC 1
 62
   179
420
  2234388
370
     9
100
AcDbVertex
100
AcDb2dVertex
 10
89.57807013073591
 20
-160.92907668435
 30
0.0
  0
SEQEND
  5
AD
330
AA
100
AcDbEntity
  8
_U+30EC_U+30A4_U+30E4_U+30FC 1
 62
   179
420
  2234388
370
     9
  0
POLYLINE
  5
AE
330
1F
100
AcDbEntity
  8
_U+30EC_U+30A4_U+30E4_U+30FC 1
 62
   179
420
  2234388
370
     9
100
AcDb2dPolyline
 66
     1
 10
0.0
 20
0.0
 30
0.0
  0
VERTEX
  5
AF
330
AE
100
AcDbEntity
  8
_U+30EC_U+30A4_U+30E4_U+30FC 1
 62
   179
420
  2234388
370
     9
100
AcDbVertex
100
AcDb2dVertex
 10
95.57812378931077
 20
-159.4690775154713
 30
0.0
  0
VERTEX
  5
B0
330
AE
100
AcDbEntity
  8
_U+30EC_U+30A4_U+30E4_U+30FC 1
 62
   179
420
  2234388
370
     9
100
AcDbVertex
100
AcDb2dVertex
 10
95.57812378931077
 20
-161.9290048830204
 30
0.0
  0
SEQEND
  5
B1
330
AE
100
AcDbEntity
  8
_U+30EC_U+30A4_U+30E4_U+30FC 1
 62
   179
420
  2234388
370
     9
  0
POLYLINE
  5
B2
330
1F
100
AcDbEntity
  8
_U+30EC_U+30A4_U+30E4_U+30FC 1
 62
   179
420
  2234388
370
     9
100
AcDb2dPolyline
 66
     1
 10
0.0
 20
0.0
 30
0.0
  0
VERTEX
  5
B3
330
B2
100
AcDbEntity
  8
_U+30EC_U+30A4_U+30E4_U+30FC 1
 62
   179
420
  2234388
370
     9
100
AcDbVertex
100
AcDb2dVertex
 10
89.58364687905267
 20
-145.7679220047093
 30
0.0
  0
VERTEX
  5
B4
330
B2
100
AcDbEntity
  8
_U+30EC_U+30A4_U+30E4_U+30FC 1
 62
   179
420
  2234388
370
     9
100
AcDbVertex
100
AcDb2dVertex
 10
89.58364687905267
 20
-161.9290264148671
 30
0.0
  0
SEQEND
  5
B5
330
B2
100
AcDbEntity
  8
_U+30EC_U+30A4_U+30E4_U+30FC 1
 62
   179
420
  2234388
370
     9
  0
INSERT
  5
B7
330
1F
100
AcDbEntity
  8
_U+30EC_U+30A4_U+30E4_U+30FC 1
100
AcDbBlockReference
  2
block 4
 10
0.0
 20
0.0
 30
0.0
  0
POLYLINE
  5
BD
330
1F
100
AcDbEntity
  8
_U+30EC_U+30A4_U+30E4_U+30FC 1
 62
   179
420
  2234388
370
     9
100
AcDb2dPolyline
 66
     1
 10
0.0
 20
0.0
 30
0.0
  0
VERTEX
  5
BE
330
BD
100
AcDbEntity
  8
_U+30EC_U+30A4_U+30E4_U+30FC 1
 62
   179
420
  2234388
370
     9
100
AcDbVertex
100
AcDb2dVertex
 10
95.57812378931077
 20
-160.92907668435
 30
0.0
  0
VERTEX
  5
BF
330
BD
100
AcDbEntity
  8
_U+30EC_U+30A4_U+30E4_U+30FC 1
 62
   179
420
  2234388
370
     9
100
AcDbVertex
100
AcDb2dVertex
 10
101.5781666819626
 20
-160.92907668435
 30
0.0
  0
SEQEND
  5
C0
330
BD
100
AcDbEntity
  8
_U+30EC_U+30A4_U+30E4_U+30FC 1
 62
   179
420
  2234388
370
     9
  0
POLYLINE
  5
C1
330
1F
100
AcDbEntity
  8
_U+30EC_U+30A4_U+30E4_U+30FC 1
 62
   179
420
  2234388
370
     9
100
AcDb2dPolyline
 66
     1
 10
0.0
 20
0.0
 30
0.0
  0
VERTEX
  5
C2
330
C1
100
AcDbEntity
  8
_U+30EC_U+30A4_U+30E4_U+30FC 1
 62
   179
420
  2234388
370
     9
100
AcDbVertex
100
AcDb2dVertex
 10
95.57812378931077
 20
-159.4690775154713
 30
0.0
  0
VERTEX
  5
C3
330
C1
100
AcDbEntity
  8
_U+30EC_U+30A4_U+30E4_U+30FC 1
 62
   179
420
  2234388
370
     9
100
AcDbVertex
100
AcDb2dVertex
 10
95.57812378931077
 20
-161.9290048830204
 30
0.0
  0
SEQEND
  5
C4
330
C1
100
AcDbEntity
  8
_U+30EC_U+30A4_U+30E4_U+30FC 1
 62
   179
420
  2234388
370
     9
  0
POLYLINE
  5
C5
330
1F
100
AcDbEntity
  8
_U+30EC_U+30A4_U+30E4_U+30FC 1
 62
   179
420
  2234388
370
     9
100
AcDb2dPolyline
 66
     1
 10
0.0
 20
0.0
 30
0.0
  0
VERTEX
  5
C6
330
C5
100
AcDbEntity
  8
_U+30EC_U+30A4_U+30E4_U+30FC 1
 62
   179
420
  2234388
370
     9
100
AcDbVertex
100
AcDb2dVertex
 10
101.5780913204985
 20
-159.4690775154713
 30
0.0
  0
VERTEX
  5
C7
330
C5
100
AcDbEntity
  8
_U+30EC_U+30A4_U+30E4_U+30FC 1
 62
   179
420
  2234388
370
     9
100
AcDbVertex
100
AcDb2dVertex
 10
101.5780913204985
 20
-161.9290048830204
 30
0.0
  0
SEQEND
  5
C8
330
C5
100
AcDbEntity
  8
_U+30EC_U+30A4_U+30E4_U+30FC 1
 62
   179
420
  2234388
370
     9
  0
INSERT
  5
CA
330
1F
100
AcDbEntity
  8
_U+30EC_U+30A4_U+30E4_U+30FC 1
100
AcDbBlockReference
  2
block 5
 10
0.0
 20
0.0
 30
0.0
  0
POLYLINE
  5
D0
330
1F
100
AcDbEntity
  8
_U+30EC_U+30A4_U+30E4_U+30FC 1
 62
   179
420
  2234388
370
     9
100
AcDb2dPolyline
 66
     1
 10
0.0
 20
0.0
 30
0.0
  0
VERTEX
  5
D1
330
D0
100
AcDbEntity
  8
_U+30EC_U+30A4_U+30E4_U+30FC 1
 62
   179
420
  2234388
370
     9
100
AcDbVertex
100
AcDb2dVertex
 10
119.578359955457
 20
-155.9289189266753
 30
0.0
  0
VERTEX
  5
D2
330
D0
100
AcDbEntity
  8
_U+30EC_U+30A4_U+30E4_U+30FC 1
 62
   179
420
  2234388
370
     9
100
AcDbVertex
100
AcDb2dVertex
 10
119.578359955457
 20
-143.227863869358
 30
0.0
  0
SEQEND
  5
D3
330
D0
100
AcDbEntity
  8
_U+30EC_U+30A4_U+30E4_U+30FC 1
 62
   179
420
  2234388
370
     9
  0
POLYLINE
  5
D4
330
1F
100
AcDbEntity
  8
_U+30EC_U+30A4_U+30E4_U+30FC 1
 62
   179
420
  2234388
370
     9
100
AcDb2dPolyline
 66
     1
 10
0.0
 20
0.0
 30
0.0
  0
VERTEX
  5
D5
330
D4
100
AcDbEntity
  8
_U+30EC_U+30A4_U+30E4_U+30FC 1
 62
   179
420
  2234388
370
     9
100
AcDbVertex
100
AcDb2dVertex
 10
104.1178049463016
 20
-155.9289189266753
 30
0.0
  0
VERTEX
  5
D6
330
D4
100
AcDbEntity
  8
_U+30EC_U+30A4_U+30E4_U+30FC 1
 62
   179
420
  2234388
370
     9
100
AcDbVertex
100
AcDb2dVertex
 10
120.5780620697361
 20
-155.9289189266753
 30
0.0
  0
SEQEND
  5
D7
330
D4
100
AcDbEntity
  8
_U+30EC_U+30A4_U+30E4_U+30FC 1
 62
   179
420
  2234388
370
     9
  0
INSERT
  5
D9
330
1F
100
AcDbEntity
  8
_U+30EC_U+30A4_U+30E4_U+30FC 1
100
AcDbBlockReference
  2
block 6
 10
0.0
 20
0.0
 30
0.0
  0
ENDSEC
  0
SECTION
  2
OBJECTS
  0
DICTIONARY
  5
C
330
0
100
AcDbDictionary
281
     1
  3
ACAD_GROUP
350
D
  3
ACAD_LAYOUT
350
1A
  3
ACAD_MATERIAL
350
3B
  3
ACAD_MLEADERSTYLE
350
EB
  3
ACAD_MLINESTYLE
350
17
  3
ACAD_PLOTSETTINGS
350
19
  3
ACAD_PLOTSTYLENAME
350
E
  3
ACAD_TABLESTYLE
350
EA
  3
ACAD_VISUALSTYLE
350
2A
  0
SUN
  5
3F
330
29
100
AcDbSun
 90
        1
290
     0
 63
     7
421
 16777215
 40
1.0
291
     1
 91
  2455826
 92
 54000000
292
     0
 70
     2
 71
   256
280
     1
  0
DICTIONARY
  5
D
102
{ACAD_REACTORS
330
C
102
}
330
C
100
AcDbDictionary
281
     1
  0
DICTIONARY
  5
1A
102
{ACAD_REACTORS
330
C
102
}
330
C
100
AcDbDictionary
281
     1
  3
Layout1
350
1E
  3
Layout2
350
26
  3
Model
350
22
  0
DICTIONARY
  5
3B
102
{ACAD_REACTORS
330
C
102
}
330
C
100
AcDbDictionary
281
     1
  3
ByBlock
350
3D
  3
ByLayer
350
3C
  3
Global
350
3E
  0
DICTIONARY
  5
EB
102
{ACAD_REACTORS
330
C
102
}
330
C
100
AcDbDictionary
281
     1
  0
DICTIONARY
  5
17
102
{ACAD_REACTORS
330
C
102
}
330
C
100
AcDbDictionary
281
     1
  3
Standard
350
18
  0
DICTIONARY
  5
19
102
{ACAD_REACTORS
330
C
102
}
330
C
100
AcDbDictionary
281
     1
  0
ACDBDICTIONARYWDFLT
  5
E
102
{ACAD_REACTORS
330
C
102
}
330
C
100
AcDbDictionary
281
     1
  3
Normal
350
F
100
AcDbDictionaryWithDefault
340
F
  0
DICTIONARY
  5
EA
102
{ACAD_REACTORS
330
C
102
}
330
C
100
AcDbDictionary
281
     1
  0
DICTIONARY
  5
2A
102
{ACAD_REACTORS
330
C
102
}
330
C
100
AcDbDictionary
281
     1
  3
2dWireframe
350
2F
  3
3D Hidden
350
31
  3
3dWireframe
350
30
  3
Basic
350
32
  3
Brighten
350
36
  3
ColorChange
350
3A
  3
Conceptual
350
34
  3
Dim
350
35
  3
Facepattern
350
39
  3
Flat
350
2B
  3
FlatWithEdges
350
2C
  3
Gouraud
350
2D
  3
GouraudWithEdges
350
2E
  3
Linepattern
350
38
  3
Realistic
350
33
  3
Thicken
350
37
  0
LAYOUT
  5
1E
102
{ACAD_REACTORS
330
1A
102
}
330
1A
100
AcDbPlotSettings
  1

  2
none_device
  4

  6

 40
0.0
 41
0.0
 42
0.0
 43
0.0
 44
0.0
 45
0.0
 46
0.0
 47
0.0
 48
0.0
 49
0.0
140
0.0
141
0.0
142
1.0
143
1.0
 70
   688
 72
     0
 73
     0
 74
     5
  7

 75
    16
 76
     0
 77
     2
 78
   300
147
1.0
148
0.0
149
0.0
100
AcDbLayout
  1
Layout1
 70
     1
 71
     1
 10
0.0
 20
0.0
 11
12.0
 21
9.0
 12
0.0
 22
0.0
 32
0.0
 14
1.000000000000000E+20
 24
1.000000000000000E+20
 34
1.000000000000000E+20
 15
-1.000000000000000E+20
 25
-1.000000000000000E+20
 35
-1.000000000000000E+20
146
0.0
 13
0.0
 23
0.0
 33
0.0
 16
1.0
 26
0.0
 36
0.0
 17
0.0
 27
1.0
 37
0.0
 76
     0
330
1B
  0
LAYOUT
  5
26
102
{ACAD_REACTORS
330
1A
102
}
330
1A
100
AcDbPlotSettings
  1

  2
none_device
  4

  6

 40
0.0
 41
0.0
 42
0.0
 43
0.0
 44
0.0
 45
0.0
 46
0.0
 47
0.0
 48
0.0
 49
0.0
140
0.0
141
0.0
142
1.0
143
1.0
 70
   688
 72
     0
 73
     0
 74
     5
  7

 75
    16
 76
     0
 77
     2
 78
   300
147
1.0
148
0.0
149
0.0
100
AcDbLayout
  1
Layout2
 70
     1
 71
     2
 10
0.0
 20
0.0
 11
0.0
 21
0.0
 12
0.0
 22
0.0
 32
0.0
 14
0.0
 24
0.0
 34
0.0
 15
0.0
 25
0.0
 35
0.0
146
0.0
 13
0.0
 23
0.0
 33
0.0
 16
1.0
 26
0.0
 36
0.0
 17
0.0
 27
1.0
 37
0.0
 76
     0
330
23
  0
LAYOUT
  5
22
102
{ACAD_REACTORS
330
1A
102
}
330
1A
100
AcDbPlotSettings
  1

  2
none_device
  4

  6

 40
0.0
 41
0.0
 42
0.0
 43
0.0
 44
0.0
 45
0.0
 46
0.0
 47
0.0
 48
0.0
 49
0.0
140
0.0
141
0.0
142
1.0
143
1.0
 70
  1712
 72
     0
 73
     0
 74
     0
  7

 75
     0
 76
     0
 77
     2
 78
   300
147
1.0
148
0.0
149
0.0
100
AcDbLayout
  1
Model
 70
     1
 71
     0
 10
0.0
 20
0.0
 11
12.0
 21
9.0
 12
0.0
 22
0.0
 32
0.0
 14
1.000000000000000E+20
 24
1.000000000000000E+20
 34
1.000000000000000E+20
 15
-1.000000000000000E+20
 25
-1.000000000000000E+20
 35
-1.000000000000000E+20
146
0.0
 13
0.0
 23
0.0
 33
0.0
 16
1.0
 26
0.0
 36
0.0
 17
0.0
 27
1.0
 37
0.0
 76
     0
330
1F
331
29
  0
MATERIAL
  5
3D
102
{ACAD_REACTORS
330
3B
102
}
330
3B
100
AcDbMaterial
  1
ByBlock
 72
     1
 94
      127
  0
MATERIAL
  5
3C
102
{ACAD_REACTORS
330
3B
102
}
330
3B
100
AcDbMaterial
  1
ByLayer
 72
     1
 94
      127
  0
MATERIAL
  5
3E
102
{ACAD_REACTORS
330
3B
102
}
330
3B
100
AcDbMaterial
  1
Global
 72
     1
 94
      127
  0
MLINESTYLE
  5
18
102
{ACAD_REACTORS
330
17
102
}
330
17
100
AcDbMlineStyle
  2
Standard
 70
     0
  3

 62
   256
 51
90.0
 52
90.0
 71
     2
 49
0.5
 62
   256
  6
BYLAYER
 49
-0.5
 62
   256
  6
BYLAYER
  0
ACDBPLACEHOLDER
  5
F
102
{ACAD_REACTORS
330
E
102
}
330
E
  0
VISUALSTYLE
  5
2F
102
{ACAD_REACTORS
330
2A
102
}
330
2A
100
AcDbVisualStyle
  2
2dWireframe
 70
     4
177
     2
291
     0
 71
     0
176
     1
 72
     2
176
     1
 73
     0
176
     1
 90
        0
176
     1
 40
-0.6
176
     1
 41
-30.0
176
     1
 62
     5
 63
     7
421
 16777215
176
     1
 74
     1
176
     1
 91
        4
176
     1
 64
     7
176
     1
 65
   257
176
     1
 75
     1
176
     1
175
     1
176
     1
 42
1.0
176
     1
 92
        0
176
     1
 66
   257
176
     1
 43
1.0
176
     1
 76
     1
176
     1
 77
     6
176
     1
 78
     2
176
     1
 67
     7
176
     1
 79
     5
176
     1
170
     0
176
     1
171
     0
176
     1
290
     0
176
     1
 93
        1
176
     1
 44
0.0
176
     1
173
     0
176
     1
  0
VISUALSTYLE
  5
31
102
{ACAD_REACTORS
330
2A
102
}
330
2A
100
AcDbVisualStyle
  2
3D Hidden
 70
     6
177
     2
291
     0
 71
     1
176
     1
 72
     2
176
     1
 73
     2
176
     1
 90
        0
176
     1
 40
-0.6
176
     1
 41
-30.0
176
     1
 62
     5
 63
     7
421
 16777215
176
     1
 74
     2
176
     1
 91
        2
176
     1
 64
     7
176
     1
 65
   257
176
     1
 75
     2
176
     1
175
     1
176
     1
 42
40.0
176
     1
 92
        0
176
     1
 66
   257
176
     1
 43
1.0
176
     1
 76
     1
176
     1
 77
     6
176
     1
 78
     2
176
     1
 67
     7
176
     1
 79
     3
176
     1
170
     0
176
     1
171
     0
176
     1
290
     0
176
     1
 93
        1
176
     1
 44
0.0
176
     1
173
     0
176
     1
  0
VISUALSTYLE
  5
30
102
{ACAD_REACTORS
330
2A
102
}
330
2A
100
AcDbVisualStyle
  2
3dWireframe
 70
     5
177
     2
291
     0
 71
     0
176
     1
 72
     2
176
     1
 73
     0
176
     1
 90
        0
176
     1
 40
-0.6
176
     1
 41
-30.0
176
     1
 62
     5
 63
     7
421
 16777215
176
     1
 74
     1
176
     1
 91
        4
176
     1
 64
     7
176
     1
 65
   257
176
     1
 75
     1
176
     1
175
     1
176
     1
 42
1.0
176
     1
 92
        0
176
     1
 66
   257
176
     1
 43
1.0
176
     1
 76
     1
176
     1
 77
     6
176
     1
 78
     2
176
     1
 67
     7
176
     1
 79
     5
176
     1
170
     0
176
     1
171
     0
176
     1
290
     0
176
     1
 93
        1
176
     1
 44
0.0
176
     1
173
     0
176
     1
  0
VISUALSTYLE
  5
32
102
{ACAD_REACTORS
330
2A
102
}
330
2A
100
AcDbVisualStyle
  2
Basic
 70
     7
177
     2
291
     1
 71
     1
176
     1
 72
     0
176
     1
 73
     1
176
     1
 90
        0
176
     1
 40
-0.6
176
     1
 41
-30.0
176
     1
 62
     5
 63
     7
421
 16777215
176
     1
 74
     0
176
     1
 91
        4
176
     1
 64
     7
176
     1
 65
   257
176
     1
 75
     1
176
     1
175
     1
176
     1
 42
1.0
176
     1
 92
        8
176
     1
 66
     7
176
     1
 43
1.0
176
     1
 76
     1
176
     1
 77
     6
176
     1
 78
     2
176
     1
 67
     7
176
     1
 79
     5
176
     1
170
     0
176
     1
171
     0
176
     1
290
     0
176
     1
 93
        1
176
     1
 44
0.0
176
     1
173
     0
176
     1
  0
VISUALSTYLE
  5
36
102
{ACAD_REACTORS
330
2A
102
}
330
2A
100
AcDbVisualStyle
  2
Brighten
 70
    12
177
     2
291
     1
 71
     2
176
     1
 72
     2
176
     1
 73
     0
176
     1
 90
        0
176
     1
 40
-0.6
176
     1
 41
-30.0
176
     1
 62
     5
 63
     7
421
 16777215
176
     1
 74
     1
176
     1
 91
        4
176
     1
 64
     7
176
     1
 65
   257
176
     1
 75
     1
176
     1
175
     1
176
     1
 42
1.0
176
     1
 92
        8
176
     1
 66
     7
176
     1
 43
1.0
176
     1
 76
     1
176
     1
 77
     6
176
     1
 78
     2
176
     1
 67
     7
176
     1
 79
     5
176
     1
170
     0
176
     1
171
     0
176
     1
290
     0
176
     1
 93
        1
176
     1
 44
50.0
176
     1
173
     0
176
     1
  0
VISUALSTYLE
  5
3A
102
{ACAD_REACTORS
330
2A
102
}
330
2A
100
AcDbVisualStyle
  2
ColorChange
 70
    16
177
     2
291
     1
 71
     2
176
     1
 72
     2
176
     1
 73
     3
176
     1
 90
        0
176
     1
 40
-0.6
176
     1
 41
-30.0
176
     1
 62
     5
 63
     8
421
  8421504
176
     1
 74
     1
176
     1
 91
        4
176
     1
 64
     7
176
     1
 65
   257
176
     1
 75
     1
176
     1
175
     1
176
     1
 42
1.0
176
     1
 92
        8
176
     1
 66
     8
424
  8421504
176
     1
 43
1.0
176
     1
 76
     1
176
     1
 77
     6
176
     1
 78
     2
176
     1
 67
     7
176
     1
 79
     5
176
     1
170
     0
176
     1
171
     0
176
     1
290
     0
176
     1
 93
        1
176
     1
 44
0.0
176
     1
173
     0
176
     1
  0
VISUALSTYLE
  5
34
102
{ACAD_REACTORS
330
2A
102
}
330
2A
100
AcDbVisualStyle
  2
Conceptual
 70
     9
177
     2
291
     0
 71
     3
176
     1
 72
     2
176
     1
 73
     0
176
     1
 90
        0
176
     1
 40
-0.6
176
     1
 41
-30.0
176
     1
 62
     5
 63
     7
421
 16777215
176
     1
 74
     2
176
     1
 91
        2
176
     1
 64
     7
176
     1
 65
   257
176
     1
 75
     1
176
     1
175
     1
176
     1
 42
40.0
176
     1
 92
        8
176
     1
 66
     7
176
     1
 43
1.0
176
     1
 76
     1
176
     1
 77
     6
176
     1
 78
     2
176
     1
 67
     7
176
     1
 79
     3
176
     1
170
     0
176
     1
171
     0
176
     1
290
     0
176
     1
 93
        1
176
     1
 44
0.0
176
     1
173
     0
176
     1
  0
VISUALSTYLE
  5
35
102
{ACAD_REACTORS
330
2A
102
}
330
2A
100
AcDbVisualStyle
  2
Dim
 70
    11
177
     2
291
     1
 71
     2
176
     1
 72
     2
176
     1
 73
     0
176
     1
 90
        0
176
     1
 40
-0.6
176
     1
 41
-30.0
176
     1
 62
     5
 63
     7
421
 16777215
176
     1
 74
     1
176
     1
 91
        4
176
     1
 64
     7
176
     1
 65
   257
176
     1
 75
     1
176
     1
175
     1
176
     1
 42
1.0
176
     1
 92
        8
176
     1
 66
     7
176
     1
 43
1.0
176
     1
 76
     1
176
     1
 77
     6
176
     1
 78
     2
176
     1
 67
     7
176
     1
 79
     5
176
     1
170
     0
176
     1
171
     0
176
     1
290
     0
176
     1
 93
        1
176
     1
 44
-50.0
176
     1
173
     0
176
     1
  0
VISUALSTYLE
  5
39
102
{ACAD_REACTORS
330
2A
102
}
330
2A
100
AcDbVisualStyle
  2
Facepattern
 70
    15
177
     2
291
     1
 71
     2
176
     1
 72
     2
176
     1
 73
     0
176
     1
 90
        0
176
     1
 40
-0.6
176
     1
 41
-30.0
176
     1
 62
     5
 63
     7
421
 16777215
176
     1
 74
     1
176
     1
 91
        4
176
     1
 64
     7
176
     1
 65
   257
176
     1
 75
     1
176
     1
175
     1
176
     1
 42
1.0
176
     1
 92
        8
176
     1
 66
     7
176
     1
 43
1.0
176
     1
 76
     1
176
     1
 77
     6
176
     1
 78
     2
176
     1
 67
     7
176
     1
 79
     5
176
     1
170
     0
176
     1
171
     0
176
     1
290
     0
176
     1
 93
        1
176
     1
 44
0.0
176
     1
173
     0
176
     1
  0
VISUALSTYLE
  5
2B
102
{ACAD_REACTORS
330
2A
102
}
330
2A
100
AcDbVisualStyle
  2
Flat
 70
     0
177
     2
291
     1
 71
     2
176
     1
 72
     1
176
     1
 73
     1
176
     1
 90
        2
176
     1
 40
-0.6
176
     1
 41
30.0
176
     1
 62
     5
 63
     7
421
 16777215
176
     1
 74
     0
176
     1
 91
        4
176
     1
 64
     7
176
     1
 65
   257
176
     1
 75
     1
176
     1
175
     1
176
     1
 42
1.0
176
     1
 92
        8
176
     1
 66
     7
176
     1
 43
1.0
176
     1
 76
     1
176
     1
 77
     6
176
     1
 78
     2
176
     1
 67
     7
176
     1
 79
     5
176
     1
170
     0
176
     1
171
     0
176
     1
290
     0
176
     1
 93
       13
176
     1
 44
0.0
176
     1
173
     0
176
     1
  0
VISUALSTYLE
  5
2C
102
{ACAD_REACTORS
330
2A
102
}
330
2A
100
AcDbVisualStyle
  2
FlatWithEdges
 70
     1
177
     2
291
     1
 71
     2
176
     1
 72
     1
176
     1
 73
     1
176
     1
 90
        2
176
     1
 40
-0.6
176
     1
 41
30.0
176
     1
 62
     5
 63
     7
421
 16777215
176
     1
 74
     1
176
     1
 91
        4
176
     1
 64
     7
176
     1
 65
   257
176
     1
 75
     1
176
     1
175
     1
176
     1
 42
1.0
176
     1
 92
        0
176
     1
 66
   257
176
     1
 43
1.0
176
     1
 76
     1
176
     1
 77
     6
176
     1
 78
     2
176
     1
 67
     7
176
     1
 79
     5
176
     1
170
     0
176
     1
171
     0
176
     1
290
     0
176
     1
 93
       13
176
     1
 44
0.0
176
     1
173
     0
176
     1
  0
VISUALSTYLE
  5
2D
102
{ACAD_REACTORS
330
2A
102
}
330
2A
100
AcDbVisualStyle
  2
Gouraud
 70
     2
177
     2
291
     1
 71
     2
176
     1
 72
     2
176
     1
 73
     1
176
     1
 90
        2
176
     1
 40
-0.6
176
     1
 41
30.0
176
     1
 62
     5
 63
     7
421
 16777215
176
     1
 74
     0
176
     1
 91
        4
176
     1
 64
     7
176
     1
 65
   257
176
     1
 75
     1
176
     1
175
     1
176
     1
 42
1.0
176
     1
 92
        0
176
     1
 66
     7
176
     1
 43
1.0
176
     1
 76
     1
176
     1
 77
     6
176
     1
 78
     2
176
     1
 67
     7
176
     1
 79
     5
176
     1
170
     0
176
     1
171
     0
176
     1
290
     0
176
     1
 93
       13
176
     1
 44
0.0
176
     1
173
     0
176
     1
  0
VISUALSTYLE
  5
2E
102
{ACAD_REACTORS
330
2A
102
}
330
2A
100
AcDbVisualStyle
  2
GouraudWithEdges
 70
     3
177
     2
291
     1
 71
     2
176
     1
 72
     2
176
     1
 73
     1
176
     1
 90
        2
176
     1
 40
-0.6
176
     1
 41
30.0
176
     1
 62
     5
 63
     7
421
 16777215
176
     1
 74
     1
176
     1
 91
        4
176
     1
 64
     7
176
     1
 65
   257
176
     1
 75
     1
176
     1
175
     1
176
     1
 42
1.0
176
     1
 92
        0
176
     1
 66
   257
176
     1
 43
1.0
176
     1
 76
     1
176
     1
 77
     6
176
     1
 78
     2
176
     1
 67
     7
176
     1
 79
     5
176
     1
170
     0
176
     1
171
     0
176
     1
290
     0
176
     1
 93
       13
176
     1
 44
0.0
176
     1
173
     0
176
     1
  0
VISUALSTYLE
  5
38
102
{ACAD_REACTORS
330
2A
102
}
330
2A
100
AcDbVisualStyle
  2
Linepattern
 70
    14
177
     2
291
     1
 71
     2
176
     1
 72
     2
176
     1
 73
     0
176
     1
 90
        0
176
     1
 40
-0.6
176
     1
 41
-30.0
176
     1
 62
     5
 63
     7
421
 16777215
176
     1
 74
     1
176
     1
 91
        4
176
     1
 64
     7
176
     1
 65
   257
176
     1
 75
     7
176
     1
175
     7
176
     1
 42
1.0
176
     1
 92
        8
176
     1
 66
     7
176
     1
 43
1.0
176
     1
 76
     1
176
     1
 77
     6
176
     1
 78
     2
176
     1
 67
     7
176
     1
 79
     5
176
     1
170
     0
176
     1
171
     0
176
     1
290
     0
176
     1
 93
        1
176
     1
 44
0.0
176
     1
173
     0
176
     1
  0
VISUALSTYLE
  5
33
102
{ACAD_REACTORS
330
2A
102
}
330
2A
100
AcDbVisualStyle
  2
Realistic
 70
     8
177
     2
291
     0
 71
     2
176
     1
 72
     2
176
     1
 73
     0
176
     1
 90
        0
176
     1
 40
-0.6
176
     1
 41
-30.0
176
     1
 62
     5
 63
     7
421
 16777215
176
     1
 74
     1
176
     1
 91
        0
176
     1
 64
     7
176
     1
 65
   257
176
     1
 75
     1
176
     1
175
     1
176
     1
 42
1.0
176
     1
 92
        8
176
     1
 66
     8
424
  7895160
176
     1
 43
1.0
176
     1
 76
     1
176
     1
 77
     6
176
     1
 78
     2
176
     1
 67
     7
176
     1
 79
     5
176
     1
170
     0
176
     1
171
     0
176
     1
290
     0
176
     1
 93
       13
176
     1
 44
0.0
176
     1
173
     0
176
     1
  0
VISUALSTYLE
  5
37
102
{ACAD_REACTORS
330
2A
102
}
330
2A
100
AcDbVisualStyle
  2
Thicken
 70
    13
177
     2
291
     1
 71
     2
176
     1
 72
     2
176
     1
 73
     0
176
     1
 90
        0
176
     1
 40
-0.6
176
     1
 41
-30.0
176
     1
 62
     5
 63
     7
421
 16777215
176
     1
 74
     1
176
     1
 91
        4
176
     1
 64
     7
176
     1
 65
   257
176
     1
 75
     1
176
     1
175
     1
176
     1
 42
1.0
176
     1
 92
       12
176
     1
 66
     7
176
     1
 43
1.0
176
     1
 76
     1
176
     1
 77
     6
176
     1
 78
     2
176
     1
 67
     7
176
     1
 79
     5
176
     1
170
     0
176
     1
171
     0
176
     1
290
     0
176
     1
 93
        1
176
     1
 44
0.0
176
     1
173
     0
176
     1
  0
ENDSEC
  0
EOF
