  0
SECTION
  2
HEADER
  9
$ACADVER
  1
AC1024
  9
$ACADMAINTVER
 70
     6
  9
$DWGCODEPAGE
  3
UNDEFINED
  9
$INSBASE
 10
0.0
 20
0.0
 30
0.0
  9
$EXTMIN
 10
1.000000000000000E+20
 20
1.000000000000000E+20
 30
1.000000000000000E+20
  9
$EXTMAX
 10
-1.000000000000000E+20
 20
-1.000000000000000E+20
 30
-1.000000000000000E+20
  9
$LIMMIN
 10
0.0
 20
0.0
  9
$LIMMAX
 10
12.0
 20
9.0
  9
$ORTHOMODE
 70
     0
  9
$REGENMODE
 70
     1
  9
$FILLMODE
 70
     1
  9
$QTEXTMODE
 70
     0
  9
$MIRRTEXT
 70
     1
  9
$LTSCALE
 40
1.0
  9
$ATTMODE
 70
     1
  9
$TEXTSIZE
 40
0.2
  9
$TRACEWID
 40
0.05
  9
$TEXTSTYLE
  7
Standard
  9
$CLAYER
  8
0
  9
$CELTYPE
  6
ByLayer
  9
$CECOLOR
 62
   256
  9
$CELTSCALE
 40
1.0
  9
$DISPSILH
 70
     0
  9
$DIMSCALE
 40
1.0
  9
$DIMASZ
 40
0.18
  9
$DIMEXO
 40
0.0625
  9
$DIMDLI
 40
0.38
  9
$DIMRND
 40
0.0
  9
$DIMDLE
 40
0.0
  9
$DIMEXE
 40
0.18
  9
$DIMTP
 40
0.0
  9
$DIMTM
 40
0.0
  9
$DIMTXT
 40
0.18
  9
$DIMCEN
 40
0.09
  9
$DIMTSZ
 40
0.0
  9
$DIMTOL
 70
     0
  9
$DIMLIM
 70
     0
  9
$DIMTIH
 70
     1
  9
$DIMTOH
 70
     1
  9
$DIMSE1
 70
     0
  9
$DIMSE2
 70
     0
  9
$DIMTAD
 70
     0
  9
$DIMZIN
 70
     0
  9
$DIMBLK
  1

  9
$DIMASO
 70
     1
  9
$DIMSHO
 70
     1
  9
$DIMPOST
  1

  9
$DIMAPOST
  1

  9
$DIMALT
 70
     0
  9
$DIMALTD
 70
     2
  9
$DIMALTF
 40
25.4
  9
$DIMLFAC
 40
1.0
  9
$DIMTOFL
 70
     0
  9
$DIMTVP
 40
0.0
  9
$DIMTIX
 70
     0
  9
$DIMSOXD
 70
     0
  9
$DIMSAH
 70
     0
  9
$DIMBLK1
  1

  9
$DIMBLK2
  1

  9
$DIMSTYLE
  2
Standard
  9
$DIMCLRD
 70
     0
  9
$DIMCLRE
 70
     0
  9
$DIMCLRT
 70
     0
  9
$DIMTFAC
 40
1.0
  9
$DIMGAP
 40
0.09
  9
$DIMJUST
 70
     0
  9
$DIMSD1
 70
     0
  9
$DIMSD2
 70
     0
  9
$DIMTOLJ
 70
     1
  9
$DIMTZIN
 70
     0
  9
$DIMALTZ
 70
     0
  9
$DIMALTTZ
 70
     0
  9
$DIMUPT
 70
     0
  9
$DIMDEC
 70
     4
  9
$DIMTDEC
 70
     4
  9
$DIMALTU
 70
     2
  9
$DIMALTTD
 70
     2
  9
$DIMTXSTY
  7
Standard
  9
$DIMAUNIT
 70
     0
  9
$DIMADEC
 70
     0
  9
$DIMALTRND
 40
0.0
  9
$DIMAZIN
 70
     0
  9
$DIMDSEP
 70
    46
  9
$DIMATFIT
 70
     3
  9
$DIMFRAC
 70
     0
  9
$DIMLDRBLK
  1

  9
$DIMLUNIT
 70
     2
  9
$DIMLWD
 70
    -2
  9
$DIMLWE
 70
    -2
  9
$DIMTMOVE
 70
     0
  9
$DIMFXL
 40
1.0
  9
$DIMFXLON
 70
     0
  9
$DIMJOGANG
 40
0.7853981633974483
  9
$DIMTFILL
 70
     0
  9
$DIMTFILLCLR
 70
     0
  9
$DIMARCSYM
 70
     0
  9
$DIMLTYPE
  6

  9
$DIMLTEX1
  6

  9
$DIMLTEX2
  6

  9
$DIMTXTDIRECTION
 70
     0
  9
$LUNITS
 70
     2
  9
$LUPREC
 70
     4
  9
$SKETCHINC
 40
0.1
  9
$FILLETRAD
 40
0.5
  9
$AUNITS
 70
     0
  9
$AUPREC
 70
     0
  9
$MENU
  1
.
  9
$ELEVATION
 40
0.0
  9
$PELEVATION
 40
0.0
  9
$THICKNESS
 40
0.0
  9
$LIMCHECK
 70
     0
  9
$CHAMFERA
 40
0.5
  9
$CHAMFERB
 40
0.5
  9
$CHAMFERC
 40
1.0
  9
$CHAMFERD
 40
0.0
  9
$SKPOLY
 70
     0
  9
$TDCREATE
 40
2458263.581215278
  9
$TDUCREATE
 40
2458263.206215278
  9
$TDUPDATE
 40
2458263.581215278
  9
$TDUUPDATE
 40
2458263.206215278
  9
$TDINDWG
 40
0.0000000116
  9
$TDUSRTIMER
 40
0.0000000116
  9
$USRTIMER
 70
     1
  9
$ANGBASE
 50
0.0
  9
$ANGDIR
 70
     0
  9
$PDMODE
 70
     0
  9
$PDSIZE
 40
0.0
  9
$PLINEWID
 40
0.0
  9
$SPLFRAME
 70
     0
  9
$SPLINETYPE
 70
     6
  9
$SPLINESEGS
 70
     8
  9
$HANDSEED
  5
12A
  9
$SURFTAB1
 70
     6
  9
$SURFTAB2
 70
     6
  9
$SURFTYPE
 70
     6
  9
$SURFU
 70
     6
  9
$SURFV
 70
     6
  9
$UCSBASE
  2

  9
$UCSNAME
  2

  9
$UCSORG
 10
0.0
 20
0.0
 30
0.0
  9
$UCSXDIR
 10
1.0
 20
0.0
 30
0.0
  9
$UCSYDIR
 10
0.0
 20
1.0
 30
0.0
  9
$UCSORTHOREF
  2

  9
$UCSORTHOVIEW
 70
     0
  9
$UCSORGTOP
 10
0.0
 20
0.0
 30
0.0
  9
$UCSORGBOTTOM
 10
0.0
 20
0.0
 30
0.0
  9
$UCSORGLEFT
 10
0.0
 20
0.0
 30
0.0
  9
$UCSORGRIGHT
 10
0.0
 20
0.0
 30
0.0
  9
$UCSORGFRONT
 10
0.0
 20
0.0
 30
0.0
  9
$UCSORGBACK
 10
0.0
 20
0.0
 30
0.0
  9
$PUCSBASE
  2

  9
$PUCSNAME
  2

  9
$PUCSORG
 10
0.0
 20
0.0
 30
0.0
  9
$PUCSXDIR
 10
1.0
 20
0.0
 30
0.0
  9
$PUCSYDIR
 10
0.0
 20
1.0
 30
0.0
  9
$PUCSORTHOREF
  2

  9
$PUCSORTHOVIEW
 70
     0
  9
$PUCSORGTOP
 10
0.0
 20
0.0
 30
0.0
  9
$PUCSORGBOTTOM
 10
0.0
 20
0.0
 30
0.0
  9
$PUCSORGLEFT
 10
0.0
 20
0.0
 30
0.0
  9
$PUCSORGRIGHT
 10
0.0
 20
0.0
 30
0.0
  9
$PUCSORGFRONT
 10
0.0
 20
0.0
 30
0.0
  9
$PUCSORGBACK
 10
0.0
 20
0.0
 30
0.0
  9
$USERI1
 70
     0
  9
$USERI2
 70
     0
  9
$USERI3
 70
     0
  9
$USERI4
 70
     0
  9
$USERI5
 70
     0
  9
$USERR1
 40
0.0
  9
$USERR2
 40
0.0
  9
$USERR3
 40
0.0
  9
$USERR4
 40
0.0
  9
$USERR5
 40
0.0
  9
$WORLDVIEW
 70
     1
  9
$SHADEDGE
 70
     3
  9
$SHADEDIF
 70
    70
  9
$TILEMODE
 70
     1
  9
$MAXACTVP
 70
    64
  9
$PINSBASE
 10
0.0
 20
0.0
 30
0.0
  9
$PLIMCHECK
 70
     0
  9
$PEXTMIN
 10
1.000000000000000E+20
 20
1.000000000000000E+20
 30
1.000000000000000E+20
  9
$PEXTMAX
 10
-1.000000000000000E+20
 20
-1.000000000000000E+20
 30
-1.000000000000000E+20
  9
$PLIMMIN
 10
0.0
 20
0.0
  9
$PLIMMAX
 10
12.0
 20
9.0
  9
$UNITMODE
 70
     0
  9
$VISRETAIN
 70
     1
  9
$PLINEGEN
 70
     0
  9
$PSLTSCALE
 70
     1
  9
$TREEDEPTH
 70
  3020
  9
$CMLSTYLE
  2
Standard
  9
$CMLJUST
 70
     0
  9
$CMLSCALE
 40
1.0
  9
$PROXYGRAPHICS
 70
     1
  9
$MEASUREMENT
 70
     0
  9
$CELWEIGHT
370
    -1
  9
$ENDCAPS
280
     0
  9
$JOINSTYLE
280
     0
  9
$LWDISPLAY
290
     1
  9
$INSUNITS
 70
     1
  9
$HYPERLINKBASE
  1

  9
$STYLESHEET
  1

  9
$XEDIT
290
     1
  9
$CEPSNTYPE
380
     0
  9
$PSTYLEMODE
290
     1
  9
$FINGERPRINTGUID
  2
{1BA4F3D3-40C3-A82C-4D91-051FCEBCD238}
  9
$VERSIONGUID
  2
{FAEB1C32-E019-11D5-929B-00C0DF256EC4}
  9
$EXTNAMES
290
     1
  9
$PSVPSCALE
 40
0.0
  9
$OLESTARTUP
290
     0
  9
$SORTENTS
280
   127
  9
$INDEXCTL
280
     0
  9
$HIDETEXT
280
     1
  9
$XCLIPFRAME
280
     2
  9
$HALOGAP
280
     0
  9
$OBSCOLOR
 70
   257
  9
$OBSLTYPE
280
     0
  9
$INTERSECTIONDISPLAY
280
     0
  9
$INTERSECTIONCOLOR
 70
   257
  9
$DIMASSOC
280
     2
  9
$PROJECTNAME
  1

  9
$CAMERADISPLAY
290
     0
  9
$LENSLENGTH
 40
50.0
  9
$CAMERAHEIGHT
 40
0.0
  9
$STEPSPERSEC
 40
2.0
  9
$STEPSIZE
 40
6.0
  9
$3DDWFPREC
 40
2.0
  9
$PSOLWIDTH
 40
0.25
  9
$PSOLHEIGHT
 40
4.0
  9
$LOFTANG1
 40
1.570796326794897
  9
$LOFTANG2
 40
1.570796326794897
  9
$LOFTMAG1
 40
0.0
  9
$LOFTMAG2
 40
0.0
  9
$LOFTPARAM
 70
     7
  9
$LOFTNORMALS
280
     1
  9
$LATITUDE
 40
37.795
  9
$LONGITUDE
 40
-122.394
  9
$NORTHDIRECTION
 40
0.0
  9
$TIMEZONE
 70
 -8000
  9
$LIGHTGLYPHDISPLAY
280
     1
  9
$TILEMODELIGHTSYNCH
280
     1
  9
$CMATERIAL
347
3C
  9
$SOLIDHIST
280
     1
  9
$SHOWHIST
280
     1
  9
$DWFFRAME
280
     2
  9
$DGNFRAME
280
     2
  9
$REALWORLDSCALE
290
     1
  9
$INTERFERECOLOR
 62
   256
  9
$CSHADOW
280
     0
  9
$SHADOWPLANELOCATION
 40
0.0
  0
ENDSEC
  0
SECTION
  2
CLASSES
  0
CLASS
  1
ACDBDICTIONARYWDFLT
  2
AcDbDictionaryWithDefault
  3
ObjectDBX Classes
 90
        0
 91
        4
280
     0
281
     0
  0
CLASS
  1
VISUALSTYLE
  2
AcDbVisualStyle
  3
ObjectDBX Classes
 90
     4095
 91
        4
280
     0
281
     0
  0
CLASS
  1
MATERIAL
  2
AcDbMaterial
  3
ObjectDBX Classes
 90
     1153
 91
        4
280
     0
281
     0
  0
CLASS
  1
SUN
  2
AcDbSun
  3
SCENEOE
 90
     1024
 91
        4
280
     0
281
     0
  0
ENDSEC
  0
SECTION
  2
TABLES
  0
TABLE
  2
VPORT
  5
8
330
0
100
AcDbSymbolTable
 70
     1
  0
VPORT
  5
29
330
8
100
AcDbSymbolTableRecord
100
AcDbViewportTableRecord
  2
*Active
 70
     0
 10
0.0
 20
0.0
 11
1.0
 21
1.0
 12
0.0
 22
0.0
 13
0.0
 23
0.0
 14
0.5
 24
0.5
 15
0.5
 25
0.5
 16
0.0
 26
0.0
 36
1.0
 17
105.0007777515277
 27
-148.5000416295416
 37
0.0
 40
297.0000832590831
 41
0.7070757462376333
 42
50.0
 43
0.0
 44
0.0
 50
0.0
 51
0.0
 71
     0
 72
   100
 73
     1
 74
     3
 75
     0
 76
     0
 77
     0
 78
     0
281
     0
 65
     1
110
0.0
120
0.0
130
0.0
111
1.0
121
0.0
131
0.0
112
0.0
122
1.0
132
0.0
 79
     0
146
0.0
 60
     3
 61
     5
292
     1
282
     1
141
0.0
142
0.0
 63
   250
361
3F
  0
ENDTAB
  0
TABLE
  2
LTYPE
  5
5
330
0
100
AcDbSymbolTable
 70
     2
  0
LTYPE
  5
14
330
5
100
AcDbSymbolTableRecord
100
AcDbLinetypeTableRecord
  2
ByBlock
 70
     0
  3

 72
    65
 73
     0
 40
0.0
  0
LTYPE
  5
15
330
5
100
AcDbSymbolTableRecord
100
AcDbLinetypeTableRecord
  2
ByLayer
 70
     0
  3

 72
    65
 73
     0
 40
0.0
  0
LTYPE
  5
16
330
5
100
AcDbSymbolTableRecord
100
AcDbLinetypeTableRecord
  2
Continuous
 70
     0
  3
Solid line
 72
    65
 73
     0
 40
0.0
  0
LTYPE
  5
126
330
5
100
AcDbSymbolTableRecord
100
AcDbLinetypeTableRecord
  2
AI-Linetype-1
 70
     0
  3
Adobe Illustrator Linetype No. 1
 72
    65
 73
     2
 40
1.411111110758333
 49
0.7055555553791667
 74
     0
 49
-0.7055555553791667
 74
     0
  0
ENDTAB
  0
TABLE
  2
LAYER
  5
2
330
0
100
AcDbSymbolTable
 70
     2
  0
LAYER
  5
10
330
2
100
AcDbSymbolTableRecord
100
AcDbLayerTableRecord
  2
0
 70
     0
 62
     7
  6
Continuous
370
    -3
390
F
347
3E
  0
LAYER
  5
40
330
2
100
AcDbSymbolTableRecord
100
AcDbLayerTableRecord
  2
_U+30EC_U+30A4_U+30E4_U+30FC 1
 70
     0
 62
     7
  6
Continuous
370
    -3
390
F
347
3E
  0
ENDTAB
  0
TABLE
  2
STYLE
  5
3
330
0
100
AcDbSymbolTable
 70
     1
  0
STYLE
  5
11
330
3
100
AcDbSymbolTableRecord
100
AcDbTextStyleTableRecord
  2
Standard
 70
     0
 40
0.0
 41
1.0
 50
0.0
 71
     0
 42
0.2
  3
txt
  4

  0
ENDTAB
  0
TABLE
  2
VIEW
  5
6
330
0
100
AcDbSymbolTable
 70
     0
  0
ENDTAB
  0
TABLE
  2
UCS
  5
7
330
0
100
AcDbSymbolTable
 70
     0
  0
ENDTAB
  0
TABLE
  2
APPID
  5
9
330
0
100
AcDbSymbolTable
 70
     1
  0
APPID
  5
12
330
9
100
AcDbSymbolTableRecord
100
AcDbRegAppTableRecord
  2
ACAD
 70
     0
  0
ENDTAB
  0
TABLE
  2
DIMSTYLE
  5
A
330
0
100
AcDbSymbolTable
 70
     1
100
AcDbDimStyleTable
  0
DIMSTYLE
105
27
330
A
100
AcDbSymbolTableRecord
100
AcDbDimStyleTableRecord
  2
Standard
 70
     0
178
     0
340
11
  0
ENDTAB
  0
TABLE
  2
BLOCK_RECORD
  5
1
330
0
100
AcDbSymbolTable
 70
     7
  0
BLOCK_RECORD
  5
1F
330
1
100
AcDbSymbolTableRecord
100
AcDbBlockTableRecord
  2
*Model_Space
340
22
 70
     0
280
     1
281
     0
  0
BLOCK_RECORD
  5
1B
330
1
100
AcDbSymbolTableRecord
100
AcDbBlockTableRecord
  2
*Paper_Space
340
1E
 70
     0
280
     1
281
     0
  0
BLOCK_RECORD
  5
23
330
1
100
AcDbSymbolTableRecord
100
AcDbBlockTableRecord
  2
*Paper_Space0
340
26
 70
     0
280
     1
281
     0
  0
BLOCK_RECORD
  5
9F
330
1
100
AcDbSymbolTableRecord
100
AcDbBlockTableRecord
  2
block 2
340
0
102
{BLKREFS
331
A0
102
}
 70
     0
280
     1
281
     0
  0
BLOCK_RECORD
  5
B8
330
1
100
AcDbSymbolTableRecord
100
AcDbBlockTableRecord
  2
block 3
340
0
102
{BLKREFS
331
B9
102
}
 70
     0
280
     1
281
     0
  0
BLOCK_RECORD
  5
CA
330
1
100
AcDbSymbolTableRecord
100
AcDbBlockTableRecord
  2
block 4
340
0
102
{BLKREFS
331
CB
102
}
 70
     0
280
     1
281
     0
  0
BLOCK_RECORD
  5
DE
330
1
100
AcDbSymbolTableRecord
100
AcDbBlockTableRecord
  2
block 5
340
0
102
{BLKREFS
331
DF
102
}
 70
     0
280
     1
281
     0
  0
BLOCK_RECORD
  5
F4
330
1
100
AcDbSymbolTableRecord
100
AcDbBlockTableRecord
  2
block 6
340
0
102
{BLKREFS
331
F5
102
}
 70
     0
280
     1
281
     0
  0
BLOCK_RECORD
  5
FE
330
1
100
AcDbSymbolTableRecord
100
AcDbBlockTableRecord
  2
block 7
340
0
102
{BLKREFS
331
FF
102
}
 70
     0
280
     1
281
     0
  0
ENDTAB
  0
ENDSEC
  0
SECTION
  2
BLOCKS
  0
BLOCK
  5
20
330
1F
100
AcDbEntity
  8
0
100
AcDbBlockBegin
  2
*Model_Space
 70
     0
 10
0.0
 20
0.0
 30
0.0
  3
*Model_Space
  1

  0
ENDBLK
  5
21
330
1F
100
AcDbEntity
  8
0
100
AcDbBlockEnd
  0
BLOCK
  5
1C
330
1B
100
AcDbEntity
 67
     1
  8
0
100
AcDbBlockBegin
  2
*Paper_Space
 70
     0
 10
0.0
 20
0.0
 30
0.0
  3
*Paper_Space
  1

  0
ENDBLK
  5
1D
330
1B
100
AcDbEntity
 67
     1
  8
0
100
AcDbBlockEnd
  0
BLOCK
  5
24
330
23
100
AcDbEntity
  8
0
100
AcDbBlockBegin
  2
*Paper_Space0
 70
     0
 10
0.0
 20
0.0
 30
0.0
  3
*Paper_Space0
  1

  0
ENDBLK
  5
25
330
23
100
AcDbEntity
  8
0
100
AcDbBlockEnd
  0
BLOCK
  5
A1
330
9F
100
AcDbEntity
  8
0
100
AcDbBlockBegin
  2
block 2
 70
     0
 10
0.0
 20
0.0
 30
0.0
  3
block 2
  1

  0
SPLINE
  5
A3
330
9F
100
AcDbEntity
  8
_U+30EC_U+30A4_U+30E4_U+30FC 1
370
     0
100
AcDbSpline
210
0.0
220
0.0
230
1.0
 70
    11
 71
     3
 72
    26
 73
    22
 74
     0
 42
0.0000000001
 43
0.0000000001
 12
1.0
 22
0.0
 32
0.0
 13
1.0
 23
0.0
 33
0.0
 40
0.0
 40
0.0
 40
0.0
 40
0.0
 40
1.0
 40
1.0
 40
1.0
 40
2.0
 40
2.0
 40
2.0
 40
3.0
 40
3.0
 40
3.0
 40
4.0
 40
4.0
 40
4.0
 40
5.0
 40
5.0
 40
5.0
 40
6.0
 40
6.0
 40
6.0
 40
7.0
 40
7.0
 40
7.0
 40
7.0
 10
102.0921318646679
 20
-160.211753974704
 30
0.0
 10
102.0921318646679
 20
-160.211753974704
 30
0.0
 10
102.0921318646679
 20
-159.1076008716814
 30
0.0
 10
102.0921318646679
 20
-159.1076008716814
 30
0.0
 10
102.0921318646679
 20
-159.1076008716814
 30
0.0
 10
101.762091717181
 20
-159.1076008716814
 30
0.0
 10
101.762091717181
 20
-159.1076008716814
 30
0.0
 10
101.762091717181
 20
-159.1076008716814
 30
0.0
 10
101.762091717181
 20
-158.9594617658157
 30
0.0
 10
101.762091717181
 20
-158.9594617658157
 30
0.0
 10
102.0941989219591
 20
-158.9446478552291
 30
0.0
 10
102.14070771101
 20
-158.7816948387768
 30
0.0
 10
102.1703355321831
 20
-158.667662178215
 30
0.0
 10
102.1703355321831
 20
-158.667662178215
 30
0.0
 10
102.3162353259834
 20
-158.667662178215
 30
0.0
 10
102.3162353259834
 20
-158.667662178215
 30
0.0
 10
102.3162353259834
 20
-158.667662178215
 30
0.0
 10
102.3162353259834
 20
-160.211753974704
 30
0.0
 10
102.3162353259834
 20
-160.211753974704
 30
0.0
 10
102.3162353259834
 20
-160.211753974704
 30
0.0
 10
102.0921318646679
 20
-160.211753974704
 30
0.0
 10
102.0921318646679
 20
-160.211753974704
 30
0.0
  0
HATCH
  5
A4
330
9F
100
AcDbEntity
  8
_U+30EC_U+30A4_U+30E4_U+30FC 1
 62
   179
420
  2234388
100
AcDbHatch
 10
0.0
 20
0.0
 30
0.0
210
0.0
220
0.0
230
1.0
  2
SOLID
 70
     1
 71
     0
 91
        1
 92
        1
 93
        1
 72
     4
 94
        3
 73
     0
 74
     1
 95
       26
 96
       22
 40
0.0
 40
0.0
 40
0.0
 40
0.0
 40
1.0
 40
1.0
 40
1.0
 40
2.0
 40
2.0
 40
2.0
 40
3.0
 40
3.0
 40
3.0
 40
4.0
 40
4.0
 40
4.0
 40
5.0
 40
5.0
 40
5.0
 40
6.0
 40
6.0
 40
6.0
 40
7.0
 40
7.0
 40
7.0
 40
7.0
 10
102.0921318646679
 20
-160.211753974704
 10
102.0921318646679
 20
-160.211753974704
 10
102.0921318646679
 20
-159.1076008716814
 10
102.0921318646679
 20
-159.1076008716814
 10
102.0921318646679
 20
-159.1076008716814
 10
101.762091717181
 20
-159.1076008716814
 10
101.762091717181
 20
-159.1076008716814
 10
101.762091717181
 20
-159.1076008716814
 10
101.762091717181
 20
-158.9594617658157
 10
101.762091717181
 20
-158.9594617658157
 10
102.0941989219591
 20
-158.9446478552291
 10
102.14070771101
 20
-158.7816948387768
 10
102.1703355321831
 20
-158.667662178215
 10
102.1703355321831
 20
-158.667662178215
 10
102.3162353259834
 20
-158.667662178215
 10
102.3162353259834
 20
-158.667662178215
 10
102.3162353259834
 20
-158.667662178215
 10
102.3162353259834
 20
-160.211753974704
 10
102.3162353259834
 20
-160.211753974704
 10
102.3162353259834
 20
-160.211753974704
 10
102.0921318646679
 20
-160.211753974704
 10
102.0921318646679
 20
-160.211753974704
 97
        0
 97
        0
 75
     2
 76
     1
 98
        0
  0
SPLINE
  5
A5
330
9F
100
AcDbEntity
  8
_U+30EC_U+30A4_U+30E4_U+30FC 1
370
     0
100
AcDbSpline
210
0.0
220
0.0
230
1.0
 70
    11
 71
     3
 72
    29
 73
    25
 74
     0
 42
0.0000000001
 43
0.0000000001
 12
1.0
 22
0.0
 32
0.0
 13
1.0
 23
0.0
 33
0.0
 40
0.0
 40
0.0
 40
0.0
 40
0.0
 40
1.0
 40
1.0
 40
1.0
 40
2.0
 40
2.0
 40
2.0
 40
3.0
 40
3.0
 40
3.0
 40
4.0
 40
4.0
 40
4.0
 40
5.0
 40
5.0
 40
5.0
 40
6.0
 40
6.0
 40
6.0
 40
7.0
 40
7.0
 40
7.0
 40
8.0
 40
8.0
 40
8.0
 40
8.0
 10
103.7156331120919
 20
-160.0339870476651
 30
0.0
 10
103.6074571138551
 20
-160.2434488531683
 30
0.0
 10
103.434168810947
 20
-160.2627413878857
 30
0.0
 10
103.3177245835456
 20
-160.2627413878857
 30
0.0
 10
103.1568386243844
 20
-160.2627413878857
 30
0.0
 10
103.0152451999406
 20
-160.2162325988348
 30
0.0
 10
102.9201605645477
 20
-160.0339870476651
 30
0.0
 10
102.8164631904417
 20
-159.8393391527485
 30
0.0
 10
102.7975151652728
 20
-159.6026610929118
 30
0.0
 10
102.7975151652728
 20
-159.4397080764595
 30
0.0
 10
102.7975151652728
 20
-159.2957030851761
 30
0.0
 10
102.8143961331506
 20
-159.0442111147528
 30
0.0
 10
102.9201605645477
 20
-158.8450845957054
 30
0.0
 10
103.0279920532361
 20
-158.6421684716242
 30
0.0
 10
103.1888780123972
 20
-158.6187418223245
 30
0.0
 10
103.3177245835456
 20
-158.6187418223245
 30
0.0
 10
103.4765434854156
 20
-158.6187418223245
 30
0.0
 10
103.6202039671505
 20
-158.6631835540842
 30
0.0
 10
103.7156331120919
 20
-158.8450845957054
 30
0.0
 10
103.8148518620671
 20
-159.0376654333309
 30
0.0
 10
103.8382785113668
 20
-159.2660752640029
 30
0.0
 10
103.8382785113668
 20
-159.4397080764595
 30
0.0
 10
103.8382785113668
 20
-159.6109293220764
 30
0.0
 10
103.8169189193583
 20
-159.8417507195882
 30
0.0
 10
103.7156331120919
 20
-160.0339870476651
 30
0.0
  0
SPLINE
  5
A6
330
9F
100
AcDbEntity
  8
_U+30EC_U+30A4_U+30E4_U+30FC 1
370
     0
100
AcDbSpline
210
0.0
220
0.0
230
1.0
 70
    11
 71
     3
 72
    17
 73
    13
 74
     0
 42
0.0000000001
 43
0.0000000001
 12
1.0
 22
0.0
 32
0.0
 13
1.0
 23
0.0
 33
0.0
 40
0.0
 40
0.0
 40
0.0
 40
0.0
 40
1.0
 40
1.0
 40
1.0
 40
2.0
 40
2.0
 40
2.0
 40
3.0
 40
3.0
 40
3.0
 40
4.0
 40
4.0
 40
4.0
 40
4.0
 10
103.3177245835456
 20
-158.81132265995
 30
0.0
 10
103.0682996704135
 20
-158.81132265995
 30
0.0
 10
103.0214463718141
 20
-159.094854018386
 30
0.0
 10
103.0214463718141
 20
-159.4397080764595
 30
0.0
 10
103.0214463718141
 20
-159.7590684279422
 30
0.0
 10
103.0576198744092
 20
-160.0680934929691
 30
0.0
 10
103.3177245835456
 20
-160.0680934929691
 30
0.0
 10
103.565426948935
 20
-160.0680934929691
 30
0.0
 10
103.6140027952771
 20
-159.7866291918242
 30
0.0
 10
103.6140027952771
 20
-159.4397080764595
 30
0.0
 10
103.6140027952771
 20
-159.1203477249769
 30
0.0
 10
103.5757622353908
 20
-158.81132265995
 30
0.0
 10
103.3177245835456
 20
-158.81132265995
 30
0.0
  0
HATCH
  5
A7
330
9F
100
AcDbEntity
  8
_U+30EC_U+30A4_U+30E4_U+30FC 1
 62
   179
420
  2234388
100
AcDbHatch
 10
0.0
 20
0.0
 30
0.0
210
0.0
220
0.0
230
1.0
  2
SOLID
 70
     1
 71
     0
 91
        2
 92
        1
 93
        1
 72
     4
 94
        3
 73
     0
 74
     1
 95
       29
 96
       25
 40
0.0
 40
0.0
 40
0.0
 40
0.0
 40
1.0
 40
1.0
 40
1.0
 40
2.0
 40
2.0
 40
2.0
 40
3.0
 40
3.0
 40
3.0
 40
4.0
 40
4.0
 40
4.0
 40
5.0
 40
5.0
 40
5.0
 40
6.0
 40
6.0
 40
6.0
 40
7.0
 40
7.0
 40
7.0
 40
8.0
 40
8.0
 40
8.0
 40
8.0
 10
103.7156331120919
 20
-160.0339870476651
 10
103.6074571138551
 20
-160.2434488531683
 10
103.434168810947
 20
-160.2627413878857
 10
103.3177245835456
 20
-160.2627413878857
 10
103.1568386243844
 20
-160.2627413878857
 10
103.0152451999406
 20
-160.2162325988348
 10
102.9201605645477
 20
-160.0339870476651
 10
102.8164631904417
 20
-159.8393391527485
 10
102.7975151652728
 20
-159.6026610929118
 10
102.7975151652728
 20
-159.4397080764595
 10
102.7975151652728
 20
-159.2957030851761
 10
102.8143961331506
 20
-159.0442111147528
 10
102.9201605645477
 20
-158.8450845957054
 10
103.0279920532361
 20
-158.6421684716242
 10
103.1888780123972
 20
-158.6187418223245
 10
103.3177245835456
 20
-158.6187418223245
 10
103.4765434854156
 20
-158.6187418223245
 10
103.6202039671505
 20
-158.6631835540842
 10
103.7156331120919
 20
-158.8450845957054
 10
103.8148518620671
 20
-159.0376654333309
 10
103.8382785113668
 20
-159.2660752640029
 10
103.8382785113668
 20
-159.4397080764595
 10
103.8382785113668
 20
-159.6109293220764
 10
103.8169189193583
 20
-159.8417507195882
 10
103.7156331120919
 20
-160.0339870476651
 97
        0
 97
        0
 92
        1
 93
        1
 72
     4
 94
        3
 73
     0
 74
     1
 95
       17
 96
       13
 40
0.0
 40
0.0
 40
0.0
 40
0.0
 40
1.0
 40
1.0
 40
1.0
 40
2.0
 40
2.0
 40
2.0
 40
3.0
 40
3.0
 40
3.0
 40
4.0
 40
4.0
 40
4.0
 40
4.0
 10
103.3177245835456
 20
-158.81132265995
 10
103.0682996704135
 20
-158.81132265995
 10
103.0214463718141
 20
-159.094854018386
 10
103.0214463718141
 20
-159.4397080764595
 10
103.0214463718141
 20
-159.7590684279422
 10
103.0576198744092
 20
-160.0680934929691
 10
103.3177245835456
 20
-160.0680934929691
 10
103.565426948935
 20
-160.0680934929691
 10
103.6140027952771
 20
-159.7866291918242
 10
103.6140027952771
 20
-159.4397080764595
 10
103.6140027952771
 20
-159.1203477249769
 10
103.5757622353908
 20
-158.81132265995
 10
103.3177245835456
 20
-158.81132265995
 97
        0
 97
        0
 75
     2
 76
     1
 98
        0
  0
ENDBLK
  5
A2
330
9F
100
AcDbEntity
  8
0
100
AcDbBlockEnd
  0
BLOCK
  5
BA
330
B8
100
AcDbEntity
  8
0
100
AcDbBlockBegin
  2
block 3
 70
     0
 10
0.0
 20
0.0
 30
0.0
  3
block 3
  1

  0
SPLINE
  5
BC
330
B8
100
AcDbEntity
  8
_U+30EC_U+30A4_U+30E4_U+30FC 1
370
     0
100
AcDbSpline
210
0.0
220
0.0
230
1.0
 70
    11
 71
     3
 72
    26
 73
    22
 74
     0
 42
0.0000000001
 43
0.0000000001
 12
1.0
 22
0.0
 32
0.0
 13
1.0
 23
0.0
 33
0.0
 40
0.0
 40
0.0
 40
0.0
 40
0.0
 40
1.0
 40
1.0
 40
1.0
 40
2.0
 40
2.0
 40
2.0
 40
3.0
 40
3.0
 40
3.0
 40
4.0
 40
4.0
 40
4.0
 40
5.0
 40
5.0
 40
5.0
 40
6.0
 40
6.0
 40
6.0
 40
7.0
 40
7.0
 40
7.0
 40
7.0
 10
123.4742892486453
 20
-143.5795219910148
 30
0.0
 10
123.4742892486453
 20
-143.5795219910148
 30
0.0
 10
122.3697916360742
 20
-143.5795219910148
 30
0.0
 10
122.3697916360742
 20
-143.5795219910148
 30
0.0
 10
122.3697916360742
 20
-143.5795219910148
 30
0.0
 10
122.3697916360742
 20
-143.9095621385018
 30
0.0
 10
122.3697916360742
 20
-143.9095621385018
 30
0.0
 10
122.3697916360742
 20
-143.9095621385018
 30
0.0
 10
122.221997039757
 20
-143.9095621385018
 30
0.0
 10
122.221997039757
 20
-143.9095621385018
 30
0.0
 10
122.2071831291704
 20
-143.5774549337237
 30
0.0
 10
122.0442301127181
 20
-143.5309461446728
 30
0.0
 10
121.9298529426078
 20
-143.5013183234997
 30
0.0
 10
121.9298529426078
 20
-143.5013183234997
 30
0.0
 10
121.9298529426078
 20
-143.3552462749251
 30
0.0
 10
121.9298529426078
 20
-143.3552462749251
 30
0.0
 10
121.9298529426078
 20
-143.3552462749251
 30
0.0
 10
123.4742892486453
 20
-143.3552462749251
 30
0.0
 10
123.4742892486453
 20
-143.3552462749251
 30
0.0
 10
123.4742892486453
 20
-143.3552462749251
 30
0.0
 10
123.4742892486453
 20
-143.5795219910148
 30
0.0
 10
123.4742892486453
 20
-143.5795219910148
 30
0.0
  0
HATCH
  5
BD
330
B8
100
AcDbEntity
  8
_U+30EC_U+30A4_U+30E4_U+30FC 1
 62
   179
420
  2234388
100
AcDbHatch
 10
0.0
 20
0.0
 30
0.0
210
0.0
220
0.0
230
1.0
  2
SOLID
 70
     1
 71
     0
 91
        1
 92
        1
 93
        1
 72
     4
 94
        3
 73
     0
 74
     1
 95
       26
 96
       22
 40
0.0
 40
0.0
 40
0.0
 40
0.0
 40
1.0
 40
1.0
 40
1.0
 40
2.0
 40
2.0
 40
2.0
 40
3.0
 40
3.0
 40
3.0
 40
4.0
 40
4.0
 40
4.0
 40
5.0
 40
5.0
 40
5.0
 40
6.0
 40
6.0
 40
6.0
 40
7.0
 40
7.0
 40
7.0
 40
7.0
 10
123.4742892486453
 20
-143.5795219910148
 10
123.4742892486453
 20
-143.5795219910148
 10
122.3697916360742
 20
-143.5795219910148
 10
122.3697916360742
 20
-143.5795219910148
 10
122.3697916360742
 20
-143.5795219910148
 10
122.3697916360742
 20
-143.9095621385018
 10
122.3697916360742
 20
-143.9095621385018
 10
122.3697916360742
 20
-143.9095621385018
 10
122.221997039757
 20
-143.9095621385018
 10
122.221997039757
 20
-143.9095621385018
 10
122.2071831291704
 20
-143.5774549337237
 10
122.0442301127181
 20
-143.5309461446728
 10
121.9298529426078
 20
-143.5013183234997
 10
121.9298529426078
 20
-143.5013183234997
 10
121.9298529426078
 20
-143.3552462749251
 10
121.9298529426078
 20
-143.3552462749251
 10
121.9298529426078
 20
-143.3552462749251
 10
123.4742892486453
 20
-143.3552462749251
 10
123.4742892486453
 20
-143.3552462749251
 10
123.4742892486453
 20
-143.3552462749251
 10
123.4742892486453
 20
-143.5795219910148
 10
123.4742892486453
 20
-143.5795219910148
 97
        0
 97
        0
 75
     2
 76
     1
 98
        0
  0
ENDBLK
  5
BB
330
B8
100
AcDbEntity
  8
0
100
AcDbBlockEnd
  0
BLOCK
  5
CC
330
CA
100
AcDbEntity
  8
0
100
AcDbBlockBegin
  2
block 4
 70
     0
 10
0.0
 20
0.0
 30
0.0
  3
block 4
  1

  0
SPLINE
  5
CE
330
CA
100
AcDbEntity
  8
_U+30EC_U+30A4_U+30E4_U+30FC 1
370
     0
100
AcDbSpline
210
0.0
220
0.0
230
1.0
 70
    11
 71
     3
 72
    62
 73
    58
 74
     0
 42
0.0000000001
 43
0.0000000001
 12
1.0
 22
0.0
 32
0.0
 13
1.0
 23
0.0
 33
0.0
 40
0.0
 40
0.0
 40
0.0
 40
0.0
 40
1.0
 40
1.0
 40
1.0
 40
2.0
 40
2.0
 40
2.0
 40
3.0
 40
3.0
 40
3.0
 40
4.0
 40
4.0
 40
4.0
 40
5.0
 40
5.0
 40
5.0
 40
6.0
 40
6.0
 40
6.0
 40
7.0
 40
7.0
 40
7.0
 40
8.0
 40
8.0
 40
8.0
 40
9.0
 40
9.0
 40
9.0
 40
10.0
 40
10.0
 40
10.0
 40
11.0
 40
11.0
 40
11.0
 40
12.0
 40
12.0
 40
12.0
 40
13.0
 40
13.0
 40
13.0
 40
14.0
 40
14.0
 40
14.0
 40
15.0
 40
15.0
 40
15.0
 40
16.0
 40
16.0
 40
16.0
 40
17.0
 40
17.0
 40
17.0
 40
18.0
 40
18.0
 40
18.0
 40
19.0
 40
19.0
 40
19.0
 40
19.0
 10
101.9470933447389
 20
-138.369159579123
 30
0.0
 10
101.8518364545718
 20
-138.369159579123
 30
0.0
 10
101.6339341651297
 20
-138.3479722418887
 30
0.0
 10
101.5092217085637
 20
-138.161764830911
 30
0.0
 10
101.4351521556308
 20
-138.0496269728661
 30
0.0
 10
101.4308457862742
 20
-137.9502359681166
 30
0.0
 10
101.4267116716919
 20
-137.8656588739537
 30
0.0
 10
101.4267116716919
 20
-137.8656588739537
 30
0.0
 10
101.6466810184251
 20
-137.8656588739537
 30
0.0
 10
101.6466810184251
 20
-137.8656588739537
 30
0.0
 10
101.6487480757163
 20
-137.9397284268866
 30
0.0
 10
101.6594278717206
 20
-138.1745116842064
 30
0.0
 10
101.9427869753824
 20
-138.1745116842064
 30
0.0
 10
102.0804185400181
 20
-138.1745116842064
 30
0.0
 10
102.2326917604661
 20
-138.1047485006301
 30
0.0
 10
102.2326917604661
 20
-137.8761664151837
 30
0.0
 10
102.2326917604661
 20
-137.7598944425566
 30
0.0
 10
102.1946234553541
 20
-137.7111463414403
 30
0.0
 10
102.1629285768898
 20
-137.679451462976
 30
0.0
 10
102.088859023957
 20
-137.6053819100431
 30
0.0
 10
101.9724147965555
 20
-137.5928073115219
 30
0.0
 10
101.9174655235658
 20
-137.5928073115219
 30
0.0
 10
101.8985174983969
 20
-137.5928073115219
 30
0.0
 10
101.862516250576
 20
-137.5948743688131
 30
0.0
 10
101.834955486694
 20
-137.5990084833954
 30
0.0
 10
101.834955486694
 20
-137.5990084833954
 30
0.0
 10
101.834955486694
 20
-137.4043605884788
 30
0.0
 10
101.834955486694
 20
-137.4043605884788
 30
0.0
 10
101.873023791806
 20
-137.4107340151265
 30
0.0
 10
101.9153984662746
 20
-137.4129733271919
 30
0.0
 10
101.9217718929223
 20
-137.4129733271919
 30
0.0
 10
101.9872287071421
 20
-137.4129733271919
 30
0.0
 10
102.1861829714153
 20
-137.3917859899576
 30
0.0
 10
102.1861829714153
 20
-137.1547634205724
 30
0.0
 10
102.1861829714153
 20
-136.9771687483078
 30
0.0
 10
102.0549248334273
 20
-136.9220472205438
 30
0.0
 10
101.9450262874478
 20
-136.9220472205438
 30
0.0
 10
101.6806152089548
 20
-136.9220472205438
 30
0.0
 10
101.6720024702417
 20
-137.1547634205724
 30
0.0
 10
101.6678683556594
 20
-137.2267659162141
 30
0.0
 10
101.6678683556594
 20
-137.2267659162141
 30
0.0
 10
101.464779976804
 20
-137.2267659162141
 30
0.0
 10
101.464779976804
 20
-137.2267659162141
 30
0.0
 10
101.4732204607428
 20
-137.1018812048738
 30
0.0
 10
101.5007812246248
 20
-136.725332268336
 30
0.0
 10
101.9576008859689
 20
-136.725332268336
 30
0.0
 10
102.1818766020587
 20
-136.725332268336
 30
0.0
 10
102.4230332860262
 20
-136.8522840369675
 30
0.0
 10
102.4230332860262
 20
-137.1483899939247
 30
0.0
 10
102.4230332860262
 20
-137.3345974049025
 30
0.0
 10
102.3279486506333
 20
-137.4171074417742
 30
0.0
 10
102.2283853911096
 20
-137.4784301414116
 30
0.0
 10
102.2898803455213
 20
-137.5059909052937
 30
0.0
 10
102.4716091323682
 20
-137.5864338848742
 30
0.0
 10
102.4716091323682
 20
-137.8635918166626
 30
0.0
 10
102.4716091323682
 20
-138.2020724480884
 30
0.0
 10
102.2242512765273
 20
-138.369159579123
 30
0.0
 10
101.9470933447389
 20
-138.369159579123
 30
0.0
  0
HATCH
  5
CF
330
CA
100
AcDbEntity
  8
_U+30EC_U+30A4_U+30E4_U+30FC 1
 62
   179
420
  2234388
100
AcDbHatch
 10
0.0
 20
0.0
 30
0.0
210
0.0
220
0.0
230
1.0
  2
SOLID
 70
     1
 71
     0
 91
        1
 92
        1
 93
        1
 72
     4
 94
        3
 73
     0
 74
     1
 95
       62
 96
       58
 40
0.0
 40
0.0
 40
0.0
 40
0.0
 40
1.0
 40
1.0
 40
1.0
 40
2.0
 40
2.0
 40
2.0
 40
3.0
 40
3.0
 40
3.0
 40
4.0
 40
4.0
 40
4.0
 40
5.0
 40
5.0
 40
5.0
 40
6.0
 40
6.0
 40
6.0
 40
7.0
 40
7.0
 40
7.0
 40
8.0
 40
8.0
 40
8.0
 40
9.0
 40
9.0
 40
9.0
 40
10.0
 40
10.0
 40
10.0
 40
11.0
 40
11.0
 40
11.0
 40
12.0
 40
12.0
 40
12.0
 40
13.0
 40
13.0
 40
13.0
 40
14.0
 40
14.0
 40
14.0
 40
15.0
 40
15.0
 40
15.0
 40
16.0
 40
16.0
 40
16.0
 40
17.0
 40
17.0
 40
17.0
 40
18.0
 40
18.0
 40
18.0
 40
19.0
 40
19.0
 40
19.0
 40
19.0
 10
101.9470933447389
 20
-138.369159579123
 10
101.8518364545718
 20
-138.369159579123
 10
101.6339341651297
 20
-138.3479722418887
 10
101.5092217085637
 20
-138.161764830911
 10
101.4351521556308
 20
-138.0496269728661
 10
101.4308457862742
 20
-137.9502359681166
 10
101.4267116716919
 20
-137.8656588739537
 10
101.4267116716919
 20
-137.8656588739537
 10
101.6466810184251
 20
-137.8656588739537
 10
101.6466810184251
 20
-137.8656588739537
 10
101.6487480757163
 20
-137.9397284268866
 10
101.6594278717206
 20
-138.1745116842064
 10
101.9427869753824
 20
-138.1745116842064
 10
102.0804185400181
 20
-138.1745116842064
 10
102.2326917604661
 20
-138.1047485006301
 10
102.2326917604661
 20
-137.8761664151837
 10
102.2326917604661
 20
-137.7598944425566
 10
102.1946234553541
 20
-137.7111463414403
 10
102.1629285768898
 20
-137.679451462976
 10
102.088859023957
 20
-137.6053819100431
 10
101.9724147965555
 20
-137.5928073115219
 10
101.9174655235658
 20
-137.5928073115219
 10
101.8985174983969
 20
-137.5928073115219
 10
101.862516250576
 20
-137.5948743688131
 10
101.834955486694
 20
-137.5990084833954
 10
101.834955486694
 20
-137.5990084833954
 10
101.834955486694
 20
-137.4043605884788
 10
101.834955486694
 20
-137.4043605884788
 10
101.873023791806
 20
-137.4107340151265
 10
101.9153984662746
 20
-137.4129733271919
 10
101.9217718929223
 20
-137.4129733271919
 10
101.9872287071421
 20
-137.4129733271919
 10
102.1861829714153
 20
-137.3917859899576
 10
102.1861829714153
 20
-137.1547634205724
 10
102.1861829714153
 20
-136.9771687483078
 10
102.0549248334273
 20
-136.9220472205438
 10
101.9450262874478
 20
-136.9220472205438
 10
101.6806152089548
 20
-136.9220472205438
 10
101.6720024702417
 20
-137.1547634205724
 10
101.6678683556594
 20
-137.2267659162141
 10
101.6678683556594
 20
-137.2267659162141
 10
101.464779976804
 20
-137.2267659162141
 10
101.464779976804
 20
-137.2267659162141
 10
101.4732204607428
 20
-137.1018812048738
 10
101.5007812246248
 20
-136.725332268336
 10
101.9576008859689
 20
-136.725332268336
 10
102.1818766020587
 20
-136.725332268336
 10
102.4230332860262
 20
-136.8522840369675
 10
102.4230332860262
 20
-137.1483899939247
 10
102.4230332860262
 20
-137.3345974049025
 10
102.3279486506333
 20
-137.4171074417742
 10
102.2283853911096
 20
-137.4784301414116
 10
102.2898803455213
 20
-137.5059909052937
 10
102.4716091323682
 20
-137.5864338848742
 10
102.4716091323682
 20
-137.8635918166626
 10
102.4716091323682
 20
-138.2020724480884
 10
102.2242512765273
 20
-138.369159579123
 10
101.9470933447389
 20
-138.369159579123
 97
        0
 97
        0
 75
     2
 76
     1
 98
        0
  0
SPLINE
  5
D0
330
CA
100
AcDbEntity
  8
_U+30EC_U+30A4_U+30E4_U+30FC 1
370
     0
100
AcDbSpline
210
0.0
220
0.0
230
1.0
 70
    11
 71
     3
 72
    53
 73
    49
 74
     0
 42
0.0000000001
 43
0.0000000001
 12
1.0
 22
0.0
 32
0.0
 13
1.0
 23
0.0
 33
0.0
 40
0.0
 40
0.0
 40
0.0
 40
0.0
 40
1.0
 40
1.0
 40
1.0
 40
2.0
 40
2.0
 40
2.0
 40
3.0
 40
3.0
 40
3.0
 40
4.0
 40
4.0
 40
4.0
 40
5.0
 40
5.0
 40
5.0
 40
6.0
 40
6.0
 40
6.0
 40
7.0
 40
7.0
 40
7.0
 40
8.0
 40
8.0
 40
8.0
 40
9.0
 40
9.0
 40
9.0
 40
10.0
 40
10.0
 40
10.0
 40
11.0
 40
11.0
 40
11.0
 40
12.0
 40
12.0
 40
12.0
 40
13.0
 40
13.0
 40
13.0
 40
14.0
 40
14.0
 40
14.0
 40
15.0
 40
15.0
 40
15.0
 40
16.0
 40
16.0
 40
16.0
 40
16.0
 10
103.1134304212703
 20
-138.369159579123
 30
0.0
 10
103.0352267537551
 20
-138.369159579123
 30
0.0
 10
102.9335964369402
 20
-138.352106356471
 30
0.0
 10
102.8319661201253
 20
-138.2887165995424
 30
0.0
 10
102.6586778172173
 20
-138.1786457987887
 30
0.0
 10
102.6373182252087
 20
-138.0475599155749
 30
0.0
 10
102.6183702000399
 20
-137.9397284268866
 30
0.0
 10
102.6183702000399
 20
-137.9397284268866
 30
0.0
 10
102.8405788588385
 20
-137.9397284268866
 30
0.0
 10
102.8405788588385
 20
-137.9397284268866
 30
0.0
 10
102.8953558770539
 20
-138.1385104363855
 30
0.0
 10
103.0224799004597
 20
-138.1681382575587
 30
0.0
 10
103.1154974785614
 20
-138.1681382575587
 30
0.0
 10
103.255023845714
 20
-138.1681382575587
 30
0.0
 10
103.4072970661621
 20
-138.0687472528092
 30
0.0
 10
103.4072970661621
 20
-137.8360310527806
 30
0.0
 10
103.4072970661621
 20
-137.5800604582265
 30
0.0
 10
103.227463081832
 20
-137.5102972746502
 30
0.0
 10
103.1068847398483
 20
-137.5102972746502
 30
0.0
 10
103.075189861384
 20
-137.5102972746502
 30
0.0
 10
102.9335964369402
 20
-137.5102972746502
 30
0.0
 10
102.8447129734208
 20
-137.6393161005728
 30
0.0
 10
102.8447129734208
 20
-137.6393161005728
 30
0.0
 10
102.669013103673
 20
-137.6201958206297
 30
0.0
 10
102.669013103673
 20
-137.6201958206297
 30
0.0
 10
102.669013103673
 20
-137.6201958206297
 30
0.0
 10
102.7895914456568
 20
-136.7740803694523
 30
0.0
 10
102.7895914456568
 20
-136.7740803694523
 30
0.0
 10
102.7895914456568
 20
-136.7740803694523
 30
0.0
 10
103.5681830253232
 20
-136.7740803694523
 30
0.0
 10
103.5681830253232
 20
-136.7740803694523
 30
0.0
 10
103.5681830253232
 20
-136.7740803694523
 30
0.0
 10
103.5681830253232
 20
-136.9687282643689
 30
0.0
 10
103.5681830253232
 20
-136.9687282643689
 30
0.0
 10
103.5681830253232
 20
-136.9687282643689
 30
0.0
 10
102.9525444621091
 20
-136.9687282643689
 30
0.0
 10
102.9525444621091
 20
-136.9687282643689
 30
0.0
 10
102.9525444621091
 20
-136.9687282643689
 30
0.0
 10
102.8870876478893
 20
-137.3917859899576
 30
0.0
 10
102.8870876478893
 20
-137.3917859899576
 30
0.0
 10
102.9484103475268
 20
-137.3578517994279
 30
0.0
 10
103.0307481296243
 20
-137.3177164370248
 30
0.0
 10
103.1492594143169
 20
-137.3177164370248
 30
0.0
 10
103.4031629515798
 20
-137.3177164370248
 30
0.0
 10
103.640185520965
 20
-137.5039238480025
 30
0.0
 10
103.640185520965
 20
-137.8169107728374
 30
0.0
 10
103.640185520965
 20
-138.1343763218032
 30
0.0
 10
103.4159098048752
 20
-138.369159579123
 30
0.0
 10
103.1134304212703
 20
-138.369159579123
 30
0.0
  0
HATCH
  5
D1
330
CA
100
AcDbEntity
  8
_U+30EC_U+30A4_U+30E4_U+30FC 1
 62
   179
420
  2234388
100
AcDbHatch
 10
0.0
 20
0.0
 30
0.0
210
0.0
220
0.0
230
1.0
  2
SOLID
 70
     1
 71
     0
 91
        1
 92
        1
 93
        1
 72
     4
 94
        3
 73
     0
 74
     1
 95
       53
 96
       49
 40
0.0
 40
0.0
 40
0.0
 40
0.0
 40
1.0
 40
1.0
 40
1.0
 40
2.0
 40
2.0
 40
2.0
 40
3.0
 40
3.0
 40
3.0
 40
4.0
 40
4.0
 40
4.0
 40
5.0
 40
5.0
 40
5.0
 40
6.0
 40
6.0
 40
6.0
 40
7.0
 40
7.0
 40
7.0
 40
8.0
 40
8.0
 40
8.0
 40
9.0
 40
9.0
 40
9.0
 40
10.0
 40
10.0
 40
10.0
 40
11.0
 40
11.0
 40
11.0
 40
12.0
 40
12.0
 40
12.0
 40
13.0
 40
13.0
 40
13.0
 40
14.0
 40
14.0
 40
14.0
 40
15.0
 40
15.0
 40
15.0
 40
16.0
 40
16.0
 40
16.0
 40
16.0
 10
103.1134304212703
 20
-138.369159579123
 10
103.0352267537551
 20
-138.369159579123
 10
102.9335964369402
 20
-138.352106356471
 10
102.8319661201253
 20
-138.2887165995424
 10
102.6586778172173
 20
-138.1786457987887
 10
102.6373182252087
 20
-138.0475599155749
 10
102.6183702000399
 20
-137.9397284268866
 10
102.6183702000399
 20
-137.9397284268866
 10
102.8405788588385
 20
-137.9397284268866
 10
102.8405788588385
 20
-137.9397284268866
 10
102.8953558770539
 20
-138.1385104363855
 10
103.0224799004597
 20
-138.1681382575587
 10
103.1154974785614
 20
-138.1681382575587
 10
103.255023845714
 20
-138.1681382575587
 10
103.4072970661621
 20
-138.0687472528092
 10
103.4072970661621
 20
-137.8360310527806
 10
103.4072970661621
 20
-137.5800604582265
 10
103.227463081832
 20
-137.5102972746502
 10
103.1068847398483
 20
-137.5102972746502
 10
103.075189861384
 20
-137.5102972746502
 10
102.9335964369402
 20
-137.5102972746502
 10
102.8447129734208
 20
-137.6393161005728
 10
102.8447129734208
 20
-137.6393161005728
 10
102.669013103673
 20
-137.6201958206297
 10
102.669013103673
 20
-137.6201958206297
 10
102.669013103673
 20
-137.6201958206297
 10
102.7895914456568
 20
-136.7740803694523
 10
102.7895914456568
 20
-136.7740803694523
 10
102.7895914456568
 20
-136.7740803694523
 10
103.5681830253232
 20
-136.7740803694523
 10
103.5681830253232
 20
-136.7740803694523
 10
103.5681830253232
 20
-136.7740803694523
 10
103.5681830253232
 20
-136.9687282643689
 10
103.5681830253232
 20
-136.9687282643689
 10
103.5681830253232
 20
-136.9687282643689
 10
102.9525444621091
 20
-136.9687282643689
 10
102.9525444621091
 20
-136.9687282643689
 10
102.9525444621091
 20
-136.9687282643689
 10
102.8870876478893
 20
-137.3917859899576
 10
102.8870876478893
 20
-137.3917859899576
 10
102.9484103475268
 20
-137.3578517994279
 10
103.0307481296243
 20
-137.3177164370248
 10
103.1492594143169
 20
-137.3177164370248
 10
103.4031629515798
 20
-137.3177164370248
 10
103.640185520965
 20
-137.5039238480025
 10
103.640185520965
 20
-137.8169107728374
 10
103.640185520965
 20
-138.1343763218032
 10
103.4159098048752
 20
-138.369159579123
 10
103.1134304212703
 20
-138.369159579123
 97
        0
 97
        0
 75
     2
 76
     1
 98
        0
  0
ENDBLK
  5
CD
330
CA
100
AcDbEntity
  8
0
100
AcDbBlockEnd
  0
BLOCK
  5
E0
330
DE
100
AcDbEntity
  8
0
100
AcDbBlockBegin
  2
block 5
 70
     0
 10
0.0
 20
0.0
 30
0.0
  3
block 5
  1

  0
SPLINE
  5
E2
330
DE
100
AcDbEntity
  8
_U+30EC_U+30A4_U+30E4_U+30FC 1
370
     0
100
AcDbSpline
210
0.0
220
0.0
230
1.0
 70
    11
 71
     3
 72
    26
 73
    22
 74
     0
 42
0.0000000001
 43
0.0000000001
 12
1.0
 22
0.0
 32
0.0
 13
1.0
 23
0.0
 33
0.0
 40
0.0
 40
0.0
 40
0.0
 40
0.0
 40
1.0
 40
1.0
 40
1.0
 40
2.0
 40
2.0
 40
2.0
 40
3.0
 40
3.0
 40
3.0
 40
4.0
 40
4.0
 40
4.0
 40
5.0
 40
5.0
 40
5.0
 40
6.0
 40
6.0
 40
6.0
 40
7.0
 40
7.0
 40
7.0
 40
7.0
 10
90.75294458451663
 20
-160.211753974704
 30
0.0
 10
90.75294458451663
 20
-160.211753974704
 30
0.0
 10
90.75294458451663
 20
-159.1076008716814
 30
0.0
 10
90.75294458451663
 20
-159.1076008716814
 30
0.0
 10
90.75294458451663
 20
-159.1076008716814
 30
0.0
 10
90.4229044370297
 20
-159.1076008716814
 30
0.0
 10
90.4229044370297
 20
-159.1076008716814
 30
0.0
 10
90.4229044370297
 20
-159.1076008716814
 30
0.0
 10
90.4229044370297
 20
-158.9594617658157
 30
0.0
 10
90.4229044370297
 20
-158.9594617658157
 30
0.0
 10
90.75501164180778
 20
-158.9446478552291
 30
0.0
 10
90.80152043085864
 20
-158.7816948387768
 30
0.0
 10
90.8311482520318
 20
-158.667662178215
 30
0.0
 10
90.8311482520318
 20
-158.667662178215
 30
0.0
 10
90.97722030060639
 20
-158.667662178215
 30
0.0
 10
90.97722030060639
 20
-158.667662178215
 30
0.0
 10
90.97722030060639
 20
-158.667662178215
 30
0.0
 10
90.97722030060639
 20
-160.211753974704
 30
0.0
 10
90.97722030060639
 20
-160.211753974704
 30
0.0
 10
90.97722030060639
 20
-160.211753974704
 30
0.0
 10
90.75294458451663
 20
-160.211753974704
 30
0.0
 10
90.75294458451663
 20
-160.211753974704
 30
0.0
  0
HATCH
  5
E3
330
DE
100
AcDbEntity
  8
_U+30EC_U+30A4_U+30E4_U+30FC 1
 62
   179
420
  2234388
100
AcDbHatch
 10
0.0
 20
0.0
 30
0.0
210
0.0
220
0.0
230
1.0
  2
SOLID
 70
     1
 71
     0
 91
        1
 92
        1
 93
        1
 72
     4
 94
        3
 73
     0
 74
     1
 95
       26
 96
       22
 40
0.0
 40
0.0
 40
0.0
 40
0.0
 40
1.0
 40
1.0
 40
1.0
 40
2.0
 40
2.0
 40
2.0
 40
3.0
 40
3.0
 40
3.0
 40
4.0
 40
4.0
 40
4.0
 40
5.0
 40
5.0
 40
5.0
 40
6.0
 40
6.0
 40
6.0
 40
7.0
 40
7.0
 40
7.0
 40
7.0
 10
90.75294458451663
 20
-160.211753974704
 10
90.75294458451663
 20
-160.211753974704
 10
90.75294458451663
 20
-159.1076008716814
 10
90.75294458451663
 20
-159.1076008716814
 10
90.75294458451663
 20
-159.1076008716814
 10
90.4229044370297
 20
-159.1076008716814
 10
90.4229044370297
 20
-159.1076008716814
 10
90.4229044370297
 20
-159.1076008716814
 10
90.4229044370297
 20
-158.9594617658157
 10
90.4229044370297
 20
-158.9594617658157
 10
90.75501164180778
 20
-158.9446478552291
 10
90.80152043085864
 20
-158.7816948387768
 10
90.8311482520318
 20
-158.667662178215
 10
90.8311482520318
 20
-158.667662178215
 10
90.97722030060639
 20
-158.667662178215
 10
90.97722030060639
 20
-158.667662178215
 10
90.97722030060639
 20
-158.667662178215
 10
90.97722030060639
 20
-160.211753974704
 10
90.97722030060639
 20
-160.211753974704
 10
90.97722030060639
 20
-160.211753974704
 10
90.75294458451663
 20
-160.211753974704
 10
90.75294458451663
 20
-160.211753974704
 97
        0
 97
        0
 75
     2
 76
     1
 98
        0
  0
SPLINE
  5
E4
330
DE
100
AcDbEntity
  8
_U+30EC_U+30A4_U+30E4_U+30FC 1
370
     0
100
AcDbSpline
210
0.0
220
0.0
230
1.0
 70
    11
 71
     3
 72
    44
 73
    40
 74
     0
 42
0.0000000001
 43
0.0000000001
 12
1.0
 22
0.0
 32
0.0
 13
1.0
 23
0.0
 33
0.0
 40
0.0
 40
0.0
 40
0.0
 40
0.0
 40
1.0
 40
1.0
 40
1.0
 40
2.0
 40
2.0
 40
2.0
 40
3.0
 40
3.0
 40
3.0
 40
4.0
 40
4.0
 40
4.0
 40
5.0
 40
5.0
 40
5.0
 40
6.0
 40
6.0
 40
6.0
 40
7.0
 40
7.0
 40
7.0
 40
8.0
 40
8.0
 40
8.0
 40
9.0
 40
9.0
 40
9.0
 40
10.0
 40
10.0
 40
10.0
 40
11.0
 40
11.0
 40
11.0
 40
12.0
 40
12.0
 40
12.0
 40
13.0
 40
13.0
 40
13.0
 40
13.0
 10
92.071554881496
 20
-159.6302218567938
 30
0.0
 10
91.85365259205395
 20
-159.7886962491153
 30
0.0
 10
91.76046275917794
 20
-159.8627658020482
 30
0.0
 10
91.71188691283592
 20
-160.0067707933316
 30
0.0
 10
91.71188691283592
 20
-160.0067707933316
 30
0.0
 10
92.49030623772812
 20
-160.0067707933316
 30
0.0
 10
92.49030623772812
 20
-160.0067707933316
 30
0.0
 10
92.49030623772812
 20
-160.0067707933316
 30
0.0
 10
92.49030623772812
 20
-160.211753974704
 30
0.0
 10
92.49030623772812
 20
-160.211753974704
 30
0.0
 10
92.49030623772812
 20
-160.211753974704
 30
0.0
 10
91.46228974492956
 20
-160.211753974704
 30
0.0
 10
91.46228974492956
 20
-160.211753974704
 30
0.0
 10
91.49398462339387
 20
-159.8541530633351
 30
0.0
 10
91.55961369238788
 20
-159.7759493958199
 30
0.0
 10
91.94460311286454
 20
-159.4776041267973
 30
0.0
 10
92.20057370741861
 20
-159.2788221172983
 30
0.0
 10
92.26603052163836
 20
-159.2112982457874
 30
0.0
 10
92.26603052163836
 20
-159.073838935926
 30
0.0
 10
92.26603052163836
 20
-158.9553276512334
 30
0.0
 10
92.1942002807709
 20
-158.8240695132454
 30
0.0
 10
91.99748532856313
 20
-158.8240695132454
 30
0.0
 10
91.7372083646525
 20
-158.8240695132454
 30
0.0
 10
91.72876788071365
 20
-159.0545464012086
 30
0.0
 10
91.72446151135708
 20
-159.17099062861
 30
0.0
 10
91.72446151135708
 20
-159.17099062861
 30
0.0
 10
91.50035805004158
 20
-159.17099062861
 30
0.0
 10
91.50035805004158
 20
-159.17099062861
 30
0.0
 10
91.50879853398044
 20
-159.0442111147528
 30
0.0
 10
91.51930607521045
 20
-158.9319010019337
 30
0.0
 10
91.59974905479103
 20
-158.8133897172411
 30
0.0
 10
91.70964760077051
 20
-158.6528482676285
 30
0.0
 10
91.89585501174827
 20
-158.6187418223245
 30
0.0
 10
92.01229923914971
 20
-158.6187418223245
 30
0.0
 10
92.28945717093805
 20
-158.6187418223245
 30
0.0
 10
92.49667966437583
 20
-158.8030544307854
 30
0.0
 10
92.49667966437583
 20
-159.0759059932171
 30
0.0
 10
92.49667966437583
 20
-159.3043158238892
 30
0.0
 10
92.38040769174866
 20
-159.4038790834129
 30
0.0
 10
92.071554881496
 20
-159.6302218567938
 30
0.0
  0
HATCH
  5
E5
330
DE
100
AcDbEntity
  8
_U+30EC_U+30A4_U+30E4_U+30FC 1
 62
   179
420
  2234388
100
AcDbHatch
 10
0.0
 20
0.0
 30
0.0
210
0.0
220
0.0
230
1.0
  2
SOLID
 70
     1
 71
     0
 91
        1
 92
        1
 93
        1
 72
     4
 94
        3
 73
     0
 74
     1
 95
       44
 96
       40
 40
0.0
 40
0.0
 40
0.0
 40
0.0
 40
1.0
 40
1.0
 40
1.0
 40
2.0
 40
2.0
 40
2.0
 40
3.0
 40
3.0
 40
3.0
 40
4.0
 40
4.0
 40
4.0
 40
5.0
 40
5.0
 40
5.0
 40
6.0
 40
6.0
 40
6.0
 40
7.0
 40
7.0
 40
7.0
 40
8.0
 40
8.0
 40
8.0
 40
9.0
 40
9.0
 40
9.0
 40
10.0
 40
10.0
 40
10.0
 40
11.0
 40
11.0
 40
11.0
 40
12.0
 40
12.0
 40
12.0
 40
13.0
 40
13.0
 40
13.0
 40
13.0
 10
92.071554881496
 20
-159.6302218567938
 10
91.85365259205395
 20
-159.7886962491153
 10
91.76046275917794
 20
-159.8627658020482
 10
91.71188691283592
 20
-160.0067707933316
 10
91.71188691283592
 20
-160.0067707933316
 10
92.49030623772812
 20
-160.0067707933316
 10
92.49030623772812
 20
-160.0067707933316
 10
92.49030623772812
 20
-160.0067707933316
 10
92.49030623772812
 20
-160.211753974704
 10
92.49030623772812
 20
-160.211753974704
 10
92.49030623772812
 20
-160.211753974704
 10
91.46228974492956
 20
-160.211753974704
 10
91.46228974492956
 20
-160.211753974704
 10
91.49398462339387
 20
-159.8541530633351
 10
91.55961369238788
 20
-159.7759493958199
 10
91.94460311286454
 20
-159.4776041267973
 10
92.20057370741861
 20
-159.2788221172983
 10
92.26603052163836
 20
-159.2112982457874
 10
92.26603052163836
 20
-159.073838935926
 10
92.26603052163836
 20
-158.9553276512334
 10
92.1942002807709
 20
-158.8240695132454
 10
91.99748532856313
 20
-158.8240695132454
 10
91.7372083646525
 20
-158.8240695132454
 10
91.72876788071365
 20
-159.0545464012086
 10
91.72446151135708
 20
-159.17099062861
 10
91.72446151135708
 20
-159.17099062861
 10
91.50035805004158
 20
-159.17099062861
 10
91.50035805004158
 20
-159.17099062861
 10
91.50879853398044
 20
-159.0442111147528
 10
91.51930607521045
 20
-158.9319010019337
 10
91.59974905479103
 20
-158.8133897172411
 10
91.70964760077051
 20
-158.6528482676285
 10
91.89585501174827
 20
-158.6187418223245
 10
92.01229923914971
 20
-158.6187418223245
 10
92.28945717093805
 20
-158.6187418223245
 10
92.49667966437583
 20
-158.8030544307854
 10
92.49667966437583
 20
-159.0759059932171
 10
92.49667966437583
 20
-159.3043158238892
 10
92.38040769174866
 20
-159.4038790834129
 10
92.071554881496
 20
-159.6302218567938
 97
        0
 97
        0
 75
     2
 76
     1
 98
        0
  0
ENDBLK
  5
E1
330
DE
100
AcDbEntity
  8
0
100
AcDbBlockEnd
  0
BLOCK
  5
F6
330
F4
100
AcDbEntity
  8
0
100
AcDbBlockBegin
  2
block 6
 70
     0
 10
0.0
 20
0.0
 30
0.0
  3
block 6
  1

  0
SPLINE
  5
F8
330
F4
100
AcDbEntity
  8
_U+30EC_U+30A4_U+30E4_U+30FC 1
370
     0
100
AcDbSpline
210
0.0
220
0.0
230
1.0
 70
    11
 71
     3
 72
    62
 73
    58
 74
     0
 42
0.0000000001
 43
0.0000000001
 12
1.0
 22
0.0
 32
0.0
 13
1.0
 23
0.0
 33
0.0
 40
0.0
 40
0.0
 40
0.0
 40
0.0
 40
1.0
 40
1.0
 40
1.0
 40
2.0
 40
2.0
 40
2.0
 40
3.0
 40
3.0
 40
3.0
 40
4.0
 40
4.0
 40
4.0
 40
5.0
 40
5.0
 40
5.0
 40
6.0
 40
6.0
 40
6.0
 40
7.0
 40
7.0
 40
7.0
 40
8.0
 40
8.0
 40
8.0
 40
9.0
 40
9.0
 40
9.0
 40
10.0
 40
10.0
 40
10.0
 40
11.0
 40
11.0
 40
11.0
 40
12.0
 40
12.0
 40
12.0
 40
13.0
 40
13.0
 40
13.0
 40
14.0
 40
14.0
 40
14.0
 40
15.0
 40
15.0
 40
15.0
 40
16.0
 40
16.0
 40
16.0
 40
17.0
 40
17.0
 40
17.0
 40
18.0
 40
18.0
 40
18.0
 40
19.0
 40
19.0
 40
19.0
 40
19.0
 10
123.4818684587129
 20
-155.0110378301709
 30
0.0
 10
123.4818684587129
 20
-155.1064669751123
 30
0.0
 10
123.4608533762528
 20
-155.3241970097801
 30
0.0
 10
123.2744737105008
 20
-155.4492539758946
 30
0.0
 10
123.1625081072302
 20
-155.5233235288275
 30
0.0
 10
123.0629448477065
 20
-155.5274576434098
 30
0.0
 10
122.9785400083179
 20
-155.5315917579921
 30
0.0
 10
122.9785400083179
 20
-155.5315917579921
 30
0.0
 10
122.9785400083179
 20
-155.3114501564847
 30
0.0
 10
122.9785400083179
 20
-155.3114501564847
 30
0.0
 10
123.0526095612507
 20
-155.3093830991935
 30
0.0
 10
123.2872205637963
 20
-155.2990478127377
 30
0.0
 10
123.2872205637963
 20
-155.0155164543017
 30
0.0
 10
123.2872205637963
 20
-154.8780571444402
 30
0.0
 10
123.2176296349942
 20
-154.7254394144437
 30
0.0
 10
122.9888752947736
 20
-154.7254394144437
 30
0.0
 10
122.8727755769207
 20
-154.7254394144437
 30
0.0
 10
122.8238552210302
 20
-154.7636799743299
 30
0.0
 10
122.7921603425659
 20
-154.7953748527942
 30
0.0
 10
122.718090789633
 20
-154.8694444057271
 30
0.0
 10
122.7056884458861
 20
-154.9858886331285
 30
0.0
 10
122.7056884458861
 20
-155.040665651344
 30
0.0
 10
122.7056884458861
 20
-155.0599581860614
 30
0.0
 10
122.7077555031772
 20
-155.095787179108
 30
0.0
 10
122.7118896177595
 20
-155.12334794299
 30
0.0
 10
122.7118896177595
 20
-155.12334794299
 30
0.0
 10
122.5172417228429
 20
-155.12334794299
 30
0.0
 10
122.5172417228429
 20
-155.12334794299
 30
0.0
 10
122.5234428947164
 20
-155.0851073831037
 30
0.0
 10
122.525854461556
 20
-155.0430772181837
 30
0.0
 10
122.525854461556
 20
-155.0365315367617
 30
0.0
 10
122.525854461556
 20
-154.971074722542
 30
0.0
 10
122.5044948695475
 20
-154.772292713043
 30
0.0
 10
122.2674723001623
 20
-154.772292713043
 30
0.0
 10
122.0900498826719
 20
-154.772292713043
 30
0.0
 10
122.0349283549079
 20
-154.9032063414825
 30
0.0
 10
122.0349283549079
 20
-155.0134493970105
 30
0.0
 10
122.0349283549079
 20
-155.2776882207292
 30
0.0
 10
122.2674723001623
 20
-155.2863009594423
 30
0.0
 10
122.339474795804
 20
-155.2904350740246
 30
0.0
 10
122.339474795804
 20
-155.2904350740246
 30
0.0
 10
122.339474795804
 20
-155.4936957076544
 30
0.0
 10
122.339474795804
 20
-155.4936957076544
 30
0.0
 10
122.214762339238
 20
-155.4850829689412
 30
0.0
 10
121.8382134027002
 20
-155.4575222050592
 30
0.0
 10
121.8382134027002
 20
-155.0007025437151
 30
0.0
 10
121.8382134027002
 20
-154.7764268276254
 30
0.0
 10
121.9649929165574
 20
-154.5352701436579
 30
0.0
 10
122.2612711282889
 20
-154.5352701436579
 30
0.0
 10
122.4473062844923
 20
-154.5352701436579
 30
0.0
 10
122.5299885761383
 20
-154.6303547790507
 30
0.0
 10
122.5913112757758
 20
-154.7299180385745
 30
0.0
 10
122.6188720396578
 20
-154.668595338937
 30
0.0
 10
122.6991427644641
 20
-154.4866942973158
 30
0.0
 10
122.9764729510267
 20
-154.4866942973158
 30
0.0
 10
123.3147813276783
 20
-154.4866942973158
 30
0.0
 10
123.4818684587129
 20
-154.7340521531568
 30
0.0
 10
123.4818684587129
 20
-155.0110378301709
 30
0.0
  0
HATCH
  5
F9
330
F4
100
AcDbEntity
  8
_U+30EC_U+30A4_U+30E4_U+30FC 1
 62
   179
420
  2234388
100
AcDbHatch
 10
0.0
 20
0.0
 30
0.0
210
0.0
220
0.0
230
1.0
  2
SOLID
 70
     1
 71
     0
 91
        1
 92
        1
 93
        1
 72
     4
 94
        3
 73
     0
 74
     1
 95
       62
 96
       58
 40
0.0
 40
0.0
 40
0.0
 40
0.0
 40
1.0
 40
1.0
 40
1.0
 40
2.0
 40
2.0
 40
2.0
 40
3.0
 40
3.0
 40
3.0
 40
4.0
 40
4.0
 40
4.0
 40
5.0
 40
5.0
 40
5.0
 40
6.0
 40
6.0
 40
6.0
 40
7.0
 40
7.0
 40
7.0
 40
8.0
 40
8.0
 40
8.0
 40
9.0
 40
9.0
 40
9.0
 40
10.0
 40
10.0
 40
10.0
 40
11.0
 40
11.0
 40
11.0
 40
12.0
 40
12.0
 40
12.0
 40
13.0
 40
13.0
 40
13.0
 40
14.0
 40
14.0
 40
14.0
 40
15.0
 40
15.0
 40
15.0
 40
16.0
 40
16.0
 40
16.0
 40
17.0
 40
17.0
 40
17.0
 40
18.0
 40
18.0
 40
18.0
 40
19.0
 40
19.0
 40
19.0
 40
19.0
 10
123.4818684587129
 20
-155.0110378301709
 10
123.4818684587129
 20
-155.1064669751123
 10
123.4608533762528
 20
-155.3241970097801
 10
123.2744737105008
 20
-155.4492539758946
 10
123.1625081072302
 20
-155.5233235288275
 10
123.0629448477065
 20
-155.5274576434098
 10
122.9785400083179
 20
-155.5315917579921
 10
122.9785400083179
 20
-155.5315917579921
 10
122.9785400083179
 20
-155.3114501564847
 10
122.9785400083179
 20
-155.3114501564847
 10
123.0526095612507
 20
-155.3093830991935
 10
123.2872205637963
 20
-155.2990478127377
 10
123.2872205637963
 20
-155.0155164543017
 10
123.2872205637963
 20
-154.8780571444402
 10
123.2176296349942
 20
-154.7254394144437
 10
122.9888752947736
 20
-154.7254394144437
 10
122.8727755769207
 20
-154.7254394144437
 10
122.8238552210302
 20
-154.7636799743299
 10
122.7921603425659
 20
-154.7953748527942
 10
122.718090789633
 20
-154.8694444057271
 10
122.7056884458861
 20
-154.9858886331285
 10
122.7056884458861
 20
-155.040665651344
 10
122.7056884458861
 20
-155.0599581860614
 10
122.7077555031772
 20
-155.095787179108
 10
122.7118896177595
 20
-155.12334794299
 10
122.7118896177595
 20
-155.12334794299
 10
122.5172417228429
 20
-155.12334794299
 10
122.5172417228429
 20
-155.12334794299
 10
122.5234428947164
 20
-155.0851073831037
 10
122.525854461556
 20
-155.0430772181837
 10
122.525854461556
 20
-155.0365315367617
 10
122.525854461556
 20
-154.971074722542
 10
122.5044948695475
 20
-154.772292713043
 10
122.2674723001623
 20
-154.772292713043
 10
122.0900498826719
 20
-154.772292713043
 10
122.0349283549079
 20
-154.9032063414825
 10
122.0349283549079
 20
-155.0134493970105
 10
122.0349283549079
 20
-155.2776882207292
 10
122.2674723001623
 20
-155.2863009594423
 10
122.339474795804
 20
-155.2904350740246
 10
122.339474795804
 20
-155.2904350740246
 10
122.339474795804
 20
-155.4936957076544
 10
122.339474795804
 20
-155.4936957076544
 10
122.214762339238
 20
-155.4850829689412
 10
121.8382134027002
 20
-155.4575222050592
 10
121.8382134027002
 20
-155.0007025437151
 10
121.8382134027002
 20
-154.7764268276254
 10
121.9649929165574
 20
-154.5352701436579
 10
122.2612711282889
 20
-154.5352701436579
 10
122.4473062844923
 20
-154.5352701436579
 10
122.5299885761383
 20
-154.6303547790507
 10
122.5913112757758
 20
-154.7299180385745
 10
122.6188720396578
 20
-154.668595338937
 10
122.6991427644641
 20
-154.4866942973158
 10
122.9764729510267
 20
-154.4866942973158
 10
123.3147813276783
 20
-154.4866942973158
 10
123.4818684587129
 20
-154.7340521531568
 10
123.4818684587129
 20
-155.0110378301709
 97
        0
 97
        0
 75
     2
 76
     1
 98
        0
  0
ENDBLK
  5
F7
330
F4
100
AcDbEntity
  8
0
100
AcDbBlockEnd
  0
BLOCK
  5
100
330
FE
100
AcDbEntity
  8
0
100
AcDbBlockBegin
  2
block 7
 70
     0
 10
0.0
 20
0.0
 30
0.0
  3
block 7
  1

  0
SPLINE
  5
102
330
FE
100
AcDbEntity
  8
_U+30EC_U+30A4_U+30E4_U+30FC 1
370
     0
100
AcDbSpline
210
0.0
220
0.0
230
1.0
 70
    11
 71
     3
 72
    32
 73
    28
 74
     0
 42
0.0000000001
 43
0.0000000001
 12
1.0
 22
0.0
 32
0.0
 13
1.0
 23
0.0
 33
0.0
 40
0.0
 40
0.0
 40
0.0
 40
0.0
 40
1.0
 40
1.0
 40
1.0
 40
2.0
 40
2.0
 40
2.0
 40
3.0
 40
3.0
 40
3.0
 40
4.0
 40
4.0
 40
4.0
 40
5.0
 40
5.0
 40
5.0
 40
6.0
 40
6.0
 40
6.0
 40
7.0
 40
7.0
 40
7.0
 40
8.0
 40
8.0
 40
8.0
 40
9.0
 40
9.0
 40
9.0
 40
9.0
 10
123.4818684587129
 20
-149.6177408480122
 30
0.0
 10
123.4818684587129
 20
-149.7910291509203
 30
0.0
 10
123.4119330203623
 20
-150.0366644590186
 30
0.0
 10
123.0798258155842
 20
-150.0745605093564
 30
0.0
 10
123.0798258155842
 20
-150.0745605093564
 30
0.0
 10
123.0798258155842
 20
-149.8609645892709
 30
0.0
 10
123.0798258155842
 20
-149.8609645892709
 30
0.0
 10
123.1390814579305
 20
-149.8502847932666
 30
0.0
 10
123.2872205637963
 20
-149.8185899148023
 30
0.0
 10
123.2872205637963
 20
-149.6156737907211
 30
0.0
 10
123.2872205637963
 20
-149.3235296935719
 30
0.0
 10
122.9571804163093
 20
-149.2856336432341
 30
0.0
 10
122.752197234937
 20
-149.2728867899387
 30
0.0
 10
122.8321234501948
 20
-149.3638373107493
 30
0.0
 10
122.8893120352499
 20
-149.4313611822602
 30
0.0
 10
122.8893120352499
 20
-149.6132622238814
 30
0.0
 10
122.8893120352499
 20
-149.7930962082115
 30
0.0
 10
122.7838921134013
 20
-150.0959201013649
 30
0.0
 10
122.3773708461418
 20
-150.0959201013649
 30
0.0
 10
122.0580104946591
 20
-150.0959201013649
 30
0.0
 10
121.8378688931517
 20
-149.8967935823175
 30
0.0
 10
121.8378688931517
 20
-149.579500288126
 30
0.0
 10
121.8378688931517
 20
-149.0654920417267
 30
0.0
 10
122.3925292662769
 20
-149.0548122457224
 30
0.0
 10
122.6061251863624
 20
-149.0548122457224
 30
0.0
 10
122.8366020743256
 20
-149.0548122457224
 30
0.0
 10
123.4818684587129
 20
-149.0741047804398
 30
0.0
 10
123.4818684587129
 20
-149.6177408480122
 30
0.0
  0
SPLINE
  5
103
330
FE
100
AcDbEntity
  8
_U+30EC_U+30A4_U+30E4_U+30FC 1
370
     0
100
AcDbSpline
210
0.0
220
0.0
230
1.0
 70
    11
 71
     3
 72
    17
 73
    13
 74
     0
 42
0.0000000001
 43
0.0000000001
 12
1.0
 22
0.0
 32
0.0
 13
1.0
 23
0.0
 33
0.0
 40
0.0
 40
0.0
 40
0.0
 40
0.0
 40
1.0
 40
1.0
 40
1.0
 40
2.0
 40
2.0
 40
2.0
 40
3.0
 40
3.0
 40
3.0
 40
4.0
 40
4.0
 40
4.0
 40
4.0
 10
122.0307942403256
 20
-149.5774332308348
 30
0.0
 10
122.0307942403256
 20
-149.6959445155274
 30
0.0
 10
122.0876383158323
 20
-149.8716443852751
 30
0.0
 10
122.3732367315595
 20
-149.8716443852751
 30
0.0
 10
122.5995795049404
 20
-149.8716443852751
 30
0.0
 10
122.6950086498818
 20
-149.731773508574
 30
0.0
 10
122.6950086498818
 20
-149.5963812560037
 30
0.0
 10
122.6950086498818
 20
-149.3342094895762
 30
0.0
 10
122.4855468443786
 20
-149.2959689296899
 30
0.0
 10
122.3691026169772
 20
-149.2959689296899
 30
0.0
 10
122.1934027472294
 20
-149.2959689296899
 30
0.0
 10
122.0307942403256
 20
-149.3913980746313
 30
0.0
 10
122.0307942403256
 20
-149.5774332308348
 30
0.0
  0
HATCH
  5
104
330
FE
100
AcDbEntity
  8
_U+30EC_U+30A4_U+30E4_U+30FC 1
 62
   179
420
  2234388
100
AcDbHatch
 10
0.0
 20
0.0
 30
0.0
210
0.0
220
0.0
230
1.0
  2
SOLID
 70
     1
 71
     0
 91
        2
 92
        1
 93
        1
 72
     4
 94
        3
 73
     0
 74
     1
 95
       32
 96
       28
 40
0.0
 40
0.0
 40
0.0
 40
0.0
 40
1.0
 40
1.0
 40
1.0
 40
2.0
 40
2.0
 40
2.0
 40
3.0
 40
3.0
 40
3.0
 40
4.0
 40
4.0
 40
4.0
 40
5.0
 40
5.0
 40
5.0
 40
6.0
 40
6.0
 40
6.0
 40
7.0
 40
7.0
 40
7.0
 40
8.0
 40
8.0
 40
8.0
 40
9.0
 40
9.0
 40
9.0
 40
9.0
 10
123.4818684587129
 20
-149.6177408480122
 10
123.4818684587129
 20
-149.7910291509203
 10
123.4119330203623
 20
-150.0366644590186
 10
123.0798258155842
 20
-150.0745605093564
 10
123.0798258155842
 20
-150.0745605093564
 10
123.0798258155842
 20
-149.8609645892709
 10
123.0798258155842
 20
-149.8609645892709
 10
123.1390814579305
 20
-149.8502847932666
 10
123.2872205637963
 20
-149.8185899148023
 10
123.2872205637963
 20
-149.6156737907211
 10
123.2872205637963
 20
-149.3235296935719
 10
122.9571804163093
 20
-149.2856336432341
 10
122.752197234937
 20
-149.2728867899387
 10
122.8321234501948
 20
-149.3638373107493
 10
122.8893120352499
 20
-149.4313611822602
 10
122.8893120352499
 20
-149.6132622238814
 10
122.8893120352499
 20
-149.7930962082115
 10
122.7838921134013
 20
-150.0959201013649
 10
122.3773708461418
 20
-150.0959201013649
 10
122.0580104946591
 20
-150.0959201013649
 10
121.8378688931517
 20
-149.8967935823175
 10
121.8378688931517
 20
-149.579500288126
 10
121.8378688931517
 20
-149.0654920417267
 10
122.3925292662769
 20
-149.0548122457224
 10
122.6061251863624
 20
-149.0548122457224
 10
122.8366020743256
 20
-149.0548122457224
 10
123.4818684587129
 20
-149.0741047804398
 10
123.4818684587129
 20
-149.6177408480122
 97
        0
 97
        0
 92
        1
 93
        1
 72
     4
 94
        3
 73
     0
 74
     1
 95
       17
 96
       13
 40
0.0
 40
0.0
 40
0.0
 40
0.0
 40
1.0
 40
1.0
 40
1.0
 40
2.0
 40
2.0
 40
2.0
 40
3.0
 40
3.0
 40
3.0
 40
4.0
 40
4.0
 40
4.0
 40
4.0
 10
122.0307942403256
 20
-149.5774332308348
 10
122.0307942403256
 20
-149.6959445155274
 10
122.0876383158323
 20
-149.8716443852751
 10
122.3732367315595
 20
-149.8716443852751
 10
122.5995795049404
 20
-149.8716443852751
 10
122.6950086498818
 20
-149.731773508574
 10
122.6950086498818
 20
-149.5963812560037
 10
122.6950086498818
 20
-149.3342094895762
 10
122.4855468443786
 20
-149.2959689296899
 10
122.3691026169772
 20
-149.2959689296899
 10
122.1934027472294
 20
-149.2959689296899
 10
122.0307942403256
 20
-149.3913980746313
 10
122.0307942403256
 20
-149.5774332308348
 97
        0
 97
        0
 75
     2
 76
     1
 98
        0
  0
POLYLINE
  5
105
330
FE
100
AcDbEntity
  8
_U+30EC_U+30A4_U+30E4_U+30FC 1
370
     0
100
AcDb2dPolyline
 66
     1
 10
0.0
 20
0.0
 30
0.0
  0
VERTEX
  5
106
330
105
100
AcDbEntity
  8
_U+30EC_U+30A4_U+30E4_U+30FC 1
370
     0
100
AcDbVertex
100
AcDb2dVertex
 10
123.4308810455312
 20
-148.8384602492487
 30
0.0
  0
VERTEX
  5
107
330
105
100
AcDbEntity
  8
_U+30EC_U+30A4_U+30E4_U+30FC 1
370
     0
100
AcDbVertex
100
AcDb2dVertex
 10
123.1793890751079
 20
-148.8384602492487
 30
0.0
  0
VERTEX
  5
108
330
105
100
AcDbEntity
  8
_U+30EC_U+30A4_U+30E4_U+30FC 1
370
     0
100
AcDbVertex
100
AcDb2dVertex
 10
123.1793890751079
 20
-148.586623769277
 30
0.0
  0
VERTEX
  5
109
330
105
100
AcDbEntity
  8
_U+30EC_U+30A4_U+30E4_U+30FC 1
370
     0
100
AcDbVertex
100
AcDb2dVertex
 10
123.4308810455312
 20
-148.586623769277
 30
0.0
  0
VERTEX
  5
10A
330
105
100
AcDbEntity
  8
_U+30EC_U+30A4_U+30E4_U+30FC 1
370
     0
100
AcDbVertex
100
AcDb2dVertex
 10
123.4308810455312
 20
-148.8384602492487
 30
0.0
  0
SEQEND
  5
10B
330
105
100
AcDbEntity
  8
_U+30EC_U+30A4_U+30E4_U+30FC 1
370
     0
  0
HATCH
  5
10C
330
FE
100
AcDbEntity
  8
_U+30EC_U+30A4_U+30E4_U+30FC 1
 62
   179
420
  2234388
100
AcDbHatch
 10
0.0
 20
0.0
 30
0.0
210
0.0
220
0.0
230
1.0
  2
SOLID
 70
     1
 71
     0
 91
        1
 92
        1
 93
        4
 72
     1
 10
123.4308810455312
 20
-148.8384602492487
 11
123.1793890751079
 21
-148.8384602492487
 72
     1
 10
123.1793890751079
 20
-148.8384602492487
 11
123.1793890751079
 21
-148.586623769277
 72
     1
 10
123.1793890751079
 20
-148.586623769277
 11
123.4308810455312
 21
-148.586623769277
 72
     1
 10
123.4308810455312
 20
-148.586623769277
 11
123.4308810455312
 21
-148.8384602492487
 97
        0
 75
     2
 76
     1
 98
        0
  0
SPLINE
  5
10D
330
FE
100
AcDbEntity
  8
_U+30EC_U+30A4_U+30E4_U+30FC 1
370
     0
100
AcDbSpline
210
0.0
220
0.0
230
1.0
 70
    11
 71
     3
 72
    53
 73
    49
 74
     0
 42
0.0000000001
 43
0.0000000001
 12
1.0
 22
0.0
 32
0.0
 13
1.0
 23
0.0
 33
0.0
 40
0.0
 40
0.0
 40
0.0
 40
0.0
 40
1.0
 40
1.0
 40
1.0
 40
2.0
 40
2.0
 40
2.0
 40
3.0
 40
3.0
 40
3.0
 40
4.0
 40
4.0
 40
4.0
 40
5.0
 40
5.0
 40
5.0
 40
6.0
 40
6.0
 40
6.0
 40
7.0
 40
7.0
 40
7.0
 40
8.0
 40
8.0
 40
8.0
 40
9.0
 40
9.0
 40
9.0
 40
10.0
 40
10.0
 40
10.0
 40
11.0
 40
11.0
 40
11.0
 40
12.0
 40
12.0
 40
12.0
 40
13.0
 40
13.0
 40
13.0
 40
14.0
 40
14.0
 40
14.0
 40
15.0
 40
15.0
 40
15.0
 40
16.0
 40
16.0
 40
16.0
 40
16.0
 10
123.4818684587129
 20
-147.8693548892479
 30
0.0
 10
123.4818684587129
 20
-147.9475585567631
 30
0.0
 10
123.4646429812866
 20
-148.049188873578
 30
0.0
 10
123.401253224358
 20
-148.1508191903929
 30
0.0
 10
123.2913546783786
 20
-148.3241074933009
 30
0.0
 10
123.1600965403905
 20
-148.3454670853095
 30
0.0
 10
123.0526095612507
 20
-148.3644151104783
 30
0.0
 10
123.0526095612507
 20
-148.3644151104783
 30
0.0
 10
123.0526095612507
 20
-148.1422064516797
 30
0.0
 10
123.0526095612507
 20
-148.1422064516797
 30
0.0
 10
123.2510470612011
 20
-148.0874294334643
 30
0.0
 10
123.2806748823743
 20
-147.9603054100585
 30
0.0
 10
123.2806748823743
 20
-147.8672878319568
 30
0.0
 10
123.2806748823743
 20
-147.7277614648042
 30
0.0
 10
123.1814561323991
 20
-147.5754882443561
 30
0.0
 10
122.9485676775962
 20
-147.5754882443561
 30
0.0
 10
122.6929415925907
 20
-147.5754882443561
 30
0.0
 10
122.6230061542401
 20
-147.7553222286862
 30
0.0
 10
122.6230061542401
 20
-147.8759005706699
 30
0.0
 10
122.6230061542401
 20
-147.9075954491342
 30
0.0
 10
122.6230061542401
 20
-148.049188873578
 30
0.0
 10
122.752197234937
 20
-148.1380723370974
 30
0.0
 10
122.752197234937
 20
-148.1380723370974
 30
0.0
 10
122.7329047002196
 20
-148.3137722068452
 30
0.0
 10
122.7329047002196
 20
-148.3137722068452
 30
0.0
 10
122.7329047002196
 20
-148.3137722068452
 30
0.0
 10
121.8867892490422
 20
-148.1931938648614
 30
0.0
 10
121.8867892490422
 20
-148.1931938648614
 30
0.0
 10
121.8867892490422
 20
-148.1931938648614
 30
0.0
 10
121.8867892490422
 20
-147.414602285195
 30
0.0
 10
121.8867892490422
 20
-147.414602285195
 30
0.0
 10
121.8867892490422
 20
-147.414602285195
 30
0.0
 10
122.0814371439588
 20
-147.414602285195
 30
0.0
 10
122.0814371439588
 20
-147.414602285195
 30
0.0
 10
122.0814371439588
 20
-147.414602285195
 30
0.0
 10
122.0814371439588
 20
-148.0302408484091
 30
0.0
 10
122.0814371439588
 20
-148.0302408484091
 30
0.0
 10
122.0814371439588
 20
-148.0302408484091
 30
0.0
 10
122.5044948695475
 20
-148.0956976626289
 30
0.0
 10
122.5044948695475
 20
-148.0956976626289
 30
0.0
 10
122.4703884242435
 20
-148.0343749629914
 30
0.0
 10
122.4304253166146
 20
-147.9520371808939
 30
0.0
 10
122.4304253166146
 20
-147.8335258962013
 30
0.0
 10
122.4304253166146
 20
-147.5796223589384
 30
0.0
 10
122.6164604728181
 20
-147.3425997895532
 30
0.0
 10
122.9296196524273
 20
-147.3425997895532
 30
0.0
 10
123.2469129466188
 20
-147.3425997895532
 30
0.0
 10
123.4818684587129
 20
-147.566875505643
 30
0.0
 10
123.4818684587129
 20
-147.8693548892479
 30
0.0
  0
HATCH
  5
10E
330
FE
100
AcDbEntity
  8
_U+30EC_U+30A4_U+30E4_U+30FC 1
 62
   179
420
  2234388
100
AcDbHatch
 10
0.0
 20
0.0
 30
0.0
210
0.0
220
0.0
230
1.0
  2
SOLID
 70
     1
 71
     0
 91
        1
 92
        1
 93
        1
 72
     4
 94
        3
 73
     0
 74
     1
 95
       53
 96
       49
 40
0.0
 40
0.0
 40
0.0
 40
0.0
 40
1.0
 40
1.0
 40
1.0
 40
2.0
 40
2.0
 40
2.0
 40
3.0
 40
3.0
 40
3.0
 40
4.0
 40
4.0
 40
4.0
 40
5.0
 40
5.0
 40
5.0
 40
6.0
 40
6.0
 40
6.0
 40
7.0
 40
7.0
 40
7.0
 40
8.0
 40
8.0
 40
8.0
 40
9.0
 40
9.0
 40
9.0
 40
10.0
 40
10.0
 40
10.0
 40
11.0
 40
11.0
 40
11.0
 40
12.0
 40
12.0
 40
12.0
 40
13.0
 40
13.0
 40
13.0
 40
14.0
 40
14.0
 40
14.0
 40
15.0
 40
15.0
 40
15.0
 40
16.0
 40
16.0
 40
16.0
 40
16.0
 10
123.4818684587129
 20
-147.8693548892479
 10
123.4818684587129
 20
-147.9475585567631
 10
123.4646429812866
 20
-148.049188873578
 10
123.401253224358
 20
-148.1508191903929
 10
123.2913546783786
 20
-148.3241074933009
 10
123.1600965403905
 20
-148.3454670853095
 10
123.0526095612507
 20
-148.3644151104783
 10
123.0526095612507
 20
-148.3644151104783
 10
123.0526095612507
 20
-148.1422064516797
 10
123.0526095612507
 20
-148.1422064516797
 10
123.2510470612011
 20
-148.0874294334643
 10
123.2806748823743
 20
-147.9603054100585
 10
123.2806748823743
 20
-147.8672878319568
 10
123.2806748823743
 20
-147.7277614648042
 10
123.1814561323991
 20
-147.5754882443561
 10
122.9485676775962
 20
-147.5754882443561
 10
122.6929415925907
 20
-147.5754882443561
 10
122.6230061542401
 20
-147.7553222286862
 10
122.6230061542401
 20
-147.8759005706699
 10
122.6230061542401
 20
-147.9075954491342
 10
122.6230061542401
 20
-148.049188873578
 10
122.752197234937
 20
-148.1380723370974
 10
122.752197234937
 20
-148.1380723370974
 10
122.7329047002196
 20
-148.3137722068452
 10
122.7329047002196
 20
-148.3137722068452
 10
122.7329047002196
 20
-148.3137722068452
 10
121.8867892490422
 20
-148.1931938648614
 10
121.8867892490422
 20
-148.1931938648614
 10
121.8867892490422
 20
-148.1931938648614
 10
121.8867892490422
 20
-147.414602285195
 10
121.8867892490422
 20
-147.414602285195
 10
121.8867892490422
 20
-147.414602285195
 10
122.0814371439588
 20
-147.414602285195
 10
122.0814371439588
 20
-147.414602285195
 10
122.0814371439588
 20
-147.414602285195
 10
122.0814371439588
 20
-148.0302408484091
 10
122.0814371439588
 20
-148.0302408484091
 10
122.0814371439588
 20
-148.0302408484091
 10
122.5044948695475
 20
-148.0956976626289
 10
122.5044948695475
 20
-148.0956976626289
 10
122.4703884242435
 20
-148.0343749629914
 10
122.4304253166146
 20
-147.9520371808939
 10
122.4304253166146
 20
-147.8335258962013
 10
122.4304253166146
 20
-147.5796223589384
 10
122.6164604728181
 20
-147.3425997895532
 10
122.9296196524273
 20
-147.3425997895532
 10
123.2469129466188
 20
-147.3425997895532
 10
123.4818684587129
 20
-147.566875505643
 10
123.4818684587129
 20
-147.8693548892479
 97
        0
 97
        0
 75
     2
 76
     1
 98
        0
  0
ENDBLK
  5
101
330
FE
100
AcDbEntity
  8
0
100
AcDbBlockEnd
  0
ENDSEC
  0
SECTION
  2
ENTITIES
  0
POLYLINE
  5
41
330
1F
100
AcDbEntity
  8
_U+30EC_U+30A4_U+30E4_U+30FC 1
370
     0
100
AcDb2dPolyline
 66
     1
 10
0.0
 20
0.0
 30
0.0
  0
VERTEX
  5
42
330
41
100
AcDbEntity
  8
_U+30EC_U+30A4_U+30E4_U+30FC 1
370
     0
100
AcDbVertex
100
AcDb2dVertex
 10
85.46521824713413
 20
-142.9951692011761
 30
0.0
  0
VERTEX
  5
43
330
41
100
AcDbEntity
  8
_U+30EC_U+30A4_U+30E4_U+30FC 1
370
     0
100
AcDbVertex
100
AcDb2dVertex
 10
85.46521824713413
 20
-143.9102942212927
 30
0.0
  0
VERTEX
  5
44
330
41
100
AcDbEntity
  8
_U+30EC_U+30A4_U+30E4_U+30FC 1
370
     0
100
AcDbVertex
100
AcDb2dVertex
 10
97.36335073792077
 20
-143.9102942212927
 30
0.0
  0
VERTEX
  5
45
330
41
100
AcDbEntity
  8
_U+30EC_U+30A4_U+30E4_U+30FC 1
370
     0
100
AcDbVertex
100
AcDb2dVertex
 10
97.36335073792077
 20
-156.5393683148148
 30
0.0
  0
VERTEX
  5
46
330
41
100
AcDbEntity
  8
_U+30EC_U+30A4_U+30E4_U+30FC 1
370
     0
100
AcDbVertex
100
AcDb2dVertex
 10
107.5748506065156
 20
-156.5393683148148
 30
0.0
  0
VERTEX
  5
47
330
41
100
AcDbEntity
  8
_U+30EC_U+30A4_U+30E4_U+30FC 1
370
     0
100
AcDbVertex
100
AcDb2dVertex
 10
107.5748506065156
 20
-153.5746267994427
 30
0.0
  0
VERTEX
  5
48
330
41
100
AcDbEntity
  8
_U+30EC_U+30A4_U+30E4_U+30FC 1
370
     0
100
AcDbVertex
100
AcDb2dVertex
 10
106.5500315929643
 20
-153.5746267994427
 30
0.0
  0
VERTEX
  5
49
330
41
100
AcDbEntity
  8
_U+30EC_U+30A4_U+30E4_U+30FC 1
370
     0
100
AcDbVertex
100
AcDb2dVertex
 10
106.5500315929643
 20
-155.5879406010227
 30
0.0
  0
VERTEX
  5
4A
330
41
100
AcDbEntity
  8
_U+30EC_U+30A4_U+30E4_U+30FC 1
370
     0
100
AcDbVertex
100
AcDb2dVertex
 10
98.38816975147175
 20
-155.5879406010227
 30
0.0
  0
VERTEX
  5
4B
330
41
100
AcDbEntity
  8
_U+30EC_U+30A4_U+30E4_U+30FC 1
370
     0
100
AcDbVertex
100
AcDb2dVertex
 10
98.38816975147175
 20
-143.9473289977591
 30
0.0
  0
VERTEX
  5
4C
330
41
100
AcDbEntity
  8
_U+30EC_U+30A4_U+30E4_U+30FC 1
370
     0
100
AcDbVertex
100
AcDb2dVertex
 10
120.5680174632119
 20
-143.9473289977591
 30
0.0
  0
VERTEX
  5
4D
330
41
100
AcDbEntity
  8
_U+30EC_U+30A4_U+30E4_U+30FC 1
370
     0
100
AcDbVertex
100
AcDb2dVertex
 10
120.5680174632119
 20
-142.9585004661053
 30
0.0
  0
VERTEX
  5
4E
330
41
100
AcDbEntity
  8
_U+30EC_U+30A4_U+30E4_U+30FC 1
370
     0
100
AcDbVertex
100
AcDb2dVertex
 10
85.46521824713413
 20
-142.9951692011761
 30
0.0
  0
SEQEND
  5
50
330
41
100
AcDbEntity
  8
_U+30EC_U+30A4_U+30E4_U+30FC 1
370
     0
  0
HATCH
  5
4F
330
1F
100
AcDbEntity
  8
_U+30EC_U+30A4_U+30E4_U+30FC 1
 62
     9
420
 13224394
100
AcDbHatch
 10
0.0
 20
0.0
 30
0.0
210
0.0
220
0.0
230
1.0
  2
SOLID
 70
     1
 71
     0
 91
        1
 92
        1
 93
       12
 72
     1
 10
85.46521824713413
 20
-142.9951692011761
 11
85.46521824713413
 21
-143.9102942212927
 72
     1
 10
85.46521824713413
 20
-143.9102942212927
 11
97.36335073792077
 21
-143.9102942212927
 72
     1
 10
97.36335073792077
 20
-143.9102942212927
 11
97.36335073792077
 21
-156.5393683148148
 72
     1
 10
97.36335073792077
 20
-156.5393683148148
 11
107.5748506065156
 21
-156.5393683148148
 72
     1
 10
107.5748506065156
 20
-156.5393683148148
 11
107.5748506065156
 21
-153.5746267994427
 72
     1
 10
107.5748506065156
 20
-153.5746267994427
 11
106.5500315929643
 21
-153.5746267994427
 72
     1
 10
106.5500315929643
 20
-153.5746267994427
 11
106.5500315929643
 21
-155.5879406010227
 72
     1
 10
106.5500315929643
 20
-155.5879406010227
 11
98.38816975147175
 21
-155.5879406010227
 72
     1
 10
98.38816975147175
 20
-155.5879406010227
 11
98.38816975147175
 21
-143.9473289977591
 72
     1
 10
98.38816975147175
 20
-143.9473289977591
 11
120.5680174632119
 21
-143.9473289977591
 72
     1
 10
120.5680174632119
 20
-143.9473289977591
 11
120.5680174632119
 21
-142.9585004661053
 72
     1
 10
120.5680174632119
 20
-142.9585004661053
 11
85.46521824713413
 21
-142.9951692011761
 97
        0
 75
     2
 76
     1
 98
        0
  0
POLYLINE
  5
51
330
1F
100
AcDbEntity
  8
_U+30EC_U+30A4_U+30E4_U+30FC 1
 62
     9
420
 13224394
370
     9
100
AcDb2dPolyline
 66
     1
 10
0.0
 20
0.0
 30
0.0
  0
VERTEX
  5
52
330
51
100
AcDbEntity
  8
_U+30EC_U+30A4_U+30E4_U+30FC 1
 62
     9
420
 13224394
370
     9
100
AcDbVertex
100
AcDb2dVertex
 10
85.46521824713413
 20
-142.9951692011761
 30
0.0
  0
VERTEX
  5
53
330
51
100
AcDbEntity
  8
_U+30EC_U+30A4_U+30E4_U+30FC 1
 62
     9
420
 13224394
370
     9
100
AcDbVertex
100
AcDb2dVertex
 10
85.46521824713413
 20
-143.9102942212927
 30
0.0
  0
VERTEX
  5
54
330
51
100
AcDbEntity
  8
_U+30EC_U+30A4_U+30E4_U+30FC 1
 62
     9
420
 13224394
370
     9
100
AcDbVertex
100
AcDb2dVertex
 10
97.36335073792077
 20
-143.9102942212927
 30
0.0
  0
VERTEX
  5
55
330
51
100
AcDbEntity
  8
_U+30EC_U+30A4_U+30E4_U+30FC 1
 62
     9
420
 13224394
370
     9
100
AcDbVertex
100
AcDb2dVertex
 10
97.36335073792077
 20
-156.5393683148148
 30
0.0
  0
VERTEX
  5
56
330
51
100
AcDbEntity
  8
_U+30EC_U+30A4_U+30E4_U+30FC 1
 62
     9
420
 13224394
370
     9
100
AcDbVertex
100
AcDb2dVertex
 10
107.5748506065156
 20
-156.5393683148148
 30
0.0
  0
VERTEX
  5
57
330
51
100
AcDbEntity
  8
_U+30EC_U+30A4_U+30E4_U+30FC 1
 62
     9
420
 13224394
370
     9
100
AcDbVertex
100
AcDb2dVertex
 10
107.5748506065156
 20
-153.5746267994427
 30
0.0
  0
VERTEX
  5
58
330
51
100
AcDbEntity
  8
_U+30EC_U+30A4_U+30E4_U+30FC 1
 62
     9
420
 13224394
370
     9
100
AcDbVertex
100
AcDb2dVertex
 10
106.5500315929643
 20
-153.5746267994427
 30
0.0
  0
VERTEX
  5
59
330
51
100
AcDbEntity
  8
_U+30EC_U+30A4_U+30E4_U+30FC 1
 62
     9
420
 13224394
370
     9
100
AcDbVertex
100
AcDb2dVertex
 10
106.5500315929643
 20
-155.5879406010227
 30
0.0
  0
VERTEX
  5
5A
330
51
100
AcDbEntity
  8
_U+30EC_U+30A4_U+30E4_U+30FC 1
 62
     9
420
 13224394
370
     9
100
AcDbVertex
100
AcDb2dVertex
 10
98.38816975147175
 20
-155.5879406010227
 30
0.0
  0
VERTEX
  5
5B
330
51
100
AcDbEntity
  8
_U+30EC_U+30A4_U+30E4_U+30FC 1
 62
     9
420
 13224394
370
     9
100
AcDbVertex
100
AcDb2dVertex
 10
98.38816975147175
 20
-143.9473289977591
 30
0.0
  0
VERTEX
  5
5C
330
51
100
AcDbEntity
  8
_U+30EC_U+30A4_U+30E4_U+30FC 1
 62
     9
420
 13224394
370
     9
100
AcDbVertex
100
AcDb2dVertex
 10
120.5680174632119
 20
-143.9473289977591
 30
0.0
  0
VERTEX
  5
5D
330
51
100
AcDbEntity
  8
_U+30EC_U+30A4_U+30E4_U+30FC 1
 62
     9
420
 13224394
370
     9
100
AcDbVertex
100
AcDb2dVertex
 10
120.5680174632119
 20
-142.9585004661053
 30
0.0
  0
VERTEX
  5
5E
330
51
100
AcDbEntity
  8
_U+30EC_U+30A4_U+30E4_U+30FC 1
 62
     9
420
 13224394
370
     9
100
AcDbVertex
100
AcDb2dVertex
 10
85.46521824713413
 20
-142.9951692011761
 30
0.0
  0
SEQEND
  5
5F
330
51
100
AcDbEntity
  8
_U+30EC_U+30A4_U+30E4_U+30FC 1
 62
     9
420
 13224394
370
     9
  0
POLYLINE
  5
60
330
1F
100
AcDbEntity
  8
_U+30EC_U+30A4_U+30E4_U+30FC 1
 62
   179
420
  2234388
370
    25
100
AcDb2dPolyline
 66
     1
 10
0.0
 20
0.0
 30
0.0
  0
VERTEX
  5
61
330
60
100
AcDbEntity
  8
_U+30EC_U+30A4_U+30E4_U+30FC 1
 62
   179
420
  2234388
370
    25
100
AcDbVertex
100
AcDb2dVertex
 10
85.47724378356233
 20
-142.9641633418089
 30
0.0
  0
VERTEX
  5
62
330
60
100
AcDbEntity
  8
_U+30EC_U+30A4_U+30E4_U+30FC 1
 62
   179
420
  2234388
370
    25
100
AcDbVertex
100
AcDb2dVertex
 10
120.4805551015802
 20
-142.9641633418089
 30
0.0
  0
SEQEND
  5
63
330
60
100
AcDbEntity
  8
_U+30EC_U+30A4_U+30E4_U+30FC 1
 62
   179
420
  2234388
370
    25
  0
POLYLINE
  5
64
330
1F
100
AcDbEntity
  8
_U+30EC_U+30A4_U+30E4_U+30FC 1
 62
   179
420
  2234388
370
    25
100
AcDb2dPolyline
 66
     1
 10
0.0
 20
0.0
 30
0.0
  0
VERTEX
  5
65
330
64
100
AcDbEntity
  8
_U+30EC_U+30A4_U+30E4_U+30FC 1
 62
   179
420
  2234388
370
    25
100
AcDbVertex
100
AcDb2dVertex
 10
85.47724378356233
 20
-143.9638869879348
 30
0.0
  0
VERTEX
  5
66
330
64
100
AcDbEntity
  8
_U+30EC_U+30A4_U+30E4_U+30FC 1
 62
   179
420
  2234388
370
    25
100
AcDbVertex
100
AcDb2dVertex
 10
97.48050551626572
 20
-143.9638869879348
 30
0.0
  0
SEQEND
  5
67
330
64
100
AcDbEntity
  8
_U+30EC_U+30A4_U+30E4_U+30FC 1
 62
   179
420
  2234388
370
    25
  0
POLYLINE
  5
68
330
1F
100
AcDbEntity
  8
_U+30EC_U+30A4_U+30E4_U+30FC 1
 62
   179
420
  2234388
370
    25
100
AcDb2dPolyline
 66
     1
 10
0.0
 20
0.0
 30
0.0
  0
VERTEX
  5
69
330
68
100
AcDbEntity
  8
_U+30EC_U+30A4_U+30E4_U+30FC 1
 62
   179
420
  2234388
370
    25
100
AcDbVertex
100
AcDb2dVertex
 10
120.5323176612461
 20
-143.9638869879348
 30
0.0
  0
VERTEX
  5
6A
330
68
100
AcDbEntity
  8
_U+30EC_U+30A4_U+30E4_U+30FC 1
 62
   179
420
  2234388
370
    25
100
AcDbVertex
100
AcDb2dVertex
 10
120.5323176612461
 20
-142.9641202781153
 30
0.0
  0
SEQEND
  5
6B
330
68
100
AcDbEntity
  8
_U+30EC_U+30A4_U+30E4_U+30FC 1
 62
   179
420
  2234388
370
    25
  0
POLYLINE
  5
6C
330
1F
100
AcDbEntity
  8
_U+30EC_U+30A4_U+30E4_U+30FC 1
 62
   179
420
  2234388
370
    25
100
AcDb2dPolyline
 66
     1
 10
0.0
 20
0.0
 30
0.0
  0
VERTEX
  5
6D
330
6C
100
AcDbEntity
  8
_U+30EC_U+30A4_U+30E4_U+30FC 1
 62
   179
420
  2234388
370
    25
100
AcDbVertex
100
AcDb2dVertex
 10
98.38068743471504
 20
-143.9638869879348
 30
0.0
  0
VERTEX
  5
6E
330
6C
100
AcDbEntity
  8
_U+30EC_U+30A4_U+30E4_U+30FC 1
 62
   179
420
  2234388
370
    25
100
AcDbVertex
100
AcDb2dVertex
 10
120.5323068953227
 20
-143.9638869879348
 30
0.0
  0
SEQEND
  5
6F
330
6C
100
AcDbEntity
  8
_U+30EC_U+30A4_U+30E4_U+30FC 1
 62
   179
420
  2234388
370
    25
  0
POLYLINE
  5
70
330
1F
100
AcDbEntity
  8
_U+30EC_U+30A4_U+30E4_U+30FC 1
 62
   179
420
  2234388
370
    25
100
AcDb2dPolyline
 66
     1
 10
0.0
 20
0.0
 30
0.0
  0
VERTEX
  5
71
330
70
100
AcDbEntity
  8
_U+30EC_U+30A4_U+30E4_U+30FC 1
 62
   179
420
  2234388
370
    25
100
AcDbVertex
100
AcDb2dVertex
 10
85.51791744213506
 20
-143.9638869879348
 30
0.0
  0
VERTEX
  5
72
330
70
100
AcDbEntity
  8
_U+30EC_U+30A4_U+30E4_U+30FC 1
 62
   179
420
  2234388
370
    25
100
AcDbVertex
100
AcDb2dVertex
 10
85.51791744213506
 20
-142.9641202781153
 30
0.0
  0
SEQEND
  5
73
330
70
100
AcDbEntity
  8
_U+30EC_U+30A4_U+30E4_U+30FC 1
 62
   179
420
  2234388
370
    25
  0
POLYLINE
  5
74
330
1F
100
AcDbEntity
  8
_U+30EC_U+30A4_U+30E4_U+30FC 1
 62
   179
420
  2234388
370
    25
100
AcDb2dPolyline
 66
     1
 10
0.0
 20
0.0
 30
0.0
  0
VERTEX
  5
75
330
74
100
AcDbEntity
  8
_U+30EC_U+30A4_U+30E4_U+30FC 1
 62
   179
420
  2234388
370
    25
100
AcDbVertex
100
AcDb2dVertex
 10
97.48050551626572
 20
-156.631546150892
 30
0.0
  0
VERTEX
  5
76
330
74
100
AcDbEntity
  8
_U+30EC_U+30A4_U+30E4_U+30FC 1
 62
   179
420
  2234388
370
    25
100
AcDbVertex
100
AcDb2dVertex
 10
97.48050551626572
 20
-143.9640161790155
 30
0.0
  0
SEQEND
  5
77
330
74
100
AcDbEntity
  8
_U+30EC_U+30A4_U+30E4_U+30FC 1
 62
   179
420
  2234388
370
    25
  0
POLYLINE
  5
78
330
1F
100
AcDbEntity
  8
_U+30EC_U+30A4_U+30E4_U+30FC 1
 62
   179
420
  2234388
370
    25
100
AcDb2dPolyline
 66
     1
 10
0.0
 20
0.0
 30
0.0
  0
VERTEX
  5
79
330
78
100
AcDbEntity
  8
_U+30EC_U+30A4_U+30E4_U+30FC 1
 62
   179
420
  2234388
370
    25
100
AcDbVertex
100
AcDb2dVertex
 10
97.48050551626572
 20
-156.631546150892
 30
0.0
  0
VERTEX
  5
7A
330
78
100
AcDbEntity
  8
_U+30EC_U+30A4_U+30E4_U+30FC 1
 62
   179
420
  2234388
370
    25
100
AcDbVertex
100
AcDb2dVertex
 10
107.4806918405343
 20
-156.631546150892
 30
0.0
  0
SEQEND
  5
7B
330
78
100
AcDbEntity
  8
_U+30EC_U+30A4_U+30E4_U+30FC 1
 62
   179
420
  2234388
370
    25
  0
POLYLINE
  5
7C
330
1F
100
AcDbEntity
  8
_U+30EC_U+30A4_U+30E4_U+30FC 1
 62
   179
420
  2234388
370
    25
100
AcDb2dPolyline
 66
     1
 10
0.0
 20
0.0
 30
0.0
  0
VERTEX
  5
7D
330
7C
100
AcDbEntity
  8
_U+30EC_U+30A4_U+30E4_U+30FC 1
 62
   179
420
  2234388
370
    25
100
AcDbVertex
100
AcDb2dVertex
 10
98.38068743471504
 20
-155.6319516958468
 30
0.0
  0
VERTEX
  5
7E
330
7C
100
AcDbEntity
  8
_U+30EC_U+30A4_U+30E4_U+30FC 1
 62
   179
420
  2234388
370
    25
100
AcDbVertex
100
AcDb2dVertex
 10
106.5707667614161
 20
-155.6319516958468
 30
0.0
  0
SEQEND
  5
7F
330
7C
100
AcDbEntity
  8
_U+30EC_U+30A4_U+30E4_U+30FC 1
 62
   179
420
  2234388
370
    25
  0
POLYLINE
  5
80
330
1F
100
AcDbEntity
  8
_U+30EC_U+30A4_U+30E4_U+30FC 1
 62
   179
420
  2234388
370
    25
100
AcDb2dPolyline
 66
     1
 10
0.0
 20
0.0
 30
0.0
  0
VERTEX
  5
81
330
80
100
AcDbEntity
  8
_U+30EC_U+30A4_U+30E4_U+30FC 1
 62
   179
420
  2234388
370
    25
100
AcDbVertex
100
AcDb2dVertex
 10
106.5459082443054
 20
-153.6316861934172
 30
0.0
  0
VERTEX
  5
82
330
80
100
AcDbEntity
  8
_U+30EC_U+30A4_U+30E4_U+30FC 1
 62
   179
420
  2234388
370
    25
100
AcDbVertex
100
AcDb2dVertex
 10
107.5463855050687
 20
-153.6316861934172
 30
0.0
  0
SEQEND
  5
83
330
80
100
AcDbEntity
  8
_U+30EC_U+30A4_U+30E4_U+30FC 1
 62
   179
420
  2234388
370
    25
  0
POLYLINE
  5
84
330
1F
100
AcDbEntity
  8
_U+30EC_U+30A4_U+30E4_U+30FC 1
 62
   179
420
  2234388
370
    25
100
AcDb2dPolyline
 66
     1
 10
0.0
 20
0.0
 30
0.0
  0
VERTEX
  5
85
330
84
100
AcDbEntity
  8
_U+30EC_U+30A4_U+30E4_U+30FC 1
 62
   179
420
  2234388
370
    25
100
AcDbVertex
100
AcDb2dVertex
 10
107.5463855050687
 20
-156.631546150892
 30
0.0
  0
VERTEX
  5
86
330
84
100
AcDbEntity
  8
_U+30EC_U+30A4_U+30E4_U+30FC 1
 62
   179
420
  2234388
370
    25
100
AcDbVertex
100
AcDb2dVertex
 10
107.5463855050687
 20
-153.6318799800382
 30
0.0
  0
SEQEND
  5
87
330
84
100
AcDbEntity
  8
_U+30EC_U+30A4_U+30E4_U+30FC 1
 62
   179
420
  2234388
370
    25
  0
POLYLINE
  5
88
330
1F
100
AcDbEntity
  8
_U+30EC_U+30A4_U+30E4_U+30FC 1
 62
   179
420
  2234388
370
    25
100
AcDb2dPolyline
 66
     1
 10
0.0
 20
0.0
 30
0.0
  0
VERTEX
  5
89
330
88
100
AcDbEntity
  8
_U+30EC_U+30A4_U+30E4_U+30FC 1
 62
   179
420
  2234388
370
    25
100
AcDbVertex
100
AcDb2dVertex
 10
106.5459082443054
 20
-155.6319516958468
 30
0.0
  0
VERTEX
  5
8A
330
88
100
AcDbEntity
  8
_U+30EC_U+30A4_U+30E4_U+30FC 1
 62
   179
420
  2234388
370
    25
100
AcDbVertex
100
AcDb2dVertex
 10
106.5459082443054
 20
-153.631707725264
 30
0.0
  0
SEQEND
  5
8B
330
88
100
AcDbEntity
  8
_U+30EC_U+30A4_U+30E4_U+30FC 1
 62
   179
420
  2234388
370
    25
  0
POLYLINE
  5
8C
330
1F
100
AcDbEntity
  8
_U+30EC_U+30A4_U+30E4_U+30FC 1
 62
   179
420
  2234388
370
    25
100
AcDb2dPolyline
 66
     1
 10
0.0
 20
0.0
 30
0.0
  0
VERTEX
  5
8D
330
8C
100
AcDbEntity
  8
_U+30EC_U+30A4_U+30E4_U+30FC 1
 62
   179
420
  2234388
370
    25
100
AcDbVertex
100
AcDb2dVertex
 10
98.38068743471504
 20
-148.3409023337915
 30
0.0
  0
VERTEX
  5
8E
330
8C
100
AcDbEntity
  8
_U+30EC_U+30A4_U+30E4_U+30FC 1
 62
   179
420
  2234388
370
    25
100
AcDbVertex
100
AcDb2dVertex
 10
98.38068743471504
 20
-143.9639946471687
 30
0.0
  0
SEQEND
  5
8F
330
8C
100
AcDbEntity
  8
_U+30EC_U+30A4_U+30E4_U+30FC 1
 62
   179
420
  2234388
370
    25
  0
SPLINE
  5
90
330
1F
100
AcDbEntity
  8
_U+30EC_U+30A4_U+30E4_U+30FC 1
 62
   179
420
  2234388
370
     9
100
AcDbSpline
210
0.0
220
0.0
230
1.0
 70
    11
 71
     3
 72
    17
 73
    13
 74
     0
 42
0.0000000001
 43
0.0000000001
 12
1.0
 22
0.0
 32
0.0
 13
1.0
 23
0.0
 33
0.0
 40
0.0
 40
0.0
 40
0.0
 40
0.0
 40
1.0
 40
1.0
 40
1.0
 40
2.0
 40
2.0
 40
2.0
 40
3.0
 40
3.0
 40
3.0
 40
4.0
 40
4.0
 40
4.0
 40
4.0
 10
85.54546744009399
 20
-138.9637184643368
 30
0.0
 10
85.54546744009399
 20
-138.908704595807
 30
0.0
 10
85.50065966693865
 20
-138.8638968226516
 30
0.0
 10
85.44562426656178
 20
-138.8638968226516
 30
0.0
 10
85.39058886618491
 20
-138.8638968226516
 30
0.0
 10
85.34579185895326
 20
-138.908704595807
 30
0.0
 10
85.34579185895326
 20
-138.9637184643368
 30
0.0
 10
85.34579185895326
 20
-139.0194644156578
 30
0.0
 10
85.39058886618491
 20
-139.0642721888125
 30
0.0
 10
85.44562426656178
 20
-139.0642721888125
 30
0.0
 10
85.50065966693865
 20
-139.0642721888125
 30
0.0
 10
85.54546744009399
 20
-139.0194644156578
 30
0.0
 10
85.54546744009399
 20
-138.9637184643368
 30
0.0
  0
SPLINE
  5
91
330
1F
100
AcDbEntity
  8
_U+30EC_U+30A4_U+30E4_U+30FC 1
 62
   179
420
  2234388
370
     9
100
AcDbSpline
210
0.0
220
0.0
230
1.0
 70
    11
 71
     3
 72
    17
 73
    13
 74
     0
 42
0.0000000001
 43
0.0000000001
 12
1.0
 22
0.0
 32
0.0
 13
1.0
 23
0.0
 33
0.0
 40
0.0
 40
0.0
 40
0.0
 40
0.0
 40
1.0
 40
1.0
 40
1.0
 40
2.0
 40
2.0
 40
2.0
 40
3.0
 40
3.0
 40
3.0
 40
4.0
 40
4.0
 40
4.0
 40
4.0
 10
120.4489571164264
 20
-138.9637184643368
 30
0.0
 10
120.4489571164264
 20
-138.908704595807
 30
0.0
 10
120.4041493432714
 20
-138.8638968226516
 30
0.0
 10
120.3491139428945
 20
-138.8638968226516
 30
0.0
 10
120.2940785425176
 20
-138.8638968226516
 30
0.0
 10
120.249281535286
 20
-138.908704595807
 30
0.0
 10
120.249281535286
 20
-138.9637184643368
 30
0.0
 10
120.249281535286
 20
-139.0194644156578
 30
0.0
 10
120.2940785425176
 20
-139.0642721888125
 30
0.0
 10
120.3491139428945
 20
-139.0642721888125
 30
0.0
 10
120.4041493432714
 20
-139.0642721888125
 30
0.0
 10
120.4489571164264
 20
-139.0194644156578
 30
0.0
 10
120.4489571164264
 20
-138.9637184643368
 30
0.0
  0
SPLINE
  5
92
330
1F
100
AcDbEntity
  8
_U+30EC_U+30A4_U+30E4_U+30FC 1
 62
   179
420
  2234388
370
     9
100
AcDbSpline
210
0.0
220
0.0
230
1.0
 70
    11
 71
     3
 72
    17
 73
    13
 74
     0
 42
0.0000000001
 43
0.0000000001
 12
1.0
 22
0.0
 32
0.0
 13
1.0
 23
0.0
 33
0.0
 40
0.0
 40
0.0
 40
0.0
 40
0.0
 40
1.0
 40
1.0
 40
1.0
 40
2.0
 40
2.0
 40
2.0
 40
3.0
 40
3.0
 40
3.0
 40
4.0
 40
4.0
 40
4.0
 40
4.0
 10
124.6485285129459
 20
-142.9641633418089
 30
0.0
 10
124.6485285129459
 20
-142.9091494732791
 30
0.0
 10
124.6037207397909
 20
-142.8643417001238
 30
0.0
 10
124.548685339414
 20
-142.8643417001238
 30
0.0
 10
124.4936499390372
 20
-142.8643417001238
 30
0.0
 10
124.4488529318055
 20
-142.9091494732791
 30
0.0
 10
124.4488529318055
 20
-142.9641633418089
 30
0.0
 10
124.4488529318055
 20
-143.0191987421858
 30
0.0
 10
124.4936499390372
 20
-143.0640065153411
 30
0.0
 10
124.548685339414
 20
-143.0640065153411
 30
0.0
 10
124.6037207397909
 20
-143.0640065153411
 30
0.0
 10
124.6485285129459
 20
-143.0191987421858
 30
0.0
 10
124.6485285129459
 20
-142.9641633418089
 30
0.0
  0
SPLINE
  5
93
330
1F
100
AcDbEntity
  8
_U+30EC_U+30A4_U+30E4_U+30FC 1
 62
   179
420
  2234388
370
     9
100
AcDbSpline
210
0.0
220
0.0
230
1.0
 70
    11
 71
     3
 72
    17
 73
    13
 74
     0
 42
0.0000000001
 43
0.0000000001
 12
1.0
 22
0.0
 32
0.0
 13
1.0
 23
0.0
 33
0.0
 40
0.0
 40
0.0
 40
0.0
 40
0.0
 40
1.0
 40
1.0
 40
1.0
 40
2.0
 40
2.0
 40
2.0
 40
3.0
 40
3.0
 40
3.0
 40
4.0
 40
4.0
 40
4.0
 40
4.0
 10
124.6485285129459
 20
-143.9638869879348
 30
0.0
 10
124.6485285129459
 20
-143.9088731194047
 30
0.0
 10
124.6037207397909
 20
-143.8640653462497
 30
0.0
 10
124.548685339414
 20
-143.8640653462497
 30
0.0
 10
124.4936499390372
 20
-143.8640653462497
 30
0.0
 10
124.4488529318055
 20
-143.9088731194047
 30
0.0
 10
124.4488529318055
 20
-143.9638869879348
 30
0.0
 10
124.4488529318055
 20
-144.0189223883117
 30
0.0
 10
124.4936499390372
 20
-144.0637301614667
 30
0.0
 10
124.548685339414
 20
-144.0637301614667
 30
0.0
 10
124.6037207397909
 20
-144.0637301614667
 30
0.0
 10
124.6485285129459
 20
-144.0189223883117
 30
0.0
 10
124.6485285129459
 20
-143.9638869879348
 30
0.0
  0
SPLINE
  5
94
330
1F
100
AcDbEntity
  8
_U+30EC_U+30A4_U+30E4_U+30FC 1
 62
   179
420
  2234388
370
     9
100
AcDbSpline
210
0.0
220
0.0
230
1.0
 70
    11
 71
     3
 72
    17
 73
    13
 74
     0
 42
0.0000000001
 43
0.0000000001
 12
1.0
 22
0.0
 32
0.0
 13
1.0
 23
0.0
 33
0.0
 40
0.0
 40
0.0
 40
0.0
 40
0.0
 40
1.0
 40
1.0
 40
1.0
 40
2.0
 40
2.0
 40
2.0
 40
3.0
 40
3.0
 40
3.0
 40
4.0
 40
4.0
 40
4.0
 40
4.0
 10
97.58073626304004
 20
-160.8573002730995
 30
0.0
 10
97.58073626304004
 20
-160.8022864045694
 30
0.0
 10
97.53592848988468
 20
-160.7574786314144
 30
0.0
 10
97.4805378140359
 20
-160.7574786314144
 30
0.0
 10
97.42551317958242
 20
-160.7574786314144
 30
0.0
 10
97.3807054064274
 20
-160.8022864045694
 30
0.0
 10
97.3807054064274
 20
-160.8573002730995
 30
0.0
 10
97.3807054064274
 20
-160.9123356734763
 30
0.0
 10
97.42551317958242
 20
-160.9571434466314
 30
0.0
 10
97.4805378140359
 20
-160.9571434466314
 30
0.0
 10
97.53592848988468
 20
-160.9571434466314
 30
0.0
 10
97.58073626304004
 20
-160.9123356734763
 30
0.0
 10
97.58073626304004
 20
-160.8573002730995
 30
0.0
  0
SPLINE
  5
95
330
1F
100
AcDbEntity
  8
_U+30EC_U+30A4_U+30E4_U+30FC 1
 62
   179
420
  2234388
370
     9
100
AcDbSpline
210
0.0
220
0.0
230
1.0
 70
    11
 71
     3
 72
    17
 73
    13
 74
     0
 42
0.0000000001
 43
0.0000000001
 12
1.0
 22
0.0
 32
0.0
 13
1.0
 23
0.0
 33
0.0
 40
0.0
 40
0.0
 40
0.0
 40
0.0
 40
1.0
 40
1.0
 40
1.0
 40
2.0
 40
2.0
 40
2.0
 40
3.0
 40
3.0
 40
3.0
 40
4.0
 40
4.0
 40
4.0
 40
4.0
 10
107.731699344405
 20
-160.8573002730995
 30
0.0
 10
107.731699344405
 20
-160.8022864045694
 30
0.0
 10
107.6868915712499
 20
-160.7574786314144
 30
0.0
 10
107.6318561708731
 20
-160.7574786314144
 30
0.0
 10
107.5768207704962
 20
-160.7574786314144
 30
0.0
 10
107.5320237632646
 20
-160.8022864045694
 30
0.0
 10
107.5320237632646
 20
-160.8573002730995
 30
0.0
 10
107.5320237632646
 20
-160.9123356734763
 30
0.0
 10
107.5768207704962
 20
-160.9571434466314
 30
0.0
 10
107.6318561708731
 20
-160.9571434466314
 30
0.0
 10
107.6868915712499
 20
-160.9571434466314
 30
0.0
 10
107.731699344405
 20
-160.9123356734763
 30
0.0
 10
107.731699344405
 20
-160.8573002730995
 30
0.0
  0
SPLINE
  5
96
330
1F
100
AcDbEntity
  8
_U+30EC_U+30A4_U+30E4_U+30FC 1
 62
   179
420
  2234388
370
     9
100
AcDbSpline
210
0.0
220
0.0
230
1.0
 70
    11
 71
     3
 72
    17
 73
    13
 74
     0
 42
0.0000000001
 43
0.0000000001
 12
1.0
 22
0.0
 32
0.0
 13
1.0
 23
0.0
 33
0.0
 40
0.0
 40
0.0
 40
0.0
 40
0.0
 40
1.0
 40
1.0
 40
1.0
 40
2.0
 40
2.0
 40
2.0
 40
3.0
 40
3.0
 40
3.0
 40
4.0
 40
4.0
 40
4.0
 40
4.0
 10
85.6904951940993
 20
-160.8573002730995
 30
0.0
 10
85.6904951940993
 20
-160.8022864045694
 30
0.0
 10
85.64568742094427
 20
-160.7574786314144
 30
0.0
 10
85.5906520205674
 20
-160.7574786314144
 30
0.0
 10
85.53527211064201
 20
-160.7574786314144
 30
0.0
 10
85.49046433748698
 20
-160.8022864045694
 30
0.0
 10
85.49046433748698
 20
-160.8573002730995
 30
0.0
 10
85.49046433748698
 20
-160.9123356734763
 30
0.0
 10
85.53527211064201
 20
-160.9571434466314
 30
0.0
 10
85.5906520205674
 20
-160.9571434466314
 30
0.0
 10
85.64568742094427
 20
-160.9571434466314
 30
0.0
 10
85.6904951940993
 20
-160.9123356734763
 30
0.0
 10
85.6904951940993
 20
-160.8573002730995
 30
0.0
  0
POLYLINE
  5
97
330
1F
100
AcDbEntity
  8
_U+30EC_U+30A4_U+30E4_U+30FC 1
 62
   179
420
  2234388
370
     9
100
AcDb2dPolyline
 66
     1
 10
0.0
 20
0.0
 30
0.0
  0
VERTEX
  5
98
330
97
100
AcDbEntity
  8
_U+30EC_U+30A4_U+30E4_U+30FC 1
 62
   179
420
  2234388
370
     9
100
AcDbVertex
100
AcDb2dVertex
 10
97.48050551626572
 20
-160.8573002730995
 30
0.0
  0
VERTEX
  5
99
330
97
100
AcDbEntity
  8
_U+30EC_U+30A4_U+30E4_U+30FC 1
 62
   179
420
  2234388
370
     9
100
AcDbVertex
100
AcDb2dVertex
 10
107.4806918405343
 20
-160.8573002730995
 30
0.0
  0
SEQEND
  5
9A
330
97
100
AcDbEntity
  8
_U+30EC_U+30A4_U+30E4_U+30FC 1
 62
   179
420
  2234388
370
     9
  0
POLYLINE
  5
9B
330
1F
100
AcDbEntity
  8
_U+30EC_U+30A4_U+30E4_U+30FC 1
 62
   179
420
  2234388
370
     9
100
AcDb2dPolyline
 66
     1
 10
0.0
 20
0.0
 30
0.0
  0
VERTEX
  5
9C
330
9B
100
AcDbEntity
  8
_U+30EC_U+30A4_U+30E4_U+30FC 1
 62
   179
420
  2234388
370
     9
100
AcDbVertex
100
AcDb2dVertex
 10
107.6317915753327
 20
-159.3972042109102
 30
0.0
  0
VERTEX
  5
9D
330
9B
100
AcDbEntity
  8
_U+30EC_U+30A4_U+30E4_U+30FC 1
 62
   179
420
  2234388
370
     9
100
AcDbVertex
100
AcDb2dVertex
 10
107.6317915753327
 20
-161.8571315784593
 30
0.0
  0
SEQEND
  5
9E
330
9B
100
AcDbEntity
  8
_U+30EC_U+30A4_U+30E4_U+30FC 1
 62
   179
420
  2234388
370
     9
  0
INSERT
  5
A0
330
1F
100
AcDbEntity
  8
_U+30EC_U+30A4_U+30E4_U+30FC 1
100
AcDbBlockReference
  2
block 2
 10
0.0
 20
0.0
 30
0.0
  0
POLYLINE
  5
A8
330
1F
100
AcDbEntity
  8
_U+30EC_U+30A4_U+30E4_U+30FC 1
 62
   179
420
  2234388
370
     9
100
AcDb2dPolyline
 66
     1
 10
0.0
 20
0.0
 30
0.0
  0
VERTEX
  5
A9
330
A8
100
AcDbEntity
  8
_U+30EC_U+30A4_U+30E4_U+30FC 1
 62
   179
420
  2234388
370
     9
100
AcDbVertex
100
AcDb2dVertex
 10
124.5486207438737
 20
-142.9641633418089
 30
0.0
  0
VERTEX
  5
AA
330
A8
100
AcDbEntity
  8
_U+30EC_U+30A4_U+30E4_U+30FC 1
 62
   179
420
  2234388
370
     9
100
AcDbVertex
100
AcDb2dVertex
 10
124.5486207438737
 20
-139.1936785879772
 30
0.0
  0
SEQEND
  5
AB
330
A8
100
AcDbEntity
  8
_U+30EC_U+30A4_U+30E4_U+30FC 1
 62
   179
420
  2234388
370
     9
  0
POLYLINE
  5
AC
330
1F
100
AcDbEntity
  8
_U+30EC_U+30A4_U+30E4_U+30FC 1
 62
   179
420
  2234388
370
     9
100
AcDb2dPolyline
 66
     1
 10
0.0
 20
0.0
 30
0.0
  0
VERTEX
  5
AD
330
AC
100
AcDbEntity
  8
_U+30EC_U+30A4_U+30E4_U+30FC 1
 62
   179
420
  2234388
370
     9
100
AcDbVertex
100
AcDb2dVertex
 10
124.5486207438737
 20
-142.9641633418089
 30
0.0
  0
VERTEX
  5
AE
330
AC
100
AcDbEntity
  8
_U+30EC_U+30A4_U+30E4_U+30FC 1
 62
   179
420
  2234388
370
     9
100
AcDbVertex
100
AcDb2dVertex
 10
124.5486207438737
 20
-143.9639515834755
 30
0.0
  0
SEQEND
  5
AF
330
AC
100
AcDbEntity
  8
_U+30EC_U+30A4_U+30E4_U+30FC 1
 62
   179
420
  2234388
370
     9
  0
POLYLINE
  5
B0
330
1F
100
AcDbEntity
  8
_U+30EC_U+30A4_U+30E4_U+30FC 1
 62
   179
420
  2234388
370
     9
100
AcDb2dPolyline
 66
     1
 10
0.0
 20
0.0
 30
0.0
  0
VERTEX
  5
B1
330
B0
100
AcDbEntity
  8
_U+30EC_U+30A4_U+30E4_U+30FC 1
 62
   179
420
  2234388
370
     9
100
AcDbVertex
100
AcDb2dVertex
 10
123.0885785113014
 20
-142.9641633418089
 30
0.0
  0
VERTEX
  5
B2
330
B0
100
AcDbEntity
  8
_U+30EC_U+30A4_U+30E4_U+30FC 1
 62
   179
420
  2234388
370
     9
100
AcDbVertex
100
AcDb2dVertex
 10
125.5484951129271
 20
-142.9641633418089
 30
0.0
  0
SEQEND
  5
B3
330
B0
100
AcDbEntity
  8
_U+30EC_U+30A4_U+30E4_U+30FC 1
 62
   179
420
  2234388
370
     9
  0
POLYLINE
  5
B4
330
1F
100
AcDbEntity
  8
_U+30EC_U+30A4_U+30E4_U+30FC 1
 62
   179
420
  2234388
370
     9
100
AcDb2dPolyline
 66
     1
 10
0.0
 20
0.0
 30
0.0
  0
VERTEX
  5
B5
330
B4
100
AcDbEntity
  8
_U+30EC_U+30A4_U+30E4_U+30FC 1
 62
   179
420
  2234388
370
     9
100
AcDbVertex
100
AcDb2dVertex
 10
123.0885785113014
 20
-143.9638869879348
 30
0.0
  0
VERTEX
  5
B6
330
B4
100
AcDbEntity
  8
_U+30EC_U+30A4_U+30E4_U+30FC 1
 62
   179
420
  2234388
370
     9
100
AcDbVertex
100
AcDb2dVertex
 10
125.5484951129271
 20
-143.9638869879348
 30
0.0
  0
SEQEND
  5
B7
330
B4
100
AcDbEntity
  8
_U+30EC_U+30A4_U+30E4_U+30FC 1
 62
   179
420
  2234388
370
     9
  0
INSERT
  5
B9
330
1F
100
AcDbEntity
  8
_U+30EC_U+30A4_U+30E4_U+30FC 1
100
AcDbBlockReference
  2
block 3
 10
0.0
 20
0.0
 30
0.0
  0
POLYLINE
  5
BE
330
1F
100
AcDbEntity
  8
_U+30EC_U+30A4_U+30E4_U+30FC 1
 62
   179
420
  2234388
370
     9
100
AcDb2dPolyline
 66
     1
 10
0.0
 20
0.0
 30
0.0
  0
VERTEX
  5
BF
330
BE
100
AcDbEntity
  8
_U+30EC_U+30A4_U+30E4_U+30FC 1
 62
   179
420
  2234388
370
     9
100
AcDbVertex
100
AcDb2dVertex
 10
85.44555967102174
 20
-138.9637184643368
 30
0.0
  0
VERTEX
  5
C0
330
BE
100
AcDbEntity
  8
_U+30EC_U+30A4_U+30E4_U+30FC 1
 62
   179
420
  2234388
370
     9
100
AcDbVertex
100
AcDb2dVertex
 10
120.4488709890393
 20
-138.9637184643368
 30
0.0
  0
SEQEND
  5
C1
330
BE
100
AcDbEntity
  8
_U+30EC_U+30A4_U+30E4_U+30FC 1
 62
   179
420
  2234388
370
     9
  0
POLYLINE
  5
C2
330
1F
100
AcDbEntity
  8
_U+30EC_U+30A4_U+30E4_U+30FC 1
 62
   179
420
  2234388
370
     9
100
AcDb2dPolyline
 66
     1
 10
0.0
 20
0.0
 30
0.0
  0
VERTEX
  5
C3
330
C2
100
AcDbEntity
  8
_U+30EC_U+30A4_U+30E4_U+30FC 1
 62
   179
420
  2234388
370
     9
100
AcDbVertex
100
AcDb2dVertex
 10
85.44555967102174
 20
-140.4237283991389
 30
0.0
  0
VERTEX
  5
C4
330
C2
100
AcDbEntity
  8
_U+30EC_U+30A4_U+30E4_U+30FC 1
 62
   179
420
  2234388
370
     9
100
AcDbVertex
100
AcDb2dVertex
 10
85.44555967102174
 20
-137.9638225634366
 30
0.0
  0
SEQEND
  5
C5
330
C2
100
AcDbEntity
  8
_U+30EC_U+30A4_U+30E4_U+30FC 1
 62
   179
420
  2234388
370
     9
  0
POLYLINE
  5
C6
330
1F
100
AcDbEntity
  8
_U+30EC_U+30A4_U+30E4_U+30FC 1
 62
   179
420
  2234388
370
     9
100
AcDb2dPolyline
 66
     1
 10
0.0
 20
0.0
 30
0.0
  0
VERTEX
  5
C7
330
C6
100
AcDbEntity
  8
_U+30EC_U+30A4_U+30E4_U+30FC 1
 62
   179
420
  2234388
370
     9
100
AcDbVertex
100
AcDb2dVertex
 10
120.3490493473542
 20
-140.4237283991389
 30
0.0
  0
VERTEX
  5
C8
330
C6
100
AcDbEntity
  8
_U+30EC_U+30A4_U+30E4_U+30FC 1
 62
   179
420
  2234388
370
     9
100
AcDbVertex
100
AcDb2dVertex
 10
120.3490493473542
 20
-137.9638225634366
 30
0.0
  0
SEQEND
  5
C9
330
C6
100
AcDbEntity
  8
_U+30EC_U+30A4_U+30E4_U+30FC 1
 62
   179
420
  2234388
370
     9
  0
INSERT
  5
CB
330
1F
100
AcDbEntity
  8
_U+30EC_U+30A4_U+30E4_U+30FC 1
100
AcDbBlockReference
  2
block 4
 10
0.0
 20
0.0
 30
0.0
  0
POLYLINE
  5
D2
330
1F
100
AcDbEntity
  8
_U+30EC_U+30A4_U+30E4_U+30FC 1
 62
   179
420
  2234388
370
     9
100
AcDb2dPolyline
 66
     1
 10
0.0
 20
0.0
 30
0.0
  0
VERTEX
  5
D3
330
D2
100
AcDbEntity
  8
_U+30EC_U+30A4_U+30E4_U+30FC 1
 62
   179
420
  2234388
370
     9
100
AcDbVertex
100
AcDb2dVertex
 10
85.47724378356233
 20
-160.8573002730995
 30
0.0
  0
VERTEX
  5
D4
330
D2
100
AcDbEntity
  8
_U+30EC_U+30A4_U+30E4_U+30FC 1
 62
   179
420
  2234388
370
     9
100
AcDbVertex
100
AcDb2dVertex
 10
97.48050551626572
 20
-160.8573002730995
 30
0.0
  0
SEQEND
  5
D5
330
D2
100
AcDbEntity
  8
_U+30EC_U+30A4_U+30E4_U+30FC 1
 62
   179
420
  2234388
370
     9
  0
POLYLINE
  5
D6
330
1F
100
AcDbEntity
  8
_U+30EC_U+30A4_U+30E4_U+30FC 1
 62
   179
420
  2234388
370
     9
100
AcDb2dPolyline
 66
     1
 10
0.0
 20
0.0
 30
0.0
  0
VERTEX
  5
D7
330
D6
100
AcDbEntity
  8
_U+30EC_U+30A4_U+30E4_U+30FC 1
 62
   179
420
  2234388
370
     9
100
AcDbVertex
100
AcDb2dVertex
 10
85.59058742502705
 20
-146.5043434624516
 30
0.0
  0
VERTEX
  5
D8
330
D6
100
AcDbEntity
  8
_U+30EC_U+30A4_U+30E4_U+30FC 1
 62
   179
420
  2234388
370
     9
100
AcDbVertex
100
AcDb2dVertex
 10
85.59058742502705
 20
-161.8572392376932
 30
0.0
  0
SEQEND
  5
D9
330
D6
100
AcDbEntity
  8
_U+30EC_U+30A4_U+30E4_U+30FC 1
 62
   179
420
  2234388
370
     9
  0
POLYLINE
  5
DA
330
1F
100
AcDbEntity
  8
_U+30EC_U+30A4_U+30E4_U+30FC 1
 62
   179
420
  2234388
370
     9
100
AcDb2dPolyline
 66
     1
 10
0.0
 20
0.0
 30
0.0
  0
VERTEX
  5
DB
330
DA
100
AcDbEntity
  8
_U+30EC_U+30A4_U+30E4_U+30FC 1
 62
   179
420
  2234388
370
     9
100
AcDbVertex
100
AcDb2dVertex
 10
97.48050551626572
 20
-159.3972042109102
 30
0.0
  0
VERTEX
  5
DC
330
DA
100
AcDbEntity
  8
_U+30EC_U+30A4_U+30E4_U+30FC 1
 62
   179
420
  2234388
370
     9
100
AcDbVertex
100
AcDb2dVertex
 10
97.48050551626572
 20
-161.8571315784593
 30
0.0
  0
SEQEND
  5
DD
330
DA
100
AcDbEntity
  8
_U+30EC_U+30A4_U+30E4_U+30FC 1
 62
   179
420
  2234388
370
     9
  0
INSERT
  5
DF
330
1F
100
AcDbEntity
  8
_U+30EC_U+30A4_U+30E4_U+30FC 1
100
AcDbBlockReference
  2
block 5
 10
0.0
 20
0.0
 30
0.0
  0
POLYLINE
  5
E6
330
1F
100
AcDbEntity
  8
_U+30EC_U+30A4_U+30E4_U+30FC 1
 62
   179
420
  2234388
370
     9
100
AcDb2dPolyline
 66
     1
 10
0.0
 20
0.0
 30
0.0
  0
VERTEX
  5
E7
330
E6
100
AcDbEntity
  8
_U+30EC_U+30A4_U+30E4_U+30FC 1
 62
   179
420
  2234388
370
     9
100
AcDbVertex
100
AcDb2dVertex
 10
124.5486207438737
 20
-153.4635870655838
 30
0.0
  0
VERTEX
  5
E8
330
E6
100
AcDbEntity
  8
_U+30EC_U+30A4_U+30E4_U+30FC 1
 62
   179
420
  2234388
370
     9
100
AcDbVertex
100
AcDb2dVertex
 10
124.5486207438737
 20
-143.9639946471687
 30
0.0
  0
SEQEND
  5
E9
330
E6
100
AcDbEntity
  8
_U+30EC_U+30A4_U+30E4_U+30FC 1
 62
   179
420
  2234388
370
     9
  0
SPLINE
  5
EA
330
1F
100
AcDbEntity
  8
_U+30EC_U+30A4_U+30E4_U+30FC 1
 62
   179
420
  2234388
370
     9
100
AcDbSpline
210
0.0
220
0.0
230
1.0
 70
    11
 71
     3
 72
    17
 73
    13
 74
     0
 42
0.0000000001
 43
0.0000000001
 12
1.0
 22
0.0
 32
0.0
 13
1.0
 23
0.0
 33
0.0
 40
0.0
 40
0.0
 40
0.0
 40
0.0
 40
1.0
 40
1.0
 40
1.0
 40
2.0
 40
2.0
 40
2.0
 40
3.0
 40
3.0
 40
3.0
 40
4.0
 40
4.0
 40
4.0
 40
4.0
 10
124.6485285129459
 20
-153.5035717050594
 30
0.0
 10
124.6485285129459
 20
-153.4478472855855
 30
0.0
 10
124.6037207397909
 20
-153.4030395124305
 30
0.0
 10
124.548685339414
 20
-153.4030395124305
 30
0.0
 10
124.4936499390372
 20
-153.4030395124305
 30
0.0
 10
124.4488529318055
 20
-153.4478472855855
 30
0.0
 10
124.4488529318055
 20
-153.5035717050594
 30
0.0
 10
124.4488529318055
 20
-153.5586071054363
 30
0.0
 10
124.4936499390372
 20
-153.6034148785913
 30
0.0
 10
124.548685339414
 20
-153.6034148785913
 30
0.0
 10
124.6037207397909
 20
-153.6034148785913
 30
0.0
 10
124.6485285129459
 20
-153.5586071054363
 30
0.0
 10
124.6485285129459
 20
-153.5035717050594
 30
0.0
  0
SPLINE
  5
EB
330
1F
100
AcDbEntity
  8
_U+30EC_U+30A4_U+30E4_U+30FC 1
 62
   179
420
  2234388
370
     9
100
AcDbSpline
210
0.0
220
0.0
230
1.0
 70
    11
 71
     3
 72
    17
 73
    13
 74
     0
 42
0.0000000001
 43
0.0000000001
 12
1.0
 22
0.0
 32
0.0
 13
1.0
 23
0.0
 33
0.0
 40
0.0
 40
0.0
 40
0.0
 40
0.0
 40
1.0
 40
1.0
 40
1.0
 40
2.0
 40
2.0
 40
2.0
 40
3.0
 40
3.0
 40
3.0
 40
4.0
 40
4.0
 40
4.0
 40
4.0
 10
124.6485285129459
 20
-156.5033885988407
 30
0.0
 10
124.6485285129459
 20
-156.4476641793668
 30
0.0
 10
124.6037207397909
 20
-156.4028564062118
 30
0.0
 10
124.548685339414
 20
-156.4028564062118
 30
0.0
 10
124.4936499390372
 20
-156.4028564062118
 30
0.0
 10
124.4488529318055
 20
-156.4476641793668
 30
0.0
 10
124.4488529318055
 20
-156.5033885988407
 30
0.0
 10
124.4488529318055
 20
-156.5584239992176
 30
0.0
 10
124.4936499390372
 20
-156.6032317723726
 30
0.0
 10
124.548685339414
 20
-156.6032317723726
 30
0.0
 10
124.6037207397909
 20
-156.6032317723726
 30
0.0
 10
124.6485285129459
 20
-156.5584239992176
 30
0.0
 10
124.6485285129459
 20
-156.5033885988407
 30
0.0
  0
POLYLINE
  5
EC
330
1F
100
AcDbEntity
  8
_U+30EC_U+30A4_U+30E4_U+30FC 1
 62
   179
420
  2234388
370
     9
100
AcDb2dPolyline
 66
     1
 10
0.0
 20
0.0
 30
0.0
  0
VERTEX
  5
ED
330
EC
100
AcDbEntity
  8
_U+30EC_U+30A4_U+30E4_U+30FC 1
 62
   179
420
  2234388
370
     9
100
AcDbVertex
100
AcDb2dVertex
 10
124.5486207438737
 20
-156.5033885988407
 30
0.0
  0
VERTEX
  5
EE
330
EC
100
AcDbEntity
  8
_U+30EC_U+30A4_U+30E4_U+30FC 1
 62
   179
420
  2234388
370
     9
100
AcDbVertex
100
AcDb2dVertex
 10
124.5486207438737
 20
-153.5037224279869
 30
0.0
  0
SEQEND
  5
EF
330
EC
100
AcDbEntity
  8
_U+30EC_U+30A4_U+30E4_U+30FC 1
 62
   179
420
  2234388
370
     9
  0
POLYLINE
  5
F0
330
1F
100
AcDbEntity
  8
_U+30EC_U+30A4_U+30E4_U+30FC 1
 62
   179
420
  2234388
370
     9
100
AcDb2dPolyline
 66
     1
 10
0.0
 20
0.0
 30
0.0
  0
VERTEX
  5
F1
330
F0
100
AcDbEntity
  8
_U+30EC_U+30A4_U+30E4_U+30FC 1
 62
   179
420
  2234388
370
     9
100
AcDbVertex
100
AcDb2dVertex
 10
110.1102040333448
 20
-156.5033885988407
 30
0.0
  0
VERTEX
  5
F2
330
F0
100
AcDbEntity
  8
_U+30EC_U+30A4_U+30E4_U+30FC 1
 62
   179
420
  2234388
370
     9
100
AcDbVertex
100
AcDb2dVertex
 10
125.5484628151569
 20
-156.5033885988407
 30
0.0
  0
SEQEND
  5
F3
330
F0
100
AcDbEntity
  8
_U+30EC_U+30A4_U+30E4_U+30FC 1
 62
   179
420
  2234388
370
     9
  0
INSERT
  5
F5
330
1F
100
AcDbEntity
  8
_U+30EC_U+30A4_U+30E4_U+30FC 1
100
AcDbBlockReference
  2
block 6
 10
0.0
 20
0.0
 30
0.0
  0
POLYLINE
  5
FA
330
1F
100
AcDbEntity
  8
_U+30EC_U+30A4_U+30E4_U+30FC 1
 62
   179
420
  2234388
370
     9
100
AcDb2dPolyline
 66
     1
 10
0.0
 20
0.0
 30
0.0
  0
VERTEX
  5
FB
330
FA
100
AcDbEntity
  8
_U+30EC_U+30A4_U+30E4_U+30FC 1
 62
   179
420
  2234388
370
     9
100
AcDbVertex
100
AcDb2dVertex
 10
110.1102040333448
 20
-153.5035717050594
 30
0.0
  0
VERTEX
  5
FC
330
FA
100
AcDbEntity
  8
_U+30EC_U+30A4_U+30E4_U+30FC 1
 62
   179
420
  2234388
370
     9
100
AcDbVertex
100
AcDb2dVertex
 10
125.5484628151569
 20
-153.5035717050594
 30
0.0
  0
SEQEND
  5
FD
330
FA
100
AcDbEntity
  8
_U+30EC_U+30A4_U+30E4_U+30FC 1
 62
   179
420
  2234388
370
     9
  0
INSERT
  5
FF
330
1F
100
AcDbEntity
  8
_U+30EC_U+30A4_U+30E4_U+30FC 1
100
AcDbBlockReference
  2
block 7
 10
0.0
 20
0.0
 30
0.0
  0
POLYLINE
  5
10F
330
1F
100
AcDbEntity
  8
_U+30EC_U+30A4_U+30E4_U+30FC 1
 62
   179
420
  2234388
370
    25
100
AcDb2dPolyline
 66
     1
 10
0.0
 20
0.0
 30
0.0
  0
VERTEX
  5
110
330
10F
100
AcDbEntity
  8
_U+30EC_U+30A4_U+30E4_U+30FC 1
 62
   179
420
  2234388
370
    25
100
AcDbVertex
100
AcDb2dVertex
 10
98.38068743471504
 20
-155.6319516958468
 30
0.0
  0
VERTEX
  5
111
330
10F
100
AcDbEntity
  8
_U+30EC_U+30A4_U+30E4_U+30FC 1
 62
   179
420
  2234388
370
    25
100
AcDbVertex
100
AcDb2dVertex
 10
98.38068743471504
 20
-149.0872392069773
 30
0.0
  0
SEQEND
  5
112
330
10F
100
AcDbEntity
  8
_U+30EC_U+30A4_U+30E4_U+30FC 1
 62
   179
420
  2234388
370
    25
  0
POLYLINE
  5
113
330
1F
100
AcDbEntity
  8
_U+30EC_U+30A4_U+30E4_U+30FC 1
370
     0
100
AcDb2dPolyline
 66
     1
 10
0.0
 20
0.0
 30
0.0
  0
VERTEX
  5
114
330
113
100
AcDbEntity
  8
_U+30EC_U+30A4_U+30E4_U+30FC 1
370
     0
100
AcDbVertex
100
AcDb2dVertex
 10
98.3805905414042
 20
-149.0872176751305
 30
0.0
  0
VERTEX
  5
115
330
113
100
AcDbEntity
  8
_U+30EC_U+30A4_U+30E4_U+30FC 1
370
     0
100
AcDbVertex
100
AcDb2dVertex
 10
98.68079831517356
 20
-148.7143506843926
 30
0.0
  0
VERTEX
  5
116
330
113
100
AcDbEntity
  8
_U+30EC_U+30A4_U+30E4_U+30FC 1
370
     0
100
AcDbVertex
100
AcDb2dVertex
 10
98.3805905414042
 20
-148.3410961204126
 30
0.0
  0
VERTEX
  5
117
330
113
100
AcDbEntity
  8
_U+30EC_U+30A4_U+30E4_U+30FC 1
370
     0
100
AcDbVertex
100
AcDb2dVertex
 10
98.3805905414042
 20
-149.0872176751305
 30
0.0
  0
SEQEND
  5
119
330
113
100
AcDbEntity
  8
_U+30EC_U+30A4_U+30E4_U+30FC 1
370
     0
  0
HATCH
  5
118
330
1F
100
AcDbEntity
  8
_U+30EC_U+30A4_U+30E4_U+30FC 1
 62
     9
420
 13224394
100
AcDbHatch
 10
0.0
 20
0.0
 30
0.0
210
0.0
220
0.0
230
1.0
  2
SOLID
 70
     1
 71
     0
 91
        1
 92
        1
 93
        3
 72
     1
 10
98.3805905414042
 20
-149.0872176751305
 11
98.68079831517356
 21
-148.7143506843926
 72
     1
 10
98.68079831517356
 20
-148.7143506843926
 11
98.3805905414042
 21
-148.3410961204126
 72
     1
 10
98.3805905414042
 20
-148.3410961204126
 11
98.3805905414042
 21
-149.0872176751305
 97
        0
 75
     2
 76
     1
 98
        0
  0
POLYLINE
  5
11A
330
1F
100
AcDbEntity
  8
_U+30EC_U+30A4_U+30E4_U+30FC 1
 62
   179
420
  2234388
370
    25
100
AcDb2dPolyline
 66
     1
 10
0.0
 20
0.0
 30
0.0
  0
VERTEX
  5
11B
330
11A
100
AcDbEntity
  8
_U+30EC_U+30A4_U+30E4_U+30FC 1
 62
   179
420
  2234388
370
    25
100
AcDbVertex
100
AcDb2dVertex
 10
98.38068743471504
 20
-149.0870669522031
 30
0.0
  0
VERTEX
  5
11C
330
11A
100
AcDbEntity
  8
_U+30EC_U+30A4_U+30E4_U+30FC 1
 62
   179
420
  2234388
370
    25
100
AcDbVertex
100
AcDb2dVertex
 10
98.68089520848407
 20
-148.7141999614651
 30
0.0
  0
VERTEX
  5
11D
330
11A
100
AcDbEntity
  8
_U+30EC_U+30A4_U+30E4_U+30FC 1
 62
   179
420
  2234388
370
    25
100
AcDbVertex
100
AcDb2dVertex
 10
98.38068743471504
 20
-148.3409453974854
 30
0.0
  0
SEQEND
  5
11E
330
11A
100
AcDbEntity
  8
_U+30EC_U+30A4_U+30E4_U+30FC 1
 62
   179
420
  2234388
370
    25
  0
POLYLINE
  5
11F
330
1F
100
AcDbEntity
  8
_U+30EC_U+30A4_U+30E4_U+30FC 1
  6
AI-Linetype-1
 62
   154
420
    23468
370
    25
100
AcDb2dPolyline
 66
     1
 10
0.0
 20
0.0
 30
0.0
  0
VERTEX
  5
120
330
11F
100
AcDbEntity
  8
_U+30EC_U+30A4_U+30E4_U+30FC 1
  6
AI-Linetype-1
 62
   154
420
    23468
370
    25
100
AcDbVertex
100
AcDb2dVertex
 10
84.96874768993946
 20
-142.8642555727366
 30
0.0
  0
VERTEX
  5
121
330
11F
100
AcDbEntity
  8
_U+30EC_U+30A4_U+30E4_U+30FC 1
  6
AI-Linetype-1
 62
   154
420
    23468
370
    25
100
AcDbVertex
100
AcDb2dVertex
 10
84.96874768993946
 20
-144.6648347281024
 30
0.0
  0
VERTEX
  5
122
330
11F
100
AcDbEntity
  8
_U+30EC_U+30A4_U+30E4_U+30FC 1
  6
AI-Linetype-1
 62
   154
420
    23468
370
    25
100
AcDbVertex
100
AcDb2dVertex
 10
96.92579131352355
 20
-144.6648347281024
 30
0.0
  0
VERTEX
  5
123
330
11F
100
AcDbEntity
  8
_U+30EC_U+30A4_U+30E4_U+30FC 1
  6
AI-Linetype-1
 62
   154
420
    23468
370
    25
100
AcDbVertex
100
AcDb2dVertex
 10
96.92579131352355
 20
-157.2660681437347
 30
0.0
  0
VERTEX
  5
124
330
11F
100
AcDbEntity
  8
_U+30EC_U+30A4_U+30E4_U+30FC 1
  6
AI-Linetype-1
 62
   154
420
    23468
370
    25
100
AcDbVertex
100
AcDb2dVertex
 10
108.1257859701474
 20
-157.2660681437347
 30
0.0
  0
VERTEX
  5
125
330
11F
100
AcDbEntity
  8
_U+30EC_U+30A4_U+30E4_U+30FC 1
  6
AI-Linetype-1
 62
   154
420
    23468
370
    25
100
AcDbVertex
100
AcDb2dVertex
 10
108.1257859701474
 20
-153.6035225378253
 30
0.0
  0
SEQEND
  5
127
330
11F
100
AcDbEntity
  8
_U+30EC_U+30A4_U+30E4_U+30FC 1
  6
AI-Linetype-1
 62
   154
420
    23468
370
    25
  0
ENDSEC
  0
SECTION
  2
OBJECTS
  0
DICTIONARY
  5
C
330
0
100
AcDbDictionary
281
     1
  3
ACAD_GROUP
350
D
  3
ACAD_LAYOUT
350
1A
  3
ACAD_MATERIAL
350
3B
  3
ACAD_MLEADERSTYLE
350
129
  3
ACAD_MLINESTYLE
350
17
  3
ACAD_PLOTSETTINGS
350
19
  3
ACAD_PLOTSTYLENAME
350
E
  3
ACAD_TABLESTYLE
350
128
  3
ACAD_VISUALSTYLE
350
2A
  0
SUN
  5
3F
330
29
100
AcDbSun
 90
        1
290
     0
 63
     7
421
 16777215
 40
1.0
291
     1
 91
  2455826
 92
 54000000
292
     0
 70
     2
 71
   256
280
     1
  0
DICTIONARY
  5
D
102
{ACAD_REACTORS
330
C
102
}
330
C
100
AcDbDictionary
281
     1
  0
DICTIONARY
  5
1A
102
{ACAD_REACTORS
330
C
102
}
330
C
100
AcDbDictionary
281
     1
  3
Layout1
350
1E
  3
Layout2
350
26
  3
Model
350
22
  0
DICTIONARY
  5
3B
102
{ACAD_REACTORS
330
C
102
}
330
C
100
AcDbDictionary
281
     1
  3
ByBlock
350
3D
  3
ByLayer
350
3C
  3
Global
350
3E
  0
DICTIONARY
  5
129
102
{ACAD_REACTORS
330
C
102
}
330
C
100
AcDbDictionary
281
     1
  0
DICTIONARY
  5
17
102
{ACAD_REACTORS
330
C
102
}
330
C
100
AcDbDictionary
281
     1
  3
Standard
350
18
  0
DICTIONARY
  5
19
102
{ACAD_REACTORS
330
C
102
}
330
C
100
AcDbDictionary
281
     1
  0
ACDBDICTIONARYWDFLT
  5
E
102
{ACAD_REACTORS
330
C
102
}
330
C
100
AcDbDictionary
281
     1
  3
Normal
350
F
100
AcDbDictionaryWithDefault
340
F
  0
DICTIONARY
  5
128
102
{ACAD_REACTORS
330
C
102
}
330
C
100
AcDbDictionary
281
     1
  0
DICTIONARY
  5
2A
102
{ACAD_REACTORS
330
C
102
}
330
C
100
AcDbDictionary
281
     1
  3
2dWireframe
350
2F
  3
3D Hidden
350
31
  3
3dWireframe
350
30
  3
Basic
350
32
  3
Brighten
350
36
  3
ColorChange
350
3A
  3
Conceptual
350
34
  3
Dim
350
35
  3
Facepattern
350
39
  3
Flat
350
2B
  3
FlatWithEdges
350
2C
  3
Gouraud
350
2D
  3
GouraudWithEdges
350
2E
  3
Linepattern
350
38
  3
Realistic
350
33
  3
Thicken
350
37
  0
LAYOUT
  5
1E
102
{ACAD_REACTORS
330
1A
102
}
330
1A
100
AcDbPlotSettings
  1

  2
none_device
  4

  6

 40
0.0
 41
0.0
 42
0.0
 43
0.0
 44
0.0
 45
0.0
 46
0.0
 47
0.0
 48
0.0
 49
0.0
140
0.0
141
0.0
142
1.0
143
1.0
 70
   688
 72
     0
 73
     0
 74
     5
  7

 75
    16
 76
     0
 77
     2
 78
   300
147
1.0
148
0.0
149
0.0
100
AcDbLayout
  1
Layout1
 70
     1
 71
     1
 10
0.0
 20
0.0
 11
12.0
 21
9.0
 12
0.0
 22
0.0
 32
0.0
 14
1.000000000000000E+20
 24
1.000000000000000E+20
 34
1.000000000000000E+20
 15
-1.000000000000000E+20
 25
-1.000000000000000E+20
 35
-1.000000000000000E+20
146
0.0
 13
0.0
 23
0.0
 33
0.0
 16
1.0
 26
0.0
 36
0.0
 17
0.0
 27
1.0
 37
0.0
 76
     0
330
1B
  0
LAYOUT
  5
26
102
{ACAD_REACTORS
330
1A
102
}
330
1A
100
AcDbPlotSettings
  1

  2
none_device
  4

  6

 40
0.0
 41
0.0
 42
0.0
 43
0.0
 44
0.0
 45
0.0
 46
0.0
 47
0.0
 48
0.0
 49
0.0
140
0.0
141
0.0
142
1.0
143
1.0
 70
   688
 72
     0
 73
     0
 74
     5
  7

 75
    16
 76
     0
 77
     2
 78
   300
147
1.0
148
0.0
149
0.0
100
AcDbLayout
  1
Layout2
 70
     1
 71
     2
 10
0.0
 20
0.0
 11
0.0
 21
0.0
 12
0.0
 22
0.0
 32
0.0
 14
0.0
 24
0.0
 34
0.0
 15
0.0
 25
0.0
 35
0.0
146
0.0
 13
0.0
 23
0.0
 33
0.0
 16
1.0
 26
0.0
 36
0.0
 17
0.0
 27
1.0
 37
0.0
 76
     0
330
23
  0
LAYOUT
  5
22
102
{ACAD_REACTORS
330
1A
102
}
330
1A
100
AcDbPlotSettings
  1

  2
none_device
  4

  6

 40
0.0
 41
0.0
 42
0.0
 43
0.0
 44
0.0
 45
0.0
 46
0.0
 47
0.0
 48
0.0
 49
0.0
140
0.0
141
0.0
142
1.0
143
1.0
 70
  1712
 72
     0
 73
     0
 74
     0
  7

 75
     0
 76
     0
 77
     2
 78
   300
147
1.0
148
0.0
149
0.0
100
AcDbLayout
  1
Model
 70
     1
 71
     0
 10
0.0
 20
0.0
 11
12.0
 21
9.0
 12
0.0
 22
0.0
 32
0.0
 14
1.000000000000000E+20
 24
1.000000000000000E+20
 34
1.000000000000000E+20
 15
-1.000000000000000E+20
 25
-1.000000000000000E+20
 35
-1.000000000000000E+20
146
0.0
 13
0.0
 23
0.0
 33
0.0
 16
1.0
 26
0.0
 36
0.0
 17
0.0
 27
1.0
 37
0.0
 76
     0
330
1F
331
29
  0
MATERIAL
  5
3D
102
{ACAD_REACTORS
330
3B
102
}
330
3B
100
AcDbMaterial
  1
ByBlock
 72
     1
 94
      127
  0
MATERIAL
  5
3C
102
{ACAD_REACTORS
330
3B
102
}
330
3B
100
AcDbMaterial
  1
ByLayer
 72
     1
 94
      127
  0
MATERIAL
  5
3E
102
{ACAD_REACTORS
330
3B
102
}
330
3B
100
AcDbMaterial
  1
Global
 72
     1
 94
      127
  0
MLINESTYLE
  5
18
102
{ACAD_REACTORS
330
17
102
}
330
17
100
AcDbMlineStyle
  2
Standard
 70
     0
  3

 62
   256
 51
90.0
 52
90.0
 71
     2
 49
0.5
 62
   256
  6
BYLAYER
 49
-0.5
 62
   256
  6
BYLAYER
  0
ACDBPLACEHOLDER
  5
F
102
{ACAD_REACTORS
330
E
102
}
330
E
  0
VISUALSTYLE
  5
2F
102
{ACAD_REACTORS
330
2A
102
}
330
2A
100
AcDbVisualStyle
  2
2dWireframe
 70
     4
177
     2
291
     0
 71
     0
176
     1
 72
     2
176
     1
 73
     0
176
     1
 90
        0
176
     1
 40
-0.6
176
     1
 41
-30.0
176
     1
 62
     5
 63
     7
421
 16777215
176
     1
 74
     1
176
     1
 91
        4
176
     1
 64
     7
176
     1
 65
   257
176
     1
 75
     1
176
     1
175
     1
176
     1
 42
1.0
176
     1
 92
        0
176
     1
 66
   257
176
     1
 43
1.0
176
     1
 76
     1
176
     1
 77
     6
176
     1
 78
     2
176
     1
 67
     7
176
     1
 79
     5
176
     1
170
     0
176
     1
171
     0
176
     1
290
     0
176
     1
 93
        1
176
     1
 44
0.0
176
     1
173
     0
176
     1
  0
VISUALSTYLE
  5
31
102
{ACAD_REACTORS
330
2A
102
}
330
2A
100
AcDbVisualStyle
  2
3D Hidden
 70
     6
177
     2
291
     0
 71
     1
176
     1
 72
     2
176
     1
 73
     2
176
     1
 90
        0
176
     1
 40
-0.6
176
     1
 41
-30.0
176
     1
 62
     5
 63
     7
421
 16777215
176
     1
 74
     2
176
     1
 91
        2
176
     1
 64
     7
176
     1
 65
   257
176
     1
 75
     2
176
     1
175
     1
176
     1
 42
40.0
176
     1
 92
        0
176
     1
 66
   257
176
     1
 43
1.0
176
     1
 76
     1
176
     1
 77
     6
176
     1
 78
     2
176
     1
 67
     7
176
     1
 79
     3
176
     1
170
     0
176
     1
171
     0
176
     1
290
     0
176
     1
 93
        1
176
     1
 44
0.0
176
     1
173
     0
176
     1
  0
VISUALSTYLE
  5
30
102
{ACAD_REACTORS
330
2A
102
}
330
2A
100
AcDbVisualStyle
  2
3dWireframe
 70
     5
177
     2
291
     0
 71
     0
176
     1
 72
     2
176
     1
 73
     0
176
     1
 90
        0
176
     1
 40
-0.6
176
     1
 41
-30.0
176
     1
 62
     5
 63
     7
421
 16777215
176
     1
 74
     1
176
     1
 91
        4
176
     1
 64
     7
176
     1
 65
   257
176
     1
 75
     1
176
     1
175
     1
176
     1
 42
1.0
176
     1
 92
        0
176
     1
 66
   257
176
     1
 43
1.0
176
     1
 76
     1
176
     1
 77
     6
176
     1
 78
     2
176
     1
 67
     7
176
     1
 79
     5
176
     1
170
     0
176
     1
171
     0
176
     1
290
     0
176
     1
 93
        1
176
     1
 44
0.0
176
     1
173
     0
176
     1
  0
VISUALSTYLE
  5
32
102
{ACAD_REACTORS
330
2A
102
}
330
2A
100
AcDbVisualStyle
  2
Basic
 70
     7
177
     2
291
     1
 71
     1
176
     1
 72
     0
176
     1
 73
     1
176
     1
 90
        0
176
     1
 40
-0.6
176
     1
 41
-30.0
176
     1
 62
     5
 63
     7
421
 16777215
176
     1
 74
     0
176
     1
 91
        4
176
     1
 64
     7
176
     1
 65
   257
176
     1
 75
     1
176
     1
175
     1
176
     1
 42
1.0
176
     1
 92
        8
176
     1
 66
     7
176
     1
 43
1.0
176
     1
 76
     1
176
     1
 77
     6
176
     1
 78
     2
176
     1
 67
     7
176
     1
 79
     5
176
     1
170
     0
176
     1
171
     0
176
     1
290
     0
176
     1
 93
        1
176
     1
 44
0.0
176
     1
173
     0
176
     1
  0
VISUALSTYLE
  5
36
102
{ACAD_REACTORS
330
2A
102
}
330
2A
100
AcDbVisualStyle
  2
Brighten
 70
    12
177
     2
291
     1
 71
     2
176
     1
 72
     2
176
     1
 73
     0
176
     1
 90
        0
176
     1
 40
-0.6
176
     1
 41
-30.0
176
     1
 62
     5
 63
     7
421
 16777215
176
     1
 74
     1
176
     1
 91
        4
176
     1
 64
     7
176
     1
 65
   257
176
     1
 75
     1
176
     1
175
     1
176
     1
 42
1.0
176
     1
 92
        8
176
     1
 66
     7
176
     1
 43
1.0
176
     1
 76
     1
176
     1
 77
     6
176
     1
 78
     2
176
     1
 67
     7
176
     1
 79
     5
176
     1
170
     0
176
     1
171
     0
176
     1
290
     0
176
     1
 93
        1
176
     1
 44
50.0
176
     1
173
     0
176
     1
  0
VISUALSTYLE
  5
3A
102
{ACAD_REACTORS
330
2A
102
}
330
2A
100
AcDbVisualStyle
  2
ColorChange
 70
    16
177
     2
291
     1
 71
     2
176
     1
 72
     2
176
     1
 73
     3
176
     1
 90
        0
176
     1
 40
-0.6
176
     1
 41
-30.0
176
     1
 62
     5
 63
     8
421
  8421504
176
     1
 74
     1
176
     1
 91
        4
176
     1
 64
     7
176
     1
 65
   257
176
     1
 75
     1
176
     1
175
     1
176
     1
 42
1.0
176
     1
 92
        8
176
     1
 66
     8
424
  8421504
176
     1
 43
1.0
176
     1
 76
     1
176
     1
 77
     6
176
     1
 78
     2
176
     1
 67
     7
176
     1
 79
     5
176
     1
170
     0
176
     1
171
     0
176
     1
290
     0
176
     1
 93
        1
176
     1
 44
0.0
176
     1
173
     0
176
     1
  0
VISUALSTYLE
  5
34
102
{ACAD_REACTORS
330
2A
102
}
330
2A
100
AcDbVisualStyle
  2
Conceptual
 70
     9
177
     2
291
     0
 71
     3
176
     1
 72
     2
176
     1
 73
     0
176
     1
 90
        0
176
     1
 40
-0.6
176
     1
 41
-30.0
176
     1
 62
     5
 63
     7
421
 16777215
176
     1
 74
     2
176
     1
 91
        2
176
     1
 64
     7
176
     1
 65
   257
176
     1
 75
     1
176
     1
175
     1
176
     1
 42
40.0
176
     1
 92
        8
176
     1
 66
     7
176
     1
 43
1.0
176
     1
 76
     1
176
     1
 77
     6
176
     1
 78
     2
176
     1
 67
     7
176
     1
 79
     3
176
     1
170
     0
176
     1
171
     0
176
     1
290
     0
176
     1
 93
        1
176
     1
 44
0.0
176
     1
173
     0
176
     1
  0
VISUALSTYLE
  5
35
102
{ACAD_REACTORS
330
2A
102
}
330
2A
100
AcDbVisualStyle
  2
Dim
 70
    11
177
     2
291
     1
 71
     2
176
     1
 72
     2
176
     1
 73
     0
176
     1
 90
        0
176
     1
 40
-0.6
176
     1
 41
-30.0
176
     1
 62
     5
 63
     7
421
 16777215
176
     1
 74
     1
176
     1
 91
        4
176
     1
 64
     7
176
     1
 65
   257
176
     1
 75
     1
176
     1
175
     1
176
     1
 42
1.0
176
     1
 92
        8
176
     1
 66
     7
176
     1
 43
1.0
176
     1
 76
     1
176
     1
 77
     6
176
     1
 78
     2
176
     1
 67
     7
176
     1
 79
     5
176
     1
170
     0
176
     1
171
     0
176
     1
290
     0
176
     1
 93
        1
176
     1
 44
-50.0
176
     1
173
     0
176
     1
  0
VISUALSTYLE
  5
39
102
{ACAD_REACTORS
330
2A
102
}
330
2A
100
AcDbVisualStyle
  2
Facepattern
 70
    15
177
     2
291
     1
 71
     2
176
     1
 72
     2
176
     1
 73
     0
176
     1
 90
        0
176
     1
 40
-0.6
176
     1
 41
-30.0
176
     1
 62
     5
 63
     7
421
 16777215
176
     1
 74
     1
176
     1
 91
        4
176
     1
 64
     7
176
     1
 65
   257
176
     1
 75
     1
176
     1
175
     1
176
     1
 42
1.0
176
     1
 92
        8
176
     1
 66
     7
176
     1
 43
1.0
176
     1
 76
     1
176
     1
 77
     6
176
     1
 78
     2
176
     1
 67
     7
176
     1
 79
     5
176
     1
170
     0
176
     1
171
     0
176
     1
290
     0
176
     1
 93
        1
176
     1
 44
0.0
176
     1
173
     0
176
     1
  0
VISUALSTYLE
  5
2B
102
{ACAD_REACTORS
330
2A
102
}
330
2A
100
AcDbVisualStyle
  2
Flat
 70
     0
177
     2
291
     1
 71
     2
176
     1
 72
     1
176
     1
 73
     1
176
     1
 90
        2
176
     1
 40
-0.6
176
     1
 41
30.0
176
     1
 62
     5
 63
     7
421
 16777215
176
     1
 74
     0
176
     1
 91
        4
176
     1
 64
     7
176
     1
 65
   257
176
     1
 75
     1
176
     1
175
     1
176
     1
 42
1.0
176
     1
 92
        8
176
     1
 66
     7
176
     1
 43
1.0
176
     1
 76
     1
176
     1
 77
     6
176
     1
 78
     2
176
     1
 67
     7
176
     1
 79
     5
176
     1
170
     0
176
     1
171
     0
176
     1
290
     0
176
     1
 93
       13
176
     1
 44
0.0
176
     1
173
     0
176
     1
  0
VISUALSTYLE
  5
2C
102
{ACAD_REACTORS
330
2A
102
}
330
2A
100
AcDbVisualStyle
  2
FlatWithEdges
 70
     1
177
     2
291
     1
 71
     2
176
     1
 72
     1
176
     1
 73
     1
176
     1
 90
        2
176
     1
 40
-0.6
176
     1
 41
30.0
176
     1
 62
     5
 63
     7
421
 16777215
176
     1
 74
     1
176
     1
 91
        4
176
     1
 64
     7
176
     1
 65
   257
176
     1
 75
     1
176
     1
175
     1
176
     1
 42
1.0
176
     1
 92
        0
176
     1
 66
   257
176
     1
 43
1.0
176
     1
 76
     1
176
     1
 77
     6
176
     1
 78
     2
176
     1
 67
     7
176
     1
 79
     5
176
     1
170
     0
176
     1
171
     0
176
     1
290
     0
176
     1
 93
       13
176
     1
 44
0.0
176
     1
173
     0
176
     1
  0
VISUALSTYLE
  5
2D
102
{ACAD_REACTORS
330
2A
102
}
330
2A
100
AcDbVisualStyle
  2
Gouraud
 70
     2
177
     2
291
     1
 71
     2
176
     1
 72
     2
176
     1
 73
     1
176
     1
 90
        2
176
     1
 40
-0.6
176
     1
 41
30.0
176
     1
 62
     5
 63
     7
421
 16777215
176
     1
 74
     0
176
     1
 91
        4
176
     1
 64
     7
176
     1
 65
   257
176
     1
 75
     1
176
     1
175
     1
176
     1
 42
1.0
176
     1
 92
        0
176
     1
 66
     7
176
     1
 43
1.0
176
     1
 76
     1
176
     1
 77
     6
176
     1
 78
     2
176
     1
 67
     7
176
     1
 79
     5
176
     1
170
     0
176
     1
171
     0
176
     1
290
     0
176
     1
 93
       13
176
     1
 44
0.0
176
     1
173
     0
176
     1
  0
VISUALSTYLE
  5
2E
102
{ACAD_REACTORS
330
2A
102
}
330
2A
100
AcDbVisualStyle
  2
GouraudWithEdges
 70
     3
177
     2
291
     1
 71
     2
176
     1
 72
     2
176
     1
 73
     1
176
     1
 90
        2
176
     1
 40
-0.6
176
     1
 41
30.0
176
     1
 62
     5
 63
     7
421
 16777215
176
     1
 74
     1
176
     1
 91
        4
176
     1
 64
     7
176
     1
 65
   257
176
     1
 75
     1
176
     1
175
     1
176
     1
 42
1.0
176
     1
 92
        0
176
     1
 66
   257
176
     1
 43
1.0
176
     1
 76
     1
176
     1
 77
     6
176
     1
 78
     2
176
     1
 67
     7
176
     1
 79
     5
176
     1
170
     0
176
     1
171
     0
176
     1
290
     0
176
     1
 93
       13
176
     1
 44
0.0
176
     1
173
     0
176
     1
  0
VISUALSTYLE
  5
38
102
{ACAD_REACTORS
330
2A
102
}
330
2A
100
AcDbVisualStyle
  2
Linepattern
 70
    14
177
     2
291
     1
 71
     2
176
     1
 72
     2
176
     1
 73
     0
176
     1
 90
        0
176
     1
 40
-0.6
176
     1
 41
-30.0
176
     1
 62
     5
 63
     7
421
 16777215
176
     1
 74
     1
176
     1
 91
        4
176
     1
 64
     7
176
     1
 65
   257
176
     1
 75
     7
176
     1
175
     7
176
     1
 42
1.0
176
     1
 92
        8
176
     1
 66
     7
176
     1
 43
1.0
176
     1
 76
     1
176
     1
 77
     6
176
     1
 78
     2
176
     1
 67
     7
176
     1
 79
     5
176
     1
170
     0
176
     1
171
     0
176
     1
290
     0
176
     1
 93
        1
176
     1
 44
0.0
176
     1
173
     0
176
     1
  0
VISUALSTYLE
  5
33
102
{ACAD_REACTORS
330
2A
102
}
330
2A
100
AcDbVisualStyle
  2
Realistic
 70
     8
177
     2
291
     0
 71
     2
176
     1
 72
     2
176
     1
 73
     0
176
     1
 90
        0
176
     1
 40
-0.6
176
     1
 41
-30.0
176
     1
 62
     5
 63
     7
421
 16777215
176
     1
 74
     1
176
     1
 91
        0
176
     1
 64
     7
176
     1
 65
   257
176
     1
 75
     1
176
     1
175
     1
176
     1
 42
1.0
176
     1
 92
        8
176
     1
 66
     8
424
  7895160
176
     1
 43
1.0
176
     1
 76
     1
176
     1
 77
     6
176
     1
 78
     2
176
     1
 67
     7
176
     1
 79
     5
176
     1
170
     0
176
     1
171
     0
176
     1
290
     0
176
     1
 93
       13
176
     1
 44
0.0
176
     1
173
     0
176
     1
  0
VISUALSTYLE
  5
37
102
{ACAD_REACTORS
330
2A
102
}
330
2A
100
AcDbVisualStyle
  2
Thicken
 70
    13
177
     2
291
     1
 71
     2
176
     1
 72
     2
176
     1
 73
     0
176
     1
 90
        0
176
     1
 40
-0.6
176
     1
 41
-30.0
176
     1
 62
     5
 63
     7
421
 16777215
176
     1
 74
     1
176
     1
 91
        4
176
     1
 64
     7
176
     1
 65
   257
176
     1
 75
     1
176
     1
175
     1
176
     1
 42
1.0
176
     1
 92
       12
176
     1
 66
     7
176
     1
 43
1.0
176
     1
 76
     1
176
     1
 77
     6
176
     1
 78
     2
176
     1
 67
     7
176
     1
 79
     5
176
     1
170
     0
176
     1
171
     0
176
     1
290
     0
176
     1
 93
        1
176
     1
 44
0.0
176
     1
173
     0
176
     1
  0
ENDSEC
  0
EOF
