  0
SECTION
  2
HEADER
  9
$ACADVER
  1
AC1024
  9
$ACADMAINTVER
 70
     6
  9
$DWGCODEPAGE
  3
UNDEFINED
  9
$INSBASE
 10
0.0
 20
0.0
 30
0.0
  9
$EXTMIN
 10
1.000000000000000E+20
 20
1.000000000000000E+20
 30
1.000000000000000E+20
  9
$EXTMAX
 10
-1.000000000000000E+20
 20
-1.000000000000000E+20
 30
-1.000000000000000E+20
  9
$LIMMIN
 10
0.0
 20
0.0
  9
$LIMMAX
 10
12.0
 20
9.0
  9
$ORTHOMODE
 70
     0
  9
$REGENMODE
 70
     1
  9
$FILLMODE
 70
     1
  9
$QTEXTMODE
 70
     0
  9
$MIRRTEXT
 70
     1
  9
$LTSCALE
 40
1.0
  9
$ATTMODE
 70
     1
  9
$TEXTSIZE
 40
0.2
  9
$TRACEWID
 40
0.05
  9
$TEXTSTYLE
  7
Standard
  9
$CLAYER
  8
0
  9
$CELTYPE
  6
ByLayer
  9
$CECOLOR
 62
   256
  9
$CELTSCALE
 40
1.0
  9
$DISPSILH
 70
     0
  9
$DIMSCALE
 40
1.0
  9
$DIMASZ
 40
0.18
  9
$DIMEXO
 40
0.0625
  9
$DIMDLI
 40
0.38
  9
$DIMRND
 40
0.0
  9
$DIMDLE
 40
0.0
  9
$DIMEXE
 40
0.18
  9
$DIMTP
 40
0.0
  9
$DIMTM
 40
0.0
  9
$DIMTXT
 40
0.18
  9
$DIMCEN
 40
0.09
  9
$DIMTSZ
 40
0.0
  9
$DIMTOL
 70
     0
  9
$DIMLIM
 70
     0
  9
$DIMTIH
 70
     1
  9
$DIMTOH
 70
     1
  9
$DIMSE1
 70
     0
  9
$DIMSE2
 70
     0
  9
$DIMTAD
 70
     0
  9
$DIMZIN
 70
     0
  9
$DIMBLK
  1

  9
$DIMASO
 70
     1
  9
$DIMSHO
 70
     1
  9
$DIMPOST
  1

  9
$DIMAPOST
  1

  9
$DIMALT
 70
     0
  9
$DIMALTD
 70
     2
  9
$DIMALTF
 40
25.4
  9
$DIMLFAC
 40
1.0
  9
$DIMTOFL
 70
     0
  9
$DIMTVP
 40
0.0
  9
$DIMTIX
 70
     0
  9
$DIMSOXD
 70
     0
  9
$DIMSAH
 70
     0
  9
$DIMBLK1
  1

  9
$DIMBLK2
  1

  9
$DIMSTYLE
  2
Standard
  9
$DIMCLRD
 70
     0
  9
$DIMCLRE
 70
     0
  9
$DIMCLRT
 70
     0
  9
$DIMTFAC
 40
1.0
  9
$DIMGAP
 40
0.09
  9
$DIMJUST
 70
     0
  9
$DIMSD1
 70
     0
  9
$DIMSD2
 70
     0
  9
$DIMTOLJ
 70
     1
  9
$DIMTZIN
 70
     0
  9
$DIMALTZ
 70
     0
  9
$DIMALTTZ
 70
     0
  9
$DIMUPT
 70
     0
  9
$DIMDEC
 70
     4
  9
$DIMTDEC
 70
     4
  9
$DIMALTU
 70
     2
  9
$DIMALTTD
 70
     2
  9
$DIMTXSTY
  7
Standard
  9
$DIMAUNIT
 70
     0
  9
$DIMADEC
 70
     0
  9
$DIMALTRND
 40
0.0
  9
$DIMAZIN
 70
     0
  9
$DIMDSEP
 70
    46
  9
$DIMATFIT
 70
     3
  9
$DIMFRAC
 70
     0
  9
$DIMLDRBLK
  1

  9
$DIMLUNIT
 70
     2
  9
$DIMLWD
 70
    -2
  9
$DIMLWE
 70
    -2
  9
$DIMTMOVE
 70
     0
  9
$DIMFXL
 40
1.0
  9
$DIMFXLON
 70
     0
  9
$DIMJOGANG
 40
0.7853981633974483
  9
$DIMTFILL
 70
     0
  9
$DIMTFILLCLR
 70
     0
  9
$DIMARCSYM
 70
     0
  9
$DIMLTYPE
  6

  9
$DIMLTEX1
  6

  9
$DIMLTEX2
  6

  9
$DIMTXTDIRECTION
 70
     0
  9
$LUNITS
 70
     2
  9
$LUPREC
 70
     4
  9
$SKETCHINC
 40
0.1
  9
$FILLETRAD
 40
0.5
  9
$AUNITS
 70
     0
  9
$AUPREC
 70
     0
  9
$MENU
  1
.
  9
$ELEVATION
 40
0.0
  9
$PELEVATION
 40
0.0
  9
$THICKNESS
 40
0.0
  9
$LIMCHECK
 70
     0
  9
$CHAMFERA
 40
0.5
  9
$CHAMFERB
 40
0.5
  9
$CHAMFERC
 40
1.0
  9
$CHAMFERD
 40
0.0
  9
$SKPOLY
 70
     0
  9
$TDCREATE
 40
2458263.581157396
  9
$TDUCREATE
 40
2458263.206157407
  9
$TDUPDATE
 40
2458263.581157396
  9
$TDUUPDATE
 40
2458263.206157407
  9
$TDINDWG
 40
0.0000000116
  9
$TDUSRTIMER
 40
0.0000000116
  9
$USRTIMER
 70
     1
  9
$ANGBASE
 50
0.0
  9
$ANGDIR
 70
     0
  9
$PDMODE
 70
     0
  9
$PDSIZE
 40
0.0
  9
$PLINEWID
 40
0.0
  9
$SPLFRAME
 70
     0
  9
$SPLINETYPE
 70
     6
  9
$SPLINESEGS
 70
     8
  9
$HANDSEED
  5
F6
  9
$SURFTAB1
 70
     6
  9
$SURFTAB2
 70
     6
  9
$SURFTYPE
 70
     6
  9
$SURFU
 70
     6
  9
$SURFV
 70
     6
  9
$UCSBASE
  2

  9
$UCSNAME
  2

  9
$UCSORG
 10
0.0
 20
0.0
 30
0.0
  9
$UCSXDIR
 10
1.0
 20
0.0
 30
0.0
  9
$UCSYDIR
 10
0.0
 20
1.0
 30
0.0
  9
$UCSORTHOREF
  2

  9
$UCSORTHOVIEW
 70
     0
  9
$UCSORGTOP
 10
0.0
 20
0.0
 30
0.0
  9
$UCSORGBOTTOM
 10
0.0
 20
0.0
 30
0.0
  9
$UCSORGLEFT
 10
0.0
 20
0.0
 30
0.0
  9
$UCSORGRIGHT
 10
0.0
 20
0.0
 30
0.0
  9
$UCSORGFRONT
 10
0.0
 20
0.0
 30
0.0
  9
$UCSORGBACK
 10
0.0
 20
0.0
 30
0.0
  9
$PUCSBASE
  2

  9
$PUCSNAME
  2

  9
$PUCSORG
 10
0.0
 20
0.0
 30
0.0
  9
$PUCSXDIR
 10
1.0
 20
0.0
 30
0.0
  9
$PUCSYDIR
 10
0.0
 20
1.0
 30
0.0
  9
$PUCSORTHOREF
  2

  9
$PUCSORTHOVIEW
 70
     0
  9
$PUCSORGTOP
 10
0.0
 20
0.0
 30
0.0
  9
$PUCSORGBOTTOM
 10
0.0
 20
0.0
 30
0.0
  9
$PUCSORGLEFT
 10
0.0
 20
0.0
 30
0.0
  9
$PUCSORGRIGHT
 10
0.0
 20
0.0
 30
0.0
  9
$PUCSORGFRONT
 10
0.0
 20
0.0
 30
0.0
  9
$PUCSORGBACK
 10
0.0
 20
0.0
 30
0.0
  9
$USERI1
 70
     0
  9
$USERI2
 70
     0
  9
$USERI3
 70
     0
  9
$USERI4
 70
     0
  9
$USERI5
 70
     0
  9
$USERR1
 40
0.0
  9
$USERR2
 40
0.0
  9
$USERR3
 40
0.0
  9
$USERR4
 40
0.0
  9
$USERR5
 40
0.0
  9
$WORLDVIEW
 70
     1
  9
$SHADEDGE
 70
     3
  9
$SHADEDIF
 70
    70
  9
$TILEMODE
 70
     1
  9
$MAXACTVP
 70
    64
  9
$PINSBASE
 10
0.0
 20
0.0
 30
0.0
  9
$PLIMCHECK
 70
     0
  9
$PEXTMIN
 10
1.000000000000000E+20
 20
1.000000000000000E+20
 30
1.000000000000000E+20
  9
$PEXTMAX
 10
-1.000000000000000E+20
 20
-1.000000000000000E+20
 30
-1.000000000000000E+20
  9
$PLIMMIN
 10
0.0
 20
0.0
  9
$PLIMMAX
 10
12.0
 20
9.0
  9
$UNITMODE
 70
     0
  9
$VISRETAIN
 70
     1
  9
$PLINEGEN
 70
     0
  9
$PSLTSCALE
 70
     1
  9
$TREEDEPTH
 70
  3020
  9
$CMLSTYLE
  2
Standard
  9
$CMLJUST
 70
     0
  9
$CMLSCALE
 40
1.0
  9
$PROXYGRAPHICS
 70
     1
  9
$MEASUREMENT
 70
     0
  9
$CELWEIGHT
370
    -1
  9
$ENDCAPS
280
     0
  9
$JOINSTYLE
280
     0
  9
$LWDISPLAY
290
     1
  9
$INSUNITS
 70
     1
  9
$HYPERLINKBASE
  1

  9
$STYLESHEET
  1

  9
$XEDIT
290
     1
  9
$CEPSNTYPE
380
     0
  9
$PSTYLEMODE
290
     1
  9
$FINGERPRINTGUID
  2
{D15D3E30-8D2B-1101-E91E-1455B2DD1888}
  9
$VERSIONGUID
  2
{FAEB1C32-E019-11D5-929B-00C0DF256EC4}
  9
$EXTNAMES
290
     1
  9
$PSVPSCALE
 40
0.0
  9
$OLESTARTUP
290
     0
  9
$SORTENTS
280
   127
  9
$INDEXCTL
280
     0
  9
$HIDETEXT
280
     1
  9
$XCLIPFRAME
280
     2
  9
$HALOGAP
280
     0
  9
$OBSCOLOR
 70
   257
  9
$OBSLTYPE
280
     0
  9
$INTERSECTIONDISPLAY
280
     0
  9
$INTERSECTIONCOLOR
 70
   257
  9
$DIMASSOC
280
     2
  9
$PROJECTNAME
  1

  9
$CAMERADISPLAY
290
     0
  9
$LENSLENGTH
 40
50.0
  9
$CAMERAHEIGHT
 40
0.0
  9
$STEPSPERSEC
 40
2.0
  9
$STEPSIZE
 40
6.0
  9
$3DDWFPREC
 40
2.0
  9
$PSOLWIDTH
 40
0.25
  9
$PSOLHEIGHT
 40
4.0
  9
$LOFTANG1
 40
1.570796326794897
  9
$LOFTANG2
 40
1.570796326794897
  9
$LOFTMAG1
 40
0.0
  9
$LOFTMAG2
 40
0.0
  9
$LOFTPARAM
 70
     7
  9
$LOFTNORMALS
280
     1
  9
$LATITUDE
 40
37.795
  9
$LONGITUDE
 40
-122.394
  9
$NORTHDIRECTION
 40
0.0
  9
$TIMEZONE
 70
 -8000
  9
$LIGHTGLYPHDISPLAY
280
     1
  9
$TILEMODELIGHTSYNCH
280
     1
  9
$CMATERIAL
347
3C
  9
$SOLIDHIST
280
     1
  9
$SHOWHIST
280
     1
  9
$DWFFRAME
280
     2
  9
$DGNFRAME
280
     2
  9
$REALWORLDSCALE
290
     1
  9
$INTERFERECOLOR
 62
   256
  9
$CSHADOW
280
     0
  9
$SHADOWPLANELOCATION
 40
0.0
  0
ENDSEC
  0
SECTION
  2
CLASSES
  0
CLASS
  1
ACDBDICTIONARYWDFLT
  2
AcDbDictionaryWithDefault
  3
ObjectDBX Classes
 90
        0
 91
        4
280
     0
281
     0
  0
CLASS
  1
VISUALSTYLE
  2
AcDbVisualStyle
  3
ObjectDBX Classes
 90
     4095
 91
        4
280
     0
281
     0
  0
CLASS
  1
MATERIAL
  2
AcDbMaterial
  3
ObjectDBX Classes
 90
     1153
 91
        4
280
     0
281
     0
  0
CLASS
  1
SUN
  2
AcDbSun
  3
SCENEOE
 90
     1024
 91
        4
280
     0
281
     0
  0
ENDSEC
  0
SECTION
  2
TABLES
  0
TABLE
  2
VPORT
  5
8
330
0
100
AcDbSymbolTable
 70
     1
  0
VPORT
  5
29
330
8
100
AcDbSymbolTableRecord
100
AcDbViewportTableRecord
  2
*Active
 70
     0
 10
0.0
 20
0.0
 11
1.0
 21
1.0
 12
0.0
 22
0.0
 13
0.0
 23
0.0
 14
0.5
 24
0.5
 15
0.5
 25
0.5
 16
0.0
 26
0.0
 36
1.0
 17
105.0007777515277
 27
-148.5000416295416
 37
0.0
 40
297.0000832590831
 41
0.7070757462376333
 42
50.0
 43
0.0
 44
0.0
 50
0.0
 51
0.0
 71
     0
 72
   100
 73
     1
 74
     3
 75
     0
 76
     0
 77
     0
 78
     0
281
     0
 65
     1
110
0.0
120
0.0
130
0.0
111
1.0
121
0.0
131
0.0
112
0.0
122
1.0
132
0.0
 79
     0
146
0.0
 60
     3
 61
     5
292
     1
282
     1
141
0.0
142
0.0
 63
   250
361
3F
  0
ENDTAB
  0
TABLE
  2
LTYPE
  5
5
330
0
100
AcDbSymbolTable
 70
     3
  0
LTYPE
  5
14
330
5
100
AcDbSymbolTableRecord
100
AcDbLinetypeTableRecord
  2
ByBlock
 70
     0
  3

 72
    65
 73
     0
 40
0.0
  0
LTYPE
  5
15
330
5
100
AcDbSymbolTableRecord
100
AcDbLinetypeTableRecord
  2
ByLayer
 70
     0
  3

 72
    65
 73
     0
 40
0.0
  0
LTYPE
  5
16
330
5
100
AcDbSymbolTableRecord
100
AcDbLinetypeTableRecord
  2
Continuous
 70
     0
  3
Solid line
 72
    65
 73
     0
 40
0.0
  0
LTYPE
  5
45
330
5
100
AcDbSymbolTableRecord
100
AcDbLinetypeTableRecord
  2
AI-Linetype-1
 70
     0
  3
Adobe Illustrator Linetype No. 1
 72
    65
 73
     2
 40
1.411111110758333
 49
0.7055555553791667
 74
     0
 49
-0.7055555553791667
 74
     0
  0
LTYPE
  5
4A
330
5
100
AcDbSymbolTableRecord
100
AcDbLinetypeTableRecord
  2
AI-Linetype-2
 70
     0
  3
Adobe Illustrator Linetype No. 2
 72
    65
 73
     2
 40
1.411111110758333
 49
0.7055555553791667
 74
     0
 49
-0.7055555553791667
 74
     0
  0
ENDTAB
  0
TABLE
  2
LAYER
  5
2
330
0
100
AcDbSymbolTable
 70
     2
  0
LAYER
  5
10
330
2
100
AcDbSymbolTableRecord
100
AcDbLayerTableRecord
  2
0
 70
     0
 62
     7
  6
Continuous
370
    -3
390
F
347
3E
  0
LAYER
  5
40
330
2
100
AcDbSymbolTableRecord
100
AcDbLayerTableRecord
  2
_U+30EC_U+30A4_U+30E4_U+30FC 1
 70
     0
 62
     7
  6
Continuous
370
    -3
390
F
347
3E
  0
ENDTAB
  0
TABLE
  2
STYLE
  5
3
330
0
100
AcDbSymbolTable
 70
     1
  0
STYLE
  5
11
330
3
100
AcDbSymbolTableRecord
100
AcDbTextStyleTableRecord
  2
Standard
 70
     0
 40
0.0
 41
1.0
 50
0.0
 71
     0
 42
0.2
  3
txt
  4

  0
ENDTAB
  0
TABLE
  2
VIEW
  5
6
330
0
100
AcDbSymbolTable
 70
     0
  0
ENDTAB
  0
TABLE
  2
UCS
  5
7
330
0
100
AcDbSymbolTable
 70
     0
  0
ENDTAB
  0
TABLE
  2
APPID
  5
9
330
0
100
AcDbSymbolTable
 70
     1
  0
APPID
  5
12
330
9
100
AcDbSymbolTableRecord
100
AcDbRegAppTableRecord
  2
ACAD
 70
     0
  0
ENDTAB
  0
TABLE
  2
DIMSTYLE
  5
A
330
0
100
AcDbSymbolTable
 70
     1
100
AcDbDimStyleTable
  0
DIMSTYLE
105
27
330
A
100
AcDbSymbolTableRecord
100
AcDbDimStyleTableRecord
  2
Standard
 70
     0
178
     0
340
11
  0
ENDTAB
  0
TABLE
  2
BLOCK_RECORD
  5
1
330
0
100
AcDbSymbolTable
 70
     6
  0
BLOCK_RECORD
  5
1F
330
1
100
AcDbSymbolTableRecord
100
AcDbBlockTableRecord
  2
*Model_Space
340
22
 70
     0
280
     1
281
     0
  0
BLOCK_RECORD
  5
1B
330
1
100
AcDbSymbolTableRecord
100
AcDbBlockTableRecord
  2
*Paper_Space
340
1E
 70
     0
280
     1
281
     0
  0
BLOCK_RECORD
  5
23
330
1
100
AcDbSymbolTableRecord
100
AcDbBlockTableRecord
  2
*Paper_Space0
340
26
 70
     0
280
     1
281
     0
  0
BLOCK_RECORD
  5
9D
330
1
100
AcDbSymbolTableRecord
100
AcDbBlockTableRecord
  2
block 2
340
0
102
{BLKREFS
331
9E
102
}
 70
     0
280
     1
281
     0
  0
BLOCK_RECORD
  5
AB
330
1
100
AcDbSymbolTableRecord
100
AcDbBlockTableRecord
  2
block 3
340
0
102
{BLKREFS
331
AC
102
}
 70
     0
280
     1
281
     0
  0
BLOCK_RECORD
  5
BD
330
1
100
AcDbSymbolTableRecord
100
AcDbBlockTableRecord
  2
block 4
340
0
102
{BLKREFS
331
BE
102
}
 70
     0
280
     1
281
     0
  0
BLOCK_RECORD
  5
D2
330
1
100
AcDbSymbolTableRecord
100
AcDbBlockTableRecord
  2
block 5
340
0
102
{BLKREFS
331
D3
102
}
 70
     0
280
     1
281
     0
  0
BLOCK_RECORD
  5
E2
330
1
100
AcDbSymbolTableRecord
100
AcDbBlockTableRecord
  2
block 6
340
0
102
{BLKREFS
331
E3
102
}
 70
     0
280
     1
281
     0
  0
ENDTAB
  0
ENDSEC
  0
SECTION
  2
BLOCKS
  0
BLOCK
  5
20
330
1F
100
AcDbEntity
  8
0
100
AcDbBlockBegin
  2
*Model_Space
 70
     0
 10
0.0
 20
0.0
 30
0.0
  3
*Model_Space
  1

  0
ENDBLK
  5
21
330
1F
100
AcDbEntity
  8
0
100
AcDbBlockEnd
  0
BLOCK
  5
1C
330
1B
100
AcDbEntity
 67
     1
  8
0
100
AcDbBlockBegin
  2
*Paper_Space
 70
     0
 10
0.0
 20
0.0
 30
0.0
  3
*Paper_Space
  1

  0
ENDBLK
  5
1D
330
1B
100
AcDbEntity
 67
     1
  8
0
100
AcDbBlockEnd
  0
BLOCK
  5
24
330
23
100
AcDbEntity
  8
0
100
AcDbBlockBegin
  2
*Paper_Space0
 70
     0
 10
0.0
 20
0.0
 30
0.0
  3
*Paper_Space0
  1

  0
ENDBLK
  5
25
330
23
100
AcDbEntity
  8
0
100
AcDbBlockEnd
  0
BLOCK
  5
9F
330
9D
100
AcDbEntity
  8
0
100
AcDbBlockBegin
  2
block 2
 70
     0
 10
0.0
 20
0.0
 30
0.0
  3
block 2
  1

  0
SPLINE
  5
A1
330
9D
100
AcDbEntity
  8
_U+30EC_U+30A4_U+30E4_U+30FC 1
370
     0
100
AcDbSpline
210
0.0
220
0.0
230
1.0
 70
    11
 71
     3
 72
    26
 73
    22
 74
     0
 42
0.0000000001
 43
0.0000000001
 12
1.0
 22
0.0
 32
0.0
 13
1.0
 23
0.0
 33
0.0
 40
0.0
 40
0.0
 40
0.0
 40
0.0
 40
1.0
 40
1.0
 40
1.0
 40
2.0
 40
2.0
 40
2.0
 40
3.0
 40
3.0
 40
3.0
 40
4.0
 40
4.0
 40
4.0
 40
5.0
 40
5.0
 40
5.0
 40
6.0
 40
6.0
 40
6.0
 40
7.0
 40
7.0
 40
7.0
 40
7.0
 10
118.6670030085277
 20
-139.0319959504851
 30
0.0
 10
118.6670030085277
 20
-139.0319959504851
 30
0.0
 10
117.5628499055051
 20
-139.0319959504851
 30
0.0
 10
117.5628499055051
 20
-139.0319959504851
 30
0.0
 10
117.5628499055051
 20
-139.0319959504851
 30
0.0
 10
117.5628499055051
 20
-139.362036097972
 30
0.0
 10
117.5628499055051
 20
-139.362036097972
 30
0.0
 10
117.5628499055051
 20
-139.362036097972
 30
0.0
 10
117.4147107996394
 20
-139.362036097972
 30
0.0
 10
117.4147107996394
 20
-139.362036097972
 30
0.0
 10
117.3998968890528
 20
-139.0299288931939
 30
0.0
 10
117.2369438726005
 20
-138.9834201041431
 30
0.0
 10
117.1229112120387
 20
-138.9537922829699
 30
0.0
 10
117.1229112120387
 20
-138.9537922829699
 30
0.0
 10
117.1229112120387
 20
-138.8077202343953
 30
0.0
 10
117.1229112120387
 20
-138.8077202343953
 30
0.0
 10
117.1229112120387
 20
-138.8077202343953
 30
0.0
 10
118.6670030085277
 20
-138.8077202343953
 30
0.0
 10
118.6670030085277
 20
-138.8077202343953
 30
0.0
 10
118.6670030085277
 20
-138.8077202343953
 30
0.0
 10
118.6670030085277
 20
-139.0319959504851
 30
0.0
 10
118.6670030085277
 20
-139.0319959504851
 30
0.0
  0
HATCH
  5
A2
330
9D
100
AcDbEntity
  8
_U+30EC_U+30A4_U+30E4_U+30FC 1
 62
   179
420
  2234388
100
AcDbHatch
 10
0.0
 20
0.0
 30
0.0
210
0.0
220
0.0
230
1.0
  2
SOLID
 70
     1
 71
     0
 91
        1
 92
        1
 93
        1
 72
     4
 94
        3
 73
     0
 74
     1
 95
       26
 96
       22
 40
0.0
 40
0.0
 40
0.0
 40
0.0
 40
1.0
 40
1.0
 40
1.0
 40
2.0
 40
2.0
 40
2.0
 40
3.0
 40
3.0
 40
3.0
 40
4.0
 40
4.0
 40
4.0
 40
5.0
 40
5.0
 40
5.0
 40
6.0
 40
6.0
 40
6.0
 40
7.0
 40
7.0
 40
7.0
 40
7.0
 10
118.6670030085277
 20
-139.0319959504851
 10
118.6670030085277
 20
-139.0319959504851
 10
117.5628499055051
 20
-139.0319959504851
 10
117.5628499055051
 20
-139.0319959504851
 10
117.5628499055051
 20
-139.0319959504851
 10
117.5628499055051
 20
-139.362036097972
 10
117.5628499055051
 20
-139.362036097972
 10
117.5628499055051
 20
-139.362036097972
 10
117.4147107996394
 20
-139.362036097972
 10
117.4147107996394
 20
-139.362036097972
 10
117.3998968890528
 20
-139.0299288931939
 10
117.2369438726005
 20
-138.9834201041431
 10
117.1229112120387
 20
-138.9537922829699
 10
117.1229112120387
 20
-138.9537922829699
 10
117.1229112120387
 20
-138.8077202343953
 10
117.1229112120387
 20
-138.8077202343953
 10
117.1229112120387
 20
-138.8077202343953
 10
118.6670030085277
 20
-138.8077202343953
 10
118.6670030085277
 20
-138.8077202343953
 10
118.6670030085277
 20
-138.8077202343953
 10
118.6670030085277
 20
-139.0319959504851
 10
118.6670030085277
 20
-139.0319959504851
 97
        0
 97
        0
 75
     2
 76
     1
 98
        0
  0
ENDBLK
  5
A0
330
9D
100
AcDbEntity
  8
0
100
AcDbBlockEnd
  0
BLOCK
  5
AD
330
AB
100
AcDbEntity
  8
0
100
AcDbBlockBegin
  2
block 3
 70
     0
 10
0.0
 20
0.0
 30
0.0
  3
block 3
  1

  0
SPLINE
  5
AF
330
AB
100
AcDbEntity
  8
_U+30EC_U+30A4_U+30E4_U+30FC 1
370
     0
100
AcDbSpline
210
0.0
220
0.0
230
1.0
 70
    11
 71
     3
 72
    62
 73
    58
 74
     0
 42
0.0000000001
 43
0.0000000001
 12
1.0
 22
0.0
 32
0.0
 13
1.0
 23
0.0
 33
0.0
 40
0.0
 40
0.0
 40
0.0
 40
0.0
 40
1.0
 40
1.0
 40
1.0
 40
2.0
 40
2.0
 40
2.0
 40
3.0
 40
3.0
 40
3.0
 40
4.0
 40
4.0
 40
4.0
 40
5.0
 40
5.0
 40
5.0
 40
6.0
 40
6.0
 40
6.0
 40
7.0
 40
7.0
 40
7.0
 40
8.0
 40
8.0
 40
8.0
 40
9.0
 40
9.0
 40
9.0
 40
10.0
 40
10.0
 40
10.0
 40
11.0
 40
11.0
 40
11.0
 40
12.0
 40
12.0
 40
12.0
 40
13.0
 40
13.0
 40
13.0
 40
14.0
 40
14.0
 40
14.0
 40
15.0
 40
15.0
 40
15.0
 40
16.0
 40
16.0
 40
16.0
 40
17.0
 40
17.0
 40
17.0
 40
18.0
 40
18.0
 40
18.0
 40
19.0
 40
19.0
 40
19.0
 40
19.0
 10
118.7179904217094
 20
-156.0500786285222
 30
0.0
 10
118.7179904217094
 20
-156.1455077734636
 30
0.0
 10
118.6966308297009
 20
-156.3632378081314
 30
0.0
 10
118.5105956734974
 20
-156.488294774246
 30
0.0
 10
118.3982855606782
 20
-156.5623643271789
 30
0.0
 10
118.299066810703
 20
-156.5664984417612
 30
0.0
 10
118.2143174617659
 20
-156.5706325563435
 30
0.0
 10
118.2143174617659
 20
-156.5706325563435
 30
0.0
 10
118.2143174617659
 20
-156.350490954836
 30
0.0
 10
118.2143174617659
 20
-156.350490954836
 30
0.0
 10
118.2883870146987
 20
-156.3484238975448
 30
0.0
 10
118.5233425267928
 20
-156.3380886110891
 30
0.0
 10
118.5233425267928
 20
-156.054557252653
 30
0.0
 10
118.5233425267928
 20
-155.9170979427916
 30
0.0
 10
118.4534070884422
 20
-155.764480212795
 30
0.0
 10
118.2249972577701
 20
-155.764480212795
 30
0.0
 10
118.1085530303687
 20
-155.764480212795
 30
0.0
 10
118.0599771840267
 20
-155.8027207726813
 30
0.0
 10
118.0282823055624
 20
-155.8344156511456
 30
0.0
 10
117.9542127526295
 20
-155.9084852040784
 30
0.0
 10
117.9414658993341
 20
-156.0249294314799
 30
0.0
 10
117.9414658993341
 20
-156.0797064496954
 30
0.0
 10
117.9414658993341
 20
-156.0989989844128
 30
0.0
 10
117.9435329566252
 20
-156.1348279774594
 30
0.0
 10
117.9476670712075
 20
-156.1623887413413
 30
0.0
 10
117.9476670712075
 20
-156.1623887413413
 30
0.0
 10
117.7530191762909
 20
-156.1623887413413
 30
0.0
 10
117.7530191762909
 20
-156.1623887413413
 30
0.0
 10
117.7595648577129
 20
-156.1241481814551
 30
0.0
 10
117.761631915004
 20
-156.082118016535
 30
0.0
 10
117.761631915004
 20
-156.0755723351131
 30
0.0
 10
117.761631915004
 20
-156.0101155208933
 30
0.0
 10
117.740616832544
 20
-155.8113335113944
 30
0.0
 10
117.5035942631588
 20
-155.8113335113944
 30
0.0
 10
117.3258273361199
 20
-155.8113335113944
 30
0.0
 10
117.2707058083559
 20
-155.9422471398339
 30
0.0
 10
117.2707058083559
 20
-156.0524901953619
 30
0.0
 10
117.2707058083559
 20
-156.3167290190806
 30
0.0
 10
117.5035942631588
 20
-156.3253417577937
 30
0.0
 10
117.5755967588006
 20
-156.329475872376
 30
0.0
 10
117.5755967588006
 20
-156.329475872376
 30
0.0
 10
117.5755967588006
 20
-156.5327365060057
 30
0.0
 10
117.5755967588006
 20
-156.5327365060057
 30
0.0
 10
117.450539792686
 20
-156.5241237672926
 30
0.0
 10
117.0739908561482
 20
-156.4965630034106
 30
0.0
 10
117.0739908561482
 20
-156.0397433420665
 30
0.0
 10
117.0739908561482
 20
-155.8154676259767
 30
0.0
 10
117.2011148795539
 20
-155.5743109420092
 30
0.0
 10
117.4970485817368
 20
-155.5743109420092
 30
0.0
 10
117.6834282474889
 20
-155.5743109420092
 30
0.0
 10
117.7657660295863
 20
-155.6693955774021
 30
0.0
 10
117.8270887292238
 20
-155.7689588369258
 30
0.0
 10
117.8546494931058
 20
-155.7076361372884
 30
0.0
 10
117.9352647274606
 20
-155.5257350956672
 30
0.0
 10
118.2122504044747
 20
-155.5257350956672
 30
0.0
 10
118.5509032906748
 20
-155.5257350956672
 30
0.0
 10
118.7179904217094
 20
-155.7730929515081
 30
0.0
 10
118.7179904217094
 20
-156.0500786285222
 30
0.0
  0
HATCH
  5
B0
330
AB
100
AcDbEntity
  8
_U+30EC_U+30A4_U+30E4_U+30FC 1
 62
   179
420
  2234388
100
AcDbHatch
 10
0.0
 20
0.0
 30
0.0
210
0.0
220
0.0
230
1.0
  2
SOLID
 70
     1
 71
     0
 91
        1
 92
        1
 93
        1
 72
     4
 94
        3
 73
     0
 74
     1
 95
       62
 96
       58
 40
0.0
 40
0.0
 40
0.0
 40
0.0
 40
1.0
 40
1.0
 40
1.0
 40
2.0
 40
2.0
 40
2.0
 40
3.0
 40
3.0
 40
3.0
 40
4.0
 40
4.0
 40
4.0
 40
5.0
 40
5.0
 40
5.0
 40
6.0
 40
6.0
 40
6.0
 40
7.0
 40
7.0
 40
7.0
 40
8.0
 40
8.0
 40
8.0
 40
9.0
 40
9.0
 40
9.0
 40
10.0
 40
10.0
 40
10.0
 40
11.0
 40
11.0
 40
11.0
 40
12.0
 40
12.0
 40
12.0
 40
13.0
 40
13.0
 40
13.0
 40
14.0
 40
14.0
 40
14.0
 40
15.0
 40
15.0
 40
15.0
 40
16.0
 40
16.0
 40
16.0
 40
17.0
 40
17.0
 40
17.0
 40
18.0
 40
18.0
 40
18.0
 40
19.0
 40
19.0
 40
19.0
 40
19.0
 10
118.7179904217094
 20
-156.0500786285222
 10
118.7179904217094
 20
-156.1455077734636
 10
118.6966308297009
 20
-156.3632378081314
 10
118.5105956734974
 20
-156.488294774246
 10
118.3982855606782
 20
-156.5623643271789
 10
118.299066810703
 20
-156.5664984417612
 10
118.2143174617659
 20
-156.5706325563435
 10
118.2143174617659
 20
-156.5706325563435
 10
118.2143174617659
 20
-156.350490954836
 10
118.2143174617659
 20
-156.350490954836
 10
118.2883870146987
 20
-156.3484238975448
 10
118.5233425267928
 20
-156.3380886110891
 10
118.5233425267928
 20
-156.054557252653
 10
118.5233425267928
 20
-155.9170979427916
 10
118.4534070884422
 20
-155.764480212795
 10
118.2249972577701
 20
-155.764480212795
 10
118.1085530303687
 20
-155.764480212795
 10
118.0599771840267
 20
-155.8027207726813
 10
118.0282823055624
 20
-155.8344156511456
 10
117.9542127526295
 20
-155.9084852040784
 10
117.9414658993341
 20
-156.0249294314799
 10
117.9414658993341
 20
-156.0797064496954
 10
117.9414658993341
 20
-156.0989989844128
 10
117.9435329566252
 20
-156.1348279774594
 10
117.9476670712075
 20
-156.1623887413413
 10
117.9476670712075
 20
-156.1623887413413
 10
117.7530191762909
 20
-156.1623887413413
 10
117.7530191762909
 20
-156.1623887413413
 10
117.7595648577129
 20
-156.1241481814551
 10
117.761631915004
 20
-156.082118016535
 10
117.761631915004
 20
-156.0755723351131
 10
117.761631915004
 20
-156.0101155208933
 10
117.740616832544
 20
-155.8113335113944
 10
117.5035942631588
 20
-155.8113335113944
 10
117.3258273361199
 20
-155.8113335113944
 10
117.2707058083559
 20
-155.9422471398339
 10
117.2707058083559
 20
-156.0524901953619
 10
117.2707058083559
 20
-156.3167290190806
 10
117.5035942631588
 20
-156.3253417577937
 10
117.5755967588006
 20
-156.329475872376
 10
117.5755967588006
 20
-156.329475872376
 10
117.5755967588006
 20
-156.5327365060057
 10
117.5755967588006
 20
-156.5327365060057
 10
117.450539792686
 20
-156.5241237672926
 10
117.0739908561482
 20
-156.4965630034106
 10
117.0739908561482
 20
-156.0397433420665
 10
117.0739908561482
 20
-155.8154676259767
 10
117.2011148795539
 20
-155.5743109420092
 10
117.4970485817368
 20
-155.5743109420092
 10
117.6834282474889
 20
-155.5743109420092
 10
117.7657660295863
 20
-155.6693955774021
 10
117.8270887292238
 20
-155.7689588369258
 10
117.8546494931058
 20
-155.7076361372884
 10
117.9352647274606
 20
-155.5257350956672
 10
118.2122504044747
 20
-155.5257350956672
 10
118.5509032906748
 20
-155.5257350956672
 10
118.7179904217094
 20
-155.7730929515081
 10
118.7179904217094
 20
-156.0500786285222
 97
        0
 97
        0
 75
     2
 76
     1
 98
        0
  0
ENDBLK
  5
AE
330
AB
100
AcDbEntity
  8
0
100
AcDbBlockEnd
  0
BLOCK
  5
BF
330
BD
100
AcDbEntity
  8
0
100
AcDbBlockBegin
  2
block 4
 70
     0
 10
0.0
 20
0.0
 30
0.0
  3
block 4
  1

  0
SPLINE
  5
C1
330
BD
100
AcDbEntity
  8
_U+30EC_U+30A4_U+30E4_U+30FC 1
370
     0
100
AcDbSpline
210
0.0
220
0.0
230
1.0
 70
    11
 71
     3
 72
    26
 73
    22
 74
     0
 42
0.0000000001
 43
0.0000000001
 12
1.0
 22
0.0
 32
0.0
 13
1.0
 23
0.0
 33
0.0
 40
0.0
 40
0.0
 40
0.0
 40
0.0
 40
1.0
 40
1.0
 40
1.0
 40
2.0
 40
2.0
 40
2.0
 40
3.0
 40
3.0
 40
3.0
 40
4.0
 40
4.0
 40
4.0
 40
5.0
 40
5.0
 40
5.0
 40
6.0
 40
6.0
 40
6.0
 40
7.0
 40
7.0
 40
7.0
 40
7.0
 10
94.67587481357062
 20
-162.0400661487261
 30
0.0
 10
94.67587481357062
 20
-162.0400661487261
 30
0.0
 10
94.67587481357062
 20
-160.9359130457035
 30
0.0
 10
94.67587481357062
 20
-160.9359130457035
 30
0.0
 10
94.67587481357062
 20
-160.9359130457035
 30
0.0
 10
94.34583466608369
 20
-160.9359130457035
 30
0.0
 10
94.34583466608369
 20
-160.9359130457035
 30
0.0
 10
94.34583466608369
 20
-160.9359130457035
 30
0.0
 10
94.34583466608369
 20
-160.7877739398378
 30
0.0
 10
94.34583466608369
 20
-160.7877739398378
 30
0.0
 10
94.67794187086177
 20
-160.7729600292512
 30
0.0
 10
94.72445065991265
 20
-160.6100070127989
 30
0.0
 10
94.75407848108578
 20
-160.4959743522371
 30
0.0
 10
94.75407848108578
 20
-160.4959743522371
 30
0.0
 10
94.90015052966038
 20
-160.4959743522371
 30
0.0
 10
94.90015052966038
 20
-160.4959743522371
 30
0.0
 10
94.90015052966038
 20
-160.4959743522371
 30
0.0
 10
94.90015052966038
 20
-162.0400661487261
 30
0.0
 10
94.90015052966038
 20
-162.0400661487261
 30
0.0
 10
94.90015052966038
 20
-162.0400661487261
 30
0.0
 10
94.67587481357062
 20
-162.0400661487261
 30
0.0
 10
94.67587481357062
 20
-162.0400661487261
 30
0.0
  0
HATCH
  5
C2
330
BD
100
AcDbEntity
  8
_U+30EC_U+30A4_U+30E4_U+30FC 1
 62
   179
420
  2234388
100
AcDbHatch
 10
0.0
 20
0.0
 30
0.0
210
0.0
220
0.0
230
1.0
  2
SOLID
 70
     1
 71
     0
 91
        1
 92
        1
 93
        1
 72
     4
 94
        3
 73
     0
 74
     1
 95
       26
 96
       22
 40
0.0
 40
0.0
 40
0.0
 40
0.0
 40
1.0
 40
1.0
 40
1.0
 40
2.0
 40
2.0
 40
2.0
 40
3.0
 40
3.0
 40
3.0
 40
4.0
 40
4.0
 40
4.0
 40
5.0
 40
5.0
 40
5.0
 40
6.0
 40
6.0
 40
6.0
 40
7.0
 40
7.0
 40
7.0
 40
7.0
 10
94.67587481357062
 20
-162.0400661487261
 10
94.67587481357062
 20
-162.0400661487261
 10
94.67587481357062
 20
-160.9359130457035
 10
94.67587481357062
 20
-160.9359130457035
 10
94.67587481357062
 20
-160.9359130457035
 10
94.34583466608369
 20
-160.9359130457035
 10
94.34583466608369
 20
-160.9359130457035
 10
94.34583466608369
 20
-160.9359130457035
 10
94.34583466608369
 20
-160.7877739398378
 10
94.34583466608369
 20
-160.7877739398378
 10
94.67794187086177
 20
-160.7729600292512
 10
94.72445065991265
 20
-160.6100070127989
 10
94.75407848108578
 20
-160.4959743522371
 10
94.75407848108578
 20
-160.4959743522371
 10
94.90015052966038
 20
-160.4959743522371
 10
94.90015052966038
 20
-160.4959743522371
 10
94.90015052966038
 20
-160.4959743522371
 10
94.90015052966038
 20
-162.0400661487261
 10
94.90015052966038
 20
-162.0400661487261
 10
94.90015052966038
 20
-162.0400661487261
 10
94.67587481357062
 20
-162.0400661487261
 10
94.67587481357062
 20
-162.0400661487261
 97
        0
 97
        0
 75
     2
 76
     1
 98
        0
  0
SPLINE
  5
C3
330
BD
100
AcDbEntity
  8
_U+30EC_U+30A4_U+30E4_U+30FC 1
370
     0
100
AcDbSpline
210
0.0
220
0.0
230
1.0
 70
    11
 71
     3
 72
    29
 73
    25
 74
     0
 42
0.0000000001
 43
0.0000000001
 12
1.0
 22
0.0
 32
0.0
 13
1.0
 23
0.0
 33
0.0
 40
0.0
 40
0.0
 40
0.0
 40
0.0
 40
1.0
 40
1.0
 40
1.0
 40
2.0
 40
2.0
 40
2.0
 40
3.0
 40
3.0
 40
3.0
 40
4.0
 40
4.0
 40
4.0
 40
5.0
 40
5.0
 40
5.0
 40
6.0
 40
6.0
 40
6.0
 40
7.0
 40
7.0
 40
7.0
 40
8.0
 40
8.0
 40
8.0
 40
8.0
 10
96.29903155144608
 20
-161.8622992216872
 30
0.0
 10
96.19120006275776
 20
-162.0717610271904
 30
0.0
 10
96.01773950507543
 20
-162.0910535619078
 30
0.0
 10
95.90129527767398
 20
-162.0910535619078
 30
0.0
 10
95.74058157328709
 20
-162.0910535619078
 30
0.0
 10
95.59881589406905
 20
-162.0445447728569
 30
0.0
 10
95.5035590039019
 20
-161.8622992216872
 30
0.0
 10
95.40003388457014
 20
-161.6676513267706
 30
0.0
 10
95.380913604627
 20
-161.4309732669339
 30
0.0
 10
95.380913604627
 20
-161.2680202504816
 30
0.0
 10
95.380913604627
 20
-161.1240152591982
 30
0.0
 10
95.39779457250472
 20
-160.8725232887749
 30
0.0
 10
95.5035590039019
 20
-160.6733967697275
 30
0.0
 10
95.61156274736447
 20
-160.4704806456463
 30
0.0
 10
95.77227645175138
 20
-160.4470539963466
 30
0.0
 10
95.90129527767398
 20
-160.4470539963466
 30
0.0
 10
96.05994192476975
 20
-160.4470539963466
 30
0.0
 10
96.20377466127893
 20
-160.4914957281063
 30
0.0
 10
96.29903155144608
 20
-160.6733967697275
 30
0.0
 10
96.39842255619554
 20
-160.865977607353
 30
0.0
 10
96.42167695072098
 20
-161.094387438025
 30
0.0
 10
96.42167695072098
 20
-161.2680202504816
 30
0.0
 10
96.42167695072098
 20
-161.4392414960985
 30
0.0
 10
96.40066186826095
 20
-161.6700628936103
 30
0.0
 10
96.29903155144608
 20
-161.8622992216872
 30
0.0
  0
SPLINE
  5
C4
330
BD
100
AcDbEntity
  8
_U+30EC_U+30A4_U+30E4_U+30FC 1
370
     0
100
AcDbSpline
210
0.0
220
0.0
230
1.0
 70
    11
 71
     3
 72
    17
 73
    13
 74
     0
 42
0.0000000001
 43
0.0000000001
 12
1.0
 22
0.0
 32
0.0
 13
1.0
 23
0.0
 33
0.0
 40
0.0
 40
0.0
 40
0.0
 40
0.0
 40
1.0
 40
1.0
 40
1.0
 40
2.0
 40
2.0
 40
2.0
 40
3.0
 40
3.0
 40
3.0
 40
4.0
 40
4.0
 40
4.0
 40
4.0
 10
95.90129527767398
 20
-160.6396348339721
 30
0.0
 10
95.65169810976764
 20
-160.6396348339721
 30
0.0
 10
95.60518932071676
 20
-160.9231661924081
 30
0.0
 10
95.60518932071676
 20
-161.2680202504816
 30
0.0
 10
95.60518932071676
 20
-161.5873806019643
 30
0.0
 10
95.64119056853762
 20
-161.8964056669912
 30
0.0
 10
95.90129527767398
 20
-161.8964056669912
 30
0.0
 10
96.14882538828918
 20
-161.8964056669912
 30
0.0
 10
96.19757348940547
 20
-161.6149413658463
 30
0.0
 10
96.19757348940547
 20
-161.2680202504816
 30
0.0
 10
96.19757348940547
 20
-160.948659898999
 30
0.0
 10
96.15950518429347
 20
-160.6396348339721
 30
0.0
 10
95.90129527767398
 20
-160.6396348339721
 30
0.0
  0
HATCH
  5
C5
330
BD
100
AcDbEntity
  8
_U+30EC_U+30A4_U+30E4_U+30FC 1
 62
   179
420
  2234388
100
AcDbHatch
 10
0.0
 20
0.0
 30
0.0
210
0.0
220
0.0
230
1.0
  2
SOLID
 70
     1
 71
     0
 91
        2
 92
        1
 93
        1
 72
     4
 94
        3
 73
     0
 74
     1
 95
       29
 96
       25
 40
0.0
 40
0.0
 40
0.0
 40
0.0
 40
1.0
 40
1.0
 40
1.0
 40
2.0
 40
2.0
 40
2.0
 40
3.0
 40
3.0
 40
3.0
 40
4.0
 40
4.0
 40
4.0
 40
5.0
 40
5.0
 40
5.0
 40
6.0
 40
6.0
 40
6.0
 40
7.0
 40
7.0
 40
7.0
 40
8.0
 40
8.0
 40
8.0
 40
8.0
 10
96.29903155144608
 20
-161.8622992216872
 10
96.19120006275776
 20
-162.0717610271904
 10
96.01773950507543
 20
-162.0910535619078
 10
95.90129527767398
 20
-162.0910535619078
 10
95.74058157328709
 20
-162.0910535619078
 10
95.59881589406905
 20
-162.0445447728569
 10
95.5035590039019
 20
-161.8622992216872
 10
95.40003388457014
 20
-161.6676513267706
 10
95.380913604627
 20
-161.4309732669339
 10
95.380913604627
 20
-161.2680202504816
 10
95.380913604627
 20
-161.1240152591982
 10
95.39779457250472
 20
-160.8725232887749
 10
95.5035590039019
 20
-160.6733967697275
 10
95.61156274736447
 20
-160.4704806456463
 10
95.77227645175138
 20
-160.4470539963466
 10
95.90129527767398
 20
-160.4470539963466
 10
96.05994192476975
 20
-160.4470539963466
 10
96.20377466127893
 20
-160.4914957281063
 10
96.29903155144608
 20
-160.6733967697275
 10
96.39842255619554
 20
-160.865977607353
 10
96.42167695072098
 20
-161.094387438025
 10
96.42167695072098
 20
-161.2680202504816
 10
96.42167695072098
 20
-161.4392414960985
 10
96.40066186826095
 20
-161.6700628936103
 10
96.29903155144608
 20
-161.8622992216872
 97
        0
 97
        0
 92
        1
 93
        1
 72
     4
 94
        3
 73
     0
 74
     1
 95
       17
 96
       13
 40
0.0
 40
0.0
 40
0.0
 40
0.0
 40
1.0
 40
1.0
 40
1.0
 40
2.0
 40
2.0
 40
2.0
 40
3.0
 40
3.0
 40
3.0
 40
4.0
 40
4.0
 40
4.0
 40
4.0
 10
95.90129527767398
 20
-160.6396348339721
 10
95.65169810976764
 20
-160.6396348339721
 10
95.60518932071676
 20
-160.9231661924081
 10
95.60518932071676
 20
-161.2680202504816
 10
95.60518932071676
 20
-161.5873806019643
 10
95.64119056853762
 20
-161.8964056669912
 10
95.90129527767398
 20
-161.8964056669912
 10
96.14882538828918
 20
-161.8964056669912
 10
96.19757348940547
 20
-161.6149413658463
 10
96.19757348940547
 20
-161.2680202504816
 10
96.19757348940547
 20
-160.948659898999
 10
96.15950518429347
 20
-160.6396348339721
 10
95.90129527767398
 20
-160.6396348339721
 97
        0
 97
        0
 75
     2
 76
     1
 98
        0
  0
ENDBLK
  5
C0
330
BD
100
AcDbEntity
  8
0
100
AcDbBlockEnd
  0
BLOCK
  5
D4
330
D2
100
AcDbEntity
  8
0
100
AcDbBlockBegin
  2
block 5
 70
     0
 10
0.0
 20
0.0
 30
0.0
  3
block 5
  1

  0
SPLINE
  5
D6
330
D2
100
AcDbEntity
  8
_U+30EC_U+30A4_U+30E4_U+30FC 1
370
     0
100
AcDbSpline
210
0.0
220
0.0
230
1.0
 70
    11
 71
     3
 72
    44
 73
    40
 74
     0
 42
0.0000000001
 43
0.0000000001
 12
1.0
 22
0.0
 32
0.0
 13
1.0
 23
0.0
 33
0.0
 40
0.0
 40
0.0
 40
0.0
 40
0.0
 40
1.0
 40
1.0
 40
1.0
 40
2.0
 40
2.0
 40
2.0
 40
3.0
 40
3.0
 40
3.0
 40
4.0
 40
4.0
 40
4.0
 40
5.0
 40
5.0
 40
5.0
 40
6.0
 40
6.0
 40
6.0
 40
7.0
 40
7.0
 40
7.0
 40
8.0
 40
8.0
 40
8.0
 40
9.0
 40
9.0
 40
9.0
 40
10.0
 40
10.0
 40
10.0
 40
11.0
 40
11.0
 40
11.0
 40
12.0
 40
12.0
 40
12.0
 40
13.0
 40
13.0
 40
13.0
 40
13.0
 10
102.3176133641775
 20
-135.7543321058184
 30
0.0
 10
102.0997110747355
 20
-135.9129787529141
 30
0.0
 10
102.0065212418595
 20
-135.987048305847
 30
0.0
 10
101.9579453955175
 20
-136.1308810423562
 30
0.0
 10
101.9579453955175
 20
-136.1308810423562
 30
0.0
 10
102.7363647204097
 20
-136.1308810423562
 30
0.0
 10
102.7363647204097
 20
-136.1308810423562
 30
0.0
 10
102.7363647204097
 20
-136.1308810423562
 30
0.0
 10
102.7363647204097
 20
-136.3360364785028
 30
0.0
 10
102.7363647204097
 20
-136.3360364785028
 30
0.0
 10
102.7363647204097
 20
-136.3360364785028
 30
0.0
 10
101.7083482276111
 20
-136.3360364785028
 30
0.0
 10
101.7083482276111
 20
-136.3360364785028
 30
0.0
 10
101.7400431060754
 20
-135.9784355671339
 30
0.0
 10
101.8056721750694
 20
-135.9002318996187
 30
0.0
 10
102.1906615955461
 20
-135.6018866305961
 30
0.0
 10
102.4466321901001
 20
-135.4031046210972
 30
0.0
 10
102.5120890043199
 20
-135.335408494812
 30
0.0
 10
102.5120890043199
 20
-135.1979491849505
 30
0.0
 10
102.5120890043199
 20
-135.0794379002579
 30
0.0
 10
102.4402587634524
 20
-134.9483520170442
 30
0.0
 10
102.2435438112447
 20
-134.9483520170442
 30
0.0
 10
101.9832668473341
 20
-134.9483520170442
 30
0.0
 10
101.9748263633952
 20
-135.1788289050074
 30
0.0
 10
101.9705199940386
 20
-135.2952731324088
 30
0.0
 10
101.9705199940386
 20
-135.2952731324088
 30
0.0
 10
101.7464165327231
 20
-135.2952731324088
 30
0.0
 10
101.7464165327231
 20
-135.2952731324088
 30
0.0
 10
101.754857016662
 20
-135.1683213637774
 30
0.0
 10
101.765364557892
 20
-135.0561835057325
 30
0.0
 10
101.8458075374726
 20
-134.9376722210399
 30
0.0
 10
101.9557060834521
 20
-134.776958516653
 30
0.0
 10
102.1419134944298
 20
-134.7430243261233
 30
0.0
 10
102.2583577218312
 20
-134.7430243261233
 30
0.0
 10
102.5355156536196
 20
-134.7430243261233
 30
0.0
 10
102.7427381470574
 20
-134.9271646798099
 30
0.0
 10
102.7427381470574
 20
-135.2000162422417
 30
0.0
 10
102.7427381470574
 20
-135.4284260729137
 30
0.0
 10
102.6264661744302
 20
-135.5279893324374
 30
0.0
 10
102.3176133641775
 20
-135.7543321058184
 30
0.0
  0
HATCH
  5
D7
330
D2
100
AcDbEntity
  8
_U+30EC_U+30A4_U+30E4_U+30FC 1
 62
   179
420
  2234388
100
AcDbHatch
 10
0.0
 20
0.0
 30
0.0
210
0.0
220
0.0
230
1.0
  2
SOLID
 70
     1
 71
     0
 91
        1
 92
        1
 93
        1
 72
     4
 94
        3
 73
     0
 74
     1
 95
       44
 96
       40
 40
0.0
 40
0.0
 40
0.0
 40
0.0
 40
1.0
 40
1.0
 40
1.0
 40
2.0
 40
2.0
 40
2.0
 40
3.0
 40
3.0
 40
3.0
 40
4.0
 40
4.0
 40
4.0
 40
5.0
 40
5.0
 40
5.0
 40
6.0
 40
6.0
 40
6.0
 40
7.0
 40
7.0
 40
7.0
 40
8.0
 40
8.0
 40
8.0
 40
9.0
 40
9.0
 40
9.0
 40
10.0
 40
10.0
 40
10.0
 40
11.0
 40
11.0
 40
11.0
 40
12.0
 40
12.0
 40
12.0
 40
13.0
 40
13.0
 40
13.0
 40
13.0
 10
102.3176133641775
 20
-135.7543321058184
 10
102.0997110747355
 20
-135.9129787529141
 10
102.0065212418595
 20
-135.987048305847
 10
101.9579453955175
 20
-136.1308810423562
 10
101.9579453955175
 20
-136.1308810423562
 10
102.7363647204097
 20
-136.1308810423562
 10
102.7363647204097
 20
-136.1308810423562
 10
102.7363647204097
 20
-136.1308810423562
 10
102.7363647204097
 20
-136.3360364785028
 10
102.7363647204097
 20
-136.3360364785028
 10
102.7363647204097
 20
-136.3360364785028
 10
101.7083482276111
 20
-136.3360364785028
 10
101.7083482276111
 20
-136.3360364785028
 10
101.7400431060754
 20
-135.9784355671339
 10
101.8056721750694
 20
-135.9002318996187
 10
102.1906615955461
 20
-135.6018866305961
 10
102.4466321901001
 20
-135.4031046210972
 10
102.5120890043199
 20
-135.335408494812
 10
102.5120890043199
 20
-135.1979491849505
 10
102.5120890043199
 20
-135.0794379002579
 10
102.4402587634524
 20
-134.9483520170442
 10
102.2435438112447
 20
-134.9483520170442
 10
101.9832668473341
 20
-134.9483520170442
 10
101.9748263633952
 20
-135.1788289050074
 10
101.9705199940386
 20
-135.2952731324088
 10
101.9705199940386
 20
-135.2952731324088
 10
101.7464165327231
 20
-135.2952731324088
 10
101.7464165327231
 20
-135.2952731324088
 10
101.754857016662
 20
-135.1683213637774
 10
101.765364557892
 20
-135.0561835057325
 10
101.8458075374726
 20
-134.9376722210399
 10
101.9557060834521
 20
-134.776958516653
 10
102.1419134944298
 20
-134.7430243261233
 10
102.2583577218312
 20
-134.7430243261233
 10
102.5355156536196
 20
-134.7430243261233
 10
102.7427381470574
 20
-134.9271646798099
 10
102.7427381470574
 20
-135.2000162422417
 10
102.7427381470574
 20
-135.4284260729137
 10
102.6264661744302
 20
-135.5279893324374
 10
102.3176133641775
 20
-135.7543321058184
 97
        0
 97
        0
 75
     2
 76
     1
 98
        0
  0
SPLINE
  5
D8
330
D2
100
AcDbEntity
  8
_U+30EC_U+30A4_U+30E4_U+30FC 1
370
     0
100
AcDbSpline
210
0.0
220
0.0
230
1.0
 70
    11
 71
     3
 72
    53
 73
    49
 74
     0
 42
0.0000000001
 43
0.0000000001
 12
1.0
 22
0.0
 32
0.0
 13
1.0
 23
0.0
 33
0.0
 40
0.0
 40
0.0
 40
0.0
 40
0.0
 40
1.0
 40
1.0
 40
1.0
 40
2.0
 40
2.0
 40
2.0
 40
3.0
 40
3.0
 40
3.0
 40
4.0
 40
4.0
 40
4.0
 40
5.0
 40
5.0
 40
5.0
 40
6.0
 40
6.0
 40
6.0
 40
7.0
 40
7.0
 40
7.0
 40
8.0
 40
8.0
 40
8.0
 40
9.0
 40
9.0
 40
9.0
 40
10.0
 40
10.0
 40
10.0
 40
11.0
 40
11.0
 40
11.0
 40
12.0
 40
12.0
 40
12.0
 40
13.0
 40
13.0
 40
13.0
 40
14.0
 40
14.0
 40
14.0
 40
15.0
 40
15.0
 40
15.0
 40
16.0
 40
16.0
 40
16.0
 40
16.0
 10
103.382320123894
 20
-136.3868516369103
 30
0.0
 10
103.3039442016046
 20
-136.3868516369103
 30
0.0
 10
103.202486139564
 20
-136.3697984142582
 30
0.0
 10
103.1008558227491
 20
-136.3064086573297
 30
0.0
 10
102.9273952650668
 20
-136.1963378565759
 30
0.0
 10
102.9062079278325
 20
-136.0652519733622
 30
0.0
 10
102.8872599026636
 20
-135.9574204846738
 30
0.0
 10
102.8872599026636
 20
-135.9574204846738
 30
0.0
 10
103.109296306688
 20
-135.9574204846738
 30
0.0
 10
103.109296306688
 20
-135.9574204846738
 30
0.0
 10
103.164417834452
 20
-136.1562024941728
 30
0.0
 10
103.2913696030834
 20
-136.1858303153459
 30
0.0
 10
103.3843871811852
 20
-136.1858303153459
 30
0.0
 10
103.524085803112
 20
-136.1858303153459
 30
0.0
 10
103.6763590235601
 20
-136.0864393105965
 30
0.0
 10
103.6763590235601
 20
-135.8537231105678
 30
0.0
 10
103.6763590235601
 20
-135.5977525160138
 30
0.0
 10
103.49652503923
 20
-135.5279893324374
 30
0.0
 10
103.3759466972463
 20
-135.5279893324374
 30
0.0
 10
103.344251818782
 20
-135.5279893324374
 30
0.0
 10
103.202486139564
 20
-135.5279893324374
 30
0.0
 10
103.1136026760445
 20
-135.6570081583601
 30
0.0
 10
103.1136026760445
 20
-135.6570081583601
 30
0.0
 10
102.938075061071
 20
-135.6378878784169
 30
0.0
 10
102.938075061071
 20
-135.6378878784169
 30
0.0
 10
102.938075061071
 20
-135.6378878784169
 30
0.0
 10
103.0586534030548
 20
-134.7917724272396
 30
0.0
 10
103.0586534030548
 20
-134.7917724272396
 30
0.0
 10
103.0586534030548
 20
-134.7917724272396
 30
0.0
 10
103.837072727947
 20
-134.7917724272396
 30
0.0
 10
103.837072727947
 20
-134.7917724272396
 30
0.0
 10
103.837072727947
 20
-134.7917724272396
 30
0.0
 10
103.837072727947
 20
-134.9864203221562
 30
0.0
 10
103.837072727947
 20
-134.9864203221562
 30
0.0
 10
103.837072727947
 20
-134.9864203221562
 30
0.0
 10
103.2214341647328
 20
-134.9864203221562
 30
0.0
 10
103.2214341647328
 20
-134.9864203221562
 30
0.0
 10
103.2214341647328
 20
-134.9864203221562
 30
0.0
 10
103.1559773505131
 20
-135.4094780477449
 30
0.0
 10
103.1559773505131
 20
-135.4094780477449
 30
0.0
 10
103.2173000501505
 20
-135.3755438572151
 30
0.0
 10
103.2998100870223
 20
-135.335408494812
 30
0.0
 10
103.4181491169406
 20
-135.335408494812
 30
0.0
 10
103.6720526542035
 20
-135.335408494812
 30
0.0
 10
103.9090752235887
 20
-135.5216159057897
 30
0.0
 10
103.9090752235887
 20
-135.8346028306247
 30
0.0
 10
103.9090752235887
 20
-136.1520683795905
 30
0.0
 10
103.6847995074989
 20
-136.3868516369103
 30
0.0
 10
103.382320123894
 20
-136.3868516369103
 30
0.0
  0
HATCH
  5
D9
330
D2
100
AcDbEntity
  8
_U+30EC_U+30A4_U+30E4_U+30FC 1
 62
   179
420
  2234388
100
AcDbHatch
 10
0.0
 20
0.0
 30
0.0
210
0.0
220
0.0
230
1.0
  2
SOLID
 70
     1
 71
     0
 91
        1
 92
        1
 93
        1
 72
     4
 94
        3
 73
     0
 74
     1
 95
       53
 96
       49
 40
0.0
 40
0.0
 40
0.0
 40
0.0
 40
1.0
 40
1.0
 40
1.0
 40
2.0
 40
2.0
 40
2.0
 40
3.0
 40
3.0
 40
3.0
 40
4.0
 40
4.0
 40
4.0
 40
5.0
 40
5.0
 40
5.0
 40
6.0
 40
6.0
 40
6.0
 40
7.0
 40
7.0
 40
7.0
 40
8.0
 40
8.0
 40
8.0
 40
9.0
 40
9.0
 40
9.0
 40
10.0
 40
10.0
 40
10.0
 40
11.0
 40
11.0
 40
11.0
 40
12.0
 40
12.0
 40
12.0
 40
13.0
 40
13.0
 40
13.0
 40
14.0
 40
14.0
 40
14.0
 40
15.0
 40
15.0
 40
15.0
 40
16.0
 40
16.0
 40
16.0
 40
16.0
 10
103.382320123894
 20
-136.3868516369103
 10
103.3039442016046
 20
-136.3868516369103
 10
103.202486139564
 20
-136.3697984142582
 10
103.1008558227491
 20
-136.3064086573297
 10
102.9273952650668
 20
-136.1963378565759
 10
102.9062079278325
 20
-136.0652519733622
 10
102.8872599026636
 20
-135.9574204846738
 10
102.8872599026636
 20
-135.9574204846738
 10
103.109296306688
 20
-135.9574204846738
 10
103.109296306688
 20
-135.9574204846738
 10
103.164417834452
 20
-136.1562024941728
 10
103.2913696030834
 20
-136.1858303153459
 10
103.3843871811852
 20
-136.1858303153459
 10
103.524085803112
 20
-136.1858303153459
 10
103.6763590235601
 20
-136.0864393105965
 10
103.6763590235601
 20
-135.8537231105678
 10
103.6763590235601
 20
-135.5977525160138
 10
103.49652503923
 20
-135.5279893324374
 10
103.3759466972463
 20
-135.5279893324374
 10
103.344251818782
 20
-135.5279893324374
 10
103.202486139564
 20
-135.5279893324374
 10
103.1136026760445
 20
-135.6570081583601
 10
103.1136026760445
 20
-135.6570081583601
 10
102.938075061071
 20
-135.6378878784169
 10
102.938075061071
 20
-135.6378878784169
 10
102.938075061071
 20
-135.6378878784169
 10
103.0586534030548
 20
-134.7917724272396
 10
103.0586534030548
 20
-134.7917724272396
 10
103.0586534030548
 20
-134.7917724272396
 10
103.837072727947
 20
-134.7917724272396
 10
103.837072727947
 20
-134.7917724272396
 10
103.837072727947
 20
-134.7917724272396
 10
103.837072727947
 20
-134.9864203221562
 10
103.837072727947
 20
-134.9864203221562
 10
103.837072727947
 20
-134.9864203221562
 10
103.2214341647328
 20
-134.9864203221562
 10
103.2214341647328
 20
-134.9864203221562
 10
103.2214341647328
 20
-134.9864203221562
 10
103.1559773505131
 20
-135.4094780477449
 10
103.1559773505131
 20
-135.4094780477449
 10
103.2173000501505
 20
-135.3755438572151
 10
103.2998100870223
 20
-135.335408494812
 10
103.4181491169406
 20
-135.335408494812
 10
103.6720526542035
 20
-135.335408494812
 10
103.9090752235887
 20
-135.5216159057897
 10
103.9090752235887
 20
-135.8346028306247
 10
103.9090752235887
 20
-136.1520683795905
 10
103.6847995074989
 20
-136.3868516369103
 10
103.382320123894
 20
-136.3868516369103
 97
        0
 97
        0
 75
     2
 76
     1
 98
        0
  0
ENDBLK
  5
D5
330
D2
100
AcDbEntity
  8
0
100
AcDbBlockEnd
  0
BLOCK
  5
E4
330
E2
100
AcDbEntity
  8
0
100
AcDbBlockBegin
  2
block 6
 70
     0
 10
0.0
 20
0.0
 30
0.0
  3
block 6
  1

  0
SPLINE
  5
E6
330
E2
100
AcDbEntity
  8
_U+30EC_U+30A4_U+30E4_U+30FC 1
370
     0
100
AcDbSpline
210
0.0
220
0.0
230
1.0
 70
    11
 71
     3
 72
    26
 73
    22
 74
     0
 42
0.0000000001
 43
0.0000000001
 12
1.0
 22
0.0
 32
0.0
 13
1.0
 23
0.0
 33
0.0
 40
0.0
 40
0.0
 40
0.0
 40
0.0
 40
1.0
 40
1.0
 40
1.0
 40
2.0
 40
2.0
 40
2.0
 40
3.0
 40
3.0
 40
3.0
 40
4.0
 40
4.0
 40
4.0
 40
5.0
 40
5.0
 40
5.0
 40
6.0
 40
6.0
 40
6.0
 40
7.0
 40
7.0
 40
7.0
 40
7.0
 10
118.6670030085277
 20
-149.9818874408031
 30
0.0
 10
118.6670030085277
 20
-149.9818874408031
 30
0.0
 10
117.5625053959566
 20
-149.9818874408031
 30
0.0
 10
117.5625053959566
 20
-149.9818874408031
 30
0.0
 10
117.5625053959566
 20
-149.9818874408031
 30
0.0
 10
117.5625053959566
 20
-150.3119275882901
 30
0.0
 10
117.5625053959566
 20
-150.3119275882901
 30
0.0
 10
117.5625053959566
 20
-150.3119275882901
 30
0.0
 10
117.4147107996394
 20
-150.3119275882901
 30
0.0
 10
117.4147107996394
 20
-150.3119275882901
 30
0.0
 10
117.3998968890528
 20
-149.979820383512
 30
0.0
 10
117.2369438726005
 20
-149.9333115944611
 30
0.0
 10
117.1225667024902
 20
-149.903683773288
 30
0.0
 10
117.1225667024902
 20
-149.903683773288
 30
0.0
 10
117.1225667024902
 20
-149.7576117247134
 30
0.0
 10
117.1225667024902
 20
-149.7576117247134
 30
0.0
 10
117.1225667024902
 20
-149.7576117247134
 30
0.0
 10
118.6670030085277
 20
-149.7576117247134
 30
0.0
 10
118.6670030085277
 20
-149.7576117247134
 30
0.0
 10
118.6670030085277
 20
-149.7576117247134
 30
0.0
 10
118.6670030085277
 20
-149.9818874408031
 30
0.0
 10
118.6670030085277
 20
-149.9818874408031
 30
0.0
  0
HATCH
  5
E7
330
E2
100
AcDbEntity
  8
_U+30EC_U+30A4_U+30E4_U+30FC 1
 62
   179
420
  2234388
100
AcDbHatch
 10
0.0
 20
0.0
 30
0.0
210
0.0
220
0.0
230
1.0
  2
SOLID
 70
     1
 71
     0
 91
        1
 92
        1
 93
        1
 72
     4
 94
        3
 73
     0
 74
     1
 95
       26
 96
       22
 40
0.0
 40
0.0
 40
0.0
 40
0.0
 40
1.0
 40
1.0
 40
1.0
 40
2.0
 40
2.0
 40
2.0
 40
3.0
 40
3.0
 40
3.0
 40
4.0
 40
4.0
 40
4.0
 40
5.0
 40
5.0
 40
5.0
 40
6.0
 40
6.0
 40
6.0
 40
7.0
 40
7.0
 40
7.0
 40
7.0
 10
118.6670030085277
 20
-149.9818874408031
 10
118.6670030085277
 20
-149.9818874408031
 10
117.5625053959566
 20
-149.9818874408031
 10
117.5625053959566
 20
-149.9818874408031
 10
117.5625053959566
 20
-149.9818874408031
 10
117.5625053959566
 20
-150.3119275882901
 10
117.5625053959566
 20
-150.3119275882901
 10
117.5625053959566
 20
-150.3119275882901
 10
117.4147107996394
 20
-150.3119275882901
 10
117.4147107996394
 20
-150.3119275882901
 10
117.3998968890528
 20
-149.979820383512
 10
117.2369438726005
 20
-149.9333115944611
 10
117.1225667024902
 20
-149.903683773288
 10
117.1225667024902
 20
-149.903683773288
 10
117.1225667024902
 20
-149.7576117247134
 10
117.1225667024902
 20
-149.7576117247134
 10
117.1225667024902
 20
-149.7576117247134
 10
118.6670030085277
 20
-149.7576117247134
 10
118.6670030085277
 20
-149.7576117247134
 10
118.6670030085277
 20
-149.7576117247134
 10
118.6670030085277
 20
-149.9818874408031
 10
118.6670030085277
 20
-149.9818874408031
 97
        0
 97
        0
 75
     2
 76
     1
 98
        0
  0
SPLINE
  5
E8
330
E2
100
AcDbEntity
  8
_U+30EC_U+30A4_U+30E4_U+30FC 1
370
     0
100
AcDbSpline
210
0.0
220
0.0
230
1.0
 70
    11
 71
     3
 72
    44
 73
    40
 74
     0
 42
0.0000000001
 43
0.0000000001
 12
1.0
 22
0.0
 32
0.0
 13
1.0
 23
0.0
 33
0.0
 40
0.0
 40
0.0
 40
0.0
 40
0.0
 40
1.0
 40
1.0
 40
1.0
 40
2.0
 40
2.0
 40
2.0
 40
3.0
 40
3.0
 40
3.0
 40
4.0
 40
4.0
 40
4.0
 40
5.0
 40
5.0
 40
5.0
 40
6.0
 40
6.0
 40
6.0
 40
7.0
 40
7.0
 40
7.0
 40
8.0
 40
8.0
 40
8.0
 40
9.0
 40
9.0
 40
9.0
 40
10.0
 40
10.0
 40
10.0
 40
11.0
 40
11.0
 40
11.0
 40
12.0
 40
12.0
 40
12.0
 40
13.0
 40
13.0
 40
13.0
 40
13.0
 10
118.085126381069
 20
-148.663449398598
 30
0.0
 10
118.243945282939
 20
-148.8811794332658
 30
0.0
 10
118.3180148358719
 20
-148.9741970113676
 30
0.0
 10
118.4616753176068
 20
-149.0231173672581
 30
0.0
 10
118.4616753176068
 20
-149.0231173672581
 30
0.0
 10
118.4616753176068
 20
-148.2445257875916
 30
0.0
 10
118.4616753176068
 20
-148.2445257875916
 30
0.0
 10
118.4616753176068
 20
-148.2445257875916
 30
0.0
 10
118.6670030085277
 20
-148.2445257875916
 30
0.0
 10
118.6670030085277
 20
-148.2445257875916
 30
0.0
 10
118.6670030085277
 20
-148.2445257875916
 30
0.0
 10
118.6670030085277
 20
-149.2725422803902
 30
0.0
 10
118.6670030085277
 20
-149.2725422803902
 30
0.0
 10
118.3094020971588
 20
-149.2408474019259
 30
0.0
 10
118.2311984296436
 20
-149.1753905877061
 30
0.0
 10
117.932853160621
 20
-148.7902289124552
 30
0.0
 10
117.734071151122
 20
-148.5342583179012
 30
0.0
 10
117.6662027700626
 20
-148.4688015036814
 30
0.0
 10
117.5287434602012
 20
-148.4688015036814
 30
0.0
 10
117.4102321755086
 20
-148.4688015036814
 30
0.0
 10
117.2793185470691
 20
-148.5408039993231
 30
0.0
 10
117.2793185470691
 20
-148.7375189515309
 30
0.0
 10
117.2793185470691
 20
-148.9976236606673
 30
0.0
 10
117.5097954350323
 20
-149.0058918898319
 30
0.0
 10
117.6262396624337
 20
-149.0103705139627
 30
0.0
 10
117.6262396624337
 20
-149.0103705139627
 30
0.0
 10
117.6262396624337
 20
-149.2346462300524
 30
0.0
 10
117.6262396624337
 20
-149.2346462300524
 30
0.0
 10
117.499115639028
 20
-149.2260334913393
 30
0.0
 10
117.3871500357574
 20
-149.2153536953351
 30
0.0
 10
117.2686387510648
 20
-149.1350829705287
 30
0.0
 10
117.1077527919036
 20
-149.0251844245493
 30
0.0
 10
117.0739908561482
 20
-148.8388047587972
 30
0.0
 10
117.0739908561482
 20
-148.7227050409443
 30
0.0
 10
117.0739908561482
 20
-148.4453748543817
 30
0.0
 10
117.2579589550605
 20
-148.2379801061697
 30
0.0
 10
117.5308105174923
 20
-148.2379801061697
 30
0.0
 10
117.7592203481644
 20
-148.2379801061697
 30
0.0
 10
117.8587836076881
 20
-148.3544243335711
 30
0.0
 10
118.085126381069
 20
-148.663449398598
 30
0.0
  0
HATCH
  5
E9
330
E2
100
AcDbEntity
  8
_U+30EC_U+30A4_U+30E4_U+30FC 1
 62
   179
420
  2234388
100
AcDbHatch
 10
0.0
 20
0.0
 30
0.0
210
0.0
220
0.0
230
1.0
  2
SOLID
 70
     1
 71
     0
 91
        1
 92
        1
 93
        1
 72
     4
 94
        3
 73
     0
 74
     1
 95
       44
 96
       40
 40
0.0
 40
0.0
 40
0.0
 40
0.0
 40
1.0
 40
1.0
 40
1.0
 40
2.0
 40
2.0
 40
2.0
 40
3.0
 40
3.0
 40
3.0
 40
4.0
 40
4.0
 40
4.0
 40
5.0
 40
5.0
 40
5.0
 40
6.0
 40
6.0
 40
6.0
 40
7.0
 40
7.0
 40
7.0
 40
8.0
 40
8.0
 40
8.0
 40
9.0
 40
9.0
 40
9.0
 40
10.0
 40
10.0
 40
10.0
 40
11.0
 40
11.0
 40
11.0
 40
12.0
 40
12.0
 40
12.0
 40
13.0
 40
13.0
 40
13.0
 40
13.0
 10
118.085126381069
 20
-148.663449398598
 10
118.243945282939
 20
-148.8811794332658
 10
118.3180148358719
 20
-148.9741970113676
 10
118.4616753176068
 20
-149.0231173672581
 10
118.4616753176068
 20
-149.0231173672581
 10
118.4616753176068
 20
-148.2445257875916
 10
118.4616753176068
 20
-148.2445257875916
 10
118.4616753176068
 20
-148.2445257875916
 10
118.6670030085277
 20
-148.2445257875916
 10
118.6670030085277
 20
-148.2445257875916
 10
118.6670030085277
 20
-148.2445257875916
 10
118.6670030085277
 20
-149.2725422803902
 10
118.6670030085277
 20
-149.2725422803902
 10
118.3094020971588
 20
-149.2408474019259
 10
118.2311984296436
 20
-149.1753905877061
 10
117.932853160621
 20
-148.7902289124552
 10
117.734071151122
 20
-148.5342583179012
 10
117.6662027700626
 20
-148.4688015036814
 10
117.5287434602012
 20
-148.4688015036814
 10
117.4102321755086
 20
-148.4688015036814
 10
117.2793185470691
 20
-148.5408039993231
 10
117.2793185470691
 20
-148.7375189515309
 10
117.2793185470691
 20
-148.9976236606673
 10
117.5097954350323
 20
-149.0058918898319
 10
117.6262396624337
 20
-149.0103705139627
 10
117.6262396624337
 20
-149.0103705139627
 10
117.6262396624337
 20
-149.2346462300524
 10
117.6262396624337
 20
-149.2346462300524
 10
117.499115639028
 20
-149.2260334913393
 10
117.3871500357574
 20
-149.2153536953351
 10
117.2686387510648
 20
-149.1350829705287
 10
117.1077527919036
 20
-149.0251844245493
 10
117.0739908561482
 20
-148.8388047587972
 10
117.0739908561482
 20
-148.7227050409443
 10
117.0739908561482
 20
-148.4453748543817
 10
117.2579589550605
 20
-148.2379801061697
 10
117.5308105174923
 20
-148.2379801061697
 10
117.7592203481644
 20
-148.2379801061697
 10
117.8587836076881
 20
-148.3544243335711
 10
118.085126381069
 20
-148.663449398598
 97
        0
 97
        0
 75
     2
 76
     1
 98
        0
  0
POLYLINE
  5
EA
330
E2
100
AcDbEntity
  8
_U+30EC_U+30A4_U+30E4_U+30FC 1
370
     0
100
AcDb2dPolyline
 66
     1
 10
0.0
 20
0.0
 30
0.0
  0
VERTEX
  5
EB
330
EA
100
AcDbEntity
  8
_U+30EC_U+30A4_U+30E4_U+30FC 1
370
     0
100
AcDbVertex
100
AcDb2dVertex
 10
118.6670030085277
 20
-148.0195610524048
 30
0.0
  0
VERTEX
  5
EC
330
EA
100
AcDbEntity
  8
_U+30EC_U+30A4_U+30E4_U+30FC 1
370
     0
100
AcDbVertex
100
AcDb2dVertex
 10
118.4151665285559
 20
-148.0195610524048
 30
0.0
  0
VERTEX
  5
ED
330
EA
100
AcDbEntity
  8
_U+30EC_U+30A4_U+30E4_U+30FC 1
370
     0
100
AcDbVertex
100
AcDb2dVertex
 10
118.4151665285559
 20
-147.7677245724331
 30
0.0
  0
VERTEX
  5
EE
330
EA
100
AcDbEntity
  8
_U+30EC_U+30A4_U+30E4_U+30FC 1
370
     0
100
AcDbVertex
100
AcDb2dVertex
 10
118.6670030085277
 20
-147.7677245724331
 30
0.0
  0
VERTEX
  5
EF
330
EA
100
AcDbEntity
  8
_U+30EC_U+30A4_U+30E4_U+30FC 1
370
     0
100
AcDbVertex
100
AcDb2dVertex
 10
118.6670030085277
 20
-148.0195610524048
 30
0.0
  0
SEQEND
  5
F0
330
EA
100
AcDbEntity
  8
_U+30EC_U+30A4_U+30E4_U+30FC 1
370
     0
  0
HATCH
  5
F1
330
E2
100
AcDbEntity
  8
_U+30EC_U+30A4_U+30E4_U+30FC 1
 62
   179
420
  2234388
100
AcDbHatch
 10
0.0
 20
0.0
 30
0.0
210
0.0
220
0.0
230
1.0
  2
SOLID
 70
     1
 71
     0
 91
        1
 92
        1
 93
        4
 72
     1
 10
118.6670030085277
 20
-148.0195610524048
 11
118.4151665285559
 21
-148.0195610524048
 72
     1
 10
118.4151665285559
 20
-148.0195610524048
 11
118.4151665285559
 21
-147.7677245724331
 72
     1
 10
118.4151665285559
 20
-147.7677245724331
 11
118.6670030085277
 21
-147.7677245724331
 72
     1
 10
118.6670030085277
 20
-147.7677245724331
 11
118.6670030085277
 21
-148.0195610524048
 97
        0
 75
     2
 76
     1
 98
        0
  0
SPLINE
  5
F2
330
E2
100
AcDbEntity
  8
_U+30EC_U+30A4_U+30E4_U+30FC 1
370
     0
100
AcDbSpline
210
0.0
220
0.0
230
1.0
 70
    11
 71
     3
 72
    53
 73
    49
 74
     0
 42
0.0000000001
 43
0.0000000001
 12
1.0
 22
0.0
 32
0.0
 13
1.0
 23
0.0
 33
0.0
 40
0.0
 40
0.0
 40
0.0
 40
0.0
 40
1.0
 40
1.0
 40
1.0
 40
2.0
 40
2.0
 40
2.0
 40
3.0
 40
3.0
 40
3.0
 40
4.0
 40
4.0
 40
4.0
 40
5.0
 40
5.0
 40
5.0
 40
6.0
 40
6.0
 40
6.0
 40
7.0
 40
7.0
 40
7.0
 40
8.0
 40
8.0
 40
8.0
 40
9.0
 40
9.0
 40
9.0
 40
10.0
 40
10.0
 40
10.0
 40
11.0
 40
11.0
 40
11.0
 40
12.0
 40
12.0
 40
12.0
 40
13.0
 40
13.0
 40
13.0
 40
14.0
 40
14.0
 40
14.0
 40
15.0
 40
15.0
 40
15.0
 40
16.0
 40
16.0
 40
16.0
 40
16.0
 10
118.7176459121609
 20
-147.0504556924041
 30
0.0
 10
118.7176459121609
 20
-147.1286593599192
 30
0.0
 10
118.7007649442832
 20
-147.2302896767341
 30
0.0
 10
118.6373751873546
 20
-147.331919993549
 30
0.0
 10
118.5271321318266
 20
-147.505208296457
 30
0.0
 10
118.3962185033871
 20
-147.5265678884656
 30
0.0
 10
118.2883870146987
 20
-147.5455159136345
 30
0.0
 10
118.2883870146987
 20
-147.5455159136345
 30
0.0
 10
118.2883870146987
 20
-147.3233072548358
 30
0.0
 10
118.2883870146987
 20
-147.3233072548358
 30
0.0
 10
118.4871690241977
 20
-147.2685302366204
 30
0.0
 10
118.5167968453708
 20
-147.1414062132147
 30
0.0
 10
118.5167968453708
 20
-147.0483886351129
 30
0.0
 10
118.5167968453708
 20
-146.9088622679603
 30
0.0
 10
118.4172335858471
 20
-146.7565890475123
 30
0.0
 10
118.1846896405927
 20
-146.7565890475123
 30
0.0
 10
117.9287190460387
 20
-146.7565890475123
 30
0.0
 10
117.8587836076881
 20
-146.9364230318423
 30
0.0
 10
117.8587836076881
 20
-147.057001373826
 30
0.0
 10
117.8587836076881
 20
-147.0886962522903
 30
0.0
 10
117.8587836076881
 20
-147.2302896767341
 30
0.0
 10
117.987974688385
 20
-147.3191731402536
 30
0.0
 10
117.987974688385
 20
-147.3191731402536
 30
0.0
 10
117.9686821536676
 20
-147.4948730100013
 30
0.0
 10
117.9686821536676
 20
-147.4948730100013
 30
0.0
 10
117.9686821536676
 20
-147.4948730100013
 30
0.0
 10
117.1225667024902
 20
-147.3742946680175
 30
0.0
 10
117.1225667024902
 20
-147.3742946680175
 30
0.0
 10
117.1225667024902
 20
-147.3742946680175
 30
0.0
 10
117.1225667024902
 20
-146.5957030883511
 30
0.0
 10
117.1225667024902
 20
-146.5957030883511
 30
0.0
 10
117.1225667024902
 20
-146.5957030883511
 30
0.0
 10
117.3172145974068
 20
-146.5957030883511
 30
0.0
 10
117.3172145974068
 20
-146.5957030883511
 30
0.0
 10
117.3172145974068
 20
-146.5957030883511
 30
0.0
 10
117.3172145974068
 20
-147.2113416515652
 30
0.0
 10
117.3172145974068
 20
-147.2113416515652
 30
0.0
 10
117.3172145974068
 20
-147.2113416515652
 30
0.0
 10
117.7402723229955
 20
-147.276798465785
 30
0.0
 10
117.7402723229955
 20
-147.276798465785
 30
0.0
 10
117.70651038724
 20
-147.2154757661475
 30
0.0
 10
117.6662027700626
 20
-147.1331379840501
 30
0.0
 10
117.6662027700626
 20
-147.0146266993574
 30
0.0
 10
117.6662027700626
 20
-146.7607231620945
 30
0.0
 10
117.8525824358146
 20
-146.5237005927094
 30
0.0
 10
118.1653971058753
 20
-146.5237005927094
 30
0.0
 10
118.4830349096154
 20
-146.5237005927094
 30
0.0
 10
118.7176459121609
 20
-146.7479763087991
 30
0.0
 10
118.7176459121609
 20
-147.0504556924041
 30
0.0
  0
HATCH
  5
F3
330
E2
100
AcDbEntity
  8
_U+30EC_U+30A4_U+30E4_U+30FC 1
 62
   179
420
  2234388
100
AcDbHatch
 10
0.0
 20
0.0
 30
0.0
210
0.0
220
0.0
230
1.0
  2
SOLID
 70
     1
 71
     0
 91
        1
 92
        1
 93
        1
 72
     4
 94
        3
 73
     0
 74
     1
 95
       53
 96
       49
 40
0.0
 40
0.0
 40
0.0
 40
0.0
 40
1.0
 40
1.0
 40
1.0
 40
2.0
 40
2.0
 40
2.0
 40
3.0
 40
3.0
 40
3.0
 40
4.0
 40
4.0
 40
4.0
 40
5.0
 40
5.0
 40
5.0
 40
6.0
 40
6.0
 40
6.0
 40
7.0
 40
7.0
 40
7.0
 40
8.0
 40
8.0
 40
8.0
 40
9.0
 40
9.0
 40
9.0
 40
10.0
 40
10.0
 40
10.0
 40
11.0
 40
11.0
 40
11.0
 40
12.0
 40
12.0
 40
12.0
 40
13.0
 40
13.0
 40
13.0
 40
14.0
 40
14.0
 40
14.0
 40
15.0
 40
15.0
 40
15.0
 40
16.0
 40
16.0
 40
16.0
 40
16.0
 10
118.7176459121609
 20
-147.0504556924041
 10
118.7176459121609
 20
-147.1286593599192
 10
118.7007649442832
 20
-147.2302896767341
 10
118.6373751873546
 20
-147.331919993549
 10
118.5271321318266
 20
-147.505208296457
 10
118.3962185033871
 20
-147.5265678884656
 10
118.2883870146987
 20
-147.5455159136345
 10
118.2883870146987
 20
-147.5455159136345
 10
118.2883870146987
 20
-147.3233072548358
 10
118.2883870146987
 20
-147.3233072548358
 10
118.4871690241977
 20
-147.2685302366204
 10
118.5167968453708
 20
-147.1414062132147
 10
118.5167968453708
 20
-147.0483886351129
 10
118.5167968453708
 20
-146.9088622679603
 10
118.4172335858471
 20
-146.7565890475123
 10
118.1846896405927
 20
-146.7565890475123
 10
117.9287190460387
 20
-146.7565890475123
 10
117.8587836076881
 20
-146.9364230318423
 10
117.8587836076881
 20
-147.057001373826
 10
117.8587836076881
 20
-147.0886962522903
 10
117.8587836076881
 20
-147.2302896767341
 10
117.987974688385
 20
-147.3191731402536
 10
117.987974688385
 20
-147.3191731402536
 10
117.9686821536676
 20
-147.4948730100013
 10
117.9686821536676
 20
-147.4948730100013
 10
117.9686821536676
 20
-147.4948730100013
 10
117.1225667024902
 20
-147.3742946680175
 10
117.1225667024902
 20
-147.3742946680175
 10
117.1225667024902
 20
-147.3742946680175
 10
117.1225667024902
 20
-146.5957030883511
 10
117.1225667024902
 20
-146.5957030883511
 10
117.1225667024902
 20
-146.5957030883511
 10
117.3172145974068
 20
-146.5957030883511
 10
117.3172145974068
 20
-146.5957030883511
 10
117.3172145974068
 20
-146.5957030883511
 10
117.3172145974068
 20
-147.2113416515652
 10
117.3172145974068
 20
-147.2113416515652
 10
117.3172145974068
 20
-147.2113416515652
 10
117.7402723229955
 20
-147.276798465785
 10
117.7402723229955
 20
-147.276798465785
 10
117.70651038724
 20
-147.2154757661475
 10
117.6662027700626
 20
-147.1331379840501
 10
117.6662027700626
 20
-147.0146266993574
 10
117.6662027700626
 20
-146.7607231620945
 10
117.8525824358146
 20
-146.5237005927094
 10
118.1653971058753
 20
-146.5237005927094
 10
118.4830349096154
 20
-146.5237005927094
 10
118.7176459121609
 20
-146.7479763087991
 10
118.7176459121609
 20
-147.0504556924041
 97
        0
 97
        0
 75
     2
 76
     1
 98
        0
  0
ENDBLK
  5
E5
330
E2
100
AcDbEntity
  8
0
100
AcDbBlockEnd
  0
ENDSEC
  0
SECTION
  2
ENTITIES
  0
POLYLINE
  5
41
330
1F
100
AcDbEntity
  8
_U+30EC_U+30A4_U+30E4_U+30FC 1
  6
AI-Linetype-1
 62
   154
420
    23468
370
    25
100
AcDb2dPolyline
 66
     1
 10
0.0
 20
0.0
 30
0.0
  0
VERTEX
  5
42
330
41
100
AcDbEntity
  8
_U+30EC_U+30A4_U+30E4_U+30FC 1
  6
AI-Linetype-1
 62
   154
420
    23468
370
    25
100
AcDbVertex
100
AcDb2dVertex
 10
89.7696282056392
 20
-140.980972593878
 30
0.0
  0
VERTEX
  5
43
330
41
100
AcDbEntity
  8
_U+30EC_U+30A4_U+30E4_U+30FC 1
  6
AI-Linetype-1
 62
   154
420
    23468
370
    25
100
AcDbVertex
100
AcDb2dVertex
 10
89.7696282056392
 20
-158.4230173350687
 30
0.0
  0
VERTEX
  5
44
330
41
100
AcDbEntity
  8
_U+30EC_U+30A4_U+30E4_U+30FC 1
  6
AI-Linetype-1
 62
   154
420
    23468
370
    25
100
AcDbVertex
100
AcDb2dVertex
 10
100.8694244132595
 20
-158.4230173350687
 30
0.0
  0
SEQEND
  5
46
330
41
100
AcDbEntity
  8
_U+30EC_U+30A4_U+30E4_U+30FC 1
  6
AI-Linetype-1
 62
   154
420
    23468
370
    25
  0
POLYLINE
  5
47
330
1F
100
AcDbEntity
  8
_U+30EC_U+30A4_U+30E4_U+30FC 1
  6
AI-Linetype-2
 62
   154
420
    23468
370
    25
100
AcDb2dPolyline
 66
     1
 10
0.0
 20
0.0
 30
0.0
  0
VERTEX
  5
48
330
47
100
AcDbEntity
  8
_U+30EC_U+30A4_U+30E4_U+30FC 1
  6
AI-Linetype-2
 62
   154
420
    23468
370
    25
100
AcDbVertex
100
AcDb2dVertex
 10
100.8696074339569
 20
-158.4231572920728
 30
0.0
  0
VERTEX
  5
49
330
47
100
AcDbEntity
  8
_U+30EC_U+30A4_U+30E4_U+30FC 1
  6
AI-Linetype-2
 62
   154
420
    23468
370
    25
100
AcDbVertex
100
AcDb2dVertex
 10
100.8696074339569
 20
-154.8212991963207
 30
0.0
  0
SEQEND
  5
4B
330
47
100
AcDbEntity
  8
_U+30EC_U+30A4_U+30E4_U+30FC 1
  6
AI-Linetype-2
 62
   154
420
    23468
370
    25
  0
POLYLINE
  5
4C
330
1F
100
AcDbEntity
  8
_U+30EC_U+30A4_U+30E4_U+30FC 1
370
     0
100
AcDb2dPolyline
 66
     1
 10
0.0
 20
0.0
 30
0.0
  0
VERTEX
  5
4D
330
4C
100
AcDbEntity
  8
_U+30EC_U+30A4_U+30E4_U+30FC 1
370
     0
100
AcDbVertex
100
AcDb2dVertex
 10
90.25610798592665
 20
-140.9658141737429
 30
0.0
  0
VERTEX
  5
4E
330
4C
100
AcDbEntity
  8
_U+30EC_U+30A4_U+30E4_U+30FC 1
370
     0
100
AcDbVertex
100
AcDb2dVertex
 10
90.25610798592665
 20
-157.6049363484026
 30
0.0
  0
VERTEX
  5
4F
330
4C
100
AcDbEntity
  8
_U+30EC_U+30A4_U+30E4_U+30FC 1
370
     0
100
AcDbVertex
100
AcDb2dVertex
 10
100.4185690734739
 20
-157.6049363484026
 30
0.0
  0
VERTEX
  5
50
330
4C
100
AcDbEntity
  8
_U+30EC_U+30A4_U+30E4_U+30FC 1
370
     0
100
AcDbVertex
100
AcDb2dVertex
 10
100.4185690734739
 20
-154.6539536831247
 30
0.0
  0
VERTEX
  5
51
330
4C
100
AcDbEntity
  8
_U+30EC_U+30A4_U+30E4_U+30FC 1
370
     0
100
AcDbVertex
100
AcDb2dVertex
 10
99.30096933213548
 20
-154.6539536831247
 30
0.0
  0
VERTEX
  5
52
330
4C
100
AcDbEntity
  8
_U+30EC_U+30A4_U+30E4_U+30FC 1
370
     0
100
AcDbVertex
100
AcDb2dVertex
 10
99.30096933213548
 20
-156.5942314604174
 30
0.0
  0
VERTEX
  5
53
330
4C
100
AcDbEntity
  8
_U+30EC_U+30A4_U+30E4_U+30FC 1
370
     0
100
AcDbVertex
100
AcDb2dVertex
 10
91.304913476794
 20
-156.5942314604174
 30
0.0
  0
VERTEX
  5
54
330
4C
100
AcDbEntity
  8
_U+30EC_U+30A4_U+30E4_U+30FC 1
370
     0
100
AcDbVertex
100
AcDb2dVertex
 10
91.304913476794
 20
-141.9546642372435
 30
0.0
  0
VERTEX
  5
55
330
4C
100
AcDbEntity
  8
_U+30EC_U+30A4_U+30E4_U+30FC 1
370
     0
100
AcDbVertex
100
AcDb2dVertex
 10
115.3523582170115
 20
-141.9546642372435
 30
0.0
  0
VERTEX
  5
56
330
4C
100
AcDbEntity
  8
_U+30EC_U+30A4_U+30E4_U+30FC 1
370
     0
100
AcDbVertex
100
AcDb2dVertex
 10
115.3523582170115
 20
-141.0141531697703
 30
0.0
  0
VERTEX
  5
57
330
4C
100
AcDbEntity
  8
_U+30EC_U+30A4_U+30E4_U+30FC 1
370
     0
100
AcDbVertex
100
AcDb2dVertex
 10
90.25610798592665
 20
-140.9658141737429
 30
0.0
  0
SEQEND
  5
59
330
4C
100
AcDbEntity
  8
_U+30EC_U+30A4_U+30E4_U+30FC 1
370
     0
  0
HATCH
  5
58
330
1F
100
AcDbEntity
  8
_U+30EC_U+30A4_U+30E4_U+30FC 1
 62
     9
420
 13224394
100
AcDbHatch
 10
0.0
 20
0.0
 30
0.0
210
0.0
220
0.0
230
1.0
  2
SOLID
 70
     1
 71
     0
 91
        1
 92
        1
 93
       10
 72
     1
 10
90.25610798592665
 20
-140.9658141737429
 11
90.25610798592665
 21
-157.6049363484026
 72
     1
 10
90.25610798592665
 20
-157.6049363484026
 11
100.4185690734739
 21
-157.6049363484026
 72
     1
 10
100.4185690734739
 20
-157.6049363484026
 11
100.4185690734739
 21
-154.6539536831247
 72
     1
 10
100.4185690734739
 20
-154.6539536831247
 11
99.30096933213548
 21
-154.6539536831247
 72
     1
 10
99.30096933213548
 20
-154.6539536831247
 11
99.30096933213548
 21
-156.5942314604174
 72
     1
 10
99.30096933213548
 20
-156.5942314604174
 11
91.304913476794
 21
-156.5942314604174
 72
     1
 10
91.304913476794
 20
-156.5942314604174
 11
91.304913476794
 21
-141.9546642372435
 72
     1
 10
91.304913476794
 20
-141.9546642372435
 11
115.3523582170115
 21
-141.9546642372435
 72
     1
 10
115.3523582170115
 20
-141.9546642372435
 11
115.3523582170115
 21
-141.0141531697703
 72
     1
 10
115.3523582170115
 20
-141.0141531697703
 11
90.25610798592665
 21
-140.9658141737429
 97
        0
 75
     2
 76
     1
 98
        0
  0
POLYLINE
  5
5A
330
1F
100
AcDbEntity
  8
_U+30EC_U+30A4_U+30E4_U+30FC 1
 62
   179
420
  2234388
370
    25
100
AcDb2dPolyline
 66
     1
 10
0.0
 20
0.0
 30
0.0
  0
VERTEX
  5
5B
330
5A
100
AcDbEntity
  8
_U+30EC_U+30A4_U+30E4_U+30FC 1
 62
   179
420
  2234388
370
    25
100
AcDbVertex
100
AcDb2dVertex
 10
90.31329657098179
 20
-140.980972593878
 30
0.0
  0
VERTEX
  5
5C
330
5A
100
AcDbEntity
  8
_U+30EC_U+30A4_U+30E4_U+30FC 1
 62
   179
420
  2234388
370
    25
100
AcDbVertex
100
AcDb2dVertex
 10
115.3132456173306
 20
-140.980972593878
 30
0.0
  0
SEQEND
  5
5D
330
5A
100
AcDbEntity
  8
_U+30EC_U+30A4_U+30E4_U+30FC 1
 62
   179
420
  2234388
370
    25
  0
POLYLINE
  5
5E
330
1F
100
AcDbEntity
  8
_U+30EC_U+30A4_U+30E4_U+30FC 1
 62
   179
420
  2234388
370
    25
100
AcDb2dPolyline
 66
     1
 10
0.0
 20
0.0
 30
0.0
  0
VERTEX
  5
5F
330
5E
100
AcDbEntity
  8
_U+30EC_U+30A4_U+30E4_U+30FC 1
 62
   179
420
  2234388
370
    25
100
AcDbVertex
100
AcDb2dVertex
 10
90.31329657098179
 20
-140.980972593878
 30
0.0
  0
VERTEX
  5
60
330
5E
100
AcDbEntity
  8
_U+30EC_U+30A4_U+30E4_U+30FC 1
 62
   179
420
  2234388
370
    25
100
AcDbVertex
100
AcDb2dVertex
 10
90.31329657098179
 20
-157.7153516587049
 30
0.0
  0
SEQEND
  5
61
330
5E
100
AcDbEntity
  8
_U+30EC_U+30A4_U+30E4_U+30FC 1
 62
   179
420
  2234388
370
    25
  0
POLYLINE
  5
62
330
1F
100
AcDbEntity
  8
_U+30EC_U+30A4_U+30E4_U+30FC 1
 62
   179
420
  2234388
370
    25
100
AcDb2dPolyline
 66
     1
 10
0.0
 20
0.0
 30
0.0
  0
VERTEX
  5
63
330
62
100
AcDbEntity
  8
_U+30EC_U+30A4_U+30E4_U+30FC 1
 62
   179
420
  2234388
370
    25
100
AcDbVertex
100
AcDb2dVertex
 10
115.3133209787943
 20
-140.980972593878
 30
0.0
  0
VERTEX
  5
64
330
62
100
AcDbEntity
  8
_U+30EC_U+30A4_U+30E4_U+30FC 1
 62
   179
420
  2234388
370
    25
100
AcDbVertex
100
AcDb2dVertex
 10
115.3133209787943
 20
-141.9807608355443
 30
0.0
  0
SEQEND
  5
65
330
62
100
AcDbEntity
  8
_U+30EC_U+30A4_U+30E4_U+30FC 1
 62
   179
420
  2234388
370
    25
  0
POLYLINE
  5
66
330
1F
100
AcDbEntity
  8
_U+30EC_U+30A4_U+30E4_U+30FC 1
 62
   179
420
  2234388
370
    25
100
AcDb2dPolyline
 66
     1
 10
0.0
 20
0.0
 30
0.0
  0
VERTEX
  5
67
330
66
100
AcDbEntity
  8
_U+30EC_U+30A4_U+30E4_U+30FC 1
 62
   179
420
  2234388
370
    25
100
AcDbVertex
100
AcDb2dVertex
 10
91.31303098303113
 20
-141.9807608355443
 30
0.0
  0
VERTEX
  5
68
330
66
100
AcDbEntity
  8
_U+30EC_U+30A4_U+30E4_U+30FC 1
 62
   179
420
  2234388
370
    25
100
AcDbVertex
100
AcDb2dVertex
 10
110.110785393208
 20
-141.9807608355443
 30
0.0
  0
VERTEX
  5
69
330
66
100
AcDbEntity
  8
_U+30EC_U+30A4_U+30E4_U+30FC 1
 62
   179
420
  2234388
370
    25
100
AcDbVertex
100
AcDb2dVertex
 10
110.3132816462769
 20
-141.7803854693835
 30
0.0
  0
VERTEX
  5
6A
330
66
100
AcDbEntity
  8
_U+30EC_U+30A4_U+30E4_U+30FC 1
 62
   179
420
  2234388
370
    25
100
AcDbVertex
100
AcDb2dVertex
 10
110.5055502721241
 20
-141.9807608355443
 30
0.0
  0
VERTEX
  5
6B
330
66
100
AcDbEntity
  8
_U+30EC_U+30A4_U+30E4_U+30FC 1
 62
   179
420
  2234388
370
    25
100
AcDbVertex
100
AcDb2dVertex
 10
115.313202553637
 20
-141.9807608355443
 30
0.0
  0
SEQEND
  5
6C
330
66
100
AcDbEntity
  8
_U+30EC_U+30A4_U+30E4_U+30FC 1
 62
   179
420
  2234388
370
    25
  0
POLYLINE
  5
6D
330
1F
100
AcDbEntity
  8
_U+30EC_U+30A4_U+30E4_U+30FC 1
 62
   179
420
  2234388
370
    25
100
AcDb2dPolyline
 66
     1
 10
0.0
 20
0.0
 30
0.0
  0
VERTEX
  5
6E
330
6D
100
AcDbEntity
  8
_U+30EC_U+30A4_U+30E4_U+30FC 1
 62
   179
420
  2234388
370
    25
100
AcDbVertex
100
AcDb2dVertex
 10
100.313030726468
 20
-154.6269958109526
 30
0.0
  0
VERTEX
  5
6F
330
6D
100
AcDbEntity
  8
_U+30EC_U+30A4_U+30E4_U+30FC 1
 62
   179
420
  2234388
370
    25
100
AcDbVertex
100
AcDb2dVertex
 10
100.313030726468
 20
-157.6270280232017
 30
0.0
  0
SEQEND
  5
70
330
6D
100
AcDbEntity
  8
_U+30EC_U+30A4_U+30E4_U+30FC 1
 62
   179
420
  2234388
370
    25
  0
POLYLINE
  5
71
330
1F
100
AcDbEntity
  8
_U+30EC_U+30A4_U+30E4_U+30FC 1
 62
   179
420
  2234388
370
    25
100
AcDb2dPolyline
 66
     1
 10
0.0
 20
0.0
 30
0.0
  0
VERTEX
  5
72
330
71
100
AcDbEntity
  8
_U+30EC_U+30A4_U+30E4_U+30FC 1
 62
   179
420
  2234388
370
    25
100
AcDbVertex
100
AcDb2dVertex
 10
99.31326401664847
 20
-154.6269958109526
 30
0.0
  0
VERTEX
  5
73
330
71
100
AcDbEntity
  8
_U+30EC_U+30A4_U+30E4_U+30FC 1
 62
   179
420
  2234388
370
    25
100
AcDbVertex
100
AcDb2dVertex
 10
99.31326401664847
 20
-156.6265507624384
 30
0.0
  0
SEQEND
  5
74
330
71
100
AcDbEntity
  8
_U+30EC_U+30A4_U+30E4_U+30FC 1
 62
   179
420
  2234388
370
    25
  0
POLYLINE
  5
75
330
1F
100
AcDbEntity
  8
_U+30EC_U+30A4_U+30E4_U+30FC 1
 62
   179
420
  2234388
370
    25
100
AcDb2dPolyline
 66
     1
 10
0.0
 20
0.0
 30
0.0
  0
VERTEX
  5
76
330
75
100
AcDbEntity
  8
_U+30EC_U+30A4_U+30E4_U+30FC 1
 62
   179
420
  2234388
370
    25
100
AcDbVertex
100
AcDb2dVertex
 10
91.31303098303113
 20
-141.9807608355443
 30
0.0
  0
VERTEX
  5
77
330
75
100
AcDbEntity
  8
_U+30EC_U+30A4_U+30E4_U+30FC 1
 62
   179
420
  2234388
370
    25
100
AcDbVertex
100
AcDb2dVertex
 10
91.31303098303113
 20
-156.6267014853659
 30
0.0
  0
SEQEND
  5
78
330
75
100
AcDbEntity
  8
_U+30EC_U+30A4_U+30E4_U+30FC 1
 62
   179
420
  2234388
370
    25
  0
POLYLINE
  5
79
330
1F
100
AcDbEntity
  8
_U+30EC_U+30A4_U+30E4_U+30FC 1
 62
   179
420
  2234388
370
    25
100
AcDb2dPolyline
 66
     1
 10
0.0
 20
0.0
 30
0.0
  0
VERTEX
  5
7A
330
79
100
AcDbEntity
  8
_U+30EC_U+30A4_U+30E4_U+30FC 1
 62
   179
420
  2234388
370
    25
100
AcDbVertex
100
AcDb2dVertex
 10
99.31326401664847
 20
-154.6269958109526
 30
0.0
  0
VERTEX
  5
7B
330
79
100
AcDbEntity
  8
_U+30EC_U+30A4_U+30E4_U+30FC 1
 62
   179
420
  2234388
370
    25
100
AcDbVertex
100
AcDb2dVertex
 10
100.313030726468
 20
-154.6269958109526
 30
0.0
  0
SEQEND
  5
7C
330
79
100
AcDbEntity
  8
_U+30EC_U+30A4_U+30E4_U+30FC 1
 62
   179
420
  2234388
370
    25
  0
POLYLINE
  5
7D
330
1F
100
AcDbEntity
  8
_U+30EC_U+30A4_U+30E4_U+30FC 1
 62
   179
420
  2234388
370
    25
100
AcDb2dPolyline
 66
     1
 10
0.0
 20
0.0
 30
0.0
  0
VERTEX
  5
7E
330
7D
100
AcDbEntity
  8
_U+30EC_U+30A4_U+30E4_U+30FC 1
 62
   179
420
  2234388
370
    25
100
AcDbVertex
100
AcDb2dVertex
 10
90.31329657098179
 20
-157.7151794039306
 30
0.0
  0
VERTEX
  5
7F
330
7D
100
AcDbEntity
  8
_U+30EC_U+30A4_U+30E4_U+30FC 1
 62
   179
420
  2234388
370
    25
100
AcDbVertex
100
AcDb2dVertex
 10
100.3131276197788
 20
-157.7151794039306
 30
0.0
  0
SEQEND
  5
80
330
7D
100
AcDbEntity
  8
_U+30EC_U+30A4_U+30E4_U+30FC 1
 62
   179
420
  2234388
370
    25
  0
POLYLINE
  5
81
330
1F
100
AcDbEntity
  8
_U+30EC_U+30A4_U+30E4_U+30FC 1
 62
   179
420
  2234388
370
    25
100
AcDb2dPolyline
 66
     1
 10
0.0
 20
0.0
 30
0.0
  0
VERTEX
  5
82
330
81
100
AcDbEntity
  8
_U+30EC_U+30A4_U+30E4_U+30FC 1
 62
   179
420
  2234388
370
    25
100
AcDbVertex
100
AcDb2dVertex
 10
91.31303098303113
 20
-156.6265292305916
 30
0.0
  0
VERTEX
  5
83
330
81
100
AcDbEntity
  8
_U+30EC_U+30A4_U+30E4_U+30FC 1
 62
   179
420
  2234388
370
    25
100
AcDbVertex
100
AcDb2dVertex
 10
99.31331784626542
 20
-156.6265292305916
 30
0.0
  0
SEQEND
  5
84
330
81
100
AcDbEntity
  8
_U+30EC_U+30A4_U+30E4_U+30FC 1
 62
   179
420
  2234388
370
    25
  0
SPLINE
  5
85
330
1F
100
AcDbEntity
  8
_U+30EC_U+30A4_U+30E4_U+30FC 1
 62
   179
420
  2234388
370
     9
100
AcDbSpline
210
0.0
220
0.0
230
1.0
 70
    11
 71
     3
 72
    17
 73
    13
 74
     0
 42
0.0000000001
 43
0.0000000001
 12
1.0
 22
0.0
 32
0.0
 13
1.0
 23
0.0
 33
0.0
 40
0.0
 40
0.0
 40
0.0
 40
0.0
 40
1.0
 40
1.0
 40
1.0
 40
2.0
 40
2.0
 40
2.0
 40
3.0
 40
3.0
 40
3.0
 40
4.0
 40
4.0
 40
4.0
 40
4.0
 10
90.41320434005404
 20
-136.9805061845591
 30
0.0
 10
90.41320434005404
 20
-136.9254923160291
 30
0.0
 10
90.36839656689901
 20
-136.880684542874
 30
0.0
 10
90.31336116652214
 20
-136.880684542874
 30
0.0
 10
90.25832576614528
 20
-136.880684542874
 30
0.0
 10
90.21352875891364
 20
-136.9254923160291
 30
0.0
 10
90.21352875891364
 20
-136.9805061845591
 30
0.0
 10
90.21352875891364
 20
-137.035541584936
 30
0.0
 10
90.25832576614528
 20
-137.080349358091
 30
0.0
 10
90.31336116652214
 20
-137.080349358091
 30
0.0
 10
90.36839656689901
 20
-137.080349358091
 30
0.0
 10
90.41320434005404
 20
-137.035541584936
 30
0.0
 10
90.41320434005404
 20
-136.9805061845591
 30
0.0
  0
SPLINE
  5
86
330
1F
100
AcDbEntity
  8
_U+30EC_U+30A4_U+30E4_U+30FC 1
 62
   179
420
  2234388
370
     9
100
AcDbSpline
210
0.0
220
0.0
230
1.0
 70
    11
 71
     3
 72
    17
 73
    13
 74
     0
 42
0.0000000001
 43
0.0000000001
 12
1.0
 22
0.0
 32
0.0
 13
1.0
 23
0.0
 33
0.0
 40
0.0
 40
0.0
 40
0.0
 40
0.0
 40
1.0
 40
1.0
 40
1.0
 40
2.0
 40
2.0
 40
2.0
 40
3.0
 40
3.0
 40
3.0
 40
4.0
 40
4.0
 40
4.0
 40
4.0
 10
115.4132287478665
 20
-136.9805061845591
 30
0.0
 10
115.4132287478665
 20
-136.9254923160291
 30
0.0
 10
115.3684209747115
 20
-136.880684542874
 30
0.0
 10
115.3133855743346
 20
-136.880684542874
 30
0.0
 10
115.2580056644092
 20
-136.880684542874
 30
0.0
 10
115.2131978912542
 20
-136.9254923160291
 30
0.0
 10
115.2131978912542
 20
-136.9805061845591
 30
0.0
 10
115.2131978912542
 20
-137.035541584936
 30
0.0
 10
115.2580056644092
 20
-137.080349358091
 30
0.0
 10
115.3133855743346
 20
-137.080349358091
 30
0.0
 10
115.3684209747115
 20
-137.080349358091
 30
0.0
 10
115.4132287478665
 20
-137.035541584936
 30
0.0
 10
115.4132287478665
 20
-136.9805061845591
 30
0.0
  0
SPLINE
  5
87
330
1F
100
AcDbEntity
  8
_U+30EC_U+30A4_U+30E4_U+30FC 1
 62
   179
420
  2234388
370
     9
100
AcDbSpline
210
0.0
220
0.0
230
1.0
 70
    11
 71
     3
 72
    17
 73
    13
 74
     0
 42
0.0000000001
 43
0.0000000001
 12
1.0
 22
0.0
 32
0.0
 13
1.0
 23
0.0
 33
0.0
 40
0.0
 40
0.0
 40
0.0
 40
0.0
 40
1.0
 40
1.0
 40
1.0
 40
2.0
 40
2.0
 40
2.0
 40
3.0
 40
3.0
 40
3.0
 40
4.0
 40
4.0
 40
4.0
 40
4.0
 10
119.4126723944632
 20
-140.980972593878
 30
0.0
 10
119.4126723944632
 20
-140.9252481744041
 30
0.0
 10
119.3678646213082
 20
-140.8804404012491
 30
0.0
 10
119.3124739454594
 20
-140.8804404012491
 30
0.0
 10
119.257449311006
 20
-140.8804404012491
 30
0.0
 10
119.2126415378509
 20
-140.9252481744041
 30
0.0
 10
119.2126415378509
 20
-140.980972593878
 30
0.0
 10
119.2126415378509
 20
-141.0360079942549
 30
0.0
 10
119.257449311006
 20
-141.0808157674099
 30
0.0
 10
119.3124739454594
 20
-141.0808157674099
 30
0.0
 10
119.3678646213082
 20
-141.0808157674099
 30
0.0
 10
119.4126723944632
 20
-141.0360079942549
 30
0.0
 10
119.4126723944632
 20
-140.980972593878
 30
0.0
  0
SPLINE
  5
88
330
1F
100
AcDbEntity
  8
_U+30EC_U+30A4_U+30E4_U+30FC 1
 62
   179
420
  2234388
370
     9
100
AcDbSpline
210
0.0
220
0.0
230
1.0
 70
    11
 71
     3
 72
    17
 73
    13
 74
     0
 42
0.0000000001
 43
0.0000000001
 12
1.0
 22
0.0
 32
0.0
 13
1.0
 23
0.0
 33
0.0
 40
0.0
 40
0.0
 40
0.0
 40
0.0
 40
1.0
 40
1.0
 40
1.0
 40
2.0
 40
2.0
 40
2.0
 40
3.0
 40
3.0
 40
3.0
 40
4.0
 40
4.0
 40
4.0
 40
4.0
 10
119.4126723944632
 20
-141.9807608355443
 30
0.0
 10
119.4126723944632
 20
-141.9257469670146
 30
0.0
 10
119.3678646213082
 20
-141.8809391938592
 30
0.0
 10
119.3124739454594
 20
-141.8809391938592
 30
0.0
 10
119.257449311006
 20
-141.8809391938592
 30
0.0
 10
119.2126415378509
 20
-141.9257469670146
 30
0.0
 10
119.2126415378509
 20
-141.9807608355443
 30
0.0
 10
119.2126415378509
 20
-142.0357962359212
 30
0.0
 10
119.257449311006
 20
-142.0806040090765
 30
0.0
 10
119.3124739454594
 20
-142.0806040090765
 30
0.0
 10
119.3678646213082
 20
-142.0806040090765
 30
0.0
 10
119.4126723944632
 20
-142.0357962359212
 30
0.0
 10
119.4126723944632
 20
-141.9807608355443
 30
0.0
  0
SPLINE
  5
89
330
1F
100
AcDbEntity
  8
_U+30EC_U+30A4_U+30E4_U+30FC 1
 62
   179
420
  2234388
370
     9
100
AcDbSpline
210
0.0
220
0.0
230
1.0
 70
    11
 71
     3
 72
    17
 73
    13
 74
     0
 42
0.0000000001
 43
0.0000000001
 12
1.0
 22
0.0
 32
0.0
 13
1.0
 23
0.0
 33
0.0
 40
0.0
 40
0.0
 40
0.0
 40
0.0
 40
1.0
 40
1.0
 40
1.0
 40
2.0
 40
2.0
 40
2.0
 40
3.0
 40
3.0
 40
3.0
 40
4.0
 40
4.0
 40
4.0
 40
4.0
 10
119.4126723944632
 20
-154.5388013665302
 30
0.0
 10
119.4126723944632
 20
-154.4837874980001
 30
0.0
 10
119.3678646213082
 20
-154.4389797248451
 30
0.0
 10
119.3124739454594
 20
-154.4389797248451
 30
0.0
 10
119.257449311006
 20
-154.4389797248451
 30
0.0
 10
119.2126415378509
 20
-154.4837874980001
 30
0.0
 10
119.2126415378509
 20
-154.5388013665302
 30
0.0
 10
119.2126415378509
 20
-154.5938367669071
 30
0.0
 10
119.257449311006
 20
-154.6386445400621
 30
0.0
 10
119.3124739454594
 20
-154.6386445400621
 30
0.0
 10
119.3678646213082
 20
-154.6386445400621
 30
0.0
 10
119.4126723944632
 20
-154.5938367669071
 30
0.0
 10
119.4126723944632
 20
-154.5388013665302
 30
0.0
  0
SPLINE
  5
8A
330
1F
100
AcDbEntity
  8
_U+30EC_U+30A4_U+30E4_U+30FC 1
 62
   179
420
  2234388
370
     9
100
AcDbSpline
210
0.0
220
0.0
230
1.0
 70
    11
 71
     3
 72
    17
 73
    13
 74
     0
 42
0.0000000001
 43
0.0000000001
 12
1.0
 22
0.0
 32
0.0
 13
1.0
 23
0.0
 33
0.0
 40
0.0
 40
0.0
 40
0.0
 40
0.0
 40
1.0
 40
1.0
 40
1.0
 40
2.0
 40
2.0
 40
2.0
 40
3.0
 40
3.0
 40
3.0
 40
4.0
 40
4.0
 40
4.0
 40
4.0
 10
119.4126723944632
 20
-157.5387905150858
 30
0.0
 10
119.4126723944632
 20
-157.4837766465557
 30
0.0
 10
119.3678646213082
 20
-157.4389688734007
 30
0.0
 10
119.3124739454594
 20
-157.4389688734007
 30
0.0
 10
119.257449311006
 20
-157.4389688734007
 30
0.0
 10
119.2126415378509
 20
-157.4837766465557
 30
0.0
 10
119.2126415378509
 20
-157.5387905150858
 30
0.0
 10
119.2126415378509
 20
-157.5938259154627
 30
0.0
 10
119.257449311006
 20
-157.6386336886177
 30
0.0
 10
119.3124739454594
 20
-157.6386336886177
 30
0.0
 10
119.3678646213082
 20
-157.6386336886177
 30
0.0
 10
119.4126723944632
 20
-157.5938259154627
 30
0.0
 10
119.4126723944632
 20
-157.5387905150858
 30
0.0
  0
SPLINE
  5
8B
330
1F
100
AcDbEntity
  8
_U+30EC_U+30A4_U+30E4_U+30FC 1
 62
   179
420
  2234388
370
     9
100
AcDbSpline
210
0.0
220
0.0
230
1.0
 70
    11
 71
     3
 72
    17
 73
    13
 74
     0
 42
0.0000000001
 43
0.0000000001
 12
1.0
 22
0.0
 32
0.0
 13
1.0
 23
0.0
 33
0.0
 40
0.0
 40
0.0
 40
0.0
 40
0.0
 40
1.0
 40
1.0
 40
1.0
 40
2.0
 40
2.0
 40
2.0
 40
3.0
 40
3.0
 40
3.0
 40
4.0
 40
4.0
 40
4.0
 40
4.0
 10
100.4129384955402
 20
-162.6850633850286
 30
0.0
 10
100.4129384955402
 20
-162.6293281996313
 30
0.0
 10
100.3681307223852
 20
-162.5845311923997
 30
0.0
 10
100.3130953220083
 20
-162.5845311923997
 30
0.0
 10
100.2580599216315
 20
-162.5845311923997
 30
0.0
 10
100.2132629143998
 20
-162.6293281996313
 30
0.0
 10
100.2132629143998
 20
-162.6850633850286
 30
0.0
 10
100.2132629143998
 20
-162.7400987854055
 30
0.0
 10
100.2580599216315
 20
-162.7849065585605
 30
0.0
 10
100.3130953220083
 20
-162.7849065585605
 30
0.0
 10
100.3681307223852
 20
-162.7849065585605
 30
0.0
 10
100.4129384955402
 20
-162.7400987854055
 30
0.0
 10
100.4129384955402
 20
-162.6850633850286
 30
0.0
  0
SPLINE
  5
8C
330
1F
100
AcDbEntity
  8
_U+30EC_U+30A4_U+30E4_U+30FC 1
 62
   179
420
  2234388
370
     9
100
AcDbSpline
210
0.0
220
0.0
230
1.0
 70
    11
 71
     3
 72
    17
 73
    13
 74
     0
 42
0.0000000001
 43
0.0000000001
 12
1.0
 22
0.0
 32
0.0
 13
1.0
 23
0.0
 33
0.0
 40
0.0
 40
0.0
 40
0.0
 40
0.0
 40
1.0
 40
1.0
 40
1.0
 40
2.0
 40
2.0
 40
2.0
 40
3.0
 40
3.0
 40
3.0
 40
4.0
 40
4.0
 40
4.0
 40
4.0
 10
90.41320434005404
 20
-162.6850633850286
 30
0.0
 10
90.41320434005404
 20
-162.6293281996313
 30
0.0
 10
90.36839656689901
 20
-162.5845311923997
 30
0.0
 10
90.31336116652214
 20
-162.5845311923997
 30
0.0
 10
90.25832576614528
 20
-162.5845311923997
 30
0.0
 10
90.21352875891364
 20
-162.6293281996313
 30
0.0
 10
90.21352875891364
 20
-162.6850633850286
 30
0.0
 10
90.21352875891364
 20
-162.7400987854055
 30
0.0
 10
90.25832576614528
 20
-162.7849065585605
 30
0.0
 10
90.31336116652214
 20
-162.7849065585605
 30
0.0
 10
90.36839656689901
 20
-162.7849065585605
 30
0.0
 10
90.41320434005404
 20
-162.7400987854055
 30
0.0
 10
90.41320434005404
 20
-162.6850633850286
 30
0.0
  0
POLYLINE
  5
8D
330
1F
100
AcDbEntity
  8
_U+30EC_U+30A4_U+30E4_U+30FC 1
 62
   179
420
  2234388
370
     9
100
AcDb2dPolyline
 66
     1
 10
0.0
 20
0.0
 30
0.0
  0
VERTEX
  5
8E
330
8D
100
AcDbEntity
  8
_U+30EC_U+30A4_U+30E4_U+30FC 1
 62
   179
420
  2234388
370
     9
100
AcDbVertex
100
AcDb2dVertex
 10
119.3123770521489
 20
-140.980972593878
 30
0.0
  0
VERTEX
  5
8F
330
8D
100
AcDbEntity
  8
_U+30EC_U+30A4_U+30E4_U+30FC 1
 62
   179
420
  2234388
370
     9
100
AcDbVertex
100
AcDb2dVertex
 10
119.3123770521489
 20
-137.2101433304978
 30
0.0
  0
SEQEND
  5
90
330
8D
100
AcDbEntity
  8
_U+30EC_U+30A4_U+30E4_U+30FC 1
 62
   179
420
  2234388
370
     9
  0
POLYLINE
  5
91
330
1F
100
AcDbEntity
  8
_U+30EC_U+30A4_U+30E4_U+30FC 1
 62
   179
420
  2234388
370
     9
100
AcDb2dPolyline
 66
     1
 10
0.0
 20
0.0
 30
0.0
  0
VERTEX
  5
92
330
91
100
AcDbEntity
  8
_U+30EC_U+30A4_U+30E4_U+30FC 1
 62
   179
420
  2234388
370
     9
100
AcDbVertex
100
AcDb2dVertex
 10
119.3123770521489
 20
-140.980972593878
 30
0.0
  0
VERTEX
  5
93
330
91
100
AcDbEntity
  8
_U+30EC_U+30A4_U+30E4_U+30FC 1
 62
   179
420
  2234388
370
     9
100
AcDbVertex
100
AcDb2dVertex
 10
119.3123770521489
 20
-141.9807608355443
 30
0.0
  0
SEQEND
  5
94
330
91
100
AcDbEntity
  8
_U+30EC_U+30A4_U+30E4_U+30FC 1
 62
   179
420
  2234388
370
     9
  0
POLYLINE
  5
95
330
1F
100
AcDbEntity
  8
_U+30EC_U+30A4_U+30E4_U+30FC 1
 62
   179
420
  2234388
370
     9
100
AcDb2dPolyline
 66
     1
 10
0.0
 20
0.0
 30
0.0
  0
VERTEX
  5
96
330
95
100
AcDbEntity
  8
_U+30EC_U+30A4_U+30E4_U+30FC 1
 62
   179
420
  2234388
370
     9
100
AcDbVertex
100
AcDb2dVertex
 10
117.8530669023672
 20
-140.980972593878
 30
0.0
  0
VERTEX
  5
97
330
95
100
AcDbEntity
  8
_U+30EC_U+30A4_U+30E4_U+30FC 1
 62
   179
420
  2234388
370
     9
100
AcDbVertex
100
AcDb2dVertex
 10
120.312628228521
 20
-140.980972593878
 30
0.0
  0
SEQEND
  5
98
330
95
100
AcDbEntity
  8
_U+30EC_U+30A4_U+30E4_U+30FC 1
 62
   179
420
  2234388
370
     9
  0
POLYLINE
  5
99
330
1F
100
AcDbEntity
  8
_U+30EC_U+30A4_U+30E4_U+30FC 1
 62
   179
420
  2234388
370
     9
100
AcDb2dPolyline
 66
     1
 10
0.0
 20
0.0
 30
0.0
  0
VERTEX
  5
9A
330
99
100
AcDbEntity
  8
_U+30EC_U+30A4_U+30E4_U+30FC 1
 62
   179
420
  2234388
370
     9
100
AcDbVertex
100
AcDb2dVertex
 10
117.8530669023672
 20
-141.9807608355443
 30
0.0
  0
VERTEX
  5
9B
330
99
100
AcDbEntity
  8
_U+30EC_U+30A4_U+30E4_U+30FC 1
 62
   179
420
  2234388
370
     9
100
AcDbVertex
100
AcDb2dVertex
 10
120.312628228521
 20
-141.9807608355443
 30
0.0
  0
SEQEND
  5
9C
330
99
100
AcDbEntity
  8
_U+30EC_U+30A4_U+30E4_U+30FC 1
 62
   179
420
  2234388
370
     9
  0
INSERT
  5
9E
330
1F
100
AcDbEntity
  8
_U+30EC_U+30A4_U+30E4_U+30FC 1
100
AcDbBlockReference
  2
block 2
 10
0.0
 20
0.0
 30
0.0
  0
POLYLINE
  5
A3
330
1F
100
AcDbEntity
  8
_U+30EC_U+30A4_U+30E4_U+30FC 1
 62
   179
420
  2234388
370
     9
100
AcDb2dPolyline
 66
     1
 10
0.0
 20
0.0
 30
0.0
  0
VERTEX
  5
A4
330
A3
100
AcDbEntity
  8
_U+30EC_U+30A4_U+30E4_U+30FC 1
 62
   179
420
  2234388
370
     9
100
AcDbVertex
100
AcDb2dVertex
 10
119.3123770521489
 20
-154.5388013665302
 30
0.0
  0
VERTEX
  5
A5
330
A3
100
AcDbEntity
  8
_U+30EC_U+30A4_U+30E4_U+30FC 1
 62
   179
420
  2234388
370
     9
100
AcDbVertex
100
AcDb2dVertex
 10
119.3123770521489
 20
-157.5388335787794
 30
0.0
  0
SEQEND
  5
A6
330
A3
100
AcDbEntity
  8
_U+30EC_U+30A4_U+30E4_U+30FC 1
 62
   179
420
  2234388
370
     9
  0
POLYLINE
  5
A7
330
1F
100
AcDbEntity
  8
_U+30EC_U+30A4_U+30E4_U+30FC 1
 62
   179
420
  2234388
370
     9
100
AcDb2dPolyline
 66
     1
 10
0.0
 20
0.0
 30
0.0
  0
VERTEX
  5
A8
330
A7
100
AcDbEntity
  8
_U+30EC_U+30A4_U+30E4_U+30FC 1
 62
   179
420
  2234388
370
     9
100
AcDbVertex
100
AcDb2dVertex
 10
102.8530996277427
 20
-157.5387905150858
 30
0.0
  0
VERTEX
  5
A9
330
A7
100
AcDbEntity
  8
_U+30EC_U+30A4_U+30E4_U+30FC 1
 62
   179
420
  2234388
370
     9
100
AcDbVertex
100
AcDb2dVertex
 10
120.3124236759766
 20
-157.5387905150858
 30
0.0
  0
SEQEND
  5
AA
330
A7
100
AcDbEntity
  8
_U+30EC_U+30A4_U+30E4_U+30FC 1
 62
   179
420
  2234388
370
     9
  0
INSERT
  5
AC
330
1F
100
AcDbEntity
  8
_U+30EC_U+30A4_U+30E4_U+30FC 1
100
AcDbBlockReference
  2
block 3
 10
0.0
 20
0.0
 30
0.0
  0
POLYLINE
  5
B1
330
1F
100
AcDbEntity
  8
_U+30EC_U+30A4_U+30E4_U+30FC 1
 62
   179
420
  2234388
370
     9
100
AcDb2dPolyline
 66
     1
 10
0.0
 20
0.0
 30
0.0
  0
VERTEX
  5
B2
330
B1
100
AcDbEntity
  8
_U+30EC_U+30A4_U+30E4_U+30FC 1
 62
   179
420
  2234388
370
     9
100
AcDbVertex
100
AcDb2dVertex
 10
90.31329657098179
 20
-162.6850633850286
 30
0.0
  0
VERTEX
  5
B3
330
B1
100
AcDbEntity
  8
_U+30EC_U+30A4_U+30E4_U+30FC 1
 62
   179
420
  2234388
370
     9
100
AcDbVertex
100
AcDb2dVertex
 10
100.3131276197788
 20
-162.6850633850286
 30
0.0
  0
SEQEND
  5
B4
330
B1
100
AcDbEntity
  8
_U+30EC_U+30A4_U+30E4_U+30FC 1
 62
   179
420
  2234388
370
     9
  0
POLYLINE
  5
B5
330
1F
100
AcDbEntity
  8
_U+30EC_U+30A4_U+30E4_U+30FC 1
 62
   179
420
  2234388
370
     9
100
AcDb2dPolyline
 66
     1
 10
0.0
 20
0.0
 30
0.0
  0
VERTEX
  5
B6
330
B5
100
AcDbEntity
  8
_U+30EC_U+30A4_U+30E4_U+30FC 1
 62
   179
420
  2234388
370
     9
100
AcDbVertex
100
AcDb2dVertex
 10
90.31329657098179
 20
-161.2250642161499
 30
0.0
  0
VERTEX
  5
B7
330
B5
100
AcDbEntity
  8
_U+30EC_U+30A4_U+30E4_U+30FC 1
 62
   179
420
  2234388
370
     9
100
AcDbVertex
100
AcDb2dVertex
 10
90.31329657098179
 20
-163.684991583699
 30
0.0
  0
SEQEND
  5
B8
330
B5
100
AcDbEntity
  8
_U+30EC_U+30A4_U+30E4_U+30FC 1
 62
   179
420
  2234388
370
     9
  0
POLYLINE
  5
B9
330
1F
100
AcDbEntity
  8
_U+30EC_U+30A4_U+30E4_U+30FC 1
 62
   179
420
  2234388
370
     9
100
AcDb2dPolyline
 66
     1
 10
0.0
 20
0.0
 30
0.0
  0
VERTEX
  5
BA
330
B9
100
AcDbEntity
  8
_U+30EC_U+30A4_U+30E4_U+30FC 1
 62
   179
420
  2234388
370
     9
100
AcDbVertex
100
AcDb2dVertex
 10
100.313030726468
 20
-161.2250642161499
 30
0.0
  0
VERTEX
  5
BB
330
B9
100
AcDbEntity
  8
_U+30EC_U+30A4_U+30E4_U+30FC 1
 62
   179
420
  2234388
370
     9
100
AcDbVertex
100
AcDb2dVertex
 10
100.313030726468
 20
-163.684991583699
 30
0.0
  0
SEQEND
  5
BC
330
B9
100
AcDbEntity
  8
_U+30EC_U+30A4_U+30E4_U+30FC 1
 62
   179
420
  2234388
370
     9
  0
INSERT
  5
BE
330
1F
100
AcDbEntity
  8
_U+30EC_U+30A4_U+30E4_U+30FC 1
100
AcDbBlockReference
  2
block 4
 10
0.0
 20
0.0
 30
0.0
  0
POLYLINE
  5
C6
330
1F
100
AcDbEntity
  8
_U+30EC_U+30A4_U+30E4_U+30FC 1
 62
   179
420
  2234388
370
     9
100
AcDb2dPolyline
 66
     1
 10
0.0
 20
0.0
 30
0.0
  0
VERTEX
  5
C7
330
C6
100
AcDbEntity
  8
_U+30EC_U+30A4_U+30E4_U+30FC 1
 62
   179
420
  2234388
370
     9
100
AcDbVertex
100
AcDb2dVertex
 10
90.31329657098179
 20
-136.9805061845591
 30
0.0
  0
VERTEX
  5
C8
330
C6
100
AcDbEntity
  8
_U+30EC_U+30A4_U+30E4_U+30FC 1
 62
   179
420
  2234388
370
     9
100
AcDbVertex
100
AcDb2dVertex
 10
115.3132456173306
 20
-136.9805061845591
 30
0.0
  0
SEQEND
  5
C9
330
C6
100
AcDbEntity
  8
_U+30EC_U+30A4_U+30E4_U+30FC 1
 62
   179
420
  2234388
370
     9
  0
POLYLINE
  5
CA
330
1F
100
AcDbEntity
  8
_U+30EC_U+30A4_U+30E4_U+30FC 1
 62
   179
420
  2234388
370
     9
100
AcDb2dPolyline
 66
     1
 10
0.0
 20
0.0
 30
0.0
  0
VERTEX
  5
CB
330
CA
100
AcDbEntity
  8
_U+30EC_U+30A4_U+30E4_U+30FC 1
 62
   179
420
  2234388
370
     9
100
AcDbVertex
100
AcDb2dVertex
 10
90.31329657098179
 20
-138.4405161193615
 30
0.0
  0
VERTEX
  5
CC
330
CA
100
AcDbEntity
  8
_U+30EC_U+30A4_U+30E4_U+30FC 1
 62
   179
420
  2234388
370
     9
100
AcDbVertex
100
AcDb2dVertex
 10
90.31329657098179
 20
-135.9806102836589
 30
0.0
  0
SEQEND
  5
CD
330
CA
100
AcDbEntity
  8
_U+30EC_U+30A4_U+30E4_U+30FC 1
 62
   179
420
  2234388
370
     9
  0
POLYLINE
  5
CE
330
1F
100
AcDbEntity
  8
_U+30EC_U+30A4_U+30E4_U+30FC 1
 62
   179
420
  2234388
370
     9
100
AcDb2dPolyline
 66
     1
 10
0.0
 20
0.0
 30
0.0
  0
VERTEX
  5
CF
330
CE
100
AcDbEntity
  8
_U+30EC_U+30A4_U+30E4_U+30FC 1
 62
   179
420
  2234388
370
     9
100
AcDbVertex
100
AcDb2dVertex
 10
115.3133209787943
 20
-138.4405161193615
 30
0.0
  0
VERTEX
  5
D0
330
CE
100
AcDbEntity
  8
_U+30EC_U+30A4_U+30E4_U+30FC 1
 62
   179
420
  2234388
370
     9
100
AcDbVertex
100
AcDb2dVertex
 10
115.3133209787943
 20
-135.9806102836589
 30
0.0
  0
SEQEND
  5
D1
330
CE
100
AcDbEntity
  8
_U+30EC_U+30A4_U+30E4_U+30FC 1
 62
   179
420
  2234388
370
     9
  0
INSERT
  5
D3
330
1F
100
AcDbEntity
  8
_U+30EC_U+30A4_U+30E4_U+30FC 1
100
AcDbBlockReference
  2
block 5
 10
0.0
 20
0.0
 30
0.0
  0
POLYLINE
  5
DA
330
1F
100
AcDbEntity
  8
_U+30EC_U+30A4_U+30E4_U+30FC 1
 62
   179
420
  2234388
370
     9
100
AcDb2dPolyline
 66
     1
 10
0.0
 20
0.0
 30
0.0
  0
VERTEX
  5
DB
330
DA
100
AcDbEntity
  8
_U+30EC_U+30A4_U+30E4_U+30FC 1
 62
   179
420
  2234388
370
     9
100
AcDbVertex
100
AcDb2dVertex
 10
119.3123770521489
 20
-154.4809452942248
 30
0.0
  0
VERTEX
  5
DC
330
DA
100
AcDbEntity
  8
_U+30EC_U+30A4_U+30E4_U+30FC 1
 62
   179
420
  2234388
370
     9
100
AcDbVertex
100
AcDb2dVertex
 10
119.3123770521489
 20
-141.9806316444636
 30
0.0
  0
SEQEND
  5
DD
330
DA
100
AcDbEntity
  8
_U+30EC_U+30A4_U+30E4_U+30FC 1
 62
   179
420
  2234388
370
     9
  0
POLYLINE
  5
DE
330
1F
100
AcDbEntity
  8
_U+30EC_U+30A4_U+30E4_U+30FC 1
 62
   179
420
  2234388
370
     9
100
AcDb2dPolyline
 66
     1
 10
0.0
 20
0.0
 30
0.0
  0
VERTEX
  5
DF
330
DE
100
AcDbEntity
  8
_U+30EC_U+30A4_U+30E4_U+30FC 1
 62
   179
420
  2234388
370
     9
100
AcDbVertex
100
AcDb2dVertex
 10
102.8530996277427
 20
-154.5388013665302
 30
0.0
  0
VERTEX
  5
E0
330
DE
100
AcDbEntity
  8
_U+30EC_U+30A4_U+30E4_U+30FC 1
 62
   179
420
  2234388
370
     9
100
AcDbVertex
100
AcDb2dVertex
 10
120.3124236759766
 20
-154.5388013665302
 30
0.0
  0
SEQEND
  5
E1
330
DE
100
AcDbEntity
  8
_U+30EC_U+30A4_U+30E4_U+30FC 1
 62
   179
420
  2234388
370
     9
  0
INSERT
  5
E3
330
1F
100
AcDbEntity
  8
_U+30EC_U+30A4_U+30E4_U+30FC 1
100
AcDbBlockReference
  2
block 6
 10
0.0
 20
0.0
 30
0.0
  0
ENDSEC
  0
SECTION
  2
OBJECTS
  0
DICTIONARY
  5
C
330
0
100
AcDbDictionary
281
     1
  3
ACAD_GROUP
350
D
  3
ACAD_LAYOUT
350
1A
  3
ACAD_MATERIAL
350
3B
  3
ACAD_MLEADERSTYLE
350
F5
  3
ACAD_MLINESTYLE
350
17
  3
ACAD_PLOTSETTINGS
350
19
  3
ACAD_PLOTSTYLENAME
350
E
  3
ACAD_TABLESTYLE
350
F4
  3
ACAD_VISUALSTYLE
350
2A
  0
SUN
  5
3F
330
29
100
AcDbSun
 90
        1
290
     0
 63
     7
421
 16777215
 40
1.0
291
     1
 91
  2455826
 92
 54000000
292
     0
 70
     2
 71
   256
280
     1
  0
DICTIONARY
  5
D
102
{ACAD_REACTORS
330
C
102
}
330
C
100
AcDbDictionary
281
     1
  0
DICTIONARY
  5
1A
102
{ACAD_REACTORS
330
C
102
}
330
C
100
AcDbDictionary
281
     1
  3
Layout1
350
1E
  3
Layout2
350
26
  3
Model
350
22
  0
DICTIONARY
  5
3B
102
{ACAD_REACTORS
330
C
102
}
330
C
100
AcDbDictionary
281
     1
  3
ByBlock
350
3D
  3
ByLayer
350
3C
  3
Global
350
3E
  0
DICTIONARY
  5
F5
102
{ACAD_REACTORS
330
C
102
}
330
C
100
AcDbDictionary
281
     1
  0
DICTIONARY
  5
17
102
{ACAD_REACTORS
330
C
102
}
330
C
100
AcDbDictionary
281
     1
  3
Standard
350
18
  0
DICTIONARY
  5
19
102
{ACAD_REACTORS
330
C
102
}
330
C
100
AcDbDictionary
281
     1
  0
ACDBDICTIONARYWDFLT
  5
E
102
{ACAD_REACTORS
330
C
102
}
330
C
100
AcDbDictionary
281
     1
  3
Normal
350
F
100
AcDbDictionaryWithDefault
340
F
  0
DICTIONARY
  5
F4
102
{ACAD_REACTORS
330
C
102
}
330
C
100
AcDbDictionary
281
     1
  0
DICTIONARY
  5
2A
102
{ACAD_REACTORS
330
C
102
}
330
C
100
AcDbDictionary
281
     1
  3
2dWireframe
350
2F
  3
3D Hidden
350
31
  3
3dWireframe
350
30
  3
Basic
350
32
  3
Brighten
350
36
  3
ColorChange
350
3A
  3
Conceptual
350
34
  3
Dim
350
35
  3
Facepattern
350
39
  3
Flat
350
2B
  3
FlatWithEdges
350
2C
  3
Gouraud
350
2D
  3
GouraudWithEdges
350
2E
  3
Linepattern
350
38
  3
Realistic
350
33
  3
Thicken
350
37
  0
LAYOUT
  5
1E
102
{ACAD_REACTORS
330
1A
102
}
330
1A
100
AcDbPlotSettings
  1

  2
none_device
  4

  6

 40
0.0
 41
0.0
 42
0.0
 43
0.0
 44
0.0
 45
0.0
 46
0.0
 47
0.0
 48
0.0
 49
0.0
140
0.0
141
0.0
142
1.0
143
1.0
 70
   688
 72
     0
 73
     0
 74
     5
  7

 75
    16
 76
     0
 77
     2
 78
   300
147
1.0
148
0.0
149
0.0
100
AcDbLayout
  1
Layout1
 70
     1
 71
     1
 10
0.0
 20
0.0
 11
12.0
 21
9.0
 12
0.0
 22
0.0
 32
0.0
 14
1.000000000000000E+20
 24
1.000000000000000E+20
 34
1.000000000000000E+20
 15
-1.000000000000000E+20
 25
-1.000000000000000E+20
 35
-1.000000000000000E+20
146
0.0
 13
0.0
 23
0.0
 33
0.0
 16
1.0
 26
0.0
 36
0.0
 17
0.0
 27
1.0
 37
0.0
 76
     0
330
1B
  0
LAYOUT
  5
26
102
{ACAD_REACTORS
330
1A
102
}
330
1A
100
AcDbPlotSettings
  1

  2
none_device
  4

  6

 40
0.0
 41
0.0
 42
0.0
 43
0.0
 44
0.0
 45
0.0
 46
0.0
 47
0.0
 48
0.0
 49
0.0
140
0.0
141
0.0
142
1.0
143
1.0
 70
   688
 72
     0
 73
     0
 74
     5
  7

 75
    16
 76
     0
 77
     2
 78
   300
147
1.0
148
0.0
149
0.0
100
AcDbLayout
  1
Layout2
 70
     1
 71
     2
 10
0.0
 20
0.0
 11
0.0
 21
0.0
 12
0.0
 22
0.0
 32
0.0
 14
0.0
 24
0.0
 34
0.0
 15
0.0
 25
0.0
 35
0.0
146
0.0
 13
0.0
 23
0.0
 33
0.0
 16
1.0
 26
0.0
 36
0.0
 17
0.0
 27
1.0
 37
0.0
 76
     0
330
23
  0
LAYOUT
  5
22
102
{ACAD_REACTORS
330
1A
102
}
330
1A
100
AcDbPlotSettings
  1

  2
none_device
  4

  6

 40
0.0
 41
0.0
 42
0.0
 43
0.0
 44
0.0
 45
0.0
 46
0.0
 47
0.0
 48
0.0
 49
0.0
140
0.0
141
0.0
142
1.0
143
1.0
 70
  1712
 72
     0
 73
     0
 74
     0
  7

 75
     0
 76
     0
 77
     2
 78
   300
147
1.0
148
0.0
149
0.0
100
AcDbLayout
  1
Model
 70
     1
 71
     0
 10
0.0
 20
0.0
 11
12.0
 21
9.0
 12
0.0
 22
0.0
 32
0.0
 14
1.000000000000000E+20
 24
1.000000000000000E+20
 34
1.000000000000000E+20
 15
-1.000000000000000E+20
 25
-1.000000000000000E+20
 35
-1.000000000000000E+20
146
0.0
 13
0.0
 23
0.0
 33
0.0
 16
1.0
 26
0.0
 36
0.0
 17
0.0
 27
1.0
 37
0.0
 76
     0
330
1F
331
29
  0
MATERIAL
  5
3D
102
{ACAD_REACTORS
330
3B
102
}
330
3B
100
AcDbMaterial
  1
ByBlock
 72
     1
 94
      127
  0
MATERIAL
  5
3C
102
{ACAD_REACTORS
330
3B
102
}
330
3B
100
AcDbMaterial
  1
ByLayer
 72
     1
 94
      127
  0
MATERIAL
  5
3E
102
{ACAD_REACTORS
330
3B
102
}
330
3B
100
AcDbMaterial
  1
Global
 72
     1
 94
      127
  0
MLINESTYLE
  5
18
102
{ACAD_REACTORS
330
17
102
}
330
17
100
AcDbMlineStyle
  2
Standard
 70
     0
  3

 62
   256
 51
90.0
 52
90.0
 71
     2
 49
0.5
 62
   256
  6
BYLAYER
 49
-0.5
 62
   256
  6
BYLAYER
  0
ACDBPLACEHOLDER
  5
F
102
{ACAD_REACTORS
330
E
102
}
330
E
  0
VISUALSTYLE
  5
2F
102
{ACAD_REACTORS
330
2A
102
}
330
2A
100
AcDbVisualStyle
  2
2dWireframe
 70
     4
177
     2
291
     0
 71
     0
176
     1
 72
     2
176
     1
 73
     0
176
     1
 90
        0
176
     1
 40
-0.6
176
     1
 41
-30.0
176
     1
 62
     5
 63
     7
421
 16777215
176
     1
 74
     1
176
     1
 91
        4
176
     1
 64
     7
176
     1
 65
   257
176
     1
 75
     1
176
     1
175
     1
176
     1
 42
1.0
176
     1
 92
        0
176
     1
 66
   257
176
     1
 43
1.0
176
     1
 76
     1
176
     1
 77
     6
176
     1
 78
     2
176
     1
 67
     7
176
     1
 79
     5
176
     1
170
     0
176
     1
171
     0
176
     1
290
     0
176
     1
 93
        1
176
     1
 44
0.0
176
     1
173
     0
176
     1
  0
VISUALSTYLE
  5
31
102
{ACAD_REACTORS
330
2A
102
}
330
2A
100
AcDbVisualStyle
  2
3D Hidden
 70
     6
177
     2
291
     0
 71
     1
176
     1
 72
     2
176
     1
 73
     2
176
     1
 90
        0
176
     1
 40
-0.6
176
     1
 41
-30.0
176
     1
 62
     5
 63
     7
421
 16777215
176
     1
 74
     2
176
     1
 91
        2
176
     1
 64
     7
176
     1
 65
   257
176
     1
 75
     2
176
     1
175
     1
176
     1
 42
40.0
176
     1
 92
        0
176
     1
 66
   257
176
     1
 43
1.0
176
     1
 76
     1
176
     1
 77
     6
176
     1
 78
     2
176
     1
 67
     7
176
     1
 79
     3
176
     1
170
     0
176
     1
171
     0
176
     1
290
     0
176
     1
 93
        1
176
     1
 44
0.0
176
     1
173
     0
176
     1
  0
VISUALSTYLE
  5
30
102
{ACAD_REACTORS
330
2A
102
}
330
2A
100
AcDbVisualStyle
  2
3dWireframe
 70
     5
177
     2
291
     0
 71
     0
176
     1
 72
     2
176
     1
 73
     0
176
     1
 90
        0
176
     1
 40
-0.6
176
     1
 41
-30.0
176
     1
 62
     5
 63
     7
421
 16777215
176
     1
 74
     1
176
     1
 91
        4
176
     1
 64
     7
176
     1
 65
   257
176
     1
 75
     1
176
     1
175
     1
176
     1
 42
1.0
176
     1
 92
        0
176
     1
 66
   257
176
     1
 43
1.0
176
     1
 76
     1
176
     1
 77
     6
176
     1
 78
     2
176
     1
 67
     7
176
     1
 79
     5
176
     1
170
     0
176
     1
171
     0
176
     1
290
     0
176
     1
 93
        1
176
     1
 44
0.0
176
     1
173
     0
176
     1
  0
VISUALSTYLE
  5
32
102
{ACAD_REACTORS
330
2A
102
}
330
2A
100
AcDbVisualStyle
  2
Basic
 70
     7
177
     2
291
     1
 71
     1
176
     1
 72
     0
176
     1
 73
     1
176
     1
 90
        0
176
     1
 40
-0.6
176
     1
 41
-30.0
176
     1
 62
     5
 63
     7
421
 16777215
176
     1
 74
     0
176
     1
 91
        4
176
     1
 64
     7
176
     1
 65
   257
176
     1
 75
     1
176
     1
175
     1
176
     1
 42
1.0
176
     1
 92
        8
176
     1
 66
     7
176
     1
 43
1.0
176
     1
 76
     1
176
     1
 77
     6
176
     1
 78
     2
176
     1
 67
     7
176
     1
 79
     5
176
     1
170
     0
176
     1
171
     0
176
     1
290
     0
176
     1
 93
        1
176
     1
 44
0.0
176
     1
173
     0
176
     1
  0
VISUALSTYLE
  5
36
102
{ACAD_REACTORS
330
2A
102
}
330
2A
100
AcDbVisualStyle
  2
Brighten
 70
    12
177
     2
291
     1
 71
     2
176
     1
 72
     2
176
     1
 73
     0
176
     1
 90
        0
176
     1
 40
-0.6
176
     1
 41
-30.0
176
     1
 62
     5
 63
     7
421
 16777215
176
     1
 74
     1
176
     1
 91
        4
176
     1
 64
     7
176
     1
 65
   257
176
     1
 75
     1
176
     1
175
     1
176
     1
 42
1.0
176
     1
 92
        8
176
     1
 66
     7
176
     1
 43
1.0
176
     1
 76
     1
176
     1
 77
     6
176
     1
 78
     2
176
     1
 67
     7
176
     1
 79
     5
176
     1
170
     0
176
     1
171
     0
176
     1
290
     0
176
     1
 93
        1
176
     1
 44
50.0
176
     1
173
     0
176
     1
  0
VISUALSTYLE
  5
3A
102
{ACAD_REACTORS
330
2A
102
}
330
2A
100
AcDbVisualStyle
  2
ColorChange
 70
    16
177
     2
291
     1
 71
     2
176
     1
 72
     2
176
     1
 73
     3
176
     1
 90
        0
176
     1
 40
-0.6
176
     1
 41
-30.0
176
     1
 62
     5
 63
     8
421
  8421504
176
     1
 74
     1
176
     1
 91
        4
176
     1
 64
     7
176
     1
 65
   257
176
     1
 75
     1
176
     1
175
     1
176
     1
 42
1.0
176
     1
 92
        8
176
     1
 66
     8
424
  8421504
176
     1
 43
1.0
176
     1
 76
     1
176
     1
 77
     6
176
     1
 78
     2
176
     1
 67
     7
176
     1
 79
     5
176
     1
170
     0
176
     1
171
     0
176
     1
290
     0
176
     1
 93
        1
176
     1
 44
0.0
176
     1
173
     0
176
     1
  0
VISUALSTYLE
  5
34
102
{ACAD_REACTORS
330
2A
102
}
330
2A
100
AcDbVisualStyle
  2
Conceptual
 70
     9
177
     2
291
     0
 71
     3
176
     1
 72
     2
176
     1
 73
     0
176
     1
 90
        0
176
     1
 40
-0.6
176
     1
 41
-30.0
176
     1
 62
     5
 63
     7
421
 16777215
176
     1
 74
     2
176
     1
 91
        2
176
     1
 64
     7
176
     1
 65
   257
176
     1
 75
     1
176
     1
175
     1
176
     1
 42
40.0
176
     1
 92
        8
176
     1
 66
     7
176
     1
 43
1.0
176
     1
 76
     1
176
     1
 77
     6
176
     1
 78
     2
176
     1
 67
     7
176
     1
 79
     3
176
     1
170
     0
176
     1
171
     0
176
     1
290
     0
176
     1
 93
        1
176
     1
 44
0.0
176
     1
173
     0
176
     1
  0
VISUALSTYLE
  5
35
102
{ACAD_REACTORS
330
2A
102
}
330
2A
100
AcDbVisualStyle
  2
Dim
 70
    11
177
     2
291
     1
 71
     2
176
     1
 72
     2
176
     1
 73
     0
176
     1
 90
        0
176
     1
 40
-0.6
176
     1
 41
-30.0
176
     1
 62
     5
 63
     7
421
 16777215
176
     1
 74
     1
176
     1
 91
        4
176
     1
 64
     7
176
     1
 65
   257
176
     1
 75
     1
176
     1
175
     1
176
     1
 42
1.0
176
     1
 92
        8
176
     1
 66
     7
176
     1
 43
1.0
176
     1
 76
     1
176
     1
 77
     6
176
     1
 78
     2
176
     1
 67
     7
176
     1
 79
     5
176
     1
170
     0
176
     1
171
     0
176
     1
290
     0
176
     1
 93
        1
176
     1
 44
-50.0
176
     1
173
     0
176
     1
  0
VISUALSTYLE
  5
39
102
{ACAD_REACTORS
330
2A
102
}
330
2A
100
AcDbVisualStyle
  2
Facepattern
 70
    15
177
     2
291
     1
 71
     2
176
     1
 72
     2
176
     1
 73
     0
176
     1
 90
        0
176
     1
 40
-0.6
176
     1
 41
-30.0
176
     1
 62
     5
 63
     7
421
 16777215
176
     1
 74
     1
176
     1
 91
        4
176
     1
 64
     7
176
     1
 65
   257
176
     1
 75
     1
176
     1
175
     1
176
     1
 42
1.0
176
     1
 92
        8
176
     1
 66
     7
176
     1
 43
1.0
176
     1
 76
     1
176
     1
 77
     6
176
     1
 78
     2
176
     1
 67
     7
176
     1
 79
     5
176
     1
170
     0
176
     1
171
     0
176
     1
290
     0
176
     1
 93
        1
176
     1
 44
0.0
176
     1
173
     0
176
     1
  0
VISUALSTYLE
  5
2B
102
{ACAD_REACTORS
330
2A
102
}
330
2A
100
AcDbVisualStyle
  2
Flat
 70
     0
177
     2
291
     1
 71
     2
176
     1
 72
     1
176
     1
 73
     1
176
     1
 90
        2
176
     1
 40
-0.6
176
     1
 41
30.0
176
     1
 62
     5
 63
     7
421
 16777215
176
     1
 74
     0
176
     1
 91
        4
176
     1
 64
     7
176
     1
 65
   257
176
     1
 75
     1
176
     1
175
     1
176
     1
 42
1.0
176
     1
 92
        8
176
     1
 66
     7
176
     1
 43
1.0
176
     1
 76
     1
176
     1
 77
     6
176
     1
 78
     2
176
     1
 67
     7
176
     1
 79
     5
176
     1
170
     0
176
     1
171
     0
176
     1
290
     0
176
     1
 93
       13
176
     1
 44
0.0
176
     1
173
     0
176
     1
  0
VISUALSTYLE
  5
2C
102
{ACAD_REACTORS
330
2A
102
}
330
2A
100
AcDbVisualStyle
  2
FlatWithEdges
 70
     1
177
     2
291
     1
 71
     2
176
     1
 72
     1
176
     1
 73
     1
176
     1
 90
        2
176
     1
 40
-0.6
176
     1
 41
30.0
176
     1
 62
     5
 63
     7
421
 16777215
176
     1
 74
     1
176
     1
 91
        4
176
     1
 64
     7
176
     1
 65
   257
176
     1
 75
     1
176
     1
175
     1
176
     1
 42
1.0
176
     1
 92
        0
176
     1
 66
   257
176
     1
 43
1.0
176
     1
 76
     1
176
     1
 77
     6
176
     1
 78
     2
176
     1
 67
     7
176
     1
 79
     5
176
     1
170
     0
176
     1
171
     0
176
     1
290
     0
176
     1
 93
       13
176
     1
 44
0.0
176
     1
173
     0
176
     1
  0
VISUALSTYLE
  5
2D
102
{ACAD_REACTORS
330
2A
102
}
330
2A
100
AcDbVisualStyle
  2
Gouraud
 70
     2
177
     2
291
     1
 71
     2
176
     1
 72
     2
176
     1
 73
     1
176
     1
 90
        2
176
     1
 40
-0.6
176
     1
 41
30.0
176
     1
 62
     5
 63
     7
421
 16777215
176
     1
 74
     0
176
     1
 91
        4
176
     1
 64
     7
176
     1
 65
   257
176
     1
 75
     1
176
     1
175
     1
176
     1
 42
1.0
176
     1
 92
        0
176
     1
 66
     7
176
     1
 43
1.0
176
     1
 76
     1
176
     1
 77
     6
176
     1
 78
     2
176
     1
 67
     7
176
     1
 79
     5
176
     1
170
     0
176
     1
171
     0
176
     1
290
     0
176
     1
 93
       13
176
     1
 44
0.0
176
     1
173
     0
176
     1
  0
VISUALSTYLE
  5
2E
102
{ACAD_REACTORS
330
2A
102
}
330
2A
100
AcDbVisualStyle
  2
GouraudWithEdges
 70
     3
177
     2
291
     1
 71
     2
176
     1
 72
     2
176
     1
 73
     1
176
     1
 90
        2
176
     1
 40
-0.6
176
     1
 41
30.0
176
     1
 62
     5
 63
     7
421
 16777215
176
     1
 74
     1
176
     1
 91
        4
176
     1
 64
     7
176
     1
 65
   257
176
     1
 75
     1
176
     1
175
     1
176
     1
 42
1.0
176
     1
 92
        0
176
     1
 66
   257
176
     1
 43
1.0
176
     1
 76
     1
176
     1
 77
     6
176
     1
 78
     2
176
     1
 67
     7
176
     1
 79
     5
176
     1
170
     0
176
     1
171
     0
176
     1
290
     0
176
     1
 93
       13
176
     1
 44
0.0
176
     1
173
     0
176
     1
  0
VISUALSTYLE
  5
38
102
{ACAD_REACTORS
330
2A
102
}
330
2A
100
AcDbVisualStyle
  2
Linepattern
 70
    14
177
     2
291
     1
 71
     2
176
     1
 72
     2
176
     1
 73
     0
176
     1
 90
        0
176
     1
 40
-0.6
176
     1
 41
-30.0
176
     1
 62
     5
 63
     7
421
 16777215
176
     1
 74
     1
176
     1
 91
        4
176
     1
 64
     7
176
     1
 65
   257
176
     1
 75
     7
176
     1
175
     7
176
     1
 42
1.0
176
     1
 92
        8
176
     1
 66
     7
176
     1
 43
1.0
176
     1
 76
     1
176
     1
 77
     6
176
     1
 78
     2
176
     1
 67
     7
176
     1
 79
     5
176
     1
170
     0
176
     1
171
     0
176
     1
290
     0
176
     1
 93
        1
176
     1
 44
0.0
176
     1
173
     0
176
     1
  0
VISUALSTYLE
  5
33
102
{ACAD_REACTORS
330
2A
102
}
330
2A
100
AcDbVisualStyle
  2
Realistic
 70
     8
177
     2
291
     0
 71
     2
176
     1
 72
     2
176
     1
 73
     0
176
     1
 90
        0
176
     1
 40
-0.6
176
     1
 41
-30.0
176
     1
 62
     5
 63
     7
421
 16777215
176
     1
 74
     1
176
     1
 91
        0
176
     1
 64
     7
176
     1
 65
   257
176
     1
 75
     1
176
     1
175
     1
176
     1
 42
1.0
176
     1
 92
        8
176
     1
 66
     8
424
  7895160
176
     1
 43
1.0
176
     1
 76
     1
176
     1
 77
     6
176
     1
 78
     2
176
     1
 67
     7
176
     1
 79
     5
176
     1
170
     0
176
     1
171
     0
176
     1
290
     0
176
     1
 93
       13
176
     1
 44
0.0
176
     1
173
     0
176
     1
  0
VISUALSTYLE
  5
37
102
{ACAD_REACTORS
330
2A
102
}
330
2A
100
AcDbVisualStyle
  2
Thicken
 70
    13
177
     2
291
     1
 71
     2
176
     1
 72
     2
176
     1
 73
     0
176
     1
 90
        0
176
     1
 40
-0.6
176
     1
 41
-30.0
176
     1
 62
     5
 63
     7
421
 16777215
176
     1
 74
     1
176
     1
 91
        4
176
     1
 64
     7
176
     1
 65
   257
176
     1
 75
     1
176
     1
175
     1
176
     1
 42
1.0
176
     1
 92
       12
176
     1
 66
     7
176
     1
 43
1.0
176
     1
 76
     1
176
     1
 77
     6
176
     1
 78
     2
176
     1
 67
     7
176
     1
 79
     5
176
     1
170
     0
176
     1
171
     0
176
     1
290
     0
176
     1
 93
        1
176
     1
 44
0.0
176
     1
173
     0
176
     1
  0
ENDSEC
  0
EOF
