  0
SECTION
  2
HEADER
  9
$ACADVER
  1
AC1024
  9
$ACADMAINTVER
 70
     6
  9
$DWGCODEPAGE
  3
UNDEFINED
  9
$INSBASE
 10
0.0
 20
0.0
 30
0.0
  9
$EXTMIN
 10
1.000000000000000E+20
 20
1.000000000000000E+20
 30
1.000000000000000E+20
  9
$EXTMAX
 10
-1.000000000000000E+20
 20
-1.000000000000000E+20
 30
-1.000000000000000E+20
  9
$LIMMIN
 10
0.0
 20
0.0
  9
$LIMMAX
 10
12.0
 20
9.0
  9
$ORTHOMODE
 70
     0
  9
$REGENMODE
 70
     1
  9
$FILLMODE
 70
     1
  9
$QTEXTMODE
 70
     0
  9
$MIRRTEXT
 70
     1
  9
$LTSCALE
 40
1.0
  9
$ATTMODE
 70
     1
  9
$TEXTSIZE
 40
0.2
  9
$TRACEWID
 40
0.05
  9
$TEXTSTYLE
  7
Standard
  9
$CLAYER
  8
0
  9
$CELTYPE
  6
ByLayer
  9
$CECOLOR
 62
   256
  9
$CELTSCALE
 40
1.0
  9
$DISPSILH
 70
     0
  9
$DIMSCALE
 40
1.0
  9
$DIMASZ
 40
0.18
  9
$DIMEXO
 40
0.0625
  9
$DIMDLI
 40
0.38
  9
$DIMRND
 40
0.0
  9
$DIMDLE
 40
0.0
  9
$DIMEXE
 40
0.18
  9
$DIMTP
 40
0.0
  9
$DIMTM
 40
0.0
  9
$DIMTXT
 40
0.18
  9
$DIMCEN
 40
0.09
  9
$DIMTSZ
 40
0.0
  9
$DIMTOL
 70
     0
  9
$DIMLIM
 70
     0
  9
$DIMTIH
 70
     1
  9
$DIMTOH
 70
     1
  9
$DIMSE1
 70
     0
  9
$DIMSE2
 70
     0
  9
$DIMTAD
 70
     0
  9
$DIMZIN
 70
     0
  9
$DIMBLK
  1

  9
$DIMASO
 70
     1
  9
$DIMSHO
 70
     1
  9
$DIMPOST
  1

  9
$DIMAPOST
  1

  9
$DIMALT
 70
     0
  9
$DIMALTD
 70
     2
  9
$DIMALTF
 40
25.4
  9
$DIMLFAC
 40
1.0
  9
$DIMTOFL
 70
     0
  9
$DIMTVP
 40
0.0
  9
$DIMTIX
 70
     0
  9
$DIMSOXD
 70
     0
  9
$DIMSAH
 70
     0
  9
$DIMBLK1
  1

  9
$DIMBLK2
  1

  9
$DIMSTYLE
  2
Standard
  9
$DIMCLRD
 70
     0
  9
$DIMCLRE
 70
     0
  9
$DIMCLRT
 70
     0
  9
$DIMTFAC
 40
1.0
  9
$DIMGAP
 40
0.09
  9
$DIMJUST
 70
     0
  9
$DIMSD1
 70
     0
  9
$DIMSD2
 70
     0
  9
$DIMTOLJ
 70
     1
  9
$DIMTZIN
 70
     0
  9
$DIMALTZ
 70
     0
  9
$DIMALTTZ
 70
     0
  9
$DIMUPT
 70
     0
  9
$DIMDEC
 70
     4
  9
$DIMTDEC
 70
     4
  9
$DIMALTU
 70
     2
  9
$DIMALTTD
 70
     2
  9
$DIMTXSTY
  7
Standard
  9
$DIMAUNIT
 70
     0
  9
$DIMADEC
 70
     0
  9
$DIMALTRND
 40
0.0
  9
$DIMAZIN
 70
     0
  9
$DIMDSEP
 70
    46
  9
$DIMATFIT
 70
     3
  9
$DIMFRAC
 70
     0
  9
$DIMLDRBLK
  1

  9
$DIMLUNIT
 70
     2
  9
$DIMLWD
 70
    -2
  9
$DIMLWE
 70
    -2
  9
$DIMTMOVE
 70
     0
  9
$DIMFXL
 40
1.0
  9
$DIMFXLON
 70
     0
  9
$DIMJOGANG
 40
0.7853981633974483
  9
$DIMTFILL
 70
     0
  9
$DIMTFILLCLR
 70
     0
  9
$DIMARCSYM
 70
     0
  9
$DIMLTYPE
  6

  9
$DIMLTEX1
  6

  9
$DIMLTEX2
  6

  9
$DIMTXTDIRECTION
 70
     0
  9
$LUNITS
 70
     2
  9
$LUPREC
 70
     4
  9
$SKETCHINC
 40
0.1
  9
$FILLETRAD
 40
0.5
  9
$AUNITS
 70
     0
  9
$AUPREC
 70
     0
  9
$MENU
  1
.
  9
$ELEVATION
 40
0.0
  9
$PELEVATION
 40
0.0
  9
$THICKNESS
 40
0.0
  9
$LIMCHECK
 70
     0
  9
$CHAMFERA
 40
0.5
  9
$CHAMFERB
 40
0.5
  9
$CHAMFERC
 40
1.0
  9
$CHAMFERD
 40
0.0
  9
$SKPOLY
 70
     0
  9
$TDCREATE
 40
2458263.581076378
  9
$TDUCREATE
 40
2458263.206076389
  9
$TDUPDATE
 40
2458263.581076378
  9
$TDUUPDATE
 40
2458263.206076389
  9
$TDINDWG
 40
0.0000000116
  9
$TDUSRTIMER
 40
0.0000000116
  9
$USRTIMER
 70
     1
  9
$ANGBASE
 50
0.0
  9
$ANGDIR
 70
     0
  9
$PDMODE
 70
     0
  9
$PDSIZE
 40
0.0
  9
$PLINEWID
 40
0.0
  9
$SPLFRAME
 70
     0
  9
$SPLINETYPE
 70
     6
  9
$SPLINESEGS
 70
     8
  9
$HANDSEED
  5
F5
  9
$SURFTAB1
 70
     6
  9
$SURFTAB2
 70
     6
  9
$SURFTYPE
 70
     6
  9
$SURFU
 70
     6
  9
$SURFV
 70
     6
  9
$UCSBASE
  2

  9
$UCSNAME
  2

  9
$UCSORG
 10
0.0
 20
0.0
 30
0.0
  9
$UCSXDIR
 10
1.0
 20
0.0
 30
0.0
  9
$UCSYDIR
 10
0.0
 20
1.0
 30
0.0
  9
$UCSORTHOREF
  2

  9
$UCSORTHOVIEW
 70
     0
  9
$UCSORGTOP
 10
0.0
 20
0.0
 30
0.0
  9
$UCSORGBOTTOM
 10
0.0
 20
0.0
 30
0.0
  9
$UCSORGLEFT
 10
0.0
 20
0.0
 30
0.0
  9
$UCSORGRIGHT
 10
0.0
 20
0.0
 30
0.0
  9
$UCSORGFRONT
 10
0.0
 20
0.0
 30
0.0
  9
$UCSORGBACK
 10
0.0
 20
0.0
 30
0.0
  9
$PUCSBASE
  2

  9
$PUCSNAME
  2

  9
$PUCSORG
 10
0.0
 20
0.0
 30
0.0
  9
$PUCSXDIR
 10
1.0
 20
0.0
 30
0.0
  9
$PUCSYDIR
 10
0.0
 20
1.0
 30
0.0
  9
$PUCSORTHOREF
  2

  9
$PUCSORTHOVIEW
 70
     0
  9
$PUCSORGTOP
 10
0.0
 20
0.0
 30
0.0
  9
$PUCSORGBOTTOM
 10
0.0
 20
0.0
 30
0.0
  9
$PUCSORGLEFT
 10
0.0
 20
0.0
 30
0.0
  9
$PUCSORGRIGHT
 10
0.0
 20
0.0
 30
0.0
  9
$PUCSORGFRONT
 10
0.0
 20
0.0
 30
0.0
  9
$PUCSORGBACK
 10
0.0
 20
0.0
 30
0.0
  9
$USERI1
 70
     0
  9
$USERI2
 70
     0
  9
$USERI3
 70
     0
  9
$USERI4
 70
     0
  9
$USERI5
 70
     0
  9
$USERR1
 40
0.0
  9
$USERR2
 40
0.0
  9
$USERR3
 40
0.0
  9
$USERR4
 40
0.0
  9
$USERR5
 40
0.0
  9
$WORLDVIEW
 70
     1
  9
$SHADEDGE
 70
     3
  9
$SHADEDIF
 70
    70
  9
$TILEMODE
 70
     1
  9
$MAXACTVP
 70
    64
  9
$PINSBASE
 10
0.0
 20
0.0
 30
0.0
  9
$PLIMCHECK
 70
     0
  9
$PEXTMIN
 10
1.000000000000000E+20
 20
1.000000000000000E+20
 30
1.000000000000000E+20
  9
$PEXTMAX
 10
-1.000000000000000E+20
 20
-1.000000000000000E+20
 30
-1.000000000000000E+20
  9
$PLIMMIN
 10
0.0
 20
0.0
  9
$PLIMMAX
 10
12.0
 20
9.0
  9
$UNITMODE
 70
     0
  9
$VISRETAIN
 70
     1
  9
$PLINEGEN
 70
     0
  9
$PSLTSCALE
 70
     1
  9
$TREEDEPTH
 70
  3020
  9
$CMLSTYLE
  2
Standard
  9
$CMLJUST
 70
     0
  9
$CMLSCALE
 40
1.0
  9
$PROXYGRAPHICS
 70
     1
  9
$MEASUREMENT
 70
     0
  9
$CELWEIGHT
370
    -1
  9
$ENDCAPS
280
     0
  9
$JOINSTYLE
280
     0
  9
$LWDISPLAY
290
     1
  9
$INSUNITS
 70
     1
  9
$HYPERLINKBASE
  1

  9
$STYLESHEET
  1

  9
$XEDIT
290
     1
  9
$CEPSNTYPE
380
     0
  9
$PSTYLEMODE
290
     1
  9
$FINGERPRINTGUID
  2
{535A0A22-58FF-0C48-04F3-2C4F1515A8FA}
  9
$VERSIONGUID
  2
{FAEB1C32-E019-11D5-929B-00C0DF256EC4}
  9
$EXTNAMES
290
     1
  9
$PSVPSCALE
 40
0.0
  9
$OLESTARTUP
290
     0
  9
$SORTENTS
280
   127
  9
$INDEXCTL
280
     0
  9
$HIDETEXT
280
     1
  9
$XCLIPFRAME
280
     2
  9
$HALOGAP
280
     0
  9
$OBSCOLOR
 70
   257
  9
$OBSLTYPE
280
     0
  9
$INTERSECTIONDISPLAY
280
     0
  9
$INTERSECTIONCOLOR
 70
   257
  9
$DIMASSOC
280
     2
  9
$PROJECTNAME
  1

  9
$CAMERADISPLAY
290
     0
  9
$LENSLENGTH
 40
50.0
  9
$CAMERAHEIGHT
 40
0.0
  9
$STEPSPERSEC
 40
2.0
  9
$STEPSIZE
 40
6.0
  9
$3DDWFPREC
 40
2.0
  9
$PSOLWIDTH
 40
0.25
  9
$PSOLHEIGHT
 40
4.0
  9
$LOFTANG1
 40
1.570796326794897
  9
$LOFTANG2
 40
1.570796326794897
  9
$LOFTMAG1
 40
0.0
  9
$LOFTMAG2
 40
0.0
  9
$LOFTPARAM
 70
     7
  9
$LOFTNORMALS
280
     1
  9
$LATITUDE
 40
37.795
  9
$LONGITUDE
 40
-122.394
  9
$NORTHDIRECTION
 40
0.0
  9
$TIMEZONE
 70
 -8000
  9
$LIGHTGLYPHDISPLAY
280
     1
  9
$TILEMODELIGHTSYNCH
280
     1
  9
$CMATERIAL
347
3C
  9
$SOLIDHIST
280
     1
  9
$SHOWHIST
280
     1
  9
$DWFFRAME
280
     2
  9
$DGNFRAME
280
     2
  9
$REALWORLDSCALE
290
     1
  9
$INTERFERECOLOR
 62
   256
  9
$CSHADOW
280
     0
  9
$SHADOWPLANELOCATION
 40
0.0
  0
ENDSEC
  0
SECTION
  2
CLASSES
  0
CLASS
  1
ACDBDICTIONARYWDFLT
  2
AcDbDictionaryWithDefault
  3
ObjectDBX Classes
 90
        0
 91
        4
280
     0
281
     0
  0
CLASS
  1
VISUALSTYLE
  2
AcDbVisualStyle
  3
ObjectDBX Classes
 90
     4095
 91
        4
280
     0
281
     0
  0
CLASS
  1
MATERIAL
  2
AcDbMaterial
  3
ObjectDBX Classes
 90
     1153
 91
        4
280
     0
281
     0
  0
CLASS
  1
SUN
  2
AcDbSun
  3
SCENEOE
 90
     1024
 91
        4
280
     0
281
     0
  0
ENDSEC
  0
SECTION
  2
TABLES
  0
TABLE
  2
VPORT
  5
8
330
0
100
AcDbSymbolTable
 70
     1
  0
VPORT
  5
29
330
8
100
AcDbSymbolTableRecord
100
AcDbViewportTableRecord
  2
*Active
 70
     0
 10
0.0
 20
0.0
 11
1.0
 21
1.0
 12
0.0
 22
0.0
 13
0.0
 23
0.0
 14
0.5
 24
0.5
 15
0.5
 25
0.5
 16
0.0
 26
0.0
 36
1.0
 17
105.0007777515277
 27
-148.5000416295416
 37
0.0
 40
297.0000832590831
 41
0.7070757462376333
 42
50.0
 43
0.0
 44
0.0
 50
0.0
 51
0.0
 71
     0
 72
   100
 73
     1
 74
     3
 75
     0
 76
     0
 77
     0
 78
     0
281
     0
 65
     1
110
0.0
120
0.0
130
0.0
111
1.0
121
0.0
131
0.0
112
0.0
122
1.0
132
0.0
 79
     0
146
0.0
 60
     3
 61
     5
292
     1
282
     1
141
0.0
142
0.0
 63
   250
361
3F
  0
ENDTAB
  0
TABLE
  2
LTYPE
  5
5
330
0
100
AcDbSymbolTable
 70
     3
  0
LTYPE
  5
14
330
5
100
AcDbSymbolTableRecord
100
AcDbLinetypeTableRecord
  2
ByBlock
 70
     0
  3

 72
    65
 73
     0
 40
0.0
  0
LTYPE
  5
15
330
5
100
AcDbSymbolTableRecord
100
AcDbLinetypeTableRecord
  2
ByLayer
 70
     0
  3

 72
    65
 73
     0
 40
0.0
  0
LTYPE
  5
16
330
5
100
AcDbSymbolTableRecord
100
AcDbLinetypeTableRecord
  2
Continuous
 70
     0
  3
Solid line
 72
    65
 73
     0
 40
0.0
  0
LTYPE
  5
45
330
5
100
AcDbSymbolTableRecord
100
AcDbLinetypeTableRecord
  2
AI-Linetype-1
 70
     0
  3
Adobe Illustrator Linetype No. 1
 72
    65
 73
     2
 40
1.411111110758333
 49
0.7055555553791667
 74
     0
 49
-0.7055555553791667
 74
     0
  0
LTYPE
  5
4A
330
5
100
AcDbSymbolTableRecord
100
AcDbLinetypeTableRecord
  2
AI-Linetype-2
 70
     0
  3
Adobe Illustrator Linetype No. 2
 72
    65
 73
     2
 40
1.411111110758333
 49
0.7055555553791667
 74
     0
 49
-0.7055555553791667
 74
     0
  0
ENDTAB
  0
TABLE
  2
LAYER
  5
2
330
0
100
AcDbSymbolTable
 70
     2
  0
LAYER
  5
10
330
2
100
AcDbSymbolTableRecord
100
AcDbLayerTableRecord
  2
0
 70
     0
 62
     7
  6
Continuous
370
    -3
390
F
347
3E
  0
LAYER
  5
40
330
2
100
AcDbSymbolTableRecord
100
AcDbLayerTableRecord
  2
_U+30EC_U+30A4_U+30E4_U+30FC 1
 70
     0
 62
     7
  6
Continuous
370
    -3
390
F
347
3E
  0
ENDTAB
  0
TABLE
  2
STYLE
  5
3
330
0
100
AcDbSymbolTable
 70
     1
  0
STYLE
  5
11
330
3
100
AcDbSymbolTableRecord
100
AcDbTextStyleTableRecord
  2
Standard
 70
     0
 40
0.0
 41
1.0
 50
0.0
 71
     0
 42
0.2
  3
txt
  4

  0
ENDTAB
  0
TABLE
  2
VIEW
  5
6
330
0
100
AcDbSymbolTable
 70
     0
  0
ENDTAB
  0
TABLE
  2
UCS
  5
7
330
0
100
AcDbSymbolTable
 70
     0
  0
ENDTAB
  0
TABLE
  2
APPID
  5
9
330
0
100
AcDbSymbolTable
 70
     1
  0
APPID
  5
12
330
9
100
AcDbSymbolTableRecord
100
AcDbRegAppTableRecord
  2
ACAD
 70
     0
  0
ENDTAB
  0
TABLE
  2
DIMSTYLE
  5
A
330
0
100
AcDbSymbolTable
 70
     1
100
AcDbDimStyleTable
  0
DIMSTYLE
105
27
330
A
100
AcDbSymbolTableRecord
100
AcDbDimStyleTableRecord
  2
Standard
 70
     0
178
     0
340
11
  0
ENDTAB
  0
TABLE
  2
BLOCK_RECORD
  5
1
330
0
100
AcDbSymbolTable
 70
     6
  0
BLOCK_RECORD
  5
1F
330
1
100
AcDbSymbolTableRecord
100
AcDbBlockTableRecord
  2
*Model_Space
340
22
 70
     0
280
     1
281
     0
  0
BLOCK_RECORD
  5
1B
330
1
100
AcDbSymbolTableRecord
100
AcDbBlockTableRecord
  2
*Paper_Space
340
1E
 70
     0
280
     1
281
     0
  0
BLOCK_RECORD
  5
23
330
1
100
AcDbSymbolTableRecord
100
AcDbBlockTableRecord
  2
*Paper_Space0
340
26
 70
     0
280
     1
281
     0
  0
BLOCK_RECORD
  5
9D
330
1
100
AcDbSymbolTableRecord
100
AcDbBlockTableRecord
  2
block 2
340
0
102
{BLKREFS
331
9E
102
}
 70
     0
280
     1
281
     0
  0
BLOCK_RECORD
  5
AB
330
1
100
AcDbSymbolTableRecord
100
AcDbBlockTableRecord
  2
block 3
340
0
102
{BLKREFS
331
AC
102
}
 70
     0
280
     1
281
     0
  0
BLOCK_RECORD
  5
BD
330
1
100
AcDbSymbolTableRecord
100
AcDbBlockTableRecord
  2
block 4
340
0
102
{BLKREFS
331
BE
102
}
 70
     0
280
     1
281
     0
  0
BLOCK_RECORD
  5
D2
330
1
100
AcDbSymbolTableRecord
100
AcDbBlockTableRecord
  2
block 5
340
0
102
{BLKREFS
331
D3
102
}
 70
     0
280
     1
281
     0
  0
BLOCK_RECORD
  5
E2
330
1
100
AcDbSymbolTableRecord
100
AcDbBlockTableRecord
  2
block 6
340
0
102
{BLKREFS
331
E3
102
}
 70
     0
280
     1
281
     0
  0
ENDTAB
  0
ENDSEC
  0
SECTION
  2
BLOCKS
  0
BLOCK
  5
20
330
1F
100
AcDbEntity
  8
0
100
AcDbBlockBegin
  2
*Model_Space
 70
     0
 10
0.0
 20
0.0
 30
0.0
  3
*Model_Space
  1

  0
ENDBLK
  5
21
330
1F
100
AcDbEntity
  8
0
100
AcDbBlockEnd
  0
BLOCK
  5
1C
330
1B
100
AcDbEntity
 67
     1
  8
0
100
AcDbBlockBegin
  2
*Paper_Space
 70
     0
 10
0.0
 20
0.0
 30
0.0
  3
*Paper_Space
  1

  0
ENDBLK
  5
1D
330
1B
100
AcDbEntity
 67
     1
  8
0
100
AcDbBlockEnd
  0
BLOCK
  5
24
330
23
100
AcDbEntity
  8
0
100
AcDbBlockBegin
  2
*Paper_Space0
 70
     0
 10
0.0
 20
0.0
 30
0.0
  3
*Paper_Space0
  1

  0
ENDBLK
  5
25
330
23
100
AcDbEntity
  8
0
100
AcDbBlockEnd
  0
BLOCK
  5
9F
330
9D
100
AcDbEntity
  8
0
100
AcDbBlockBegin
  2
block 2
 70
     0
 10
0.0
 20
0.0
 30
0.0
  3
block 2
  1

  0
SPLINE
  5
A1
330
9D
100
AcDbEntity
  8
_U+30EC_U+30A4_U+30E4_U+30FC 1
370
     0
100
AcDbSpline
210
0.0
220
0.0
230
1.0
 70
    11
 71
     3
 72
    26
 73
    22
 74
     0
 42
0.0000000001
 43
0.0000000001
 12
1.0
 22
0.0
 32
0.0
 13
1.0
 23
0.0
 33
0.0
 40
0.0
 40
0.0
 40
0.0
 40
0.0
 40
1.0
 40
1.0
 40
1.0
 40
2.0
 40
2.0
 40
2.0
 40
3.0
 40
3.0
 40
3.0
 40
4.0
 40
4.0
 40
4.0
 40
5.0
 40
5.0
 40
5.0
 40
6.0
 40
6.0
 40
6.0
 40
7.0
 40
7.0
 40
7.0
 40
7.0
 10
118.6229057863165
 20
-140.5314737604401
 30
0.0
 10
118.6229057863165
 20
-140.5314737604401
 30
0.0
 10
117.5184081737454
 20
-140.5314737604401
 30
0.0
 10
117.5184081737454
 20
-140.5314737604401
 30
0.0
 10
117.5184081737454
 20
-140.5314737604401
 30
0.0
 10
117.5184081737454
 20
-140.861513907927
 30
0.0
 10
117.5184081737454
 20
-140.861513907927
 30
0.0
 10
117.5184081737454
 20
-140.861513907927
 30
0.0
 10
117.3706135774282
 20
-140.861513907927
 30
0.0
 10
117.3706135774282
 20
-140.861513907927
 30
0.0
 10
117.3557996668416
 20
-140.5294067031489
 30
0.0
 10
117.1928466503893
 20
-140.482897914098
 30
0.0
 10
117.078469480279
 20
-140.4532700929249
 30
0.0
 10
117.078469480279
 20
-140.4532700929249
 30
0.0
 10
117.078469480279
 20
-140.3071980443503
 30
0.0
 10
117.078469480279
 20
-140.3071980443503
 30
0.0
 10
117.078469480279
 20
-140.3071980443503
 30
0.0
 10
118.6229057863165
 20
-140.3071980443503
 30
0.0
 10
118.6229057863165
 20
-140.3071980443503
 30
0.0
 10
118.6229057863165
 20
-140.3071980443503
 30
0.0
 10
118.6229057863165
 20
-140.5314737604401
 30
0.0
 10
118.6229057863165
 20
-140.5314737604401
 30
0.0
  0
HATCH
  5
A2
330
9D
100
AcDbEntity
  8
_U+30EC_U+30A4_U+30E4_U+30FC 1
 62
   179
420
  2234388
100
AcDbHatch
 10
0.0
 20
0.0
 30
0.0
210
0.0
220
0.0
230
1.0
  2
SOLID
 70
     1
 71
     0
 91
        1
 92
        1
 93
        1
 72
     4
 94
        3
 73
     0
 74
     1
 95
       26
 96
       22
 40
0.0
 40
0.0
 40
0.0
 40
0.0
 40
1.0
 40
1.0
 40
1.0
 40
2.0
 40
2.0
 40
2.0
 40
3.0
 40
3.0
 40
3.0
 40
4.0
 40
4.0
 40
4.0
 40
5.0
 40
5.0
 40
5.0
 40
6.0
 40
6.0
 40
6.0
 40
7.0
 40
7.0
 40
7.0
 40
7.0
 10
118.6229057863165
 20
-140.5314737604401
 10
118.6229057863165
 20
-140.5314737604401
 10
117.5184081737454
 20
-140.5314737604401
 10
117.5184081737454
 20
-140.5314737604401
 10
117.5184081737454
 20
-140.5314737604401
 10
117.5184081737454
 20
-140.861513907927
 10
117.5184081737454
 20
-140.861513907927
 10
117.5184081737454
 20
-140.861513907927
 10
117.3706135774282
 20
-140.861513907927
 10
117.3706135774282
 20
-140.861513907927
 10
117.3557996668416
 20
-140.5294067031489
 10
117.1928466503893
 20
-140.482897914098
 10
117.078469480279
 20
-140.4532700929249
 10
117.078469480279
 20
-140.4532700929249
 10
117.078469480279
 20
-140.3071980443503
 10
117.078469480279
 20
-140.3071980443503
 10
117.078469480279
 20
-140.3071980443503
 10
118.6229057863165
 20
-140.3071980443503
 10
118.6229057863165
 20
-140.3071980443503
 10
118.6229057863165
 20
-140.3071980443503
 10
118.6229057863165
 20
-140.5314737604401
 10
118.6229057863165
 20
-140.5314737604401
 97
        0
 97
        0
 75
     2
 76
     1
 98
        0
  0
ENDBLK
  5
A0
330
9D
100
AcDbEntity
  8
0
100
AcDbBlockEnd
  0
BLOCK
  5
AD
330
AB
100
AcDbEntity
  8
0
100
AcDbBlockBegin
  2
block 3
 70
     0
 10
0.0
 20
0.0
 30
0.0
  3
block 3
  1

  0
SPLINE
  5
AF
330
AB
100
AcDbEntity
  8
_U+30EC_U+30A4_U+30E4_U+30FC 1
370
     0
100
AcDbSpline
210
0.0
220
0.0
230
1.0
 70
    11
 71
     3
 72
    62
 73
    58
 74
     0
 42
0.0000000001
 43
0.0000000001
 12
1.0
 22
0.0
 32
0.0
 13
1.0
 23
0.0
 33
0.0
 40
0.0
 40
0.0
 40
0.0
 40
0.0
 40
1.0
 40
1.0
 40
1.0
 40
2.0
 40
2.0
 40
2.0
 40
3.0
 40
3.0
 40
3.0
 40
4.0
 40
4.0
 40
4.0
 40
5.0
 40
5.0
 40
5.0
 40
6.0
 40
6.0
 40
6.0
 40
7.0
 40
7.0
 40
7.0
 40
8.0
 40
8.0
 40
8.0
 40
9.0
 40
9.0
 40
9.0
 40
10.0
 40
10.0
 40
10.0
 40
11.0
 40
11.0
 40
11.0
 40
12.0
 40
12.0
 40
12.0
 40
13.0
 40
13.0
 40
13.0
 40
14.0
 40
14.0
 40
14.0
 40
15.0
 40
15.0
 40
15.0
 40
16.0
 40
16.0
 40
16.0
 40
17.0
 40
17.0
 40
17.0
 40
18.0
 40
18.0
 40
18.0
 40
19.0
 40
19.0
 40
19.0
 40
19.0
 10
118.6735486899497
 20
-154.5335475959152
 30
0.0
 10
118.6735486899497
 20
-154.6289767408566
 30
0.0
 10
118.6521890979411
 20
-154.8467067755244
 30
0.0
 10
118.4661539417376
 20
-154.9714192320905
 30
0.0
 10
118.3538438289185
 20
-155.0454887850234
 30
0.0
 10
118.2546250789433
 20
-155.0499674091542
 30
0.0
 10
118.1698757300062
 20
-155.0541015237365
 30
0.0
 10
118.1698757300062
 20
-155.0541015237365
 30
0.0
 10
118.1698757300062
 20
-154.833959922229
 30
0.0
 10
118.1698757300062
 20
-154.833959922229
 30
0.0
 10
118.243945282939
 20
-154.8318928649379
 30
0.0
 10
118.4789007950331
 20
-154.8212130689336
 30
0.0
 10
118.4789007950331
 20
-154.5376817104975
 30
0.0
 10
118.4789007950331
 20
-154.4002224006361
 30
0.0
 10
118.4089653566825
 20
-154.247949180188
 30
0.0
 10
118.1805555260104
 20
-154.247949180188
 30
0.0
 10
118.064111298609
 20
-154.247949180188
 30
0.0
 10
118.015535452267
 20
-154.2858452305258
 30
0.0
 10
117.9838405738027
 20
-154.3175401089901
 30
0.0
 10
117.9097710208698
 20
-154.3919541714715
 30
0.0
 10
117.8970241675744
 20
-154.5083983988729
 30
0.0
 10
117.8970241675744
 20
-154.5631754170884
 30
0.0
 10
117.8970241675744
 20
-154.5821234422573
 30
0.0
 10
117.8990912248655
 20
-154.6179524353039
 30
0.0
 10
117.9032253394478
 20
-154.6455131991858
 30
0.0
 10
117.9032253394478
 20
-154.6455131991858
 30
0.0
 10
117.7085774445312
 20
-154.6455131991858
 30
0.0
 10
117.7085774445312
 20
-154.6455131991858
 30
0.0
 10
117.7151231259532
 20
-154.6076171488481
 30
0.0
 10
117.7171901832443
 20
-154.5652424743795
 30
0.0
 10
117.7171901832443
 20
-154.5586967929576
 30
0.0
 10
117.7171901832443
 20
-154.4932399787378
 30
0.0
 10
117.6961751007843
 20
-154.2944579692389
 30
0.0
 10
117.4591525313991
 20
-154.2944579692389
 30
0.0
 10
117.2813856043602
 20
-154.2944579692389
 30
0.0
 10
117.2262640765962
 20
-154.4257161072269
 30
0.0
 10
117.2262640765962
 20
-154.5356146532064
 30
0.0
 10
117.2262640765962
 20
-154.7998534769251
 30
0.0
 10
117.4591525313991
 20
-154.8084662156382
 30
0.0
 10
117.5311550270408
 20
-154.812944839769
 30
0.0
 10
117.5311550270408
 20
-154.812944839769
 30
0.0
 10
117.5311550270408
 20
-155.0158609638502
 30
0.0
 10
117.5311550270408
 20
-155.0158609638502
 30
0.0
 10
117.4060980609263
 20
-155.0072482251371
 30
0.0
 10
117.0295491243885
 20
-154.9796874612551
 30
0.0
 10
117.0295491243885
 20
-154.522867799911
 30
0.0
 10
117.0295491243885
 20
-154.2989365933697
 30
0.0
 10
117.1566731477942
 20
-154.0577799094022
 30
0.0
 10
117.4526068499771
 20
-154.0577799094022
 30
0.0
 10
117.6389865157291
 20
-154.0577799094022
 30
0.0
 10
117.7213242978266
 20
-154.1528645447951
 30
0.0
 10
117.7826469974641
 20
-154.2520832947703
 30
0.0
 10
117.8102077613461
 20
-154.1907605951329
 30
0.0
 10
117.8908229957009
 20
-154.0088595535117
 30
0.0
 10
118.167808672715
 20
-154.0088595535117
 30
0.0
 10
118.5064615589151
 20
-154.0088595535117
 30
0.0
 10
118.6735486899497
 20
-154.2562174093526
 30
0.0
 10
118.6735486899497
 20
-154.5335475959152
 30
0.0
  0
HATCH
  5
B0
330
AB
100
AcDbEntity
  8
_U+30EC_U+30A4_U+30E4_U+30FC 1
 62
   179
420
  2234388
100
AcDbHatch
 10
0.0
 20
0.0
 30
0.0
210
0.0
220
0.0
230
1.0
  2
SOLID
 70
     1
 71
     0
 91
        1
 92
        1
 93
        1
 72
     4
 94
        3
 73
     0
 74
     1
 95
       62
 96
       58
 40
0.0
 40
0.0
 40
0.0
 40
0.0
 40
1.0
 40
1.0
 40
1.0
 40
2.0
 40
2.0
 40
2.0
 40
3.0
 40
3.0
 40
3.0
 40
4.0
 40
4.0
 40
4.0
 40
5.0
 40
5.0
 40
5.0
 40
6.0
 40
6.0
 40
6.0
 40
7.0
 40
7.0
 40
7.0
 40
8.0
 40
8.0
 40
8.0
 40
9.0
 40
9.0
 40
9.0
 40
10.0
 40
10.0
 40
10.0
 40
11.0
 40
11.0
 40
11.0
 40
12.0
 40
12.0
 40
12.0
 40
13.0
 40
13.0
 40
13.0
 40
14.0
 40
14.0
 40
14.0
 40
15.0
 40
15.0
 40
15.0
 40
16.0
 40
16.0
 40
16.0
 40
17.0
 40
17.0
 40
17.0
 40
18.0
 40
18.0
 40
18.0
 40
19.0
 40
19.0
 40
19.0
 40
19.0
 10
118.6735486899497
 20
-154.5335475959152
 10
118.6735486899497
 20
-154.6289767408566
 10
118.6521890979411
 20
-154.8467067755244
 10
118.4661539417376
 20
-154.9714192320905
 10
118.3538438289185
 20
-155.0454887850234
 10
118.2546250789433
 20
-155.0499674091542
 10
118.1698757300062
 20
-155.0541015237365
 10
118.1698757300062
 20
-155.0541015237365
 10
118.1698757300062
 20
-154.833959922229
 10
118.1698757300062
 20
-154.833959922229
 10
118.243945282939
 20
-154.8318928649379
 10
118.4789007950331
 20
-154.8212130689336
 10
118.4789007950331
 20
-154.5376817104975
 10
118.4789007950331
 20
-154.4002224006361
 10
118.4089653566825
 20
-154.247949180188
 10
118.1805555260104
 20
-154.247949180188
 10
118.064111298609
 20
-154.247949180188
 10
118.015535452267
 20
-154.2858452305258
 10
117.9838405738027
 20
-154.3175401089901
 10
117.9097710208698
 20
-154.3919541714715
 10
117.8970241675744
 20
-154.5083983988729
 10
117.8970241675744
 20
-154.5631754170884
 10
117.8970241675744
 20
-154.5821234422573
 10
117.8990912248655
 20
-154.6179524353039
 10
117.9032253394478
 20
-154.6455131991858
 10
117.9032253394478
 20
-154.6455131991858
 10
117.7085774445312
 20
-154.6455131991858
 10
117.7085774445312
 20
-154.6455131991858
 10
117.7151231259532
 20
-154.6076171488481
 10
117.7171901832443
 20
-154.5652424743795
 10
117.7171901832443
 20
-154.5586967929576
 10
117.7171901832443
 20
-154.4932399787378
 10
117.6961751007843
 20
-154.2944579692389
 10
117.4591525313991
 20
-154.2944579692389
 10
117.2813856043602
 20
-154.2944579692389
 10
117.2262640765962
 20
-154.4257161072269
 10
117.2262640765962
 20
-154.5356146532064
 10
117.2262640765962
 20
-154.7998534769251
 10
117.4591525313991
 20
-154.8084662156382
 10
117.5311550270408
 20
-154.812944839769
 10
117.5311550270408
 20
-154.812944839769
 10
117.5311550270408
 20
-155.0158609638502
 10
117.5311550270408
 20
-155.0158609638502
 10
117.4060980609263
 20
-155.0072482251371
 10
117.0295491243885
 20
-154.9796874612551
 10
117.0295491243885
 20
-154.522867799911
 10
117.0295491243885
 20
-154.2989365933697
 10
117.1566731477942
 20
-154.0577799094022
 10
117.4526068499771
 20
-154.0577799094022
 10
117.6389865157291
 20
-154.0577799094022
 10
117.7213242978266
 20
-154.1528645447951
 10
117.7826469974641
 20
-154.2520832947703
 10
117.8102077613461
 20
-154.1907605951329
 10
117.8908229957009
 20
-154.0088595535117
 10
118.167808672715
 20
-154.0088595535117
 10
118.5064615589151
 20
-154.0088595535117
 10
118.6735486899497
 20
-154.2562174093526
 10
118.6735486899497
 20
-154.5335475959152
 97
        0
 97
        0
 75
     2
 76
     1
 98
        0
  0
ENDBLK
  5
AE
330
AB
100
AcDbEntity
  8
0
100
AcDbBlockEnd
  0
BLOCK
  5
BF
330
BD
100
AcDbEntity
  8
0
100
AcDbBlockBegin
  2
block 4
 70
     0
 10
0.0
 20
0.0
 30
0.0
  3
block 4
  1

  0
SPLINE
  5
C1
330
BD
100
AcDbEntity
  8
_U+30EC_U+30A4_U+30E4_U+30FC 1
370
     0
100
AcDbSpline
210
0.0
220
0.0
230
1.0
 70
    11
 71
     3
 72
    26
 73
    22
 74
     0
 42
0.0000000001
 43
0.0000000001
 12
1.0
 22
0.0
 32
0.0
 13
1.0
 23
0.0
 33
0.0
 40
0.0
 40
0.0
 40
0.0
 40
0.0
 40
1.0
 40
1.0
 40
1.0
 40
2.0
 40
2.0
 40
2.0
 40
3.0
 40
3.0
 40
3.0
 40
4.0
 40
4.0
 40
4.0
 40
5.0
 40
5.0
 40
5.0
 40
6.0
 40
6.0
 40
6.0
 40
7.0
 40
7.0
 40
7.0
 40
7.0
 10
94.63126082703663
 20
-160.5276692307014
 30
0.0
 10
94.63126082703663
 20
-160.5276692307014
 30
0.0
 10
94.63126082703663
 20
-159.4235161276789
 30
0.0
 10
94.63126082703663
 20
-159.4235161276789
 30
0.0
 10
94.63126082703663
 20
-159.4235161276789
 30
0.0
 10
94.3012206795497
 20
-159.4235161276789
 30
0.0
 10
94.3012206795497
 20
-159.4235161276789
 30
0.0
 10
94.3012206795497
 20
-159.4235161276789
 30
0.0
 10
94.3012206795497
 20
-159.2753770218131
 30
0.0
 10
94.3012206795497
 20
-159.2753770218131
 30
0.0
 10
94.63332788432778
 20
-159.2605631112265
 30
0.0
 10
94.67983667337866
 20
-159.0976100947742
 30
0.0
 10
94.70946449455181
 20
-158.9835774342124
 30
0.0
 10
94.70946449455181
 20
-158.9835774342124
 30
0.0
 10
94.8555365431264
 20
-158.9835774342124
 30
0.0
 10
94.8555365431264
 20
-158.9835774342124
 30
0.0
 10
94.8555365431264
 20
-158.9835774342124
 30
0.0
 10
94.8555365431264
 20
-160.5276692307014
 30
0.0
 10
94.8555365431264
 20
-160.5276692307014
 30
0.0
 10
94.8555365431264
 20
-160.5276692307014
 30
0.0
 10
94.63126082703663
 20
-160.5276692307014
 30
0.0
 10
94.63126082703663
 20
-160.5276692307014
 30
0.0
  0
HATCH
  5
C2
330
BD
100
AcDbEntity
  8
_U+30EC_U+30A4_U+30E4_U+30FC 1
 62
   179
420
  2234388
100
AcDbHatch
 10
0.0
 20
0.0
 30
0.0
210
0.0
220
0.0
230
1.0
  2
SOLID
 70
     1
 71
     0
 91
        1
 92
        1
 93
        1
 72
     4
 94
        3
 73
     0
 74
     1
 95
       26
 96
       22
 40
0.0
 40
0.0
 40
0.0
 40
0.0
 40
1.0
 40
1.0
 40
1.0
 40
2.0
 40
2.0
 40
2.0
 40
3.0
 40
3.0
 40
3.0
 40
4.0
 40
4.0
 40
4.0
 40
5.0
 40
5.0
 40
5.0
 40
6.0
 40
6.0
 40
6.0
 40
7.0
 40
7.0
 40
7.0
 40
7.0
 10
94.63126082703663
 20
-160.5276692307014
 10
94.63126082703663
 20
-160.5276692307014
 10
94.63126082703663
 20
-159.4235161276789
 10
94.63126082703663
 20
-159.4235161276789
 10
94.63126082703663
 20
-159.4235161276789
 10
94.3012206795497
 20
-159.4235161276789
 10
94.3012206795497
 20
-159.4235161276789
 10
94.3012206795497
 20
-159.4235161276789
 10
94.3012206795497
 20
-159.2753770218131
 10
94.3012206795497
 20
-159.2753770218131
 10
94.63332788432778
 20
-159.2605631112265
 10
94.67983667337866
 20
-159.0976100947742
 10
94.70946449455181
 20
-158.9835774342124
 10
94.70946449455181
 20
-158.9835774342124
 10
94.8555365431264
 20
-158.9835774342124
 10
94.8555365431264
 20
-158.9835774342124
 10
94.8555365431264
 20
-158.9835774342124
 10
94.8555365431264
 20
-160.5276692307014
 10
94.8555365431264
 20
-160.5276692307014
 10
94.8555365431264
 20
-160.5276692307014
 10
94.63126082703663
 20
-160.5276692307014
 10
94.63126082703663
 20
-160.5276692307014
 97
        0
 97
        0
 75
     2
 76
     1
 98
        0
  0
SPLINE
  5
C3
330
BD
100
AcDbEntity
  8
_U+30EC_U+30A4_U+30E4_U+30FC 1
370
     0
100
AcDbSpline
210
0.0
220
0.0
230
1.0
 70
    11
 71
     3
 72
    29
 73
    25
 74
     0
 42
0.0000000001
 43
0.0000000001
 12
1.0
 22
0.0
 32
0.0
 13
1.0
 23
0.0
 33
0.0
 40
0.0
 40
0.0
 40
0.0
 40
0.0
 40
1.0
 40
1.0
 40
1.0
 40
2.0
 40
2.0
 40
2.0
 40
3.0
 40
3.0
 40
3.0
 40
4.0
 40
4.0
 40
4.0
 40
5.0
 40
5.0
 40
5.0
 40
6.0
 40
6.0
 40
6.0
 40
7.0
 40
7.0
 40
7.0
 40
8.0
 40
8.0
 40
8.0
 40
8.0
 10
96.25441756491209
 20
-160.3499023036625
 30
0.0
 10
96.14658607622377
 20
-160.5593641091657
 30
0.0
 10
95.97312551854145
 20
-160.5786566438831
 30
0.0
 10
95.85668129114
 20
-160.5786566438831
 30
0.0
 10
95.6959675867531
 20
-160.5786566438831
 30
0.0
 10
95.55420190753506
 20
-160.5321478548323
 30
0.0
 10
95.45894501736791
 20
-160.3499023036625
 30
0.0
 10
95.35541989803615
 20
-160.1552544087459
 30
0.0
 10
95.33629961809301
 20
-159.9185763489093
 30
0.0
 10
95.33629961809301
 20
-159.7556233324569
 30
0.0
 10
95.33629961809301
 20
-159.6116183411735
 30
0.0
 10
95.35318058597073
 20
-159.3601263707503
 30
0.0
 10
95.45894501736791
 20
-159.1609998517028
 30
0.0
 10
95.56694876083048
 20
-158.9580837276216
 30
0.0
 10
95.72766246521739
 20
-158.9346570783219
 30
0.0
 10
95.85668129114
 20
-158.9346570783219
 30
0.0
 10
96.01532793823576
 20
-158.9346570783219
 30
0.0
 10
96.15916067474494
 20
-158.9790988100816
 30
0.0
 10
96.25441756491209
 20
-159.1609998517028
 30
0.0
 10
96.35380856966155
 20
-159.3535806893283
 30
0.0
 10
96.37706296418699
 20
-159.5819905200003
 30
0.0
 10
96.37706296418699
 20
-159.7556233324569
 30
0.0
 10
96.37706296418699
 20
-159.9268445780739
 30
0.0
 10
96.35604788172697
 20
-160.1576659755856
 30
0.0
 10
96.25441756491209
 20
-160.3499023036625
 30
0.0
  0
SPLINE
  5
C4
330
BD
100
AcDbEntity
  8
_U+30EC_U+30A4_U+30E4_U+30FC 1
370
     0
100
AcDbSpline
210
0.0
220
0.0
230
1.0
 70
    11
 71
     3
 72
    17
 73
    13
 74
     0
 42
0.0000000001
 43
0.0000000001
 12
1.0
 22
0.0
 32
0.0
 13
1.0
 23
0.0
 33
0.0
 40
0.0
 40
0.0
 40
0.0
 40
0.0
 40
1.0
 40
1.0
 40
1.0
 40
2.0
 40
2.0
 40
2.0
 40
3.0
 40
3.0
 40
3.0
 40
4.0
 40
4.0
 40
4.0
 40
4.0
 10
95.85668129114
 20
-159.1272379159474
 30
0.0
 10
95.60708412323365
 20
-159.1272379159474
 30
0.0
 10
95.56057533418277
 20
-159.4107692743834
 30
0.0
 10
95.56057533418277
 20
-159.7556233324569
 30
0.0
 10
95.56057533418277
 20
-160.0749836839396
 30
0.0
 10
95.59657658200364
 20
-160.3840087489665
 30
0.0
 10
95.85668129114
 20
-160.3840087489665
 30
0.0
 10
96.10421140175521
 20
-160.3840087489665
 30
0.0
 10
96.15295950287148
 20
-160.1025444478216
 30
0.0
 10
96.15295950287148
 20
-159.7556233324569
 30
0.0
 10
96.15295950287148
 20
-159.4362629809743
 30
0.0
 10
96.11471894298522
 20
-159.1272379159474
 30
0.0
 10
95.85668129114
 20
-159.1272379159474
 30
0.0
  0
HATCH
  5
C5
330
BD
100
AcDbEntity
  8
_U+30EC_U+30A4_U+30E4_U+30FC 1
 62
   179
420
  2234388
100
AcDbHatch
 10
0.0
 20
0.0
 30
0.0
210
0.0
220
0.0
230
1.0
  2
SOLID
 70
     1
 71
     0
 91
        2
 92
        1
 93
        1
 72
     4
 94
        3
 73
     0
 74
     1
 95
       29
 96
       25
 40
0.0
 40
0.0
 40
0.0
 40
0.0
 40
1.0
 40
1.0
 40
1.0
 40
2.0
 40
2.0
 40
2.0
 40
3.0
 40
3.0
 40
3.0
 40
4.0
 40
4.0
 40
4.0
 40
5.0
 40
5.0
 40
5.0
 40
6.0
 40
6.0
 40
6.0
 40
7.0
 40
7.0
 40
7.0
 40
8.0
 40
8.0
 40
8.0
 40
8.0
 10
96.25441756491209
 20
-160.3499023036625
 10
96.14658607622377
 20
-160.5593641091657
 10
95.97312551854145
 20
-160.5786566438831
 10
95.85668129114
 20
-160.5786566438831
 10
95.6959675867531
 20
-160.5786566438831
 10
95.55420190753506
 20
-160.5321478548323
 10
95.45894501736791
 20
-160.3499023036625
 10
95.35541989803615
 20
-160.1552544087459
 10
95.33629961809301
 20
-159.9185763489093
 10
95.33629961809301
 20
-159.7556233324569
 10
95.33629961809301
 20
-159.6116183411735
 10
95.35318058597073
 20
-159.3601263707503
 10
95.45894501736791
 20
-159.1609998517028
 10
95.56694876083048
 20
-158.9580837276216
 10
95.72766246521739
 20
-158.9346570783219
 10
95.85668129114
 20
-158.9346570783219
 10
96.01532793823576
 20
-158.9346570783219
 10
96.15916067474494
 20
-158.9790988100816
 10
96.25441756491209
 20
-159.1609998517028
 10
96.35380856966155
 20
-159.3535806893283
 10
96.37706296418699
 20
-159.5819905200003
 10
96.37706296418699
 20
-159.7556233324569
 10
96.37706296418699
 20
-159.9268445780739
 10
96.35604788172697
 20
-160.1576659755856
 10
96.25441756491209
 20
-160.3499023036625
 97
        0
 97
        0
 92
        1
 93
        1
 72
     4
 94
        3
 73
     0
 74
     1
 95
       17
 96
       13
 40
0.0
 40
0.0
 40
0.0
 40
0.0
 40
1.0
 40
1.0
 40
1.0
 40
2.0
 40
2.0
 40
2.0
 40
3.0
 40
3.0
 40
3.0
 40
4.0
 40
4.0
 40
4.0
 40
4.0
 10
95.85668129114
 20
-159.1272379159474
 10
95.60708412323365
 20
-159.1272379159474
 10
95.56057533418277
 20
-159.4107692743834
 10
95.56057533418277
 20
-159.7556233324569
 10
95.56057533418277
 20
-160.0749836839396
 10
95.59657658200364
 20
-160.3840087489665
 10
95.85668129114
 20
-160.3840087489665
 10
96.10421140175521
 20
-160.3840087489665
 10
96.15295950287148
 20
-160.1025444478216
 10
96.15295950287148
 20
-159.7556233324569
 10
96.15295950287148
 20
-159.4362629809743
 10
96.11471894298522
 20
-159.1272379159474
 10
95.85668129114
 20
-159.1272379159474
 97
        0
 97
        0
 75
     2
 76
     1
 98
        0
  0
ENDBLK
  5
C0
330
BD
100
AcDbEntity
  8
0
100
AcDbBlockEnd
  0
BLOCK
  5
D4
330
D2
100
AcDbEntity
  8
0
100
AcDbBlockBegin
  2
block 5
 70
     0
 10
0.0
 20
0.0
 30
0.0
  3
block 5
  1

  0
SPLINE
  5
D6
330
D2
100
AcDbEntity
  8
_U+30EC_U+30A4_U+30E4_U+30FC 1
370
     0
100
AcDbSpline
210
0.0
220
0.0
230
1.0
 70
    11
 71
     3
 72
    44
 73
    40
 74
     0
 42
0.0000000001
 43
0.0000000001
 12
1.0
 22
0.0
 32
0.0
 13
1.0
 23
0.0
 33
0.0
 40
0.0
 40
0.0
 40
0.0
 40
0.0
 40
1.0
 40
1.0
 40
1.0
 40
2.0
 40
2.0
 40
2.0
 40
3.0
 40
3.0
 40
3.0
 40
4.0
 40
4.0
 40
4.0
 40
5.0
 40
5.0
 40
5.0
 40
6.0
 40
6.0
 40
6.0
 40
7.0
 40
7.0
 40
7.0
 40
8.0
 40
8.0
 40
8.0
 40
9.0
 40
9.0
 40
9.0
 40
10.0
 40
10.0
 40
10.0
 40
11.0
 40
11.0
 40
11.0
 40
12.0
 40
12.0
 40
12.0
 40
13.0
 40
13.0
 40
13.0
 40
13.0
 10
102.2729993776436
 20
-137.2419243363493
 30
0.0
 10
102.0550970882015
 20
-137.400570983445
 30
0.0
 10
101.9619072553255
 20
-137.4746405363779
 30
0.0
 10
101.9133314089835
 20
-137.6184732728871
 30
0.0
 10
101.9133314089835
 20
-137.6184732728871
 30
0.0
 10
102.6917507338757
 20
-137.6184732728871
 30
0.0
 10
102.6917507338757
 20
-137.6184732728871
 30
0.0
 10
102.6917507338757
 20
-137.6184732728871
 30
0.0
 10
102.6917507338757
 20
-137.8236287090337
 30
0.0
 10
102.6917507338757
 20
-137.8236287090337
 30
0.0
 10
102.6917507338757
 20
-137.8236287090337
 30
0.0
 10
101.6637342410771
 20
-137.8236287090337
 30
0.0
 10
101.6637342410771
 20
-137.8236287090337
 30
0.0
 10
101.6954291195414
 20
-137.4660277976647
 30
0.0
 10
101.7608859337612
 20
-137.3878241301496
 30
0.0
 10
102.1460476090121
 20
-137.0894788611269
 30
0.0
 10
102.4020182035662
 20
-136.890696851628
 30
0.0
 10
102.4674750177859
 20
-136.8230007253429
 30
0.0
 10
102.4674750177859
 20
-136.6855414154814
 30
0.0
 10
102.4674750177859
 20
-136.5670301307888
 30
0.0
 10
102.3956447769185
 20
-136.435944247575
 30
0.0
 10
102.1989298247107
 20
-136.435944247575
 30
0.0
 10
101.9386528608001
 20
-136.435944247575
 30
0.0
 10
101.9302123768612
 20
-136.6664211355383
 30
0.0
 10
101.9259060075046
 20
-136.7828653629397
 30
0.0
 10
101.9259060075046
 20
-136.7828653629397
 30
0.0
 10
101.7018025461891
 20
-136.7828653629397
 30
0.0
 10
101.7018025461891
 20
-136.7828653629397
 30
0.0
 10
101.710243030128
 20
-136.6559135943083
 30
0.0
 10
101.720750571358
 20
-136.5437757362634
 30
0.0
 10
101.8011935509386
 20
-136.4252644515708
 30
0.0
 10
101.9110920969181
 20
-136.2645507471839
 30
0.0
 10
102.0972995078958
 20
-136.2306165566542
 30
0.0
 10
102.2137437352973
 20
-136.2306165566542
 30
0.0
 10
102.4909016670856
 20
-136.2306165566542
 30
0.0
 10
102.6981241605234
 20
-136.4147569103408
 30
0.0
 10
102.6981241605234
 20
-136.6876084727726
 30
0.0
 10
102.6981241605234
 20
-136.9160183034446
 30
0.0
 10
102.5818521878962
 20
-137.0155815629683
 30
0.0
 10
102.2729993776436
 20
-137.2419243363493
 30
0.0
  0
HATCH
  5
D7
330
D2
100
AcDbEntity
  8
_U+30EC_U+30A4_U+30E4_U+30FC 1
 62
   179
420
  2234388
100
AcDbHatch
 10
0.0
 20
0.0
 30
0.0
210
0.0
220
0.0
230
1.0
  2
SOLID
 70
     1
 71
     0
 91
        1
 92
        1
 93
        1
 72
     4
 94
        3
 73
     0
 74
     1
 95
       44
 96
       40
 40
0.0
 40
0.0
 40
0.0
 40
0.0
 40
1.0
 40
1.0
 40
1.0
 40
2.0
 40
2.0
 40
2.0
 40
3.0
 40
3.0
 40
3.0
 40
4.0
 40
4.0
 40
4.0
 40
5.0
 40
5.0
 40
5.0
 40
6.0
 40
6.0
 40
6.0
 40
7.0
 40
7.0
 40
7.0
 40
8.0
 40
8.0
 40
8.0
 40
9.0
 40
9.0
 40
9.0
 40
10.0
 40
10.0
 40
10.0
 40
11.0
 40
11.0
 40
11.0
 40
12.0
 40
12.0
 40
12.0
 40
13.0
 40
13.0
 40
13.0
 40
13.0
 10
102.2729993776436
 20
-137.2419243363493
 10
102.0550970882015
 20
-137.400570983445
 10
101.9619072553255
 20
-137.4746405363779
 10
101.9133314089835
 20
-137.6184732728871
 10
101.9133314089835
 20
-137.6184732728871
 10
102.6917507338757
 20
-137.6184732728871
 10
102.6917507338757
 20
-137.6184732728871
 10
102.6917507338757
 20
-137.6184732728871
 10
102.6917507338757
 20
-137.8236287090337
 10
102.6917507338757
 20
-137.8236287090337
 10
102.6917507338757
 20
-137.8236287090337
 10
101.6637342410771
 20
-137.8236287090337
 10
101.6637342410771
 20
-137.8236287090337
 10
101.6954291195414
 20
-137.4660277976647
 10
101.7608859337612
 20
-137.3878241301496
 10
102.1460476090121
 20
-137.0894788611269
 10
102.4020182035662
 20
-136.890696851628
 10
102.4674750177859
 20
-136.8230007253429
 10
102.4674750177859
 20
-136.6855414154814
 10
102.4674750177859
 20
-136.5670301307888
 10
102.3956447769185
 20
-136.435944247575
 10
102.1989298247107
 20
-136.435944247575
 10
101.9386528608001
 20
-136.435944247575
 10
101.9302123768612
 20
-136.6664211355383
 10
101.9259060075046
 20
-136.7828653629397
 10
101.9259060075046
 20
-136.7828653629397
 10
101.7018025461891
 20
-136.7828653629397
 10
101.7018025461891
 20
-136.7828653629397
 10
101.710243030128
 20
-136.6559135943083
 10
101.720750571358
 20
-136.5437757362634
 10
101.8011935509386
 20
-136.4252644515708
 10
101.9110920969181
 20
-136.2645507471839
 10
102.0972995078958
 20
-136.2306165566542
 10
102.2137437352973
 20
-136.2306165566542
 10
102.4909016670856
 20
-136.2306165566542
 10
102.6981241605234
 20
-136.4147569103408
 10
102.6981241605234
 20
-136.6876084727726
 10
102.6981241605234
 20
-136.9160183034446
 10
102.5818521878962
 20
-137.0155815629683
 10
102.2729993776436
 20
-137.2419243363493
 97
        0
 97
        0
 75
     2
 76
     1
 98
        0
  0
SPLINE
  5
D8
330
D2
100
AcDbEntity
  8
_U+30EC_U+30A4_U+30E4_U+30FC 1
370
     0
100
AcDbSpline
210
0.0
220
0.0
230
1.0
 70
    11
 71
     3
 72
    53
 73
    49
 74
     0
 42
0.0000000001
 43
0.0000000001
 12
1.0
 22
0.0
 32
0.0
 13
1.0
 23
0.0
 33
0.0
 40
0.0
 40
0.0
 40
0.0
 40
0.0
 40
1.0
 40
1.0
 40
1.0
 40
2.0
 40
2.0
 40
2.0
 40
3.0
 40
3.0
 40
3.0
 40
4.0
 40
4.0
 40
4.0
 40
5.0
 40
5.0
 40
5.0
 40
6.0
 40
6.0
 40
6.0
 40
7.0
 40
7.0
 40
7.0
 40
8.0
 40
8.0
 40
8.0
 40
9.0
 40
9.0
 40
9.0
 40
10.0
 40
10.0
 40
10.0
 40
11.0
 40
11.0
 40
11.0
 40
12.0
 40
12.0
 40
12.0
 40
13.0
 40
13.0
 40
13.0
 40
14.0
 40
14.0
 40
14.0
 40
15.0
 40
15.0
 40
15.0
 40
16.0
 40
16.0
 40
16.0
 40
16.0
 10
103.33770613736
 20
-137.8744438674411
 30
0.0
 10
103.2593302150706
 20
-137.8744438674411
 30
0.0
 10
103.15787215303
 20
-137.8573906447891
 30
0.0
 10
103.0562418362151
 20
-137.7940008878605
 30
0.0
 10
102.8827812785328
 20
-137.6839300871068
 30
0.0
 10
102.8615939412985
 20
-137.552844203893
 30
0.0
 10
102.8426459161296
 20
-137.4450127152047
 30
0.0
 10
102.8426459161296
 20
-137.4450127152047
 30
0.0
 10
103.064682320154
 20
-137.4450127152047
 30
0.0
 10
103.064682320154
 20
-137.4450127152047
 30
0.0
 10
103.119803847918
 20
-137.6437947247036
 30
0.0
 10
103.2467556165494
 20
-137.6734225458768
 30
0.0
 10
103.3397731946512
 20
-137.6734225458768
 30
0.0
 10
103.4792995618038
 20
-137.6734225458768
 30
0.0
 10
103.6317450370261
 20
-137.5740315411273
 30
0.0
 10
103.6317450370261
 20
-137.3413153410987
 30
0.0
 10
103.6317450370261
 20
-137.0853447465446
 30
0.0
 10
103.4519110526961
 20
-137.0155815629683
 30
0.0
 10
103.3313327107123
 20
-137.0155815629683
 30
0.0
 10
103.299637832248
 20
-137.0155815629683
 30
0.0
 10
103.15787215303
 20
-137.0155815629683
 30
0.0
 10
103.0689886895105
 20
-137.144600388891
 30
0.0
 10
103.0689886895105
 20
-137.144600388891
 30
0.0
 10
102.8934610745371
 20
-137.1254801089478
 30
0.0
 10
102.8934610745371
 20
-137.1254801089478
 30
0.0
 10
102.8934610745371
 20
-137.1254801089478
 30
0.0
 10
103.0140394165208
 20
-136.2793646577704
 30
0.0
 10
103.0140394165208
 20
-136.2793646577704
 30
0.0
 10
103.0140394165208
 20
-136.2793646577704
 30
0.0
 10
103.792458741413
 20
-136.2793646577704
 30
0.0
 10
103.792458741413
 20
-136.2793646577704
 30
0.0
 10
103.792458741413
 20
-136.2793646577704
 30
0.0
 10
103.792458741413
 20
-136.4740125526871
 30
0.0
 10
103.792458741413
 20
-136.4740125526871
 30
0.0
 10
103.792458741413
 20
-136.4740125526871
 30
0.0
 10
103.1768201781989
 20
-136.4740125526871
 30
0.0
 10
103.1768201781989
 20
-136.4740125526871
 30
0.0
 10
103.1768201781989
 20
-136.4740125526871
 30
0.0
 10
103.1113633639791
 20
-136.8970702782757
 30
0.0
 10
103.1113633639791
 20
-136.8970702782757
 30
0.0
 10
103.1726860636166
 20
-136.863136087746
 30
0.0
 10
103.2551961004883
 20
-136.8230007253429
 30
0.0
 10
103.3735351304066
 20
-136.8230007253429
 30
0.0
 10
103.6274386676695
 20
-136.8230007253429
 30
0.0
 10
103.8644612370547
 20
-137.0092081363206
 30
0.0
 10
103.8644612370547
 20
-137.3221950611556
 30
0.0
 10
103.8644612370547
 20
-137.6396606101214
 30
0.0
 10
103.640185520965
 20
-137.8744438674411
 30
0.0
 10
103.33770613736
 20
-137.8744438674411
 30
0.0
  0
HATCH
  5
D9
330
D2
100
AcDbEntity
  8
_U+30EC_U+30A4_U+30E4_U+30FC 1
 62
   179
420
  2234388
100
AcDbHatch
 10
0.0
 20
0.0
 30
0.0
210
0.0
220
0.0
230
1.0
  2
SOLID
 70
     1
 71
     0
 91
        1
 92
        1
 93
        1
 72
     4
 94
        3
 73
     0
 74
     1
 95
       53
 96
       49
 40
0.0
 40
0.0
 40
0.0
 40
0.0
 40
1.0
 40
1.0
 40
1.0
 40
2.0
 40
2.0
 40
2.0
 40
3.0
 40
3.0
 40
3.0
 40
4.0
 40
4.0
 40
4.0
 40
5.0
 40
5.0
 40
5.0
 40
6.0
 40
6.0
 40
6.0
 40
7.0
 40
7.0
 40
7.0
 40
8.0
 40
8.0
 40
8.0
 40
9.0
 40
9.0
 40
9.0
 40
10.0
 40
10.0
 40
10.0
 40
11.0
 40
11.0
 40
11.0
 40
12.0
 40
12.0
 40
12.0
 40
13.0
 40
13.0
 40
13.0
 40
14.0
 40
14.0
 40
14.0
 40
15.0
 40
15.0
 40
15.0
 40
16.0
 40
16.0
 40
16.0
 40
16.0
 10
103.33770613736
 20
-137.8744438674411
 10
103.2593302150706
 20
-137.8744438674411
 10
103.15787215303
 20
-137.8573906447891
 10
103.0562418362151
 20
-137.7940008878605
 10
102.8827812785328
 20
-137.6839300871068
 10
102.8615939412985
 20
-137.552844203893
 10
102.8426459161296
 20
-137.4450127152047
 10
102.8426459161296
 20
-137.4450127152047
 10
103.064682320154
 20
-137.4450127152047
 10
103.064682320154
 20
-137.4450127152047
 10
103.119803847918
 20
-137.6437947247036
 10
103.2467556165494
 20
-137.6734225458768
 10
103.3397731946512
 20
-137.6734225458768
 10
103.4792995618038
 20
-137.6734225458768
 10
103.6317450370261
 20
-137.5740315411273
 10
103.6317450370261
 20
-137.3413153410987
 10
103.6317450370261
 20
-137.0853447465446
 10
103.4519110526961
 20
-137.0155815629683
 10
103.3313327107123
 20
-137.0155815629683
 10
103.299637832248
 20
-137.0155815629683
 10
103.15787215303
 20
-137.0155815629683
 10
103.0689886895105
 20
-137.144600388891
 10
103.0689886895105
 20
-137.144600388891
 10
102.8934610745371
 20
-137.1254801089478
 10
102.8934610745371
 20
-137.1254801089478
 10
102.8934610745371
 20
-137.1254801089478
 10
103.0140394165208
 20
-136.2793646577704
 10
103.0140394165208
 20
-136.2793646577704
 10
103.0140394165208
 20
-136.2793646577704
 10
103.792458741413
 20
-136.2793646577704
 10
103.792458741413
 20
-136.2793646577704
 10
103.792458741413
 20
-136.2793646577704
 10
103.792458741413
 20
-136.4740125526871
 10
103.792458741413
 20
-136.4740125526871
 10
103.792458741413
 20
-136.4740125526871
 10
103.1768201781989
 20
-136.4740125526871
 10
103.1768201781989
 20
-136.4740125526871
 10
103.1768201781989
 20
-136.4740125526871
 10
103.1113633639791
 20
-136.8970702782757
 10
103.1113633639791
 20
-136.8970702782757
 10
103.1726860636166
 20
-136.863136087746
 10
103.2551961004883
 20
-136.8230007253429
 10
103.3735351304066
 20
-136.8230007253429
 10
103.6274386676695
 20
-136.8230007253429
 10
103.8644612370547
 20
-137.0092081363206
 10
103.8644612370547
 20
-137.3221950611556
 10
103.8644612370547
 20
-137.6396606101214
 10
103.640185520965
 20
-137.8744438674411
 10
103.33770613736
 20
-137.8744438674411
 97
        0
 97
        0
 75
     2
 76
     1
 98
        0
  0
ENDBLK
  5
D5
330
D2
100
AcDbEntity
  8
0
100
AcDbBlockEnd
  0
BLOCK
  5
E4
330
E2
100
AcDbEntity
  8
0
100
AcDbBlockBegin
  2
block 6
 70
     0
 10
0.0
 20
0.0
 30
0.0
  3
block 6
  1

  0
SPLINE
  5
E6
330
E2
100
AcDbEntity
  8
_U+30EC_U+30A4_U+30E4_U+30FC 1
370
     0
100
AcDbSpline
210
0.0
220
0.0
230
1.0
 70
    11
 71
     3
 72
    32
 73
    28
 74
     0
 42
0.0000000001
 43
0.0000000001
 12
1.0
 22
0.0
 32
0.0
 13
1.0
 23
0.0
 33
0.0
 40
0.0
 40
0.0
 40
0.0
 40
0.0
 40
1.0
 40
1.0
 40
1.0
 40
2.0
 40
2.0
 40
2.0
 40
3.0
 40
3.0
 40
3.0
 40
4.0
 40
4.0
 40
4.0
 40
5.0
 40
5.0
 40
5.0
 40
6.0
 40
6.0
 40
6.0
 40
7.0
 40
7.0
 40
7.0
 40
8.0
 40
8.0
 40
8.0
 40
9.0
 40
9.0
 40
9.0
 40
9.0
 10
118.6732041804011
 20
-149.3707275017198
 30
0.0
 10
118.6732041804011
 20
-149.5443603141764
 30
0.0
 10
118.6032687420506
 20
-149.7896511127262
 30
0.0
 10
118.2711615372725
 20
-149.8278916726125
 30
0.0
 10
118.2711615372725
 20
-149.8278916726125
 30
0.0
 10
118.2711615372725
 20
-149.614295752527
 30
0.0
 10
118.2711615372725
 20
-149.614295752527
 30
0.0
 10
118.3304171796188
 20
-149.6032714469742
 30
0.0
 10
118.4785562854845
 20
-149.5715765685099
 30
0.0
 10
118.4785562854845
 20
-149.3686604444287
 30
0.0
 10
118.4785562854845
 20
-149.076860856828
 30
0.0
 10
118.1485161379976
 20
-149.0386202969417
 30
0.0
 10
117.9431884470767
 20
-149.0258734436463
 30
0.0
 10
118.023459171883
 20
-149.1168239644569
 30
0.0
 10
118.0806477569382
 20
-149.1846923455163
 30
0.0
 10
118.0806477569382
 20
-149.3665933871375
 30
0.0
 10
118.0806477569382
 20
-149.5464273714676
 30
0.0
 10
117.974883325541
 20
-149.8489067550725
 30
0.0
 10
117.56870656783
 20
-149.8489067550725
 30
0.0
 10
117.2493462163474
 20
-149.8489067550725
 30
0.0
 10
117.0292046148399
 20
-149.6501247455736
 30
0.0
 10
117.0292046148399
 20
-149.3324869418336
 30
0.0
 10
117.0292046148399
 20
-148.8186509502085
 30
0.0
 10
117.5835204784166
 20
-148.8081434089785
 30
0.0
 10
117.7971163985021
 20
-148.8081434089785
 30
0.0
 10
118.0279377960139
 20
-148.8081434089785
 30
0.0
 10
118.6732041804011
 20
-148.8270914341474
 30
0.0
 10
118.6732041804011
 20
-149.3707275017198
 30
0.0
  0
SPLINE
  5
E7
330
E2
100
AcDbEntity
  8
_U+30EC_U+30A4_U+30E4_U+30FC 1
370
     0
100
AcDbSpline
210
0.0
220
0.0
230
1.0
 70
    11
 71
     3
 72
    17
 73
    13
 74
     0
 42
0.0000000001
 43
0.0000000001
 12
1.0
 22
0.0
 32
0.0
 13
1.0
 23
0.0
 33
0.0
 40
0.0
 40
0.0
 40
0.0
 40
0.0
 40
1.0
 40
1.0
 40
1.0
 40
2.0
 40
2.0
 40
2.0
 40
3.0
 40
3.0
 40
3.0
 40
4.0
 40
4.0
 40
4.0
 40
4.0
 10
117.2217854524654
 20
-149.3304198845424
 30
0.0
 10
117.2217854524654
 20
-149.448931169235
 30
0.0
 10
117.2789740375205
 20
-149.6246310389827
 30
0.0
 10
117.5645724532477
 20
-149.6246310389827
 30
0.0
 10
117.7909152266287
 20
-149.6246310389827
 30
0.0
 10
117.8859998620216
 20
-149.4851046718301
 30
0.0
 10
117.8859998620216
 20
-149.3497124192598
 30
0.0
 10
117.8859998620216
 20
-149.0871961432838
 30
0.0
 10
117.6765380565184
 20
-149.049300092946
 30
0.0
 10
117.5604383386654
 20
-149.049300092946
 30
0.0
 10
117.3847384689177
 20
-149.049300092946
 30
0.0
 10
117.2217854524654
 20
-149.1443847283389
 30
0.0
 10
117.2217854524654
 20
-149.3304198845424
 30
0.0
  0
HATCH
  5
E8
330
E2
100
AcDbEntity
  8
_U+30EC_U+30A4_U+30E4_U+30FC 1
 62
   179
420
  2234388
100
AcDbHatch
 10
0.0
 20
0.0
 30
0.0
210
0.0
220
0.0
230
1.0
  2
SOLID
 70
     1
 71
     0
 91
        2
 92
        1
 93
        1
 72
     4
 94
        3
 73
     0
 74
     1
 95
       32
 96
       28
 40
0.0
 40
0.0
 40
0.0
 40
0.0
 40
1.0
 40
1.0
 40
1.0
 40
2.0
 40
2.0
 40
2.0
 40
3.0
 40
3.0
 40
3.0
 40
4.0
 40
4.0
 40
4.0
 40
5.0
 40
5.0
 40
5.0
 40
6.0
 40
6.0
 40
6.0
 40
7.0
 40
7.0
 40
7.0
 40
8.0
 40
8.0
 40
8.0
 40
9.0
 40
9.0
 40
9.0
 40
9.0
 10
118.6732041804011
 20
-149.3707275017198
 10
118.6732041804011
 20
-149.5443603141764
 10
118.6032687420506
 20
-149.7896511127262
 10
118.2711615372725
 20
-149.8278916726125
 10
118.2711615372725
 20
-149.8278916726125
 10
118.2711615372725
 20
-149.614295752527
 10
118.2711615372725
 20
-149.614295752527
 10
118.3304171796188
 20
-149.6032714469742
 10
118.4785562854845
 20
-149.5715765685099
 10
118.4785562854845
 20
-149.3686604444287
 10
118.4785562854845
 20
-149.076860856828
 10
118.1485161379976
 20
-149.0386202969417
 10
117.9431884470767
 20
-149.0258734436463
 10
118.023459171883
 20
-149.1168239644569
 10
118.0806477569382
 20
-149.1846923455163
 10
118.0806477569382
 20
-149.3665933871375
 10
118.0806477569382
 20
-149.5464273714676
 10
117.974883325541
 20
-149.8489067550725
 10
117.56870656783
 20
-149.8489067550725
 10
117.2493462163474
 20
-149.8489067550725
 10
117.0292046148399
 20
-149.6501247455736
 10
117.0292046148399
 20
-149.3324869418336
 10
117.0292046148399
 20
-148.8186509502085
 10
117.5835204784166
 20
-148.8081434089785
 10
117.7971163985021
 20
-148.8081434089785
 10
118.0279377960139
 20
-148.8081434089785
 10
118.6732041804011
 20
-148.8270914341474
 10
118.6732041804011
 20
-149.3707275017198
 97
        0
 97
        0
 92
        1
 93
        1
 72
     4
 94
        3
 73
     0
 74
     1
 95
       17
 96
       13
 40
0.0
 40
0.0
 40
0.0
 40
0.0
 40
1.0
 40
1.0
 40
1.0
 40
2.0
 40
2.0
 40
2.0
 40
3.0
 40
3.0
 40
3.0
 40
4.0
 40
4.0
 40
4.0
 40
4.0
 10
117.2217854524654
 20
-149.3304198845424
 10
117.2217854524654
 20
-149.448931169235
 10
117.2789740375205
 20
-149.6246310389827
 10
117.5645724532477
 20
-149.6246310389827
 10
117.7909152266287
 20
-149.6246310389827
 10
117.8859998620216
 20
-149.4851046718301
 10
117.8859998620216
 20
-149.3497124192598
 10
117.8859998620216
 20
-149.0871961432838
 10
117.6765380565184
 20
-149.049300092946
 10
117.5604383386654
 20
-149.049300092946
 10
117.3847384689177
 20
-149.049300092946
 10
117.2217854524654
 20
-149.1443847283389
 10
117.2217854524654
 20
-149.3304198845424
 97
        0
 97
        0
 75
     2
 76
     1
 98
        0
  0
POLYLINE
  5
E9
330
E2
100
AcDbEntity
  8
_U+30EC_U+30A4_U+30E4_U+30FC 1
370
     0
100
AcDb2dPolyline
 66
     1
 10
0.0
 20
0.0
 30
0.0
  0
VERTEX
  5
EA
330
E9
100
AcDbEntity
  8
_U+30EC_U+30A4_U+30E4_U+30FC 1
370
     0
100
AcDbVertex
100
AcDb2dVertex
 10
118.6222167672195
 20
-148.5916191577306
 30
0.0
  0
VERTEX
  5
EB
330
E9
100
AcDbEntity
  8
_U+30EC_U+30A4_U+30E4_U+30FC 1
370
     0
100
AcDbVertex
100
AcDb2dVertex
 10
118.3707247967962
 20
-148.5916191577306
 30
0.0
  0
VERTEX
  5
EC
330
E9
100
AcDbEntity
  8
_U+30EC_U+30A4_U+30E4_U+30FC 1
370
     0
100
AcDbVertex
100
AcDb2dVertex
 10
118.3707247967962
 20
-148.3399549325331
 30
0.0
  0
VERTEX
  5
ED
330
E9
100
AcDbEntity
  8
_U+30EC_U+30A4_U+30E4_U+30FC 1
370
     0
100
AcDbVertex
100
AcDb2dVertex
 10
118.6222167672195
 20
-148.3399549325331
 30
0.0
  0
VERTEX
  5
EE
330
E9
100
AcDbEntity
  8
_U+30EC_U+30A4_U+30E4_U+30FC 1
370
     0
100
AcDbVertex
100
AcDb2dVertex
 10
118.6222167672195
 20
-148.5916191577306
 30
0.0
  0
SEQEND
  5
EF
330
E9
100
AcDbEntity
  8
_U+30EC_U+30A4_U+30E4_U+30FC 1
370
     0
  0
HATCH
  5
F0
330
E2
100
AcDbEntity
  8
_U+30EC_U+30A4_U+30E4_U+30FC 1
 62
   179
420
  2234388
100
AcDbHatch
 10
0.0
 20
0.0
 30
0.0
210
0.0
220
0.0
230
1.0
  2
SOLID
 70
     1
 71
     0
 91
        1
 92
        1
 93
        4
 72
     1
 10
118.6222167672195
 20
-148.5916191577306
 11
118.3707247967962
 21
-148.5916191577306
 72
     1
 10
118.3707247967962
 20
-148.5916191577306
 11
118.3707247967962
 21
-148.3399549325331
 72
     1
 10
118.3707247967962
 20
-148.3399549325331
 11
118.6222167672195
 21
-148.3399549325331
 72
     1
 10
118.6222167672195
 20
-148.3399549325331
 11
118.6222167672195
 21
-148.5916191577306
 97
        0
 75
     2
 76
     1
 98
        0
  0
SPLINE
  5
F1
330
E2
100
AcDbEntity
  8
_U+30EC_U+30A4_U+30E4_U+30FC 1
370
     0
100
AcDbSpline
210
0.0
220
0.0
230
1.0
 70
    11
 71
     3
 72
    53
 73
    49
 74
     0
 42
0.0000000001
 43
0.0000000001
 12
1.0
 22
0.0
 32
0.0
 13
1.0
 23
0.0
 33
0.0
 40
0.0
 40
0.0
 40
0.0
 40
0.0
 40
1.0
 40
1.0
 40
1.0
 40
2.0
 40
2.0
 40
2.0
 40
3.0
 40
3.0
 40
3.0
 40
4.0
 40
4.0
 40
4.0
 40
5.0
 40
5.0
 40
5.0
 40
6.0
 40
6.0
 40
6.0
 40
7.0
 40
7.0
 40
7.0
 40
8.0
 40
8.0
 40
8.0
 40
9.0
 40
9.0
 40
9.0
 40
10.0
 40
10.0
 40
10.0
 40
11.0
 40
11.0
 40
11.0
 40
12.0
 40
12.0
 40
12.0
 40
13.0
 40
13.0
 40
13.0
 40
14.0
 40
14.0
 40
14.0
 40
15.0
 40
15.0
 40
15.0
 40
16.0
 40
16.0
 40
16.0
 40
16.0
 10
118.6732041804011
 20
-147.6223415429555
 30
0.0
 10
118.6732041804011
 20
-147.700717465245
 30
0.0
 10
118.6559787029749
 20
-147.8021755272856
 30
0.0
 10
118.5925889460463
 20
-147.9038058441004
 30
0.0
 10
118.4826904000668
 20
-148.0772664017828
 30
0.0
 10
118.3514322620788
 20
-148.0984537390171
 30
0.0
 10
118.2436007733905
 20
-148.1174017641859
 30
0.0
 10
118.2436007733905
 20
-148.1174017641859
 30
0.0
 10
118.2436007733905
 20
-147.8953653601616
 30
0.0
 10
118.2436007733905
 20
-147.8953653601616
 30
0.0
 10
118.4423827828894
 20
-147.8402438323976
 30
0.0
 10
118.4720106040626
 20
-147.7132920637661
 30
0.0
 10
118.4720106040626
 20
-147.6202744856644
 30
0.0
 10
118.4720106040626
 20
-147.4807481185118
 30
0.0
 10
118.3727918540874
 20
-147.3283026432894
 30
0.0
 10
118.1399033992845
 20
-147.3283026432894
 30
0.0
 10
117.8839328047304
 20
-147.3283026432894
 30
0.0
 10
117.8143418759284
 20
-147.5081366276195
 30
0.0
 10
117.8143418759284
 20
-147.6287149696032
 30
0.0
 10
117.8143418759284
 20
-147.6604098480675
 30
0.0
 10
117.8143418759284
 20
-147.8021755272856
 30
0.0
 10
117.9431884470767
 20
-147.891058990805
 30
0.0
 10
117.9431884470767
 20
-147.891058990805
 30
0.0
 10
117.9242404219078
 20
-148.0665866057785
 30
0.0
 10
117.9242404219078
 20
-148.0665866057785
 30
0.0
 10
117.9242404219078
 20
-148.0665866057785
 30
0.0
 10
117.0781249707305
 20
-147.9460082637948
 30
0.0
 10
117.0781249707305
 20
-147.9460082637948
 30
0.0
 10
117.0781249707305
 20
-147.9460082637948
 30
0.0
 10
117.0781249707305
 20
-147.1675889389026
 30
0.0
 10
117.0781249707305
 20
-147.1675889389026
 30
0.0
 10
117.0781249707305
 20
-147.1675889389026
 30
0.0
 10
117.2727728656471
 20
-147.1675889389026
 30
0.0
 10
117.2727728656471
 20
-147.1675889389026
 30
0.0
 10
117.2727728656471
 20
-147.1675889389026
 30
0.0
 10
117.2727728656471
 20
-147.7832275021167
 30
0.0
 10
117.2727728656471
 20
-147.7832275021167
 30
0.0
 10
117.2727728656471
 20
-147.7832275021167
 30
0.0
 10
117.6958305912358
 20
-147.8486843163365
 30
0.0
 10
117.6958305912358
 20
-147.8486843163365
 30
0.0
 10
117.6617241459318
 20
-147.787361616699
 30
0.0
 10
117.6217610383029
 20
-147.7048515798273
 30
0.0
 10
117.6217610383029
 20
-147.5865125499089
 30
0.0
 10
117.6217610383029
 20
-147.332609012646
 30
0.0
 10
117.8077961945064
 20
-147.0955864432608
 30
0.0
 10
118.1209553741156
 20
-147.0955864432608
 30
0.0
 10
118.4382486683071
 20
-147.0955864432608
 30
0.0
 10
118.6732041804011
 20
-147.3198621593506
 30
0.0
 10
118.6732041804011
 20
-147.6223415429555
 30
0.0
  0
HATCH
  5
F2
330
E2
100
AcDbEntity
  8
_U+30EC_U+30A4_U+30E4_U+30FC 1
 62
   179
420
  2234388
100
AcDbHatch
 10
0.0
 20
0.0
 30
0.0
210
0.0
220
0.0
230
1.0
  2
SOLID
 70
     1
 71
     0
 91
        1
 92
        1
 93
        1
 72
     4
 94
        3
 73
     0
 74
     1
 95
       53
 96
       49
 40
0.0
 40
0.0
 40
0.0
 40
0.0
 40
1.0
 40
1.0
 40
1.0
 40
2.0
 40
2.0
 40
2.0
 40
3.0
 40
3.0
 40
3.0
 40
4.0
 40
4.0
 40
4.0
 40
5.0
 40
5.0
 40
5.0
 40
6.0
 40
6.0
 40
6.0
 40
7.0
 40
7.0
 40
7.0
 40
8.0
 40
8.0
 40
8.0
 40
9.0
 40
9.0
 40
9.0
 40
10.0
 40
10.0
 40
10.0
 40
11.0
 40
11.0
 40
11.0
 40
12.0
 40
12.0
 40
12.0
 40
13.0
 40
13.0
 40
13.0
 40
14.0
 40
14.0
 40
14.0
 40
15.0
 40
15.0
 40
15.0
 40
16.0
 40
16.0
 40
16.0
 40
16.0
 10
118.6732041804011
 20
-147.6223415429555
 10
118.6732041804011
 20
-147.700717465245
 10
118.6559787029749
 20
-147.8021755272856
 10
118.5925889460463
 20
-147.9038058441004
 10
118.4826904000668
 20
-148.0772664017828
 10
118.3514322620788
 20
-148.0984537390171
 10
118.2436007733905
 20
-148.1174017641859
 10
118.2436007733905
 20
-148.1174017641859
 10
118.2436007733905
 20
-147.8953653601616
 10
118.2436007733905
 20
-147.8953653601616
 10
118.4423827828894
 20
-147.8402438323976
 10
118.4720106040626
 20
-147.7132920637661
 10
118.4720106040626
 20
-147.6202744856644
 10
118.4720106040626
 20
-147.4807481185118
 10
118.3727918540874
 20
-147.3283026432894
 10
118.1399033992845
 20
-147.3283026432894
 10
117.8839328047304
 20
-147.3283026432894
 10
117.8143418759284
 20
-147.5081366276195
 10
117.8143418759284
 20
-147.6287149696032
 10
117.8143418759284
 20
-147.6604098480675
 10
117.8143418759284
 20
-147.8021755272856
 10
117.9431884470767
 20
-147.891058990805
 10
117.9431884470767
 20
-147.891058990805
 10
117.9242404219078
 20
-148.0665866057785
 10
117.9242404219078
 20
-148.0665866057785
 10
117.9242404219078
 20
-148.0665866057785
 10
117.0781249707305
 20
-147.9460082637948
 10
117.0781249707305
 20
-147.9460082637948
 10
117.0781249707305
 20
-147.9460082637948
 10
117.0781249707305
 20
-147.1675889389026
 10
117.0781249707305
 20
-147.1675889389026
 10
117.0781249707305
 20
-147.1675889389026
 10
117.2727728656471
 20
-147.1675889389026
 10
117.2727728656471
 20
-147.1675889389026
 10
117.2727728656471
 20
-147.1675889389026
 10
117.2727728656471
 20
-147.7832275021167
 10
117.2727728656471
 20
-147.7832275021167
 10
117.2727728656471
 20
-147.7832275021167
 10
117.6958305912358
 20
-147.8486843163365
 10
117.6958305912358
 20
-147.8486843163365
 10
117.6617241459318
 20
-147.787361616699
 10
117.6217610383029
 20
-147.7048515798273
 10
117.6217610383029
 20
-147.5865125499089
 10
117.6217610383029
 20
-147.332609012646
 10
117.8077961945064
 20
-147.0955864432608
 10
118.1209553741156
 20
-147.0955864432608
 10
118.4382486683071
 20
-147.0955864432608
 10
118.6732041804011
 20
-147.3198621593506
 10
118.6732041804011
 20
-147.6223415429555
 97
        0
 97
        0
 75
     2
 76
     1
 98
        0
  0
ENDBLK
  5
E5
330
E2
100
AcDbEntity
  8
0
100
AcDbBlockEnd
  0
ENDSEC
  0
SECTION
  2
ENTITIES
  0
POLYLINE
  5
41
330
1F
100
AcDbEntity
  8
_U+30EC_U+30A4_U+30E4_U+30FC 1
  6
AI-Linetype-1
 62
   154
420
    23468
370
    25
100
AcDb2dPolyline
 66
     1
 10
0.0
 20
0.0
 30
0.0
  0
VERTEX
  5
42
330
41
100
AcDbEntity
  8
_U+30EC_U+30A4_U+30E4_U+30FC 1
  6
AI-Linetype-1
 62
   154
420
    23468
370
    25
100
AcDbVertex
100
AcDb2dVertex
 10
89.78741351108212
 20
-142.4546337195404
 30
0.0
  0
VERTEX
  5
43
330
41
100
AcDbEntity
  8
_U+30EC_U+30A4_U+30E4_U+30FC 1
  6
AI-Linetype-1
 62
   154
420
    23468
370
    25
100
AcDbVertex
100
AcDb2dVertex
 10
89.78741351108212
 20
-156.9118262004639
 30
0.0
  0
VERTEX
  5
44
330
41
100
AcDbEntity
  8
_U+30EC_U+30A4_U+30E4_U+30FC 1
  6
AI-Linetype-1
 62
   154
420
    23468
370
    25
100
AcDbVertex
100
AcDb2dVertex
 10
100.8872124101827
 20
-156.9118262004639
 30
0.0
  0
SEQEND
  5
46
330
41
100
AcDbEntity
  8
_U+30EC_U+30A4_U+30E4_U+30FC 1
  6
AI-Linetype-1
 62
   154
420
    23468
370
    25
  0
POLYLINE
  5
47
330
1F
100
AcDbEntity
  8
_U+30EC_U+30A4_U+30E4_U+30FC 1
  6
AI-Linetype-2
 62
   154
420
    23468
370
    25
100
AcDb2dPolyline
 66
     1
 10
0.0
 20
0.0
 30
0.0
  0
VERTEX
  5
48
330
47
100
AcDbEntity
  8
_U+30EC_U+30A4_U+30E4_U+30FC 1
  6
AI-Linetype-2
 62
   154
420
    23468
370
    25
100
AcDbVertex
100
AcDb2dVertex
 10
100.8873523671868
 20
-156.9119553915446
 30
0.0
  0
VERTEX
  5
49
330
47
100
AcDbEntity
  8
_U+30EC_U+30A4_U+30E4_U+30FC 1
  6
AI-Linetype-2
 62
   154
420
    23468
370
    25
100
AcDbVertex
100
AcDb2dVertex
 10
100.8873523671868
 20
-153.3101080617159
 30
0.0
  0
SEQEND
  5
4B
330
47
100
AcDbEntity
  8
_U+30EC_U+30A4_U+30E4_U+30FC 1
  6
AI-Linetype-2
 62
   154
420
    23468
370
    25
  0
POLYLINE
  5
4C
330
1F
100
AcDbEntity
  8
_U+30EC_U+30A4_U+30E4_U+30FC 1
370
     0
100
AcDb2dPolyline
 66
     1
 10
0.0
 20
0.0
 30
0.0
  0
VERTEX
  5
4D
330
4C
100
AcDbEntity
  8
_U+30EC_U+30A4_U+30E4_U+30FC 1
370
     0
100
AcDbVertex
100
AcDb2dVertex
 10
90.21152091420115
 20
-142.4546337195404
 30
0.0
  0
VERTEX
  5
4E
330
4C
100
AcDbEntity
  8
_U+30EC_U+30A4_U+30E4_U+30FC 1
370
     0
100
AcDbVertex
100
AcDb2dVertex
 10
90.21152091420115
 20
-156.0923241119101
 30
0.0
  0
VERTEX
  5
4F
330
4C
100
AcDbEntity
  8
_U+30EC_U+30A4_U+30E4_U+30FC 1
370
     0
100
AcDbVertex
100
AcDb2dVertex
 10
100.373990076191
 20
-156.0923241119101
 30
0.0
  0
VERTEX
  5
50
330
4C
100
AcDbEntity
  8
_U+30EC_U+30A4_U+30E4_U+30FC 1
370
     0
100
AcDbVertex
100
AcDb2dVertex
 10
100.373990076191
 20
-153.1413414466322
 30
0.0
  0
VERTEX
  5
51
330
4C
100
AcDbEntity
  8
_U+30EC_U+30A4_U+30E4_U+30FC 1
370
     0
100
AcDbVertex
100
AcDb2dVertex
 10
99.25639033485253
 20
-153.1413414466322
 30
0.0
  0
VERTEX
  5
52
330
4C
100
AcDbEntity
  8
_U+30EC_U+30A4_U+30E4_U+30FC 1
370
     0
100
AcDbVertex
100
AcDb2dVertex
 10
99.25639033485253
 20
-155.0816192239249
 30
0.0
  0
VERTEX
  5
53
330
4C
100
AcDbEntity
  8
_U+30EC_U+30A4_U+30E4_U+30FC 1
370
     0
100
AcDbVertex
100
AcDb2dVertex
 10
91.26032909654934
 20
-155.0816192239249
 30
0.0
  0
VERTEX
  5
54
330
4C
100
AcDbEntity
  8
_U+30EC_U+30A4_U+30E4_U+30FC 1
370
     0
100
AcDbVertex
100
AcDb2dVertex
 10
91.26032909654934
 20
-143.4434837830414
 30
0.0
  0
VERTEX
  5
55
330
4C
100
AcDbEntity
  8
_U+30EC_U+30A4_U+30E4_U+30FC 1
370
     0
100
AcDbVertex
100
AcDb2dVertex
 10
115.3077765282477
 20
-143.4434837830414
 30
0.0
  0
VERTEX
  5
56
330
4C
100
AcDbEntity
  8
_U+30EC_U+30A4_U+30E4_U+30FC 1
370
     0
100
AcDbVertex
100
AcDb2dVertex
 10
115.3077765282477
 20
-142.5029727155681
 30
0.0
  0
VERTEX
  5
57
330
4C
100
AcDbEntity
  8
_U+30EC_U+30A4_U+30E4_U+30FC 1
370
     0
100
AcDbVertex
100
AcDb2dVertex
 10
90.21152091420115
 20
-142.4546337195404
 30
0.0
  0
SEQEND
  5
59
330
4C
100
AcDbEntity
  8
_U+30EC_U+30A4_U+30E4_U+30FC 1
370
     0
  0
HATCH
  5
58
330
1F
100
AcDbEntity
  8
_U+30EC_U+30A4_U+30E4_U+30FC 1
 62
     9
420
 13224394
100
AcDbHatch
 10
0.0
 20
0.0
 30
0.0
210
0.0
220
0.0
230
1.0
  2
SOLID
 70
     1
 71
     0
 91
        1
 92
        1
 93
       10
 72
     1
 10
90.21152091420115
 20
-142.4546337195404
 11
90.21152091420115
 21
-156.0923241119101
 72
     1
 10
90.21152091420115
 20
-156.0923241119101
 11
100.373990076191
 21
-156.0923241119101
 72
     1
 10
100.373990076191
 20
-156.0923241119101
 11
100.373990076191
 21
-153.1413414466322
 72
     1
 10
100.373990076191
 20
-153.1413414466322
 11
99.25639033485253
 21
-153.1413414466322
 72
     1
 10
99.25639033485253
 20
-153.1413414466322
 11
99.25639033485253
 21
-155.0816192239249
 72
     1
 10
99.25639033485253
 20
-155.0816192239249
 11
91.26032909654934
 21
-155.0816192239249
 72
     1
 10
91.26032909654934
 20
-155.0816192239249
 11
91.26032909654934
 21
-143.4434837830414
 72
     1
 10
91.26032909654934
 20
-143.4434837830414
 11
115.3077765282477
 21
-143.4434837830414
 72
     1
 10
115.3077765282477
 20
-143.4434837830414
 11
115.3077765282477
 21
-142.5029727155681
 72
     1
 10
115.3077765282477
 20
-142.5029727155681
 11
90.21152091420115
 21
-142.4546337195404
 97
        0
 75
     2
 76
     1
 98
        0
  0
POLYLINE
  5
5A
330
1F
100
AcDbEntity
  8
_U+30EC_U+30A4_U+30E4_U+30FC 1
 62
   179
420
  2234388
370
    25
100
AcDb2dPolyline
 66
     1
 10
0.0
 20
0.0
 30
0.0
  0
VERTEX
  5
5B
330
5A
100
AcDbEntity
  8
_U+30EC_U+30A4_U+30E4_U+30FC 1
 62
   179
420
  2234388
370
    25
100
AcDbVertex
100
AcDb2dVertex
 10
90.26870680777544
 20
-142.4697275441355
 30
0.0
  0
VERTEX
  5
5C
330
5A
100
AcDbEntity
  8
_U+30EC_U+30A4_U+30E4_U+30FC 1
 62
   179
420
  2234388
370
    25
100
AcDbVertex
100
AcDb2dVertex
 10
115.2686531626433
 20
-142.4697275441355
 30
0.0
  0
SEQEND
  5
5D
330
5A
100
AcDbEntity
  8
_U+30EC_U+30A4_U+30E4_U+30FC 1
 62
   179
420
  2234388
370
    25
  0
POLYLINE
  5
5E
330
1F
100
AcDbEntity
  8
_U+30EC_U+30A4_U+30E4_U+30FC 1
 62
   179
420
  2234388
370
    25
100
AcDb2dPolyline
 66
     1
 10
0.0
 20
0.0
 30
0.0
  0
VERTEX
  5
5F
330
5E
100
AcDbEntity
  8
_U+30EC_U+30A4_U+30E4_U+30FC 1
 62
   179
420
  2234388
370
    25
100
AcDbVertex
100
AcDb2dVertex
 10
90.26870680777544
 20
-142.4697275441355
 30
0.0
  0
VERTEX
  5
60
330
5E
100
AcDbEntity
  8
_U+30EC_U+30A4_U+30E4_U+30FC 1
 62
   179
420
  2234388
370
    25
100
AcDbVertex
100
AcDb2dVertex
 10
90.26870680777544
 20
-156.202674826672
 30
0.0
  0
SEQEND
  5
61
330
5E
100
AcDbEntity
  8
_U+30EC_U+30A4_U+30E4_U+30FC 1
 62
   179
420
  2234388
370
    25
  0
POLYLINE
  5
62
330
1F
100
AcDbEntity
  8
_U+30EC_U+30A4_U+30E4_U+30FC 1
 62
   179
420
  2234388
370
    25
100
AcDb2dPolyline
 66
     1
 10
0.0
 20
0.0
 30
0.0
  0
VERTEX
  5
63
330
62
100
AcDbEntity
  8
_U+30EC_U+30A4_U+30E4_U+30FC 1
 62
   179
420
  2234388
370
    25
100
AcDbVertex
100
AcDb2dVertex
 10
115.2686908433752
 20
-142.4697275441355
 30
0.0
  0
VERTEX
  5
64
330
62
100
AcDbEntity
  8
_U+30EC_U+30A4_U+30E4_U+30FC 1
 62
   179
420
  2234388
370
    25
100
AcDbVertex
100
AcDb2dVertex
 10
115.2686908433752
 20
-143.4695157858015
 30
0.0
  0
SEQEND
  5
65
330
62
100
AcDbEntity
  8
_U+30EC_U+30A4_U+30E4_U+30FC 1
 62
   179
420
  2234388
370
    25
  0
POLYLINE
  5
66
330
1F
100
AcDbEntity
  8
_U+30EC_U+30A4_U+30E4_U+30FC 1
 62
   179
420
  2234388
370
    25
100
AcDb2dPolyline
 66
     1
 10
0.0
 20
0.0
 30
0.0
  0
VERTEX
  5
67
330
66
100
AcDbEntity
  8
_U+30EC_U+30A4_U+30E4_U+30FC 1
 62
   179
420
  2234388
370
    25
100
AcDbVertex
100
AcDb2dVertex
 10
91.26847890055663
 20
-143.4695373176482
 30
0.0
  0
VERTEX
  5
68
330
66
100
AcDbEntity
  8
_U+30EC_U+30A4_U+30E4_U+30FC 1
 62
   179
420
  2234388
370
    25
100
AcDbVertex
100
AcDb2dVertex
 10
110.066241385176
 20
-143.4688482985512
 30
0.0
  0
VERTEX
  5
69
330
66
100
AcDbEntity
  8
_U+30EC_U+30A4_U+30E4_U+30FC 1
 62
   179
420
  2234388
370
    25
100
AcDbVertex
100
AcDb2dVertex
 10
110.268737638245
 20
-143.2691619514877
 30
0.0
  0
VERTEX
  5
6A
330
66
100
AcDbEntity
  8
_U+30EC_U+30A4_U+30E4_U+30FC 1
 62
   179
420
  2234388
370
    25
100
AcDbVertex
100
AcDb2dVertex
 10
110.4610008811304
 20
-143.4688482985512
 30
0.0
  0
VERTEX
  5
6B
330
66
100
AcDbEntity
  8
_U+30EC_U+30A4_U+30E4_U+30FC 1
 62
   179
420
  2234388
370
    25
100
AcDbVertex
100
AcDb2dVertex
 10
115.2686531626433
 20
-143.4695373176482
 30
0.0
  0
SEQEND
  5
6C
330
66
100
AcDbEntity
  8
_U+30EC_U+30A4_U+30E4_U+30FC 1
 62
   179
420
  2234388
370
    25
  0
POLYLINE
  5
6D
330
1F
100
AcDbEntity
  8
_U+30EC_U+30A4_U+30E4_U+30FC 1
 62
   179
420
  2234388
370
    25
100
AcDb2dPolyline
 66
     1
 10
0.0
 20
0.0
 30
0.0
  0
VERTEX
  5
6E
330
6D
100
AcDbEntity
  8
_U+30EC_U+30A4_U+30E4_U+30FC 1
 62
   179
420
  2234388
370
    25
100
AcDbVertex
100
AcDb2dVertex
 10
100.2684059740106
 20
-153.1144481700005
 30
0.0
  0
VERTEX
  5
6F
330
6D
100
AcDbEntity
  8
_U+30EC_U+30A4_U+30E4_U+30FC 1
 62
   179
420
  2234388
370
    25
100
AcDbVertex
100
AcDb2dVertex
 10
100.2684059740106
 20
-156.1144803822496
 30
0.0
  0
SEQEND
  5
70
330
6D
100
AcDbEntity
  8
_U+30EC_U+30A4_U+30E4_U+30FC 1
 62
   179
420
  2234388
370
    25
  0
POLYLINE
  5
71
330
1F
100
AcDbEntity
  8
_U+30EC_U+30A4_U+30E4_U+30FC 1
 62
   179
420
  2234388
370
    25
100
AcDb2dPolyline
 66
     1
 10
0.0
 20
0.0
 30
0.0
  0
VERTEX
  5
72
330
71
100
AcDbEntity
  8
_U+30EC_U+30A4_U+30E4_U+30FC 1
 62
   179
420
  2234388
370
    25
100
AcDbVertex
100
AcDb2dVertex
 10
99.26863388122939
 20
-153.1144481700005
 30
0.0
  0
VERTEX
  5
73
330
71
100
AcDbEntity
  8
_U+30EC_U+30A4_U+30E4_U+30FC 1
 62
   179
420
  2234388
370
    25
100
AcDbVertex
100
AcDb2dVertex
 10
99.26863388122939
 20
-155.1140031214863
 30
0.0
  0
SEQEND
  5
74
330
71
100
AcDbEntity
  8
_U+30EC_U+30A4_U+30E4_U+30FC 1
 62
   179
420
  2234388
370
    25
  0
POLYLINE
  5
75
330
1F
100
AcDbEntity
  8
_U+30EC_U+30A4_U+30E4_U+30FC 1
 62
   179
420
  2234388
370
    25
100
AcDb2dPolyline
 66
     1
 10
0.0
 20
0.0
 30
0.0
  0
VERTEX
  5
76
330
75
100
AcDbEntity
  8
_U+30EC_U+30A4_U+30E4_U+30FC 1
 62
   179
420
  2234388
370
    25
100
AcDbVertex
100
AcDb2dVertex
 10
91.26847890055663
 20
-143.4695373176482
 30
0.0
  0
VERTEX
  5
77
330
75
100
AcDbEntity
  8
_U+30EC_U+30A4_U+30E4_U+30FC 1
 62
   179
420
  2234388
370
    25
100
AcDbVertex
100
AcDb2dVertex
 10
91.26847890055663
 20
-155.1140461851798
 30
0.0
  0
SEQEND
  5
78
330
75
100
AcDbEntity
  8
_U+30EC_U+30A4_U+30E4_U+30FC 1
 62
   179
420
  2234388
370
    25
  0
POLYLINE
  5
79
330
1F
100
AcDbEntity
  8
_U+30EC_U+30A4_U+30E4_U+30FC 1
 62
   179
420
  2234388
370
    25
100
AcDb2dPolyline
 66
     1
 10
0.0
 20
0.0
 30
0.0
  0
VERTEX
  5
7A
330
79
100
AcDbEntity
  8
_U+30EC_U+30A4_U+30E4_U+30FC 1
 62
   179
420
  2234388
370
    25
100
AcDbVertex
100
AcDb2dVertex
 10
99.26863388122939
 20
-153.1144481700005
 30
0.0
  0
VERTEX
  5
7B
330
79
100
AcDbEntity
  8
_U+30EC_U+30A4_U+30E4_U+30FC 1
 62
   179
420
  2234388
370
    25
100
AcDbVertex
100
AcDb2dVertex
 10
100.2684059740106
 20
-153.1144481700005
 30
0.0
  0
SEQEND
  5
7C
330
79
100
AcDbEntity
  8
_U+30EC_U+30A4_U+30E4_U+30FC 1
 62
   179
420
  2234388
370
    25
  0
POLYLINE
  5
7D
330
1F
100
AcDbEntity
  8
_U+30EC_U+30A4_U+30E4_U+30FC 1
 62
   179
420
  2234388
370
    25
100
AcDb2dPolyline
 66
     1
 10
0.0
 20
0.0
 30
0.0
  0
VERTEX
  5
7E
330
7D
100
AcDbEntity
  8
_U+30EC_U+30A4_U+30E4_U+30FC 1
 62
   179
420
  2234388
370
    25
100
AcDbVertex
100
AcDb2dVertex
 10
90.26870680777544
 20
-156.2026317629784
 30
0.0
  0
VERTEX
  5
7F
330
7D
100
AcDbEntity
  8
_U+30EC_U+30A4_U+30E4_U+30FC 1
 62
   179
420
  2234388
370
    25
100
AcDbVertex
100
AcDb2dVertex
 10
100.2685459310147
 20
-156.2026317629784
 30
0.0
  0
SEQEND
  5
80
330
7D
100
AcDbEntity
  8
_U+30EC_U+30A4_U+30E4_U+30FC 1
 62
   179
420
  2234388
370
    25
  0
POLYLINE
  5
81
330
1F
100
AcDbEntity
  8
_U+30EC_U+30A4_U+30E4_U+30FC 1
 62
   179
420
  2234388
370
    25
100
AcDb2dPolyline
 66
     1
 10
0.0
 20
0.0
 30
0.0
  0
VERTEX
  5
82
330
81
100
AcDbEntity
  8
_U+30EC_U+30A4_U+30E4_U+30FC 1
 62
   179
420
  2234388
370
    25
100
AcDbVertex
100
AcDb2dVertex
 10
91.26847890055663
 20
-155.1139600577927
 30
0.0
  0
VERTEX
  5
83
330
81
100
AcDbEntity
  8
_U+30EC_U+30A4_U+30E4_U+30FC 1
 62
   179
420
  2234388
370
    25
100
AcDbVertex
100
AcDb2dVertex
 10
99.26877114675264
 20
-155.1139600577927
 30
0.0
  0
SEQEND
  5
84
330
81
100
AcDbEntity
  8
_U+30EC_U+30A4_U+30E4_U+30FC 1
 62
   179
420
  2234388
370
    25
  0
SPLINE
  5
85
330
1F
100
AcDbEntity
  8
_U+30EC_U+30A4_U+30E4_U+30FC 1
 62
   179
420
  2234388
370
     9
100
AcDbSpline
210
0.0
220
0.0
230
1.0
 70
    11
 71
     3
 72
    17
 73
    13
 74
     0
 42
0.0000000001
 43
0.0000000001
 12
1.0
 22
0.0
 32
0.0
 13
1.0
 23
0.0
 33
0.0
 40
0.0
 40
0.0
 40
0.0
 40
0.0
 40
1.0
 40
1.0
 40
1.0
 40
2.0
 40
2.0
 40
2.0
 40
3.0
 40
3.0
 40
3.0
 40
4.0
 40
4.0
 40
4.0
 40
4.0
 10
90.36857958759666
 20
-138.4693472622034
 30
0.0
 10
90.36857958759666
 20
-138.4143333936736
 30
0.0
 10
90.32377450592247
 20
-138.3695256205183
 30
0.0
 10
90.26874179702646
 20
-138.3695256205183
 30
0.0
 10
90.21370908813044
 20
-138.3695256205183
 30
0.0
 10
90.1689066979371
 20
-138.4143333936736
 30
0.0
 10
90.1689066979371
 20
-138.4693472622034
 30
0.0
 10
90.1689066979371
 20
-138.5243826625803
 30
0.0
 10
90.21370908813044
 20
-138.5691904357356
 30
0.0
 10
90.26874179702646
 20
-138.5691904357356
 30
0.0
 10
90.32377450592247
 20
-138.5691904357356
 30
0.0
 10
90.36857958759666
 20
-138.5243826625803
 30
0.0
 10
90.36857958759666
 20
-138.4693472622034
 30
0.0
  0
SPLINE
  5
86
330
1F
100
AcDbEntity
  8
_U+30EC_U+30A4_U+30E4_U+30FC 1
 62
   179
420
  2234388
370
     9
100
AcDbSpline
210
0.0
220
0.0
230
1.0
 70
    11
 71
     3
 72
    17
 73
    13
 74
     0
 42
0.0000000001
 43
0.0000000001
 12
1.0
 22
0.0
 32
0.0
 13
1.0
 23
0.0
 33
0.0
 40
0.0
 40
0.0
 40
0.0
 40
0.0
 40
1.0
 40
1.0
 40
1.0
 40
2.0
 40
2.0
 40
2.0
 40
3.0
 40
3.0
 40
3.0
 40
4.0
 40
4.0
 40
4.0
 40
4.0
 10
115.3685986124475
 20
-138.4693472622034
 30
0.0
 10
115.3685986124475
 20
-138.4143333936736
 30
0.0
 10
115.3237908392924
 20
-138.3695256205183
 30
0.0
 10
115.2687608218773
 20
-138.3695256205183
 30
0.0
 10
115.2133755289902
 20
-138.3695256205183
 30
0.0
 10
115.1685731387968
 20
-138.4143333936736
 30
0.0
 10
115.1685731387968
 20
-138.4693472622034
 30
0.0
 10
115.1685731387968
 20
-138.5243826625803
 30
0.0
 10
115.2133755289902
 20
-138.5691904357356
 30
0.0
 10
115.2687608218773
 20
-138.5691904357356
 30
0.0
 10
115.3237908392924
 20
-138.5691904357356
 30
0.0
 10
115.3685986124475
 20
-138.5243826625803
 30
0.0
 10
115.3685986124475
 20
-138.4693472622034
 30
0.0
  0
SPLINE
  5
87
330
1F
100
AcDbEntity
  8
_U+30EC_U+30A4_U+30E4_U+30FC 1
 62
   179
420
  2234388
370
     9
100
AcDbSpline
210
0.0
220
0.0
230
1.0
 70
    11
 71
     3
 72
    17
 73
    13
 74
     0
 42
0.0000000001
 43
0.0000000001
 12
1.0
 22
0.0
 32
0.0
 13
1.0
 23
0.0
 33
0.0
 40
0.0
 40
0.0
 40
0.0
 40
0.0
 40
1.0
 40
1.0
 40
1.0
 40
2.0
 40
2.0
 40
2.0
 40
3.0
 40
3.0
 40
3.0
 40
4.0
 40
4.0
 40
4.0
 40
4.0
 10
119.3687474270263
 20
-142.4697275441355
 30
0.0
 10
119.3687474270263
 20
-142.4140031246616
 30
0.0
 10
119.3239396538713
 20
-142.3691953515062
 30
0.0
 10
119.2685543609842
 20
-142.3691953515062
 30
0.0
 10
119.213524343569
 20
-142.3691953515062
 30
0.0
 10
119.1687219533757
 20
-142.4140031246616
 30
0.0
 10
119.1687219533757
 20
-142.4697275441355
 30
0.0
 10
119.1687219533757
 20
-142.5247629445124
 30
0.0
 10
119.213524343569
 20
-142.5695707176671
 30
0.0
 10
119.2685543609842
 20
-142.5695707176671
 30
0.0
 10
119.3239396538713
 20
-142.5695707176671
 30
0.0
 10
119.3687474270263
 20
-142.5247629445124
 30
0.0
 10
119.3687474270263
 20
-142.4697275441355
 30
0.0
  0
SPLINE
  5
88
330
1F
100
AcDbEntity
  8
_U+30EC_U+30A4_U+30E4_U+30FC 1
 62
   179
420
  2234388
370
     9
100
AcDbSpline
210
0.0
220
0.0
230
1.0
 70
    11
 71
     3
 72
    17
 73
    13
 74
     0
 42
0.0000000001
 43
0.0000000001
 12
1.0
 22
0.0
 32
0.0
 13
1.0
 23
0.0
 33
0.0
 40
0.0
 40
0.0
 40
0.0
 40
0.0
 40
1.0
 40
1.0
 40
1.0
 40
2.0
 40
2.0
 40
2.0
 40
3.0
 40
3.0
 40
3.0
 40
4.0
 40
4.0
 40
4.0
 40
4.0
 10
119.3687474270263
 20
-143.4695373176482
 30
0.0
 10
119.3687474270263
 20
-143.4145234491181
 30
0.0
 10
119.3239396538713
 20
-143.3697156759631
 30
0.0
 10
119.2685543609842
 20
-143.3697156759631
 30
0.0
 10
119.213524343569
 20
-143.3697156759631
 30
0.0
 10
119.1687219533757
 20
-143.4145234491181
 30
0.0
 10
119.1687219533757
 20
-143.4695373176482
 30
0.0
 10
119.1687219533757
 20
-143.5245727180251
 30
0.0
 10
119.213524343569
 20
-143.5693804911801
 30
0.0
 10
119.2685543609842
 20
-143.5693804911801
 30
0.0
 10
119.3239396538713
 20
-143.5693804911801
 30
0.0
 10
119.3687474270263
 20
-143.5245727180251
 30
0.0
 10
119.3687474270263
 20
-143.4695373176482
 30
0.0
  0
SPLINE
  5
89
330
1F
100
AcDbEntity
  8
_U+30EC_U+30A4_U+30E4_U+30FC 1
 62
   179
420
  2234388
370
     9
100
AcDbSpline
210
0.0
220
0.0
230
1.0
 70
    11
 71
     3
 72
    17
 73
    13
 74
     0
 42
0.0000000001
 43
0.0000000001
 12
1.0
 22
0.0
 32
0.0
 13
1.0
 23
0.0
 33
0.0
 40
0.0
 40
0.0
 40
0.0
 40
0.0
 40
1.0
 40
1.0
 40
1.0
 40
2.0
 40
2.0
 40
2.0
 40
3.0
 40
3.0
 40
3.0
 40
4.0
 40
4.0
 40
4.0
 40
4.0
 10
119.3687474270263
 20
-153.0262537255781
 30
0.0
 10
119.3687474270263
 20
-152.971239857048
 30
0.0
 10
119.3239396538713
 20
-152.926432083893
 30
0.0
 10
119.2685543609842
 20
-152.926432083893
 30
0.0
 10
119.213524343569
 20
-152.926432083893
 30
0.0
 10
119.1687219533757
 20
-152.971239857048
 30
0.0
 10
119.1687219533757
 20
-153.0262537255781
 30
0.0
 10
119.1687219533757
 20
-153.081289125955
 30
0.0
 10
119.213524343569
 20
-153.12609689911
 30
0.0
 10
119.2685543609842
 20
-153.12609689911
 30
0.0
 10
119.3239396538713
 20
-153.12609689911
 30
0.0
 10
119.3687474270263
 20
-153.081289125955
 30
0.0
 10
119.3687474270263
 20
-153.0262537255781
 30
0.0
  0
SPLINE
  5
8A
330
1F
100
AcDbEntity
  8
_U+30EC_U+30A4_U+30E4_U+30FC 1
 62
   179
420
  2234388
370
     9
100
AcDbSpline
210
0.0
220
0.0
230
1.0
 70
    11
 71
     3
 72
    17
 73
    13
 74
     0
 42
0.0000000001
 43
0.0000000001
 12
1.0
 22
0.0
 32
0.0
 13
1.0
 23
0.0
 33
0.0
 40
0.0
 40
0.0
 40
0.0
 40
0.0
 40
1.0
 40
1.0
 40
1.0
 40
2.0
 40
2.0
 40
2.0
 40
3.0
 40
3.0
 40
3.0
 40
4.0
 40
4.0
 40
4.0
 40
4.0
 10
119.3687474270263
 20
-156.0262428741336
 30
0.0
 10
119.3687474270263
 20
-155.9712290056036
 30
0.0
 10
119.3239396538713
 20
-155.9264212324485
 30
0.0
 10
119.2685543609842
 20
-155.9264212324485
 30
0.0
 10
119.213524343569
 20
-155.9264212324485
 30
0.0
 10
119.1687219533757
 20
-155.9712290056036
 30
0.0
 10
119.1687219533757
 20
-156.0262428741336
 30
0.0
 10
119.1687219533757
 20
-156.0812782745105
 30
0.0
 10
119.213524343569
 20
-156.1260860476655
 30
0.0
 10
119.2685543609842
 20
-156.1260860476655
 30
0.0
 10
119.3239396538713
 20
-156.1260860476655
 30
0.0
 10
119.3687474270263
 20
-156.0812782745105
 30
0.0
 10
119.3687474270263
 20
-156.0262428741336
 30
0.0
  0
SPLINE
  5
8B
330
1F
100
AcDbEntity
  8
_U+30EC_U+30A4_U+30E4_U+30FC 1
 62
   179
420
  2234388
370
     9
100
AcDbSpline
210
0.0
220
0.0
230
1.0
 70
    11
 71
     3
 72
    17
 73
    13
 74
     0
 42
0.0000000001
 43
0.0000000001
 12
1.0
 22
0.0
 32
0.0
 13
1.0
 23
0.0
 33
0.0
 40
0.0
 40
0.0
 40
0.0
 40
0.0
 40
1.0
 40
1.0
 40
1.0
 40
2.0
 40
2.0
 40
2.0
 40
3.0
 40
3.0
 40
3.0
 40
4.0
 40
4.0
 40
4.0
 40
4.0
 10
100.368346040853
 20
-161.1739045481939
 30
0.0
 10
100.368346040853
 20
-161.11818012872
 30
0.0
 10
100.3235409591788
 20
-161.073372355565
 30
0.0
 10
100.2685082502828
 20
-161.073372355565
 30
0.0
 10
100.2134755413868
 20
-161.073372355565
 30
0.0
 10
100.1686731511935
 20
-161.11818012872
 30
0.0
 10
100.1686731511935
 20
-161.1739045481939
 30
0.0
 10
100.1686731511935
 20
-161.2289399485708
 30
0.0
 10
100.2134755413868
 20
-161.2737477217258
 30
0.0
 10
100.2685082502828
 20
-161.2737477217258
 30
0.0
 10
100.3235409591788
 20
-161.2737477217258
 30
0.0
 10
100.368346040853
 20
-161.2289399485708
 30
0.0
 10
100.368346040853
 20
-161.1739045481939
 30
0.0
  0
SPLINE
  5
8C
330
1F
100
AcDbEntity
  8
_U+30EC_U+30A4_U+30E4_U+30FC 1
 62
   179
420
  2234388
370
     9
100
AcDbSpline
210
0.0
220
0.0
230
1.0
 70
    11
 71
     3
 72
    17
 73
    13
 74
     0
 42
0.0000000001
 43
0.0000000001
 12
1.0
 22
0.0
 32
0.0
 13
1.0
 23
0.0
 33
0.0
 40
0.0
 40
0.0
 40
0.0
 40
0.0
 40
1.0
 40
1.0
 40
1.0
 40
2.0
 40
2.0
 40
2.0
 40
3.0
 40
3.0
 40
3.0
 40
4.0
 40
4.0
 40
4.0
 40
4.0
 10
90.36857958759666
 20
-161.1739045481939
 30
0.0
 10
90.36857958759666
 20
-161.11818012872
 30
0.0
 10
90.32377450592247
 20
-161.073372355565
 30
0.0
 10
90.26874179702646
 20
-161.073372355565
 30
0.0
 10
90.21370908813044
 20
-161.073372355565
 30
0.0
 10
90.1689066979371
 20
-161.11818012872
 30
0.0
 10
90.1689066979371
 20
-161.1739045481939
 30
0.0
 10
90.1689066979371
 20
-161.2289399485708
 30
0.0
 10
90.21370908813044
 20
-161.2737477217258
 30
0.0
 10
90.26874179702646
 20
-161.2737477217258
 30
0.0
 10
90.32377450592247
 20
-161.2737477217258
 30
0.0
 10
90.36857958759666
 20
-161.2289399485708
 30
0.0
 10
90.36857958759666
 20
-161.1739045481939
 30
0.0
  0
POLYLINE
  5
8D
330
1F
100
AcDbEntity
  8
_U+30EC_U+30A4_U+30E4_U+30FC 1
 62
   179
420
  2234388
370
     9
100
AcDb2dPolyline
 66
     1
 10
0.0
 20
0.0
 30
0.0
  0
VERTEX
  5
8E
330
8D
100
AcDbEntity
  8
_U+30EC_U+30A4_U+30E4_U+30FC 1
 62
   179
420
  2234388
370
     9
100
AcDbVertex
100
AcDb2dVertex
 10
119.268452084712
 20
-142.4697275441355
 30
0.0
  0
VERTEX
  5
8F
330
8D
100
AcDbEntity
  8
_U+30EC_U+30A4_U+30E4_U+30FC 1
 62
   179
420
  2234388
370
     9
100
AcDbVertex
100
AcDb2dVertex
 10
119.268452084712
 20
-138.6988982807553
 30
0.0
  0
SEQEND
  5
90
330
8D
100
AcDbEntity
  8
_U+30EC_U+30A4_U+30E4_U+30FC 1
 62
   179
420
  2234388
370
     9
  0
POLYLINE
  5
91
330
1F
100
AcDbEntity
  8
_U+30EC_U+30A4_U+30E4_U+30FC 1
 62
   179
420
  2234388
370
     9
100
AcDb2dPolyline
 66
     1
 10
0.0
 20
0.0
 30
0.0
  0
VERTEX
  5
92
330
91
100
AcDbEntity
  8
_U+30EC_U+30A4_U+30E4_U+30FC 1
 62
   179
420
  2234388
370
     9
100
AcDbVertex
100
AcDb2dVertex
 10
119.268452084712
 20
-142.4697275441355
 30
0.0
  0
VERTEX
  5
93
330
91
100
AcDbEntity
  8
_U+30EC_U+30A4_U+30E4_U+30FC 1
 62
   179
420
  2234388
370
     9
100
AcDbVertex
100
AcDb2dVertex
 10
119.268452084712
 20
-143.4695157858015
 30
0.0
  0
SEQEND
  5
94
330
91
100
AcDbEntity
  8
_U+30EC_U+30A4_U+30E4_U+30FC 1
 62
   179
420
  2234388
370
     9
  0
POLYLINE
  5
95
330
1F
100
AcDbEntity
  8
_U+30EC_U+30A4_U+30E4_U+30FC 1
 62
   179
420
  2234388
370
     9
100
AcDb2dPolyline
 66
     1
 10
0.0
 20
0.0
 30
0.0
  0
VERTEX
  5
96
330
95
100
AcDbEntity
  8
_U+30EC_U+30A4_U+30E4_U+30FC 1
 62
   179
420
  2234388
370
     9
100
AcDbVertex
100
AcDb2dVertex
 10
117.8084475328716
 20
-142.4697275441355
 30
0.0
  0
VERTEX
  5
97
330
95
100
AcDbEntity
  8
_U+30EC_U+30A4_U+30E4_U+30FC 1
 62
   179
420
  2234388
370
     9
100
AcDbVertex
100
AcDb2dVertex
 10
120.2687194099692
 20
-142.4697275441355
 30
0.0
  0
SEQEND
  5
98
330
95
100
AcDbEntity
  8
_U+30EC_U+30A4_U+30E4_U+30FC 1
 62
   179
420
  2234388
370
     9
  0
POLYLINE
  5
99
330
1F
100
AcDbEntity
  8
_U+30EC_U+30A4_U+30E4_U+30FC 1
 62
   179
420
  2234388
370
     9
100
AcDb2dPolyline
 66
     1
 10
0.0
 20
0.0
 30
0.0
  0
VERTEX
  5
9A
330
99
100
AcDbEntity
  8
_U+30EC_U+30A4_U+30E4_U+30FC 1
 62
   179
420
  2234388
370
     9
100
AcDbVertex
100
AcDb2dVertex
 10
117.8084475328716
 20
-143.4695373176482
 30
0.0
  0
VERTEX
  5
9B
330
99
100
AcDbEntity
  8
_U+30EC_U+30A4_U+30E4_U+30FC 1
 62
   179
420
  2234388
370
     9
100
AcDbVertex
100
AcDb2dVertex
 10
120.2687194099692
 20
-143.4695373176482
 30
0.0
  0
SEQEND
  5
9C
330
99
100
AcDbEntity
  8
_U+30EC_U+30A4_U+30E4_U+30FC 1
 62
   179
420
  2234388
370
     9
  0
INSERT
  5
9E
330
1F
100
AcDbEntity
  8
_U+30EC_U+30A4_U+30E4_U+30FC 1
100
AcDbBlockReference
  2
block 2
 10
0.0
 20
0.0
 30
0.0
  0
POLYLINE
  5
A3
330
1F
100
AcDbEntity
  8
_U+30EC_U+30A4_U+30E4_U+30FC 1
 62
   179
420
  2234388
370
     9
100
AcDb2dPolyline
 66
     1
 10
0.0
 20
0.0
 30
0.0
  0
VERTEX
  5
A4
330
A3
100
AcDbEntity
  8
_U+30EC_U+30A4_U+30E4_U+30FC 1
 62
   179
420
  2234388
370
     9
100
AcDbVertex
100
AcDb2dVertex
 10
119.268452084712
 20
-153.0262537255781
 30
0.0
  0
VERTEX
  5
A5
330
A3
100
AcDbEntity
  8
_U+30EC_U+30A4_U+30E4_U+30FC 1
 62
   179
420
  2234388
370
     9
100
AcDbVertex
100
AcDb2dVertex
 10
119.268452084712
 20
-156.0262859378272
 30
0.0
  0
SEQEND
  5
A6
330
A3
100
AcDbEntity
  8
_U+30EC_U+30A4_U+30E4_U+30FC 1
 62
   179
420
  2234388
370
     9
  0
POLYLINE
  5
A7
330
1F
100
AcDbEntity
  8
_U+30EC_U+30A4_U+30E4_U+30FC 1
 62
   179
420
  2234388
370
     9
100
AcDb2dPolyline
 66
     1
 10
0.0
 20
0.0
 30
0.0
  0
VERTEX
  5
A8
330
A7
100
AcDbEntity
  8
_U+30EC_U+30A4_U+30E4_U+30FC 1
 62
   179
420
  2234388
370
     9
100
AcDbVertex
100
AcDb2dVertex
 10
102.8085098645363
 20
-156.0262428741336
 30
0.0
  0
VERTEX
  5
A9
330
A7
100
AcDbEntity
  8
_U+30EC_U+30A4_U+30E4_U+30FC 1
 62
   179
420
  2234388
370
     9
100
AcDbVertex
100
AcDb2dVertex
 10
120.2685363892715
 20
-156.0262428741336
 30
0.0
  0
SEQEND
  5
AA
330
A7
100
AcDbEntity
  8
_U+30EC_U+30A4_U+30E4_U+30FC 1
 62
   179
420
  2234388
370
     9
  0
INSERT
  5
AC
330
1F
100
AcDbEntity
  8
_U+30EC_U+30A4_U+30E4_U+30FC 1
100
AcDbBlockReference
  2
block 3
 10
0.0
 20
0.0
 30
0.0
  0
POLYLINE
  5
B1
330
1F
100
AcDbEntity
  8
_U+30EC_U+30A4_U+30E4_U+30FC 1
 62
   179
420
  2234388
370
     9
100
AcDb2dPolyline
 66
     1
 10
0.0
 20
0.0
 30
0.0
  0
VERTEX
  5
B2
330
B1
100
AcDbEntity
  8
_U+30EC_U+30A4_U+30E4_U+30FC 1
 62
   179
420
  2234388
370
     9
100
AcDbVertex
100
AcDb2dVertex
 10
90.26870680777544
 20
-161.1739045481939
 30
0.0
  0
VERTEX
  5
B3
330
B1
100
AcDbEntity
  8
_U+30EC_U+30A4_U+30E4_U+30FC 1
 62
   179
420
  2234388
370
     9
100
AcDbVertex
100
AcDb2dVertex
 10
100.2685459310147
 20
-161.1739045481939
 30
0.0
  0
SEQEND
  5
B4
330
B1
100
AcDbEntity
  8
_U+30EC_U+30A4_U+30E4_U+30FC 1
 62
   179
420
  2234388
370
     9
  0
POLYLINE
  5
B5
330
1F
100
AcDbEntity
  8
_U+30EC_U+30A4_U+30E4_U+30FC 1
 62
   179
420
  2234388
370
     9
100
AcDb2dPolyline
 66
     1
 10
0.0
 20
0.0
 30
0.0
  0
VERTEX
  5
B6
330
B5
100
AcDbEntity
  8
_U+30EC_U+30A4_U+30E4_U+30FC 1
 62
   179
420
  2234388
370
     9
100
AcDbVertex
100
AcDb2dVertex
 10
90.26870680777544
 20
-159.7138730815451
 30
0.0
  0
VERTEX
  5
B7
330
B5
100
AcDbEntity
  8
_U+30EC_U+30A4_U+30E4_U+30FC 1
 62
   179
420
  2234388
370
     9
100
AcDbVertex
100
AcDb2dVertex
 10
90.26870680777544
 20
-162.1738004490941
 30
0.0
  0
SEQEND
  5
B8
330
B5
100
AcDbEntity
  8
_U+30EC_U+30A4_U+30E4_U+30FC 1
 62
   179
420
  2234388
370
     9
  0
POLYLINE
  5
B9
330
1F
100
AcDbEntity
  8
_U+30EC_U+30A4_U+30E4_U+30FC 1
 62
   179
420
  2234388
370
     9
100
AcDb2dPolyline
 66
     1
 10
0.0
 20
0.0
 30
0.0
  0
VERTEX
  5
BA
330
B9
100
AcDbEntity
  8
_U+30EC_U+30A4_U+30E4_U+30FC 1
 62
   179
420
  2234388
370
     9
100
AcDbVertex
100
AcDb2dVertex
 10
100.2684059740106
 20
-159.7138730815451
 30
0.0
  0
VERTEX
  5
BB
330
B9
100
AcDbEntity
  8
_U+30EC_U+30A4_U+30E4_U+30FC 1
 62
   179
420
  2234388
370
     9
100
AcDbVertex
100
AcDb2dVertex
 10
100.2684059740106
 20
-162.1738004490941
 30
0.0
  0
SEQEND
  5
BC
330
B9
100
AcDbEntity
  8
_U+30EC_U+30A4_U+30E4_U+30FC 1
 62
   179
420
  2234388
370
     9
  0
INSERT
  5
BE
330
1F
100
AcDbEntity
  8
_U+30EC_U+30A4_U+30E4_U+30FC 1
100
AcDbBlockReference
  2
block 4
 10
0.0
 20
0.0
 30
0.0
  0
POLYLINE
  5
C6
330
1F
100
AcDbEntity
  8
_U+30EC_U+30A4_U+30E4_U+30FC 1
 62
   179
420
  2234388
370
     9
100
AcDb2dPolyline
 66
     1
 10
0.0
 20
0.0
 30
0.0
  0
VERTEX
  5
C7
330
C6
100
AcDbEntity
  8
_U+30EC_U+30A4_U+30E4_U+30FC 1
 62
   179
420
  2234388
370
     9
100
AcDbVertex
100
AcDb2dVertex
 10
90.26870680777544
 20
-138.4693472622034
 30
0.0
  0
VERTEX
  5
C8
330
C6
100
AcDbEntity
  8
_U+30EC_U+30A4_U+30E4_U+30FC 1
 62
   179
420
  2234388
370
     9
100
AcDbVertex
100
AcDb2dVertex
 10
115.2686531626433
 20
-138.4693472622034
 30
0.0
  0
SEQEND
  5
C9
330
C6
100
AcDbEntity
  8
_U+30EC_U+30A4_U+30E4_U+30FC 1
 62
   179
420
  2234388
370
     9
  0
POLYLINE
  5
CA
330
1F
100
AcDbEntity
  8
_U+30EC_U+30A4_U+30E4_U+30FC 1
 62
   179
420
  2234388
370
     9
100
AcDb2dPolyline
 66
     1
 10
0.0
 20
0.0
 30
0.0
  0
VERTEX
  5
CB
330
CA
100
AcDbEntity
  8
_U+30EC_U+30A4_U+30E4_U+30FC 1
 62
   179
420
  2234388
370
     9
100
AcDbVertex
100
AcDb2dVertex
 10
90.26870680777544
 20
-139.9293787288523
 30
0.0
  0
VERTEX
  5
CC
330
CA
100
AcDbEntity
  8
_U+30EC_U+30A4_U+30E4_U+30FC 1
 62
   179
420
  2234388
370
     9
100
AcDbVertex
100
AcDb2dVertex
 10
90.26870680777544
 20
-137.46947289315
 30
0.0
  0
SEQEND
  5
CD
330
CA
100
AcDbEntity
  8
_U+30EC_U+30A4_U+30E4_U+30FC 1
 62
   179
420
  2234388
370
     9
  0
POLYLINE
  5
CE
330
1F
100
AcDbEntity
  8
_U+30EC_U+30A4_U+30E4_U+30FC 1
 62
   179
420
  2234388
370
     9
100
AcDb2dPolyline
 66
     1
 10
0.0
 20
0.0
 30
0.0
  0
VERTEX
  5
CF
330
CE
100
AcDbEntity
  8
_U+30EC_U+30A4_U+30E4_U+30FC 1
 62
   179
420
  2234388
370
     9
100
AcDbVertex
100
AcDb2dVertex
 10
115.2686908433752
 20
-139.9293787288523
 30
0.0
  0
VERTEX
  5
D0
330
CE
100
AcDbEntity
  8
_U+30EC_U+30A4_U+30E4_U+30FC 1
 62
   179
420
  2234388
370
     9
100
AcDbVertex
100
AcDb2dVertex
 10
115.2686908433752
 20
-137.46947289315
 30
0.0
  0
SEQEND
  5
D1
330
CE
100
AcDbEntity
  8
_U+30EC_U+30A4_U+30E4_U+30FC 1
 62
   179
420
  2234388
370
     9
  0
INSERT
  5
D3
330
1F
100
AcDbEntity
  8
_U+30EC_U+30A4_U+30E4_U+30FC 1
100
AcDbBlockReference
  2
block 5
 10
0.0
 20
0.0
 30
0.0
  0
POLYLINE
  5
DA
330
1F
100
AcDbEntity
  8
_U+30EC_U+30A4_U+30E4_U+30FC 1
 62
   179
420
  2234388
370
     9
100
AcDb2dPolyline
 66
     1
 10
0.0
 20
0.0
 30
0.0
  0
VERTEX
  5
DB
330
DA
100
AcDbEntity
  8
_U+30EC_U+30A4_U+30E4_U+30FC 1
 62
   179
420
  2234388
370
     9
100
AcDbVertex
100
AcDb2dVertex
 10
119.268452084712
 20
-152.9683761214259
 30
0.0
  0
VERTEX
  5
DC
330
DA
100
AcDbEntity
  8
_U+30EC_U+30A4_U+30E4_U+30FC 1
 62
   179
420
  2234388
370
     9
100
AcDbVertex
100
AcDb2dVertex
 10
119.268452084712
 20
-143.469494253955
 30
0.0
  0
SEQEND
  5
DD
330
DA
100
AcDbEntity
  8
_U+30EC_U+30A4_U+30E4_U+30FC 1
 62
   179
420
  2234388
370
     9
  0
POLYLINE
  5
DE
330
1F
100
AcDbEntity
  8
_U+30EC_U+30A4_U+30E4_U+30FC 1
 62
   179
420
  2234388
370
     9
100
AcDb2dPolyline
 66
     1
 10
0.0
 20
0.0
 30
0.0
  0
VERTEX
  5
DF
330
DE
100
AcDbEntity
  8
_U+30EC_U+30A4_U+30E4_U+30FC 1
 62
   179
420
  2234388
370
     9
100
AcDbVertex
100
AcDb2dVertex
 10
102.8085098645363
 20
-153.0262537255781
 30
0.0
  0
VERTEX
  5
E0
330
DE
100
AcDbEntity
  8
_U+30EC_U+30A4_U+30E4_U+30FC 1
 62
   179
420
  2234388
370
     9
100
AcDbVertex
100
AcDb2dVertex
 10
120.2685363892715
 20
-153.0262537255781
 30
0.0
  0
SEQEND
  5
E1
330
DE
100
AcDbEntity
  8
_U+30EC_U+30A4_U+30E4_U+30FC 1
 62
   179
420
  2234388
370
     9
  0
INSERT
  5
E3
330
1F
100
AcDbEntity
  8
_U+30EC_U+30A4_U+30E4_U+30FC 1
100
AcDbBlockReference
  2
block 6
 10
0.0
 20
0.0
 30
0.0
  0
ENDSEC
  0
SECTION
  2
OBJECTS
  0
DICTIONARY
  5
C
330
0
100
AcDbDictionary
281
     1
  3
ACAD_GROUP
350
D
  3
ACAD_LAYOUT
350
1A
  3
ACAD_MATERIAL
350
3B
  3
ACAD_MLEADERSTYLE
350
F4
  3
ACAD_MLINESTYLE
350
17
  3
ACAD_PLOTSETTINGS
350
19
  3
ACAD_PLOTSTYLENAME
350
E
  3
ACAD_TABLESTYLE
350
F3
  3
ACAD_VISUALSTYLE
350
2A
  0
SUN
  5
3F
330
29
100
AcDbSun
 90
        1
290
     0
 63
     7
421
 16777215
 40
1.0
291
     1
 91
  2455826
 92
 54000000
292
     0
 70
     2
 71
   256
280
     1
  0
DICTIONARY
  5
D
102
{ACAD_REACTORS
330
C
102
}
330
C
100
AcDbDictionary
281
     1
  0
DICTIONARY
  5
1A
102
{ACAD_REACTORS
330
C
102
}
330
C
100
AcDbDictionary
281
     1
  3
Layout1
350
1E
  3
Layout2
350
26
  3
Model
350
22
  0
DICTIONARY
  5
3B
102
{ACAD_REACTORS
330
C
102
}
330
C
100
AcDbDictionary
281
     1
  3
ByBlock
350
3D
  3
ByLayer
350
3C
  3
Global
350
3E
  0
DICTIONARY
  5
F4
102
{ACAD_REACTORS
330
C
102
}
330
C
100
AcDbDictionary
281
     1
  0
DICTIONARY
  5
17
102
{ACAD_REACTORS
330
C
102
}
330
C
100
AcDbDictionary
281
     1
  3
Standard
350
18
  0
DICTIONARY
  5
19
102
{ACAD_REACTORS
330
C
102
}
330
C
100
AcDbDictionary
281
     1
  0
ACDBDICTIONARYWDFLT
  5
E
102
{ACAD_REACTORS
330
C
102
}
330
C
100
AcDbDictionary
281
     1
  3
Normal
350
F
100
AcDbDictionaryWithDefault
340
F
  0
DICTIONARY
  5
F3
102
{ACAD_REACTORS
330
C
102
}
330
C
100
AcDbDictionary
281
     1
  0
DICTIONARY
  5
2A
102
{ACAD_REACTORS
330
C
102
}
330
C
100
AcDbDictionary
281
     1
  3
2dWireframe
350
2F
  3
3D Hidden
350
31
  3
3dWireframe
350
30
  3
Basic
350
32
  3
Brighten
350
36
  3
ColorChange
350
3A
  3
Conceptual
350
34
  3
Dim
350
35
  3
Facepattern
350
39
  3
Flat
350
2B
  3
FlatWithEdges
350
2C
  3
Gouraud
350
2D
  3
GouraudWithEdges
350
2E
  3
Linepattern
350
38
  3
Realistic
350
33
  3
Thicken
350
37
  0
LAYOUT
  5
1E
102
{ACAD_REACTORS
330
1A
102
}
330
1A
100
AcDbPlotSettings
  1

  2
none_device
  4

  6

 40
0.0
 41
0.0
 42
0.0
 43
0.0
 44
0.0
 45
0.0
 46
0.0
 47
0.0
 48
0.0
 49
0.0
140
0.0
141
0.0
142
1.0
143
1.0
 70
   688
 72
     0
 73
     0
 74
     5
  7

 75
    16
 76
     0
 77
     2
 78
   300
147
1.0
148
0.0
149
0.0
100
AcDbLayout
  1
Layout1
 70
     1
 71
     1
 10
0.0
 20
0.0
 11
12.0
 21
9.0
 12
0.0
 22
0.0
 32
0.0
 14
1.000000000000000E+20
 24
1.000000000000000E+20
 34
1.000000000000000E+20
 15
-1.000000000000000E+20
 25
-1.000000000000000E+20
 35
-1.000000000000000E+20
146
0.0
 13
0.0
 23
0.0
 33
0.0
 16
1.0
 26
0.0
 36
0.0
 17
0.0
 27
1.0
 37
0.0
 76
     0
330
1B
  0
LAYOUT
  5
26
102
{ACAD_REACTORS
330
1A
102
}
330
1A
100
AcDbPlotSettings
  1

  2
none_device
  4

  6

 40
0.0
 41
0.0
 42
0.0
 43
0.0
 44
0.0
 45
0.0
 46
0.0
 47
0.0
 48
0.0
 49
0.0
140
0.0
141
0.0
142
1.0
143
1.0
 70
   688
 72
     0
 73
     0
 74
     5
  7

 75
    16
 76
     0
 77
     2
 78
   300
147
1.0
148
0.0
149
0.0
100
AcDbLayout
  1
Layout2
 70
     1
 71
     2
 10
0.0
 20
0.0
 11
0.0
 21
0.0
 12
0.0
 22
0.0
 32
0.0
 14
0.0
 24
0.0
 34
0.0
 15
0.0
 25
0.0
 35
0.0
146
0.0
 13
0.0
 23
0.0
 33
0.0
 16
1.0
 26
0.0
 36
0.0
 17
0.0
 27
1.0
 37
0.0
 76
     0
330
23
  0
LAYOUT
  5
22
102
{ACAD_REACTORS
330
1A
102
}
330
1A
100
AcDbPlotSettings
  1

  2
none_device
  4

  6

 40
0.0
 41
0.0
 42
0.0
 43
0.0
 44
0.0
 45
0.0
 46
0.0
 47
0.0
 48
0.0
 49
0.0
140
0.0
141
0.0
142
1.0
143
1.0
 70
  1712
 72
     0
 73
     0
 74
     0
  7

 75
     0
 76
     0
 77
     2
 78
   300
147
1.0
148
0.0
149
0.0
100
AcDbLayout
  1
Model
 70
     1
 71
     0
 10
0.0
 20
0.0
 11
12.0
 21
9.0
 12
0.0
 22
0.0
 32
0.0
 14
1.000000000000000E+20
 24
1.000000000000000E+20
 34
1.000000000000000E+20
 15
-1.000000000000000E+20
 25
-1.000000000000000E+20
 35
-1.000000000000000E+20
146
0.0
 13
0.0
 23
0.0
 33
0.0
 16
1.0
 26
0.0
 36
0.0
 17
0.0
 27
1.0
 37
0.0
 76
     0
330
1F
331
29
  0
MATERIAL
  5
3D
102
{ACAD_REACTORS
330
3B
102
}
330
3B
100
AcDbMaterial
  1
ByBlock
 72
     1
 94
      127
  0
MATERIAL
  5
3C
102
{ACAD_REACTORS
330
3B
102
}
330
3B
100
AcDbMaterial
  1
ByLayer
 72
     1
 94
      127
  0
MATERIAL
  5
3E
102
{ACAD_REACTORS
330
3B
102
}
330
3B
100
AcDbMaterial
  1
Global
 72
     1
 94
      127
  0
MLINESTYLE
  5
18
102
{ACAD_REACTORS
330
17
102
}
330
17
100
AcDbMlineStyle
  2
Standard
 70
     0
  3

 62
   256
 51
90.0
 52
90.0
 71
     2
 49
0.5
 62
   256
  6
BYLAYER
 49
-0.5
 62
   256
  6
BYLAYER
  0
ACDBPLACEHOLDER
  5
F
102
{ACAD_REACTORS
330
E
102
}
330
E
  0
VISUALSTYLE
  5
2F
102
{ACAD_REACTORS
330
2A
102
}
330
2A
100
AcDbVisualStyle
  2
2dWireframe
 70
     4
177
     2
291
     0
 71
     0
176
     1
 72
     2
176
     1
 73
     0
176
     1
 90
        0
176
     1
 40
-0.6
176
     1
 41
-30.0
176
     1
 62
     5
 63
     7
421
 16777215
176
     1
 74
     1
176
     1
 91
        4
176
     1
 64
     7
176
     1
 65
   257
176
     1
 75
     1
176
     1
175
     1
176
     1
 42
1.0
176
     1
 92
        0
176
     1
 66
   257
176
     1
 43
1.0
176
     1
 76
     1
176
     1
 77
     6
176
     1
 78
     2
176
     1
 67
     7
176
     1
 79
     5
176
     1
170
     0
176
     1
171
     0
176
     1
290
     0
176
     1
 93
        1
176
     1
 44
0.0
176
     1
173
     0
176
     1
  0
VISUALSTYLE
  5
31
102
{ACAD_REACTORS
330
2A
102
}
330
2A
100
AcDbVisualStyle
  2
3D Hidden
 70
     6
177
     2
291
     0
 71
     1
176
     1
 72
     2
176
     1
 73
     2
176
     1
 90
        0
176
     1
 40
-0.6
176
     1
 41
-30.0
176
     1
 62
     5
 63
     7
421
 16777215
176
     1
 74
     2
176
     1
 91
        2
176
     1
 64
     7
176
     1
 65
   257
176
     1
 75
     2
176
     1
175
     1
176
     1
 42
40.0
176
     1
 92
        0
176
     1
 66
   257
176
     1
 43
1.0
176
     1
 76
     1
176
     1
 77
     6
176
     1
 78
     2
176
     1
 67
     7
176
     1
 79
     3
176
     1
170
     0
176
     1
171
     0
176
     1
290
     0
176
     1
 93
        1
176
     1
 44
0.0
176
     1
173
     0
176
     1
  0
VISUALSTYLE
  5
30
102
{ACAD_REACTORS
330
2A
102
}
330
2A
100
AcDbVisualStyle
  2
3dWireframe
 70
     5
177
     2
291
     0
 71
     0
176
     1
 72
     2
176
     1
 73
     0
176
     1
 90
        0
176
     1
 40
-0.6
176
     1
 41
-30.0
176
     1
 62
     5
 63
     7
421
 16777215
176
     1
 74
     1
176
     1
 91
        4
176
     1
 64
     7
176
     1
 65
   257
176
     1
 75
     1
176
     1
175
     1
176
     1
 42
1.0
176
     1
 92
        0
176
     1
 66
   257
176
     1
 43
1.0
176
     1
 76
     1
176
     1
 77
     6
176
     1
 78
     2
176
     1
 67
     7
176
     1
 79
     5
176
     1
170
     0
176
     1
171
     0
176
     1
290
     0
176
     1
 93
        1
176
     1
 44
0.0
176
     1
173
     0
176
     1
  0
VISUALSTYLE
  5
32
102
{ACAD_REACTORS
330
2A
102
}
330
2A
100
AcDbVisualStyle
  2
Basic
 70
     7
177
     2
291
     1
 71
     1
176
     1
 72
     0
176
     1
 73
     1
176
     1
 90
        0
176
     1
 40
-0.6
176
     1
 41
-30.0
176
     1
 62
     5
 63
     7
421
 16777215
176
     1
 74
     0
176
     1
 91
        4
176
     1
 64
     7
176
     1
 65
   257
176
     1
 75
     1
176
     1
175
     1
176
     1
 42
1.0
176
     1
 92
        8
176
     1
 66
     7
176
     1
 43
1.0
176
     1
 76
     1
176
     1
 77
     6
176
     1
 78
     2
176
     1
 67
     7
176
     1
 79
     5
176
     1
170
     0
176
     1
171
     0
176
     1
290
     0
176
     1
 93
        1
176
     1
 44
0.0
176
     1
173
     0
176
     1
  0
VISUALSTYLE
  5
36
102
{ACAD_REACTORS
330
2A
102
}
330
2A
100
AcDbVisualStyle
  2
Brighten
 70
    12
177
     2
291
     1
 71
     2
176
     1
 72
     2
176
     1
 73
     0
176
     1
 90
        0
176
     1
 40
-0.6
176
     1
 41
-30.0
176
     1
 62
     5
 63
     7
421
 16777215
176
     1
 74
     1
176
     1
 91
        4
176
     1
 64
     7
176
     1
 65
   257
176
     1
 75
     1
176
     1
175
     1
176
     1
 42
1.0
176
     1
 92
        8
176
     1
 66
     7
176
     1
 43
1.0
176
     1
 76
     1
176
     1
 77
     6
176
     1
 78
     2
176
     1
 67
     7
176
     1
 79
     5
176
     1
170
     0
176
     1
171
     0
176
     1
290
     0
176
     1
 93
        1
176
     1
 44
50.0
176
     1
173
     0
176
     1
  0
VISUALSTYLE
  5
3A
102
{ACAD_REACTORS
330
2A
102
}
330
2A
100
AcDbVisualStyle
  2
ColorChange
 70
    16
177
     2
291
     1
 71
     2
176
     1
 72
     2
176
     1
 73
     3
176
     1
 90
        0
176
     1
 40
-0.6
176
     1
 41
-30.0
176
     1
 62
     5
 63
     8
421
  8421504
176
     1
 74
     1
176
     1
 91
        4
176
     1
 64
     7
176
     1
 65
   257
176
     1
 75
     1
176
     1
175
     1
176
     1
 42
1.0
176
     1
 92
        8
176
     1
 66
     8
424
  8421504
176
     1
 43
1.0
176
     1
 76
     1
176
     1
 77
     6
176
     1
 78
     2
176
     1
 67
     7
176
     1
 79
     5
176
     1
170
     0
176
     1
171
     0
176
     1
290
     0
176
     1
 93
        1
176
     1
 44
0.0
176
     1
173
     0
176
     1
  0
VISUALSTYLE
  5
34
102
{ACAD_REACTORS
330
2A
102
}
330
2A
100
AcDbVisualStyle
  2
Conceptual
 70
     9
177
     2
291
     0
 71
     3
176
     1
 72
     2
176
     1
 73
     0
176
     1
 90
        0
176
     1
 40
-0.6
176
     1
 41
-30.0
176
     1
 62
     5
 63
     7
421
 16777215
176
     1
 74
     2
176
     1
 91
        2
176
     1
 64
     7
176
     1
 65
   257
176
     1
 75
     1
176
     1
175
     1
176
     1
 42
40.0
176
     1
 92
        8
176
     1
 66
     7
176
     1
 43
1.0
176
     1
 76
     1
176
     1
 77
     6
176
     1
 78
     2
176
     1
 67
     7
176
     1
 79
     3
176
     1
170
     0
176
     1
171
     0
176
     1
290
     0
176
     1
 93
        1
176
     1
 44
0.0
176
     1
173
     0
176
     1
  0
VISUALSTYLE
  5
35
102
{ACAD_REACTORS
330
2A
102
}
330
2A
100
AcDbVisualStyle
  2
Dim
 70
    11
177
     2
291
     1
 71
     2
176
     1
 72
     2
176
     1
 73
     0
176
     1
 90
        0
176
     1
 40
-0.6
176
     1
 41
-30.0
176
     1
 62
     5
 63
     7
421
 16777215
176
     1
 74
     1
176
     1
 91
        4
176
     1
 64
     7
176
     1
 65
   257
176
     1
 75
     1
176
     1
175
     1
176
     1
 42
1.0
176
     1
 92
        8
176
     1
 66
     7
176
     1
 43
1.0
176
     1
 76
     1
176
     1
 77
     6
176
     1
 78
     2
176
     1
 67
     7
176
     1
 79
     5
176
     1
170
     0
176
     1
171
     0
176
     1
290
     0
176
     1
 93
        1
176
     1
 44
-50.0
176
     1
173
     0
176
     1
  0
VISUALSTYLE
  5
39
102
{ACAD_REACTORS
330
2A
102
}
330
2A
100
AcDbVisualStyle
  2
Facepattern
 70
    15
177
     2
291
     1
 71
     2
176
     1
 72
     2
176
     1
 73
     0
176
     1
 90
        0
176
     1
 40
-0.6
176
     1
 41
-30.0
176
     1
 62
     5
 63
     7
421
 16777215
176
     1
 74
     1
176
     1
 91
        4
176
     1
 64
     7
176
     1
 65
   257
176
     1
 75
     1
176
     1
175
     1
176
     1
 42
1.0
176
     1
 92
        8
176
     1
 66
     7
176
     1
 43
1.0
176
     1
 76
     1
176
     1
 77
     6
176
     1
 78
     2
176
     1
 67
     7
176
     1
 79
     5
176
     1
170
     0
176
     1
171
     0
176
     1
290
     0
176
     1
 93
        1
176
     1
 44
0.0
176
     1
173
     0
176
     1
  0
VISUALSTYLE
  5
2B
102
{ACAD_REACTORS
330
2A
102
}
330
2A
100
AcDbVisualStyle
  2
Flat
 70
     0
177
     2
291
     1
 71
     2
176
     1
 72
     1
176
     1
 73
     1
176
     1
 90
        2
176
     1
 40
-0.6
176
     1
 41
30.0
176
     1
 62
     5
 63
     7
421
 16777215
176
     1
 74
     0
176
     1
 91
        4
176
     1
 64
     7
176
     1
 65
   257
176
     1
 75
     1
176
     1
175
     1
176
     1
 42
1.0
176
     1
 92
        8
176
     1
 66
     7
176
     1
 43
1.0
176
     1
 76
     1
176
     1
 77
     6
176
     1
 78
     2
176
     1
 67
     7
176
     1
 79
     5
176
     1
170
     0
176
     1
171
     0
176
     1
290
     0
176
     1
 93
       13
176
     1
 44
0.0
176
     1
173
     0
176
     1
  0
VISUALSTYLE
  5
2C
102
{ACAD_REACTORS
330
2A
102
}
330
2A
100
AcDbVisualStyle
  2
FlatWithEdges
 70
     1
177
     2
291
     1
 71
     2
176
     1
 72
     1
176
     1
 73
     1
176
     1
 90
        2
176
     1
 40
-0.6
176
     1
 41
30.0
176
     1
 62
     5
 63
     7
421
 16777215
176
     1
 74
     1
176
     1
 91
        4
176
     1
 64
     7
176
     1
 65
   257
176
     1
 75
     1
176
     1
175
     1
176
     1
 42
1.0
176
     1
 92
        0
176
     1
 66
   257
176
     1
 43
1.0
176
     1
 76
     1
176
     1
 77
     6
176
     1
 78
     2
176
     1
 67
     7
176
     1
 79
     5
176
     1
170
     0
176
     1
171
     0
176
     1
290
     0
176
     1
 93
       13
176
     1
 44
0.0
176
     1
173
     0
176
     1
  0
VISUALSTYLE
  5
2D
102
{ACAD_REACTORS
330
2A
102
}
330
2A
100
AcDbVisualStyle
  2
Gouraud
 70
     2
177
     2
291
     1
 71
     2
176
     1
 72
     2
176
     1
 73
     1
176
     1
 90
        2
176
     1
 40
-0.6
176
     1
 41
30.0
176
     1
 62
     5
 63
     7
421
 16777215
176
     1
 74
     0
176
     1
 91
        4
176
     1
 64
     7
176
     1
 65
   257
176
     1
 75
     1
176
     1
175
     1
176
     1
 42
1.0
176
     1
 92
        0
176
     1
 66
     7
176
     1
 43
1.0
176
     1
 76
     1
176
     1
 77
     6
176
     1
 78
     2
176
     1
 67
     7
176
     1
 79
     5
176
     1
170
     0
176
     1
171
     0
176
     1
290
     0
176
     1
 93
       13
176
     1
 44
0.0
176
     1
173
     0
176
     1
  0
VISUALSTYLE
  5
2E
102
{ACAD_REACTORS
330
2A
102
}
330
2A
100
AcDbVisualStyle
  2
GouraudWithEdges
 70
     3
177
     2
291
     1
 71
     2
176
     1
 72
     2
176
     1
 73
     1
176
     1
 90
        2
176
     1
 40
-0.6
176
     1
 41
30.0
176
     1
 62
     5
 63
     7
421
 16777215
176
     1
 74
     1
176
     1
 91
        4
176
     1
 64
     7
176
     1
 65
   257
176
     1
 75
     1
176
     1
175
     1
176
     1
 42
1.0
176
     1
 92
        0
176
     1
 66
   257
176
     1
 43
1.0
176
     1
 76
     1
176
     1
 77
     6
176
     1
 78
     2
176
     1
 67
     7
176
     1
 79
     5
176
     1
170
     0
176
     1
171
     0
176
     1
290
     0
176
     1
 93
       13
176
     1
 44
0.0
176
     1
173
     0
176
     1
  0
VISUALSTYLE
  5
38
102
{ACAD_REACTORS
330
2A
102
}
330
2A
100
AcDbVisualStyle
  2
Linepattern
 70
    14
177
     2
291
     1
 71
     2
176
     1
 72
     2
176
     1
 73
     0
176
     1
 90
        0
176
     1
 40
-0.6
176
     1
 41
-30.0
176
     1
 62
     5
 63
     7
421
 16777215
176
     1
 74
     1
176
     1
 91
        4
176
     1
 64
     7
176
     1
 65
   257
176
     1
 75
     7
176
     1
175
     7
176
     1
 42
1.0
176
     1
 92
        8
176
     1
 66
     7
176
     1
 43
1.0
176
     1
 76
     1
176
     1
 77
     6
176
     1
 78
     2
176
     1
 67
     7
176
     1
 79
     5
176
     1
170
     0
176
     1
171
     0
176
     1
290
     0
176
     1
 93
        1
176
     1
 44
0.0
176
     1
173
     0
176
     1
  0
VISUALSTYLE
  5
33
102
{ACAD_REACTORS
330
2A
102
}
330
2A
100
AcDbVisualStyle
  2
Realistic
 70
     8
177
     2
291
     0
 71
     2
176
     1
 72
     2
176
     1
 73
     0
176
     1
 90
        0
176
     1
 40
-0.6
176
     1
 41
-30.0
176
     1
 62
     5
 63
     7
421
 16777215
176
     1
 74
     1
176
     1
 91
        0
176
     1
 64
     7
176
     1
 65
   257
176
     1
 75
     1
176
     1
175
     1
176
     1
 42
1.0
176
     1
 92
        8
176
     1
 66
     8
424
  7895160
176
     1
 43
1.0
176
     1
 76
     1
176
     1
 77
     6
176
     1
 78
     2
176
     1
 67
     7
176
     1
 79
     5
176
     1
170
     0
176
     1
171
     0
176
     1
290
     0
176
     1
 93
       13
176
     1
 44
0.0
176
     1
173
     0
176
     1
  0
VISUALSTYLE
  5
37
102
{ACAD_REACTORS
330
2A
102
}
330
2A
100
AcDbVisualStyle
  2
Thicken
 70
    13
177
     2
291
     1
 71
     2
176
     1
 72
     2
176
     1
 73
     0
176
     1
 90
        0
176
     1
 40
-0.6
176
     1
 41
-30.0
176
     1
 62
     5
 63
     7
421
 16777215
176
     1
 74
     1
176
     1
 91
        4
176
     1
 64
     7
176
     1
 65
   257
176
     1
 75
     1
176
     1
175
     1
176
     1
 42
1.0
176
     1
 92
       12
176
     1
 66
     7
176
     1
 43
1.0
176
     1
 76
     1
176
     1
 77
     6
176
     1
 78
     2
176
     1
 67
     7
176
     1
 79
     5
176
     1
170
     0
176
     1
171
     0
176
     1
290
     0
176
     1
 93
        1
176
     1
 44
0.0
176
     1
173
     0
176
     1
  0
ENDSEC
  0
EOF
