  0
SECTION
  2
HEADER
  9
$ACADVER
  1
AC1024
  9
$ACADMAINTVER
 70
     6
  9
$DWGCODEPAGE
  3
UNDEFINED
  9
$INSBASE
 10
0.0
 20
0.0
 30
0.0
  9
$EXTMIN
 10
1.000000000000000E+20
 20
1.000000000000000E+20
 30
1.000000000000000E+20
  9
$EXTMAX
 10
-1.000000000000000E+20
 20
-1.000000000000000E+20
 30
-1.000000000000000E+20
  9
$LIMMIN
 10
0.0
 20
0.0
  9
$LIMMAX
 10
12.0
 20
9.0
  9
$ORTHOMODE
 70
     0
  9
$REGENMODE
 70
     1
  9
$FILLMODE
 70
     1
  9
$QTEXTMODE
 70
     0
  9
$MIRRTEXT
 70
     1
  9
$LTSCALE
 40
1.0
  9
$ATTMODE
 70
     1
  9
$TEXTSIZE
 40
0.2
  9
$TRACEWID
 40
0.05
  9
$TEXTSTYLE
  7
Standard
  9
$CLAYER
  8
0
  9
$CELTYPE
  6
ByLayer
  9
$CECOLOR
 62
   256
  9
$CELTSCALE
 40
1.0
  9
$DISPSILH
 70
     0
  9
$DIMSCALE
 40
1.0
  9
$DIMASZ
 40
0.18
  9
$DIMEXO
 40
0.0625
  9
$DIMDLI
 40
0.38
  9
$DIMRND
 40
0.0
  9
$DIMDLE
 40
0.0
  9
$DIMEXE
 40
0.18
  9
$DIMTP
 40
0.0
  9
$DIMTM
 40
0.0
  9
$DIMTXT
 40
0.18
  9
$DIMCEN
 40
0.09
  9
$DIMTSZ
 40
0.0
  9
$DIMTOL
 70
     0
  9
$DIMLIM
 70
     0
  9
$DIMTIH
 70
     1
  9
$DIMTOH
 70
     1
  9
$DIMSE1
 70
     0
  9
$DIMSE2
 70
     0
  9
$DIMTAD
 70
     0
  9
$DIMZIN
 70
     0
  9
$DIMBLK
  1

  9
$DIMASO
 70
     1
  9
$DIMSHO
 70
     1
  9
$DIMPOST
  1

  9
$DIMAPOST
  1

  9
$DIMALT
 70
     0
  9
$DIMALTD
 70
     2
  9
$DIMALTF
 40
25.4
  9
$DIMLFAC
 40
1.0
  9
$DIMTOFL
 70
     0
  9
$DIMTVP
 40
0.0
  9
$DIMTIX
 70
     0
  9
$DIMSOXD
 70
     0
  9
$DIMSAH
 70
     0
  9
$DIMBLK1
  1

  9
$DIMBLK2
  1

  9
$DIMSTYLE
  2
Standard
  9
$DIMCLRD
 70
     0
  9
$DIMCLRE
 70
     0
  9
$DIMCLRT
 70
     0
  9
$DIMTFAC
 40
1.0
  9
$DIMGAP
 40
0.09
  9
$DIMJUST
 70
     0
  9
$DIMSD1
 70
     0
  9
$DIMSD2
 70
     0
  9
$DIMTOLJ
 70
     1
  9
$DIMTZIN
 70
     0
  9
$DIMALTZ
 70
     0
  9
$DIMALTTZ
 70
     0
  9
$DIMUPT
 70
     0
  9
$DIMDEC
 70
     4
  9
$DIMTDEC
 70
     4
  9
$DIMALTU
 70
     2
  9
$DIMALTTD
 70
     2
  9
$DIMTXSTY
  7
Standard
  9
$DIMAUNIT
 70
     0
  9
$DIMADEC
 70
     0
  9
$DIMALTRND
 40
0.0
  9
$DIMAZIN
 70
     0
  9
$DIMDSEP
 70
    46
  9
$DIMATFIT
 70
     3
  9
$DIMFRAC
 70
     0
  9
$DIMLDRBLK
  1

  9
$DIMLUNIT
 70
     2
  9
$DIMLWD
 70
    -2
  9
$DIMLWE
 70
    -2
  9
$DIMTMOVE
 70
     0
  9
$DIMFXL
 40
1.0
  9
$DIMFXLON
 70
     0
  9
$DIMJOGANG
 40
0.7853981633974483
  9
$DIMTFILL
 70
     0
  9
$DIMTFILLCLR
 70
     0
  9
$DIMARCSYM
 70
     0
  9
$DIMLTYPE
  6

  9
$DIMLTEX1
  6

  9
$DIMLTEX2
  6

  9
$DIMTXTDIRECTION
 70
     0
  9
$LUNITS
 70
     2
  9
$LUPREC
 70
     4
  9
$SKETCHINC
 40
0.1
  9
$FILLETRAD
 40
0.5
  9
$AUNITS
 70
     0
  9
$AUPREC
 70
     0
  9
$MENU
  1
.
  9
$ELEVATION
 40
0.0
  9
$PELEVATION
 40
0.0
  9
$THICKNESS
 40
0.0
  9
$LIMCHECK
 70
     0
  9
$CHAMFERA
 40
0.5
  9
$CHAMFERB
 40
0.5
  9
$CHAMFERC
 40
1.0
  9
$CHAMFERD
 40
0.0
  9
$SKPOLY
 70
     0
  9
$TDCREATE
 40
2458263.58091434
  9
$TDUCREATE
 40
2458263.205914352
  9
$TDUPDATE
 40
2458263.58091434
  9
$TDUUPDATE
 40
2458263.205914352
  9
$TDINDWG
 40
0.0000000116
  9
$TDUSRTIMER
 40
0.0000000116
  9
$USRTIMER
 70
     1
  9
$ANGBASE
 50
0.0
  9
$ANGDIR
 70
     0
  9
$PDMODE
 70
     0
  9
$PDSIZE
 40
0.0
  9
$PLINEWID
 40
0.0
  9
$SPLFRAME
 70
     0
  9
$SPLINETYPE
 70
     6
  9
$SPLINESEGS
 70
     8
  9
$HANDSEED
  5
10C
  9
$SURFTAB1
 70
     6
  9
$SURFTAB2
 70
     6
  9
$SURFTYPE
 70
     6
  9
$SURFU
 70
     6
  9
$SURFV
 70
     6
  9
$UCSBASE
  2

  9
$UCSNAME
  2

  9
$UCSORG
 10
0.0
 20
0.0
 30
0.0
  9
$UCSXDIR
 10
1.0
 20
0.0
 30
0.0
  9
$UCSYDIR
 10
0.0
 20
1.0
 30
0.0
  9
$UCSORTHOREF
  2

  9
$UCSORTHOVIEW
 70
     0
  9
$UCSORGTOP
 10
0.0
 20
0.0
 30
0.0
  9
$UCSORGBOTTOM
 10
0.0
 20
0.0
 30
0.0
  9
$UCSORGLEFT
 10
0.0
 20
0.0
 30
0.0
  9
$UCSORGRIGHT
 10
0.0
 20
0.0
 30
0.0
  9
$UCSORGFRONT
 10
0.0
 20
0.0
 30
0.0
  9
$UCSORGBACK
 10
0.0
 20
0.0
 30
0.0
  9
$PUCSBASE
  2

  9
$PUCSNAME
  2

  9
$PUCSORG
 10
0.0
 20
0.0
 30
0.0
  9
$PUCSXDIR
 10
1.0
 20
0.0
 30
0.0
  9
$PUCSYDIR
 10
0.0
 20
1.0
 30
0.0
  9
$PUCSORTHOREF
  2

  9
$PUCSORTHOVIEW
 70
     0
  9
$PUCSORGTOP
 10
0.0
 20
0.0
 30
0.0
  9
$PUCSORGBOTTOM
 10
0.0
 20
0.0
 30
0.0
  9
$PUCSORGLEFT
 10
0.0
 20
0.0
 30
0.0
  9
$PUCSORGRIGHT
 10
0.0
 20
0.0
 30
0.0
  9
$PUCSORGFRONT
 10
0.0
 20
0.0
 30
0.0
  9
$PUCSORGBACK
 10
0.0
 20
0.0
 30
0.0
  9
$USERI1
 70
     0
  9
$USERI2
 70
     0
  9
$USERI3
 70
     0
  9
$USERI4
 70
     0
  9
$USERI5
 70
     0
  9
$USERR1
 40
0.0
  9
$USERR2
 40
0.0
  9
$USERR3
 40
0.0
  9
$USERR4
 40
0.0
  9
$USERR5
 40
0.0
  9
$WORLDVIEW
 70
     1
  9
$SHADEDGE
 70
     3
  9
$SHADEDIF
 70
    70
  9
$TILEMODE
 70
     1
  9
$MAXACTVP
 70
    64
  9
$PINSBASE
 10
0.0
 20
0.0
 30
0.0
  9
$PLIMCHECK
 70
     0
  9
$PEXTMIN
 10
1.000000000000000E+20
 20
1.000000000000000E+20
 30
1.000000000000000E+20
  9
$PEXTMAX
 10
-1.000000000000000E+20
 20
-1.000000000000000E+20
 30
-1.000000000000000E+20
  9
$PLIMMIN
 10
0.0
 20
0.0
  9
$PLIMMAX
 10
12.0
 20
9.0
  9
$UNITMODE
 70
     0
  9
$VISRETAIN
 70
     1
  9
$PLINEGEN
 70
     0
  9
$PSLTSCALE
 70
     1
  9
$TREEDEPTH
 70
  3020
  9
$CMLSTYLE
  2
Standard
  9
$CMLJUST
 70
     0
  9
$CMLSCALE
 40
1.0
  9
$PROXYGRAPHICS
 70
     1
  9
$MEASUREMENT
 70
     0
  9
$CELWEIGHT
370
    -1
  9
$ENDCAPS
280
     0
  9
$JOINSTYLE
280
     0
  9
$LWDISPLAY
290
     1
  9
$INSUNITS
 70
     1
  9
$HYPERLINKBASE
  1

  9
$STYLESHEET
  1

  9
$XEDIT
290
     1
  9
$CEPSNTYPE
380
     0
  9
$PSTYLEMODE
290
     1
  9
$FINGERPRINTGUID
  2
{7860D2FE-92A1-D5B1-0F13-9C105A0EE5D5}
  9
$VERSIONGUID
  2
{FAEB1C32-E019-11D5-929B-00C0DF256EC4}
  9
$EXTNAMES
290
     1
  9
$PSVPSCALE
 40
0.0
  9
$OLESTARTUP
290
     0
  9
$SORTENTS
280
   127
  9
$INDEXCTL
280
     0
  9
$HIDETEXT
280
     1
  9
$XCLIPFRAME
280
     2
  9
$HALOGAP
280
     0
  9
$OBSCOLOR
 70
   257
  9
$OBSLTYPE
280
     0
  9
$INTERSECTIONDISPLAY
280
     0
  9
$INTERSECTIONCOLOR
 70
   257
  9
$DIMASSOC
280
     2
  9
$PROJECTNAME
  1

  9
$CAMERADISPLAY
290
     0
  9
$LENSLENGTH
 40
50.0
  9
$CAMERAHEIGHT
 40
0.0
  9
$STEPSPERSEC
 40
2.0
  9
$STEPSIZE
 40
6.0
  9
$3DDWFPREC
 40
2.0
  9
$PSOLWIDTH
 40
0.25
  9
$PSOLHEIGHT
 40
4.0
  9
$LOFTANG1
 40
1.570796326794897
  9
$LOFTANG2
 40
1.570796326794897
  9
$LOFTMAG1
 40
0.0
  9
$LOFTMAG2
 40
0.0
  9
$LOFTPARAM
 70
     7
  9
$LOFTNORMALS
280
     1
  9
$LATITUDE
 40
37.795
  9
$LONGITUDE
 40
-122.394
  9
$NORTHDIRECTION
 40
0.0
  9
$TIMEZONE
 70
 -8000
  9
$LIGHTGLYPHDISPLAY
280
     1
  9
$TILEMODELIGHTSYNCH
280
     1
  9
$CMATERIAL
347
3C
  9
$SOLIDHIST
280
     1
  9
$SHOWHIST
280
     1
  9
$DWFFRAME
280
     2
  9
$DGNFRAME
280
     2
  9
$REALWORLDSCALE
290
     1
  9
$INTERFERECOLOR
 62
   256
  9
$CSHADOW
280
     0
  9
$SHADOWPLANELOCATION
 40
0.0
  0
ENDSEC
  0
SECTION
  2
CLASSES
  0
CLASS
  1
ACDBDICTIONARYWDFLT
  2
AcDbDictionaryWithDefault
  3
ObjectDBX Classes
 90
        0
 91
        4
280
     0
281
     0
  0
CLASS
  1
VISUALSTYLE
  2
AcDbVisualStyle
  3
ObjectDBX Classes
 90
     4095
 91
        4
280
     0
281
     0
  0
CLASS
  1
MATERIAL
  2
AcDbMaterial
  3
ObjectDBX Classes
 90
     1153
 91
        4
280
     0
281
     0
  0
CLASS
  1
SUN
  2
AcDbSun
  3
SCENEOE
 90
     1024
 91
        4
280
     0
281
     0
  0
ENDSEC
  0
SECTION
  2
TABLES
  0
TABLE
  2
VPORT
  5
8
330
0
100
AcDbSymbolTable
 70
     1
  0
VPORT
  5
29
330
8
100
AcDbSymbolTableRecord
100
AcDbViewportTableRecord
  2
*Active
 70
     0
 10
0.0
 20
0.0
 11
1.0
 21
1.0
 12
0.0
 22
0.0
 13
0.0
 23
0.0
 14
0.5
 24
0.5
 15
0.5
 25
0.5
 16
0.0
 26
0.0
 36
1.0
 17
105.0007777515277
 27
-148.5000416295416
 37
0.0
 40
297.0000832590831
 41
0.7070757462376333
 42
50.0
 43
0.0
 44
0.0
 50
0.0
 51
0.0
 71
     0
 72
   100
 73
     1
 74
     3
 75
     0
 76
     0
 77
     0
 78
     0
281
     0
 65
     1
110
0.0
120
0.0
130
0.0
111
1.0
121
0.0
131
0.0
112
0.0
122
1.0
132
0.0
 79
     0
146
0.0
 60
     3
 61
     5
292
     1
282
     1
141
0.0
142
0.0
 63
   250
361
3F
  0
ENDTAB
  0
TABLE
  2
LTYPE
  5
5
330
0
100
AcDbSymbolTable
 70
     2
  0
LTYPE
  5
14
330
5
100
AcDbSymbolTableRecord
100
AcDbLinetypeTableRecord
  2
ByBlock
 70
     0
  3

 72
    65
 73
     0
 40
0.0
  0
LTYPE
  5
15
330
5
100
AcDbSymbolTableRecord
100
AcDbLinetypeTableRecord
  2
ByLayer
 70
     0
  3

 72
    65
 73
     0
 40
0.0
  0
LTYPE
  5
16
330
5
100
AcDbSymbolTableRecord
100
AcDbLinetypeTableRecord
  2
Continuous
 70
     0
  3
Solid line
 72
    65
 73
     0
 40
0.0
  0
LTYPE
  5
48
330
5
100
AcDbSymbolTableRecord
100
AcDbLinetypeTableRecord
  2
AI-Linetype-1
 70
     0
  3
Adobe Illustrator Linetype No. 1
 72
    65
 73
     2
 40
1.411111110758333
 49
0.7055555553791667
 74
     0
 49
-0.7055555553791667
 74
     0
  0
ENDTAB
  0
TABLE
  2
LAYER
  5
2
330
0
100
AcDbSymbolTable
 70
     2
  0
LAYER
  5
10
330
2
100
AcDbSymbolTableRecord
100
AcDbLayerTableRecord
  2
0
 70
     0
 62
     7
  6
Continuous
370
    -3
390
F
347
3E
  0
LAYER
  5
40
330
2
100
AcDbSymbolTableRecord
100
AcDbLayerTableRecord
  2
_U+30EC_U+30A4_U+30E4_U+30FC 1
 70
     0
 62
     7
  6
Continuous
370
    -3
390
F
347
3E
  0
ENDTAB
  0
TABLE
  2
STYLE
  5
3
330
0
100
AcDbSymbolTable
 70
     1
  0
STYLE
  5
11
330
3
100
AcDbSymbolTableRecord
100
AcDbTextStyleTableRecord
  2
Standard
 70
     0
 40
0.0
 41
1.0
 50
0.0
 71
     0
 42
0.2
  3
txt
  4

  0
ENDTAB
  0
TABLE
  2
VIEW
  5
6
330
0
100
AcDbSymbolTable
 70
     0
  0
ENDTAB
  0
TABLE
  2
UCS
  5
7
330
0
100
AcDbSymbolTable
 70
     0
  0
ENDTAB
  0
TABLE
  2
APPID
  5
9
330
0
100
AcDbSymbolTable
 70
     1
  0
APPID
  5
12
330
9
100
AcDbSymbolTableRecord
100
AcDbRegAppTableRecord
  2
ACAD
 70
     0
  0
ENDTAB
  0
TABLE
  2
DIMSTYLE
  5
A
330
0
100
AcDbSymbolTable
 70
     1
100
AcDbDimStyleTable
  0
DIMSTYLE
105
27
330
A
100
AcDbSymbolTableRecord
100
AcDbDimStyleTableRecord
  2
Standard
 70
     0
178
     0
340
11
  0
ENDTAB
  0
TABLE
  2
BLOCK_RECORD
  5
1
330
0
100
AcDbSymbolTable
 70
     7
  0
BLOCK_RECORD
  5
1F
330
1
100
AcDbSymbolTableRecord
100
AcDbBlockTableRecord
  2
*Model_Space
340
22
 70
     0
280
     1
281
     0
  0
BLOCK_RECORD
  5
1B
330
1
100
AcDbSymbolTableRecord
100
AcDbBlockTableRecord
  2
*Paper_Space
340
1E
 70
     0
280
     1
281
     0
  0
BLOCK_RECORD
  5
23
330
1
100
AcDbSymbolTableRecord
100
AcDbBlockTableRecord
  2
*Paper_Space0
340
26
 70
     0
280
     1
281
     0
  0
BLOCK_RECORD
  5
A3
330
1
100
AcDbSymbolTableRecord
100
AcDbBlockTableRecord
  2
block 2
340
0
102
{BLKREFS
331
A4
102
}
 70
     0
280
     1
281
     0
  0
BLOCK_RECORD
  5
B1
330
1
100
AcDbSymbolTableRecord
100
AcDbBlockTableRecord
  2
block 3
340
0
102
{BLKREFS
331
B2
102
}
 70
     0
280
     1
281
     0
  0
BLOCK_RECORD
  5
C2
330
1
100
AcDbSymbolTableRecord
100
AcDbBlockTableRecord
  2
block 4
340
0
102
{BLKREFS
331
C3
102
}
 70
     0
280
     1
281
     0
  0
BLOCK_RECORD
  5
D0
330
1
100
AcDbSymbolTableRecord
100
AcDbBlockTableRecord
  2
block 5
340
0
102
{BLKREFS
331
D1
102
}
 70
     0
280
     1
281
     0
  0
BLOCK_RECORD
  5
EE
330
1
100
AcDbSymbolTableRecord
100
AcDbBlockTableRecord
  2
block 6
340
0
102
{BLKREFS
331
EF
102
}
 70
     0
280
     1
281
     0
  0
BLOCK_RECORD
  5
102
330
1
100
AcDbSymbolTableRecord
100
AcDbBlockTableRecord
  2
block 7
340
0
102
{BLKREFS
331
103
102
}
 70
     0
280
     1
281
     0
  0
ENDTAB
  0
ENDSEC
  0
SECTION
  2
BLOCKS
  0
BLOCK
  5
20
330
1F
100
AcDbEntity
  8
0
100
AcDbBlockBegin
  2
*Model_Space
 70
     0
 10
0.0
 20
0.0
 30
0.0
  3
*Model_Space
  1

  0
ENDBLK
  5
21
330
1F
100
AcDbEntity
  8
0
100
AcDbBlockEnd
  0
BLOCK
  5
1C
330
1B
100
AcDbEntity
 67
     1
  8
0
100
AcDbBlockBegin
  2
*Paper_Space
 70
     0
 10
0.0
 20
0.0
 30
0.0
  3
*Paper_Space
  1

  0
ENDBLK
  5
1D
330
1B
100
AcDbEntity
 67
     1
  8
0
100
AcDbBlockEnd
  0
BLOCK
  5
24
330
23
100
AcDbEntity
  8
0
100
AcDbBlockBegin
  2
*Paper_Space0
 70
     0
 10
0.0
 20
0.0
 30
0.0
  3
*Paper_Space0
  1

  0
ENDBLK
  5
25
330
23
100
AcDbEntity
  8
0
100
AcDbBlockEnd
  0
BLOCK
  5
A5
330
A3
100
AcDbEntity
  8
0
100
AcDbBlockBegin
  2
block 2
 70
     0
 10
0.0
 20
0.0
 30
0.0
  3
block 2
  1

  0
SPLINE
  5
A7
330
A3
100
AcDbEntity
  8
_U+30EC_U+30A4_U+30E4_U+30FC 1
370
     0
100
AcDbSpline
210
0.0
220
0.0
230
1.0
 70
    11
 71
     3
 72
    26
 73
    22
 74
     0
 42
0.0000000001
 43
0.0000000001
 12
1.0
 22
0.0
 32
0.0
 13
1.0
 23
0.0
 33
0.0
 40
0.0
 40
0.0
 40
0.0
 40
0.0
 40
1.0
 40
1.0
 40
1.0
 40
2.0
 40
2.0
 40
2.0
 40
3.0
 40
3.0
 40
3.0
 40
4.0
 40
4.0
 40
4.0
 40
5.0
 40
5.0
 40
5.0
 40
6.0
 40
6.0
 40
6.0
 40
7.0
 40
7.0
 40
7.0
 40
7.0
 10
124.0761474299185
 20
-144.064591435338
 30
0.0
 10
124.0761474299185
 20
-144.064591435338
 30
0.0
 10
122.9719943268959
 20
-144.064591435338
 30
0.0
 10
122.9719943268959
 20
-144.064591435338
 30
0.0
 10
122.9719943268959
 20
-144.064591435338
 30
0.0
 10
122.9719943268959
 20
-144.394631582825
 30
0.0
 10
122.9719943268959
 20
-144.394631582825
 30
0.0
 10
122.9719943268959
 20
-144.394631582825
 30
0.0
 10
122.8238552210302
 20
-144.394631582825
 30
0.0
 10
122.8238552210302
 20
-144.394631582825
 30
0.0
 10
122.8090413104436
 20
-144.0625243780469
 30
0.0
 10
122.6460882939913
 20
-144.016015588996
 30
0.0
 10
122.531711123881
 20
-143.9863877678229
 30
0.0
 10
122.531711123881
 20
-143.9863877678229
 30
0.0
 10
122.531711123881
 20
-143.8403157192483
 30
0.0
 10
122.531711123881
 20
-143.8403157192483
 30
0.0
 10
122.531711123881
 20
-143.8403157192483
 30
0.0
 10
124.0761474299185
 20
-143.8403157192483
 30
0.0
 10
124.0761474299185
 20
-143.8403157192483
 30
0.0
 10
124.0761474299185
 20
-143.8403157192483
 30
0.0
 10
124.0761474299185
 20
-144.064591435338
 30
0.0
 10
124.0761474299185
 20
-144.064591435338
 30
0.0
  0
HATCH
  5
A8
330
A3
100
AcDbEntity
  8
_U+30EC_U+30A4_U+30E4_U+30FC 1
 62
   179
420
  2234388
100
AcDbHatch
 10
0.0
 20
0.0
 30
0.0
210
0.0
220
0.0
230
1.0
  2
SOLID
 70
     1
 71
     0
 91
        1
 92
        1
 93
        1
 72
     4
 94
        3
 73
     0
 74
     1
 95
       26
 96
       22
 40
0.0
 40
0.0
 40
0.0
 40
0.0
 40
1.0
 40
1.0
 40
1.0
 40
2.0
 40
2.0
 40
2.0
 40
3.0
 40
3.0
 40
3.0
 40
4.0
 40
4.0
 40
4.0
 40
5.0
 40
5.0
 40
5.0
 40
6.0
 40
6.0
 40
6.0
 40
7.0
 40
7.0
 40
7.0
 40
7.0
 10
124.0761474299185
 20
-144.064591435338
 10
124.0761474299185
 20
-144.064591435338
 10
122.9719943268959
 20
-144.064591435338
 10
122.9719943268959
 20
-144.064591435338
 10
122.9719943268959
 20
-144.064591435338
 10
122.9719943268959
 20
-144.394631582825
 10
122.9719943268959
 20
-144.394631582825
 10
122.9719943268959
 20
-144.394631582825
 10
122.8238552210302
 20
-144.394631582825
 10
122.8238552210302
 20
-144.394631582825
 10
122.8090413104436
 20
-144.0625243780469
 10
122.6460882939913
 20
-144.016015588996
 10
122.531711123881
 20
-143.9863877678229
 10
122.531711123881
 20
-143.9863877678229
 10
122.531711123881
 20
-143.8403157192483
 10
122.531711123881
 20
-143.8403157192483
 10
122.531711123881
 20
-143.8403157192483
 10
124.0761474299185
 20
-143.8403157192483
 10
124.0761474299185
 20
-143.8403157192483
 10
124.0761474299185
 20
-143.8403157192483
 10
124.0761474299185
 20
-144.064591435338
 10
124.0761474299185
 20
-144.064591435338
 97
        0
 97
        0
 75
     2
 76
     1
 98
        0
  0
ENDBLK
  5
A6
330
A3
100
AcDbEntity
  8
0
100
AcDbBlockEnd
  0
BLOCK
  5
B3
330
B1
100
AcDbEntity
  8
0
100
AcDbBlockBegin
  2
block 3
 70
     0
 10
0.0
 20
0.0
 30
0.0
  3
block 3
  1

  0
SPLINE
  5
B5
330
B1
100
AcDbEntity
  8
_U+30EC_U+30A4_U+30E4_U+30FC 1
370
     0
100
AcDbSpline
210
0.0
220
0.0
230
1.0
 70
    11
 71
     3
 72
    26
 73
    22
 74
     0
 42
0.0000000001
 43
0.0000000001
 12
1.0
 22
0.0
 32
0.0
 13
1.0
 23
0.0
 33
0.0
 40
0.0
 40
0.0
 40
0.0
 40
0.0
 40
1.0
 40
1.0
 40
1.0
 40
2.0
 40
2.0
 40
2.0
 40
3.0
 40
3.0
 40
3.0
 40
4.0
 40
4.0
 40
4.0
 40
5.0
 40
5.0
 40
5.0
 40
6.0
 40
6.0
 40
6.0
 40
7.0
 40
7.0
 40
7.0
 40
7.0
 10
100.7080647534688
 20
-159.3415228551299
 30
0.0
 10
100.7080647534688
 20
-159.3415228551299
 30
0.0
 10
100.7080647534688
 20
-158.2373697521073
 30
0.0
 10
100.7080647534688
 20
-158.2373697521073
 30
0.0
 10
100.7080647534688
 20
-158.2373697521073
 30
0.0
 10
100.3780246059819
 20
-158.2373697521073
 30
0.0
 10
100.3780246059819
 20
-158.2373697521073
 30
0.0
 10
100.3780246059819
 20
-158.2373697521073
 30
0.0
 10
100.3780246059819
 20
-158.0892306462416
 30
0.0
 10
100.3780246059819
 20
-158.0892306462416
 30
0.0
 10
100.71013181076
 20
-158.074416735655
 30
0.0
 10
100.7566405998109
 20
-157.9114637192027
 30
0.0
 10
100.786268420984
 20
-157.7970865490924
 30
0.0
 10
100.786268420984
 20
-157.7970865490924
 30
0.0
 10
100.9323404695586
 20
-157.7970865490924
 30
0.0
 10
100.9323404695586
 20
-157.7970865490924
 30
0.0
 10
100.9323404695586
 20
-157.7970865490924
 30
0.0
 10
100.9323404695586
 20
-159.3415228551299
 30
0.0
 10
100.9323404695586
 20
-159.3415228551299
 30
0.0
 10
100.9323404695586
 20
-159.3415228551299
 30
0.0
 10
100.7080647534688
 20
-159.3415228551299
 30
0.0
 10
100.7080647534688
 20
-159.3415228551299
 30
0.0
  0
HATCH
  5
B6
330
B1
100
AcDbEntity
  8
_U+30EC_U+30A4_U+30E4_U+30FC 1
 62
   179
420
  2234388
100
AcDbHatch
 10
0.0
 20
0.0
 30
0.0
210
0.0
220
0.0
230
1.0
  2
SOLID
 70
     1
 71
     0
 91
        1
 92
        1
 93
        1
 72
     4
 94
        3
 73
     0
 74
     1
 95
       26
 96
       22
 40
0.0
 40
0.0
 40
0.0
 40
0.0
 40
1.0
 40
1.0
 40
1.0
 40
2.0
 40
2.0
 40
2.0
 40
3.0
 40
3.0
 40
3.0
 40
4.0
 40
4.0
 40
4.0
 40
5.0
 40
5.0
 40
5.0
 40
6.0
 40
6.0
 40
6.0
 40
7.0
 40
7.0
 40
7.0
 40
7.0
 10
100.7080647534688
 20
-159.3415228551299
 10
100.7080647534688
 20
-159.3415228551299
 10
100.7080647534688
 20
-158.2373697521073
 10
100.7080647534688
 20
-158.2373697521073
 10
100.7080647534688
 20
-158.2373697521073
 10
100.3780246059819
 20
-158.2373697521073
 10
100.3780246059819
 20
-158.2373697521073
 10
100.3780246059819
 20
-158.2373697521073
 10
100.3780246059819
 20
-158.0892306462416
 10
100.3780246059819
 20
-158.0892306462416
 10
100.71013181076
 20
-158.074416735655
 10
100.7566405998109
 20
-157.9114637192027
 10
100.786268420984
 20
-157.7970865490924
 10
100.786268420984
 20
-157.7970865490924
 10
100.9323404695586
 20
-157.7970865490924
 10
100.9323404695586
 20
-157.7970865490924
 10
100.9323404695586
 20
-157.7970865490924
 10
100.9323404695586
 20
-159.3415228551299
 10
100.9323404695586
 20
-159.3415228551299
 10
100.9323404695586
 20
-159.3415228551299
 10
100.7080647534688
 20
-159.3415228551299
 10
100.7080647534688
 20
-159.3415228551299
 97
        0
 97
        0
 75
     2
 76
     1
 98
        0
  0
SPLINE
  5
B7
330
B1
100
AcDbEntity
  8
_U+30EC_U+30A4_U+30E4_U+30FC 1
370
     0
100
AcDbSpline
210
0.0
220
0.0
230
1.0
 70
    11
 71
     3
 72
    29
 73
    25
 74
     0
 42
0.0000000001
 43
0.0000000001
 12
1.0
 22
0.0
 32
0.0
 13
1.0
 23
0.0
 33
0.0
 40
0.0
 40
0.0
 40
0.0
 40
0.0
 40
1.0
 40
1.0
 40
1.0
 40
2.0
 40
2.0
 40
2.0
 40
3.0
 40
3.0
 40
3.0
 40
4.0
 40
4.0
 40
4.0
 40
5.0
 40
5.0
 40
5.0
 40
6.0
 40
6.0
 40
6.0
 40
7.0
 40
7.0
 40
7.0
 40
8.0
 40
8.0
 40
8.0
 40
8.0
 10
102.3313937461186
 20
-159.163755928091
 30
0.0
 10
102.2232177478817
 20
-159.3732177335942
 30
0.0
 10
102.0499294449736
 20
-159.3921657587631
 30
0.0
 10
101.9334852175722
 20
-159.3921657587631
 30
0.0
 10
101.772599258411
 20
-159.3921657587631
 30
0.0
 10
101.6310058339673
 20
-159.3456569697122
 30
0.0
 10
101.5359211985744
 20
-159.163755928091
 30
0.0
 10
101.4322238244683
 20
-158.9691080331744
 30
0.0
 10
101.4132757992995
 20
-158.7320854637892
 30
0.0
 10
101.4132757992995
 20
-158.5694769568854
 30
0.0
 10
101.4132757992995
 20
-158.425471965602
 30
0.0
 10
101.4301567671772
 20
-158.1736354856302
 30
0.0
 10
101.5359211985744
 20
-157.9748534761313
 30
0.0
 10
101.6437526872627
 20
-157.7719373520501
 30
0.0
 10
101.8046386464238
 20
-157.7485107027504
 30
0.0
 10
101.9334852175722
 20
-157.7485107027504
 30
0.0
 10
102.0923041194422
 20
-157.7485107027504
 30
0.0
 10
102.2359646011771
 20
-157.7929524345101
 30
0.0
 10
102.3313937461186
 20
-157.9748534761313
 30
0.0
 10
102.4306124960937
 20
-158.1674343137568
 30
0.0
 10
102.4540391453934
 20
-158.3958441444288
 30
0.0
 10
102.4540391453934
 20
-158.5694769568854
 30
0.0
 10
102.4540391453934
 20
-158.7406982025023
 30
0.0
 10
102.4326795533849
 20
-158.9711750904656
 30
0.0
 10
102.3313937461186
 20
-159.163755928091
 30
0.0
  0
SPLINE
  5
B8
330
B1
100
AcDbEntity
  8
_U+30EC_U+30A4_U+30E4_U+30FC 1
370
     0
100
AcDbSpline
210
0.0
220
0.0
230
1.0
 70
    11
 71
     3
 72
    17
 73
    13
 74
     0
 42
0.0000000001
 43
0.0000000001
 12
1.0
 22
0.0
 32
0.0
 13
1.0
 23
0.0
 33
0.0
 40
0.0
 40
0.0
 40
0.0
 40
0.0
 40
1.0
 40
1.0
 40
1.0
 40
2.0
 40
2.0
 40
2.0
 40
3.0
 40
3.0
 40
3.0
 40
4.0
 40
4.0
 40
4.0
 40
4.0
 10
101.9334852175722
 20
-157.9410915403759
 30
0.0
 10
101.6840603044401
 20
-157.9410915403759
 30
0.0
 10
101.6372070058407
 20
-158.2246228988119
 30
0.0
 10
101.6372070058407
 20
-158.5694769568854
 30
0.0
 10
101.6372070058407
 20
-158.8888373083681
 30
0.0
 10
101.6733805084358
 20
-159.1975178638465
 30
0.0
 10
101.9334852175722
 20
-159.1975178638465
 30
0.0
 10
102.1811875829617
 20
-159.1975178638465
 30
0.0
 10
102.2297634293037
 20
-158.9163980722501
 30
0.0
 10
102.2297634293037
 20
-158.5694769568854
 30
0.0
 10
102.2297634293037
 20
-158.2497720958542
 30
0.0
 10
102.1915228694174
 20
-157.9410915403759
 30
0.0
 10
101.9334852175722
 20
-157.9410915403759
 30
0.0
  0
HATCH
  5
B9
330
B1
100
AcDbEntity
  8
_U+30EC_U+30A4_U+30E4_U+30FC 1
 62
   179
420
  2234388
100
AcDbHatch
 10
0.0
 20
0.0
 30
0.0
210
0.0
220
0.0
230
1.0
  2
SOLID
 70
     1
 71
     0
 91
        2
 92
        1
 93
        1
 72
     4
 94
        3
 73
     0
 74
     1
 95
       29
 96
       25
 40
0.0
 40
0.0
 40
0.0
 40
0.0
 40
1.0
 40
1.0
 40
1.0
 40
2.0
 40
2.0
 40
2.0
 40
3.0
 40
3.0
 40
3.0
 40
4.0
 40
4.0
 40
4.0
 40
5.0
 40
5.0
 40
5.0
 40
6.0
 40
6.0
 40
6.0
 40
7.0
 40
7.0
 40
7.0
 40
8.0
 40
8.0
 40
8.0
 40
8.0
 10
102.3313937461186
 20
-159.163755928091
 10
102.2232177478817
 20
-159.3732177335942
 10
102.0499294449736
 20
-159.3921657587631
 10
101.9334852175722
 20
-159.3921657587631
 10
101.772599258411
 20
-159.3921657587631
 10
101.6310058339673
 20
-159.3456569697122
 10
101.5359211985744
 20
-159.163755928091
 10
101.4322238244683
 20
-158.9691080331744
 10
101.4132757992995
 20
-158.7320854637892
 10
101.4132757992995
 20
-158.5694769568854
 10
101.4132757992995
 20
-158.425471965602
 10
101.4301567671772
 20
-158.1736354856302
 10
101.5359211985744
 20
-157.9748534761313
 10
101.6437526872627
 20
-157.7719373520501
 10
101.8046386464238
 20
-157.7485107027504
 10
101.9334852175722
 20
-157.7485107027504
 10
102.0923041194422
 20
-157.7485107027504
 10
102.2359646011771
 20
-157.7929524345101
 10
102.3313937461186
 20
-157.9748534761313
 10
102.4306124960937
 20
-158.1674343137568
 10
102.4540391453934
 20
-158.3958441444288
 10
102.4540391453934
 20
-158.5694769568854
 10
102.4540391453934
 20
-158.7406982025023
 10
102.4326795533849
 20
-158.9711750904656
 10
102.3313937461186
 20
-159.163755928091
 97
        0
 97
        0
 92
        1
 93
        1
 72
     4
 94
        3
 73
     0
 74
     1
 95
       17
 96
       13
 40
0.0
 40
0.0
 40
0.0
 40
0.0
 40
1.0
 40
1.0
 40
1.0
 40
2.0
 40
2.0
 40
2.0
 40
3.0
 40
3.0
 40
3.0
 40
4.0
 40
4.0
 40
4.0
 40
4.0
 10
101.9334852175722
 20
-157.9410915403759
 10
101.6840603044401
 20
-157.9410915403759
 10
101.6372070058407
 20
-158.2246228988119
 10
101.6372070058407
 20
-158.5694769568854
 10
101.6372070058407
 20
-158.8888373083681
 10
101.6733805084358
 20
-159.1975178638465
 10
101.9334852175722
 20
-159.1975178638465
 10
102.1811875829617
 20
-159.1975178638465
 10
102.2297634293037
 20
-158.9163980722501
 10
102.2297634293037
 20
-158.5694769568854
 10
102.2297634293037
 20
-158.2497720958542
 10
102.1915228694174
 20
-157.9410915403759
 10
101.9334852175722
 20
-157.9410915403759
 97
        0
 97
        0
 75
     2
 76
     1
 98
        0
  0
ENDBLK
  5
B4
330
B1
100
AcDbEntity
  8
0
100
AcDbBlockEnd
  0
BLOCK
  5
C4
330
C2
100
AcDbEntity
  8
0
100
AcDbBlockBegin
  2
block 4
 70
     0
 10
0.0
 20
0.0
 30
0.0
  3
block 4
  1

  0
SPLINE
  5
C6
330
C2
100
AcDbEntity
  8
_U+30EC_U+30A4_U+30E4_U+30FC 1
370
     0
100
AcDbSpline
210
0.0
220
0.0
230
1.0
 70
    11
 71
     3
 72
    62
 73
    58
 74
     0
 42
0.0000000001
 43
0.0000000001
 12
1.0
 22
0.0
 32
0.0
 13
1.0
 23
0.0
 33
0.0
 40
0.0
 40
0.0
 40
0.0
 40
0.0
 40
1.0
 40
1.0
 40
1.0
 40
2.0
 40
2.0
 40
2.0
 40
3.0
 40
3.0
 40
3.0
 40
4.0
 40
4.0
 40
4.0
 40
5.0
 40
5.0
 40
5.0
 40
6.0
 40
6.0
 40
6.0
 40
7.0
 40
7.0
 40
7.0
 40
8.0
 40
8.0
 40
8.0
 40
9.0
 40
9.0
 40
9.0
 40
10.0
 40
10.0
 40
10.0
 40
11.0
 40
11.0
 40
11.0
 40
12.0
 40
12.0
 40
12.0
 40
13.0
 40
13.0
 40
13.0
 40
14.0
 40
14.0
 40
14.0
 40
15.0
 40
15.0
 40
15.0
 40
16.0
 40
16.0
 40
16.0
 40
17.0
 40
17.0
 40
17.0
 40
18.0
 40
18.0
 40
18.0
 40
19.0
 40
19.0
 40
19.0
 40
19.0
 10
124.1271348431002
 20
-154.495996055126
 30
0.0
 10
124.1271348431002
 20
-154.5914252000674
 30
0.0
 10
124.1061197606401
 20
-154.8091552347352
 30
0.0
 10
123.9200846044367
 20
-154.9342122008498
 30
0.0
 10
123.8077744916175
 20
-155.0079372442341
 30
0.0
 10
123.7085557416423
 20
-155.012415868365
 30
0.0
 10
123.6238063927052
 20
-155.0165499829473
 30
0.0
 10
123.6238063927052
 20
-155.0165499829473
 30
0.0
 10
123.6238063927052
 20
-154.7964083814398
 30
0.0
 10
123.6238063927052
 20
-154.7964083814398
 30
0.0
 10
123.697875945638
 20
-154.7943413241486
 30
0.0
 10
123.9324869481836
 20
-154.7840060376929
 30
0.0
 10
123.9324869481836
 20
-154.5004746792568
 30
0.0
 10
123.9324869481836
 20
-154.3630153693954
 30
0.0
 10
123.8628960193815
 20
-154.2103976393988
 30
0.0
 10
123.6344861887094
 20
-154.2103976393988
 30
0.0
 10
123.518041961308
 20
-154.2103976393988
 30
0.0
 10
123.469466114966
 20
-154.2486381992851
 30
0.0
 10
123.4377712365017
 20
-154.2803330777494
 30
0.0
 10
123.3637016835688
 20
-154.3544026306822
 30
0.0
 10
123.3509548302734
 20
-154.4708468580837
 30
0.0
 10
123.3509548302734
 20
-154.5256238762992
 30
0.0
 10
123.3509548302734
 20
-154.5449164110165
 30
0.0
 10
123.3530218875645
 20
-154.5807454040632
 30
0.0
 10
123.3571560021468
 20
-154.6083061679452
 30
0.0
 10
123.3571560021468
 20
-154.6083061679452
 30
0.0
 10
123.1625081072302
 20
-154.6083061679452
 30
0.0
 10
123.1625081072302
 20
-154.6083061679452
 30
0.0
 10
123.1690537886522
 20
-154.5700656080589
 30
0.0
 10
123.1711208459433
 20
-154.5280354431388
 30
0.0
 10
123.1711208459433
 20
-154.5214897617169
 30
0.0
 10
123.1711208459433
 20
-154.4560329474971
 30
0.0
 10
123.1497612539348
 20
-154.2572509379982
 30
0.0
 10
122.9130831940981
 20
-154.2572509379982
 30
0.0
 10
122.7353162670592
 20
-154.2572509379982
 30
0.0
 10
122.6801947392952
 20
-154.3881645664377
 30
0.0
 10
122.6801947392952
 20
-154.4984076219657
 30
0.0
 10
122.6801947392952
 20
-154.7626464456843
 30
0.0
 10
122.9130831940981
 20
-154.7712591843975
 30
0.0
 10
122.9847411801913
 20
-154.7753932989798
 30
0.0
 10
122.9847411801913
 20
-154.7753932989798
 30
0.0
 10
122.9847411801913
 20
-154.9786539326095
 30
0.0
 10
122.9847411801913
 20
-154.9786539326095
 30
0.0
 10
122.8600287236253
 20
-154.9700411938964
 30
0.0
 10
122.4834797870875
 20
-154.9424804300144
 30
0.0
 10
122.4834797870875
 20
-154.4856607686703
 30
0.0
 10
122.4834797870875
 20
-154.2613850525805
 30
0.0
 10
122.6106038104932
 20
-154.020228368613
 30
0.0
 10
122.9065375126762
 20
-154.020228368613
 30
0.0
 10
123.0929171784282
 20
-154.020228368613
 30
0.0
 10
123.1752549605256
 20
-154.1153130040059
 30
0.0
 10
123.2365776601631
 20
-154.2148762635296
 30
0.0
 10
123.2641384240451
 20
-154.1535535638922
 30
0.0
 10
123.3444091488514
 20
-153.971652522271
 30
0.0
 10
123.621739335414
 20
-153.971652522271
 30
0.0
 10
123.9600477120655
 20
-153.971652522271
 30
0.0
 10
124.1271348431002
 20
-154.2190103781119
 30
0.0
 10
124.1271348431002
 20
-154.495996055126
 30
0.0
  0
HATCH
  5
C7
330
C2
100
AcDbEntity
  8
_U+30EC_U+30A4_U+30E4_U+30FC 1
 62
   179
420
  2234388
100
AcDbHatch
 10
0.0
 20
0.0
 30
0.0
210
0.0
220
0.0
230
1.0
  2
SOLID
 70
     1
 71
     0
 91
        1
 92
        1
 93
        1
 72
     4
 94
        3
 73
     0
 74
     1
 95
       62
 96
       58
 40
0.0
 40
0.0
 40
0.0
 40
0.0
 40
1.0
 40
1.0
 40
1.0
 40
2.0
 40
2.0
 40
2.0
 40
3.0
 40
3.0
 40
3.0
 40
4.0
 40
4.0
 40
4.0
 40
5.0
 40
5.0
 40
5.0
 40
6.0
 40
6.0
 40
6.0
 40
7.0
 40
7.0
 40
7.0
 40
8.0
 40
8.0
 40
8.0
 40
9.0
 40
9.0
 40
9.0
 40
10.0
 40
10.0
 40
10.0
 40
11.0
 40
11.0
 40
11.0
 40
12.0
 40
12.0
 40
12.0
 40
13.0
 40
13.0
 40
13.0
 40
14.0
 40
14.0
 40
14.0
 40
15.0
 40
15.0
 40
15.0
 40
16.0
 40
16.0
 40
16.0
 40
17.0
 40
17.0
 40
17.0
 40
18.0
 40
18.0
 40
18.0
 40
19.0
 40
19.0
 40
19.0
 40
19.0
 10
124.1271348431002
 20
-154.495996055126
 10
124.1271348431002
 20
-154.5914252000674
 10
124.1061197606401
 20
-154.8091552347352
 10
123.9200846044367
 20
-154.9342122008498
 10
123.8077744916175
 20
-155.0079372442341
 10
123.7085557416423
 20
-155.012415868365
 10
123.6238063927052
 20
-155.0165499829473
 10
123.6238063927052
 20
-155.0165499829473
 10
123.6238063927052
 20
-154.7964083814398
 10
123.6238063927052
 20
-154.7964083814398
 10
123.697875945638
 20
-154.7943413241486
 10
123.9324869481836
 20
-154.7840060376929
 10
123.9324869481836
 20
-154.5004746792568
 10
123.9324869481836
 20
-154.3630153693954
 10
123.8628960193815
 20
-154.2103976393988
 10
123.6344861887094
 20
-154.2103976393988
 10
123.518041961308
 20
-154.2103976393988
 10
123.469466114966
 20
-154.2486381992851
 10
123.4377712365017
 20
-154.2803330777494
 10
123.3637016835688
 20
-154.3544026306822
 10
123.3509548302734
 20
-154.4708468580837
 10
123.3509548302734
 20
-154.5256238762992
 10
123.3509548302734
 20
-154.5449164110165
 10
123.3530218875645
 20
-154.5807454040632
 10
123.3571560021468
 20
-154.6083061679452
 10
123.3571560021468
 20
-154.6083061679452
 10
123.1625081072302
 20
-154.6083061679452
 10
123.1625081072302
 20
-154.6083061679452
 10
123.1690537886522
 20
-154.5700656080589
 10
123.1711208459433
 20
-154.5280354431388
 10
123.1711208459433
 20
-154.5214897617169
 10
123.1711208459433
 20
-154.4560329474971
 10
123.1497612539348
 20
-154.2572509379982
 10
122.9130831940981
 20
-154.2572509379982
 10
122.7353162670592
 20
-154.2572509379982
 10
122.6801947392952
 20
-154.3881645664377
 10
122.6801947392952
 20
-154.4984076219657
 10
122.6801947392952
 20
-154.7626464456843
 10
122.9130831940981
 20
-154.7712591843975
 10
122.9847411801913
 20
-154.7753932989798
 10
122.9847411801913
 20
-154.7753932989798
 10
122.9847411801913
 20
-154.9786539326095
 10
122.9847411801913
 20
-154.9786539326095
 10
122.8600287236253
 20
-154.9700411938964
 10
122.4834797870875
 20
-154.9424804300144
 10
122.4834797870875
 20
-154.4856607686703
 10
122.4834797870875
 20
-154.2613850525805
 10
122.6106038104932
 20
-154.020228368613
 10
122.9065375126762
 20
-154.020228368613
 10
123.0929171784282
 20
-154.020228368613
 10
123.1752549605256
 20
-154.1153130040059
 10
123.2365776601631
 20
-154.2148762635296
 10
123.2641384240451
 20
-154.1535535638922
 10
123.3444091488514
 20
-153.971652522271
 10
123.621739335414
 20
-153.971652522271
 10
123.9600477120655
 20
-153.971652522271
 10
124.1271348431002
 20
-154.2190103781119
 10
124.1271348431002
 20
-154.495996055126
 97
        0
 97
        0
 75
     2
 76
     1
 98
        0
  0
ENDBLK
  5
C5
330
C2
100
AcDbEntity
  8
0
100
AcDbBlockEnd
  0
BLOCK
  5
D2
330
D0
100
AcDbEntity
  8
0
100
AcDbBlockBegin
  2
block 5
 70
     0
 10
0.0
 20
0.0
 30
0.0
  3
block 5
  1

  0
SPLINE
  5
D4
330
D0
100
AcDbEntity
  8
_U+30EC_U+30A4_U+30E4_U+30FC 1
370
     0
100
AcDbSpline
210
0.0
220
0.0
230
1.0
 70
    11
 71
     3
 72
    29
 73
    25
 74
     0
 42
0.0000000001
 43
0.0000000001
 12
1.0
 22
0.0
 32
0.0
 13
1.0
 23
0.0
 33
0.0
 40
0.0
 40
0.0
 40
0.0
 40
0.0
 40
1.0
 40
1.0
 40
1.0
 40
2.0
 40
2.0
 40
2.0
 40
3.0
 40
3.0
 40
3.0
 40
4.0
 40
4.0
 40
4.0
 40
5.0
 40
5.0
 40
5.0
 40
6.0
 40
6.0
 40
6.0
 40
7.0
 40
7.0
 40
7.0
 40
8.0
 40
8.0
 40
8.0
 40
8.0
 10
124.1267903335516
 20
-149.600515370586
 30
0.0
 10
124.1267903335516
 20
-149.8671657611443
 30
0.0
 10
123.9896755332387
 20
-150.1207247888587
 30
0.0
 10
123.6403428510344
 20
-150.1207247888587
 30
0.0
 10
123.3847167660288
 20
-150.1207247888587
 30
0.0
 10
123.2896321306359
 20
-149.9791313644149
 30
0.0
 10
123.2283094309985
 20
-149.8733669330178
 30
0.0
 10
123.1690537886522
 20
-149.9980793895838
 30
0.0
 10
123.0546766185419
 20
-150.0742159998078
 30
0.0
 10
122.8934461498322
 20
-150.0742159998078
 30
0.0
 10
122.6185275301093
 20
-150.0742159998078
 30
0.0
 10
122.4834797870875
 20
-149.8754339903089
 30
0.0
 10
122.4834797870875
 20
-149.600515370586
 30
0.0
 10
122.4834797870875
 20
-149.3169840121499
 30
0.0
 10
122.6274847783709
 20
-149.1264702318156
 30
0.0
 10
122.8934461498322
 20
-149.1264702318156
 30
0.0
 10
123.0546766185419
 20
-149.1264702318156
 30
0.0
 10
123.1690537886522
 20
-149.2050184088793
 30
0.0
 10
123.2283094309985
 20
-149.3297308654454
 30
0.0
 10
123.2786078250831
 20
-149.2408474019259
 30
0.0
 10
123.373692460476
 20
-149.0820285000559
 30
0.0
 10
123.6362087364521
 20
-149.0820285000559
 30
0.0
 10
124.0110351252472
 20
-149.0820285000559
 30
0.0
 10
124.1267903335516
 20
-149.3614257439096
 30
0.0
 10
124.1267903335516
 20
-149.600515370586
 30
0.0
  0
SPLINE
  5
D5
330
D0
100
AcDbEntity
  8
_U+30EC_U+30A4_U+30E4_U+30FC 1
370
     0
100
AcDbSpline
210
0.0
220
0.0
230
1.0
 70
    11
 71
     3
 72
    17
 73
    13
 74
     0
 42
0.0000000001
 43
0.0000000001
 12
1.0
 22
0.0
 32
0.0
 13
1.0
 23
0.0
 33
0.0
 40
0.0
 40
0.0
 40
0.0
 40
0.0
 40
1.0
 40
1.0
 40
1.0
 40
2.0
 40
2.0
 40
2.0
 40
3.0
 40
3.0
 40
3.0
 40
4.0
 40
4.0
 40
4.0
 40
4.0
 10
122.6757161151644
 20
-149.600515370586
 30
0.0
 10
122.6757161151644
 20
-149.7655354443295
 30
0.0
 10
122.7708007505573
 20
-149.8499402837181
 30
0.0
 10
122.9065375126762
 20
-149.8499402837181
 30
0.0
 10
123.029182911951
 20
-149.8499402837181
 30
0.0
 10
123.1476941966436
 20
-149.7782822976249
 30
0.0
 10
123.1476941966436
 20
-149.600515370586
 30
0.0
 10
123.1476941966436
 20
-149.4227484435471
 30
0.0
 10
123.029182911951
 20
-149.3507459479054
 30
0.0
 10
122.9065375126762
 20
-149.3507459479054
 30
0.0
 10
122.7708007505573
 20
-149.3507459479054
 30
0.0
 10
122.6757161151644
 20
-149.4375623541337
 30
0.0
 10
122.6757161151644
 20
-149.600515370586
 30
0.0
  0
SPLINE
  5
D6
330
D0
100
AcDbEntity
  8
_U+30EC_U+30A4_U+30E4_U+30FC 1
370
     0
100
AcDbSpline
210
0.0
220
0.0
230
1.0
 70
    11
 71
     3
 72
    17
 73
    13
 74
     0
 42
0.0000000001
 43
0.0000000001
 12
1.0
 22
0.0
 32
0.0
 13
1.0
 23
0.0
 33
0.0
 40
0.0
 40
0.0
 40
0.0
 40
0.0
 40
1.0
 40
1.0
 40
1.0
 40
2.0
 40
2.0
 40
2.0
 40
3.0
 40
3.0
 40
3.0
 40
4.0
 40
4.0
 40
4.0
 40
4.0
 10
123.3357964101383
 20
-149.600515370586
 30
0.0
 10
123.3357964101383
 20
-149.7441758523209
 30
0.0
 10
123.4226128163666
 20
-149.8967935823175
 30
0.0
 10
123.6258734499963
 20
-149.8967935823175
 30
0.0
 10
123.8312011409172
 20
-149.8967935823175
 30
0.0
 10
123.9324869481836
 20
-149.7696695589117
 30
0.0
 10
123.9324869481836
 20
-149.600515370586
 30
0.0
 10
123.9324869481836
 20
-149.4144802143825
 30
0.0
 10
123.8098415489087
 20
-149.3042371588545
 30
0.0
 10
123.6320746218698
 20
-149.3042371588545
 30
0.0
 10
123.4102104726197
 20
-149.3042371588545
 30
0.0
 10
123.3357964101383
 20
-149.4671901753068
 30
0.0
 10
123.3357964101383
 20
-149.600515370586
 30
0.0
  0
HATCH
  5
D7
330
D0
100
AcDbEntity
  8
_U+30EC_U+30A4_U+30E4_U+30FC 1
 62
   179
420
  2234388
100
AcDbHatch
 10
0.0
 20
0.0
 30
0.0
210
0.0
220
0.0
230
1.0
  2
SOLID
 70
     1
 71
     0
 91
        3
 92
        1
 93
        1
 72
     4
 94
        3
 73
     0
 74
     1
 95
       29
 96
       25
 40
0.0
 40
0.0
 40
0.0
 40
0.0
 40
1.0
 40
1.0
 40
1.0
 40
2.0
 40
2.0
 40
2.0
 40
3.0
 40
3.0
 40
3.0
 40
4.0
 40
4.0
 40
4.0
 40
5.0
 40
5.0
 40
5.0
 40
6.0
 40
6.0
 40
6.0
 40
7.0
 40
7.0
 40
7.0
 40
8.0
 40
8.0
 40
8.0
 40
8.0
 10
124.1267903335516
 20
-149.600515370586
 10
124.1267903335516
 20
-149.8671657611443
 10
123.9896755332387
 20
-150.1207247888587
 10
123.6403428510344
 20
-150.1207247888587
 10
123.3847167660288
 20
-150.1207247888587
 10
123.2896321306359
 20
-149.9791313644149
 10
123.2283094309985
 20
-149.8733669330178
 10
123.1690537886522
 20
-149.9980793895838
 10
123.0546766185419
 20
-150.0742159998078
 10
122.8934461498322
 20
-150.0742159998078
 10
122.6185275301093
 20
-150.0742159998078
 10
122.4834797870875
 20
-149.8754339903089
 10
122.4834797870875
 20
-149.600515370586
 10
122.4834797870875
 20
-149.3169840121499
 10
122.6274847783709
 20
-149.1264702318156
 10
122.8934461498322
 20
-149.1264702318156
 10
123.0546766185419
 20
-149.1264702318156
 10
123.1690537886522
 20
-149.2050184088793
 10
123.2283094309985
 20
-149.3297308654454
 10
123.2786078250831
 20
-149.2408474019259
 10
123.373692460476
 20
-149.0820285000559
 10
123.6362087364521
 20
-149.0820285000559
 10
124.0110351252472
 20
-149.0820285000559
 10
124.1267903335516
 20
-149.3614257439096
 10
124.1267903335516
 20
-149.600515370586
 97
        0
 97
        0
 92
        1
 93
        1
 72
     4
 94
        3
 73
     0
 74
     1
 95
       17
 96
       13
 40
0.0
 40
0.0
 40
0.0
 40
0.0
 40
1.0
 40
1.0
 40
1.0
 40
2.0
 40
2.0
 40
2.0
 40
3.0
 40
3.0
 40
3.0
 40
4.0
 40
4.0
 40
4.0
 40
4.0
 10
122.6757161151644
 20
-149.600515370586
 10
122.6757161151644
 20
-149.7655354443295
 10
122.7708007505573
 20
-149.8499402837181
 10
122.9065375126762
 20
-149.8499402837181
 10
123.029182911951
 20
-149.8499402837181
 10
123.1476941966436
 20
-149.7782822976249
 10
123.1476941966436
 20
-149.600515370586
 10
123.1476941966436
 20
-149.4227484435471
 10
123.029182911951
 20
-149.3507459479054
 10
122.9065375126762
 20
-149.3507459479054
 10
122.7708007505573
 20
-149.3507459479054
 10
122.6757161151644
 20
-149.4375623541337
 10
122.6757161151644
 20
-149.600515370586
 97
        0
 97
        0
 92
        1
 93
        1
 72
     4
 94
        3
 73
     0
 74
     1
 95
       17
 96
       13
 40
0.0
 40
0.0
 40
0.0
 40
0.0
 40
1.0
 40
1.0
 40
1.0
 40
2.0
 40
2.0
 40
2.0
 40
3.0
 40
3.0
 40
3.0
 40
4.0
 40
4.0
 40
4.0
 40
4.0
 10
123.3357964101383
 20
-149.600515370586
 10
123.3357964101383
 20
-149.7441758523209
 10
123.4226128163666
 20
-149.8967935823175
 10
123.6258734499963
 20
-149.8967935823175
 10
123.8312011409172
 20
-149.8967935823175
 10
123.9324869481836
 20
-149.7696695589117
 10
123.9324869481836
 20
-149.600515370586
 10
123.9324869481836
 20
-149.4144802143825
 10
123.8098415489087
 20
-149.3042371588545
 10
123.6320746218698
 20
-149.3042371588545
 10
123.4102104726197
 20
-149.3042371588545
 10
123.3357964101383
 20
-149.4671901753068
 10
123.3357964101383
 20
-149.600515370586
 97
        0
 97
        0
 75
     2
 76
     1
 98
        0
  0
POLYLINE
  5
D8
330
D0
100
AcDbEntity
  8
_U+30EC_U+30A4_U+30E4_U+30FC 1
370
     0
100
AcDb2dPolyline
 66
     1
 10
0.0
 20
0.0
 30
0.0
  0
VERTEX
  5
D9
330
D8
100
AcDbEntity
  8
_U+30EC_U+30A4_U+30E4_U+30FC 1
370
     0
100
AcDbVertex
100
AcDb2dVertex
 10
124.076491939467
 20
-148.863609446291
 30
0.0
  0
VERTEX
  5
DA
330
D8
100
AcDbEntity
  8
_U+30EC_U+30A4_U+30E4_U+30FC 1
370
     0
100
AcDbVertex
100
AcDb2dVertex
 10
123.8243109499467
 20
-148.863609446291
 30
0.0
  0
VERTEX
  5
DB
330
D8
100
AcDbEntity
  8
_U+30EC_U+30A4_U+30E4_U+30FC 1
370
     0
100
AcDbVertex
100
AcDb2dVertex
 10
123.8243109499467
 20
-148.6117729663193
 30
0.0
  0
VERTEX
  5
DC
330
D8
100
AcDbEntity
  8
_U+30EC_U+30A4_U+30E4_U+30FC 1
370
     0
100
AcDbVertex
100
AcDb2dVertex
 10
124.076491939467
 20
-148.6117729663193
 30
0.0
  0
VERTEX
  5
DD
330
D8
100
AcDbEntity
  8
_U+30EC_U+30A4_U+30E4_U+30FC 1
370
     0
100
AcDbVertex
100
AcDb2dVertex
 10
124.076491939467
 20
-148.863609446291
 30
0.0
  0
SEQEND
  5
DE
330
D8
100
AcDbEntity
  8
_U+30EC_U+30A4_U+30E4_U+30FC 1
370
     0
  0
HATCH
  5
DF
330
D0
100
AcDbEntity
  8
_U+30EC_U+30A4_U+30E4_U+30FC 1
 62
   179
420
  2234388
100
AcDbHatch
 10
0.0
 20
0.0
 30
0.0
210
0.0
220
0.0
230
1.0
  2
SOLID
 70
     1
 71
     0
 91
        1
 92
        1
 93
        4
 72
     1
 10
124.076491939467
 20
-148.863609446291
 11
123.8243109499467
 21
-148.863609446291
 72
     1
 10
123.8243109499467
 20
-148.863609446291
 11
123.8243109499467
 21
-148.6117729663193
 72
     1
 10
123.8243109499467
 20
-148.6117729663193
 11
124.076491939467
 21
-148.6117729663193
 72
     1
 10
124.076491939467
 20
-148.6117729663193
 11
124.076491939467
 21
-148.863609446291
 97
        0
 75
     2
 76
     1
 98
        0
  0
SPLINE
  5
E0
330
D0
100
AcDbEntity
  8
_U+30EC_U+30A4_U+30E4_U+30FC 1
370
     0
100
AcDbSpline
210
0.0
220
0.0
230
1.0
 70
    11
 71
     3
 72
    53
 73
    49
 74
     0
 42
0.0000000001
 43
0.0000000001
 12
1.0
 22
0.0
 32
0.0
 13
1.0
 23
0.0
 33
0.0
 40
0.0
 40
0.0
 40
0.0
 40
0.0
 40
1.0
 40
1.0
 40
1.0
 40
2.0
 40
2.0
 40
2.0
 40
3.0
 40
3.0
 40
3.0
 40
4.0
 40
4.0
 40
4.0
 40
5.0
 40
5.0
 40
5.0
 40
6.0
 40
6.0
 40
6.0
 40
7.0
 40
7.0
 40
7.0
 40
8.0
 40
8.0
 40
8.0
 40
9.0
 40
9.0
 40
9.0
 40
10.0
 40
10.0
 40
10.0
 40
11.0
 40
11.0
 40
11.0
 40
12.0
 40
12.0
 40
12.0
 40
13.0
 40
13.0
 40
13.0
 40
14.0
 40
14.0
 40
14.0
 40
15.0
 40
15.0
 40
15.0
 40
16.0
 40
16.0
 40
16.0
 40
16.0
 10
124.1267903335516
 20
-147.8945040862903
 30
0.0
 10
124.1267903335516
 20
-147.9727077538055
 30
0.0
 10
124.1102538752224
 20
-148.0743380706203
 30
0.0
 10
124.0468641182938
 20
-148.1759683874352
 30
0.0
 10
123.9366210627659
 20
-148.3492566903433
 30
0.0
 10
123.8057074343264
 20
-148.3706162823518
 30
0.0
 10
123.6975314360895
 20
-148.3895643075207
 30
0.0
 10
123.6975314360895
 20
-148.3895643075207
 30
0.0
 10
123.6975314360895
 20
-148.1673556487221
 30
0.0
 10
123.6975314360895
 20
-148.1673556487221
 30
0.0
 10
123.896657955137
 20
-148.1125786305066
 30
0.0
 10
123.9262857763101
 20
-147.9854546071009
 30
0.0
 10
123.9262857763101
 20
-147.8924370289991
 30
0.0
 10
123.9262857763101
 20
-147.7529106618465
 30
0.0
 10
123.8263780072378
 20
-147.6006374413984
 30
0.0
 10
123.594178571532
 20
-147.6006374413984
 30
0.0
 10
123.3378634674294
 20
-147.6006374413984
 30
0.0
 10
123.2682725386274
 20
-147.7804714257285
 30
0.0
 10
123.2682725386274
 20
-147.9010497677122
 30
0.0
 10
123.2682725386274
 20
-147.9327446461765
 30
0.0
 10
123.2682725386274
 20
-148.0743380706203
 30
0.0
 10
123.3971191097757
 20
-148.1632215341398
 30
0.0
 10
123.3971191097757
 20
-148.1632215341398
 30
0.0
 10
123.3785155941554
 20
-148.3389214038875
 30
0.0
 10
123.3785155941554
 20
-148.3389214038875
 30
0.0
 10
123.3785155941554
 20
-148.3389214038875
 30
0.0
 10
122.531711123881
 20
-148.2183430619038
 30
0.0
 10
122.531711123881
 20
-148.2183430619038
 30
0.0
 10
122.531711123881
 20
-148.2183430619038
 30
0.0
 10
122.531711123881
 20
-147.4397514822373
 30
0.0
 10
122.531711123881
 20
-147.4397514822373
 30
0.0
 10
122.531711123881
 20
-147.4397514822373
 30
0.0
 10
122.7267035283461
 20
-147.4397514822373
 30
0.0
 10
122.7267035283461
 20
-147.4397514822373
 30
0.0
 10
122.7267035283461
 20
-147.4397514822373
 30
0.0
 10
122.7267035283461
 20
-148.0553900454514
 30
0.0
 10
122.7267035283461
 20
-148.0553900454514
 30
0.0
 10
122.7267035283461
 20
-148.0553900454514
 30
0.0
 10
123.1497612539348
 20
-148.1208468596712
 30
0.0
 10
123.1497612539348
 20
-148.1208468596712
 30
0.0
 10
123.1159993181793
 20
-148.0595241600337
 30
0.0
 10
123.0753471914534
 20
-147.9771863779363
 30
0.0
 10
123.0753471914534
 20
-147.8586750932437
 30
0.0
 10
123.0753471914534
 20
-147.6047715559808
 30
0.0
 10
123.2620713667539
 20
-147.3677489865956
 30
0.0
 10
123.5748860368146
 20
-147.3677489865956
 30
0.0
 10
123.8925238405547
 20
-147.3677489865956
 30
0.0
 10
124.1267903335516
 20
-147.5920247026853
 30
0.0
 10
124.1267903335516
 20
-147.8945040862903
 30
0.0
  0
HATCH
  5
E1
330
D0
100
AcDbEntity
  8
_U+30EC_U+30A4_U+30E4_U+30FC 1
 62
   179
420
  2234388
100
AcDbHatch
 10
0.0
 20
0.0
 30
0.0
210
0.0
220
0.0
230
1.0
  2
SOLID
 70
     1
 71
     0
 91
        1
 92
        1
 93
        1
 72
     4
 94
        3
 73
     0
 74
     1
 95
       53
 96
       49
 40
0.0
 40
0.0
 40
0.0
 40
0.0
 40
1.0
 40
1.0
 40
1.0
 40
2.0
 40
2.0
 40
2.0
 40
3.0
 40
3.0
 40
3.0
 40
4.0
 40
4.0
 40
4.0
 40
5.0
 40
5.0
 40
5.0
 40
6.0
 40
6.0
 40
6.0
 40
7.0
 40
7.0
 40
7.0
 40
8.0
 40
8.0
 40
8.0
 40
9.0
 40
9.0
 40
9.0
 40
10.0
 40
10.0
 40
10.0
 40
11.0
 40
11.0
 40
11.0
 40
12.0
 40
12.0
 40
12.0
 40
13.0
 40
13.0
 40
13.0
 40
14.0
 40
14.0
 40
14.0
 40
15.0
 40
15.0
 40
15.0
 40
16.0
 40
16.0
 40
16.0
 40
16.0
 10
124.1267903335516
 20
-147.8945040862903
 10
124.1267903335516
 20
-147.9727077538055
 10
124.1102538752224
 20
-148.0743380706203
 10
124.0468641182938
 20
-148.1759683874352
 10
123.9366210627659
 20
-148.3492566903433
 10
123.8057074343264
 20
-148.3706162823518
 10
123.6975314360895
 20
-148.3895643075207
 10
123.6975314360895
 20
-148.3895643075207
 10
123.6975314360895
 20
-148.1673556487221
 10
123.6975314360895
 20
-148.1673556487221
 10
123.896657955137
 20
-148.1125786305066
 10
123.9262857763101
 20
-147.9854546071009
 10
123.9262857763101
 20
-147.8924370289991
 10
123.9262857763101
 20
-147.7529106618465
 10
123.8263780072378
 20
-147.6006374413984
 10
123.594178571532
 20
-147.6006374413984
 10
123.3378634674294
 20
-147.6006374413984
 10
123.2682725386274
 20
-147.7804714257285
 10
123.2682725386274
 20
-147.9010497677122
 10
123.2682725386274
 20
-147.9327446461765
 10
123.2682725386274
 20
-148.0743380706203
 10
123.3971191097757
 20
-148.1632215341398
 10
123.3971191097757
 20
-148.1632215341398
 10
123.3785155941554
 20
-148.3389214038875
 10
123.3785155941554
 20
-148.3389214038875
 10
123.3785155941554
 20
-148.3389214038875
 10
122.531711123881
 20
-148.2183430619038
 10
122.531711123881
 20
-148.2183430619038
 10
122.531711123881
 20
-148.2183430619038
 10
122.531711123881
 20
-147.4397514822373
 10
122.531711123881
 20
-147.4397514822373
 10
122.531711123881
 20
-147.4397514822373
 10
122.7267035283461
 20
-147.4397514822373
 10
122.7267035283461
 20
-147.4397514822373
 10
122.7267035283461
 20
-147.4397514822373
 10
122.7267035283461
 20
-148.0553900454514
 10
122.7267035283461
 20
-148.0553900454514
 10
122.7267035283461
 20
-148.0553900454514
 10
123.1497612539348
 20
-148.1208468596712
 10
123.1497612539348
 20
-148.1208468596712
 10
123.1159993181793
 20
-148.0595241600337
 10
123.0753471914534
 20
-147.9771863779363
 10
123.0753471914534
 20
-147.8586750932437
 10
123.0753471914534
 20
-147.6047715559808
 10
123.2620713667539
 20
-147.3677489865956
 10
123.5748860368146
 20
-147.3677489865956
 10
123.8925238405547
 20
-147.3677489865956
 10
124.1267903335516
 20
-147.5920247026853
 10
124.1267903335516
 20
-147.8945040862903
 97
        0
 97
        0
 75
     2
 76
     1
 98
        0
  0
ENDBLK
  5
D3
330
D0
100
AcDbEntity
  8
0
100
AcDbBlockEnd
  0
BLOCK
  5
F0
330
EE
100
AcDbEntity
  8
0
100
AcDbBlockBegin
  2
block 6
 70
     0
 10
0.0
 20
0.0
 30
0.0
  3
block 6
  1

  0
SPLINE
  5
F2
330
EE
100
AcDbEntity
  8
_U+30EC_U+30A4_U+30E4_U+30FC 1
370
     0
100
AcDbSpline
210
0.0
220
0.0
230
1.0
 70
    11
 71
     3
 72
    62
 73
    58
 74
     0
 42
0.0000000001
 43
0.0000000001
 12
1.0
 22
0.0
 32
0.0
 13
1.0
 23
0.0
 33
0.0
 40
0.0
 40
0.0
 40
0.0
 40
0.0
 40
1.0
 40
1.0
 40
1.0
 40
2.0
 40
2.0
 40
2.0
 40
3.0
 40
3.0
 40
3.0
 40
4.0
 40
4.0
 40
4.0
 40
5.0
 40
5.0
 40
5.0
 40
6.0
 40
6.0
 40
6.0
 40
7.0
 40
7.0
 40
7.0
 40
8.0
 40
8.0
 40
8.0
 40
9.0
 40
9.0
 40
9.0
 40
10.0
 40
10.0
 40
10.0
 40
11.0
 40
11.0
 40
11.0
 40
12.0
 40
12.0
 40
12.0
 40
13.0
 40
13.0
 40
13.0
 40
14.0
 40
14.0
 40
14.0
 40
15.0
 40
15.0
 40
15.0
 40
16.0
 40
16.0
 40
16.0
 40
17.0
 40
17.0
 40
17.0
 40
18.0
 40
18.0
 40
18.0
 40
19.0
 40
19.0
 40
19.0
 40
19.0
 10
101.2486002351045
 20
-138.8938476215265
 30
0.0
 10
101.1531710901631
 20
-138.8938476215265
 30
0.0
 10
100.9354410554953
 20
-138.8726602842923
 30
0.0
 10
100.8103840893807
 20
-138.6864528733145
 30
0.0
 10
100.7366590459964
 20
-138.5743150152696
 30
0.0
 10
100.7321804218656
 20
-138.4749240105202
 30
0.0
 10
100.7280463072833
 20
-138.3903469163573
 30
0.0
 10
100.7280463072833
 20
-138.3903469163573
 30
0.0
 10
100.9481879087907
 20
-138.3903469163573
 30
0.0
 10
100.9481879087907
 20
-138.3903469163573
 30
0.0
 10
100.9502549660819
 20
-138.4644164692901
 30
0.0
 10
100.9605902525376
 20
-138.6991997266099
 30
0.0
 10
101.2441216109737
 20
-138.6991997266099
 30
0.0
 10
101.3815809208352
 20
-138.6991997266099
 30
0.0
 10
101.5341986508317
 20
-138.6294365430336
 30
0.0
 10
101.5341986508317
 20
-138.4008544575873
 30
0.0
 10
101.5341986508317
 20
-138.2845824849601
 30
0.0
 10
101.4959580909455
 20
-138.2358343838438
 30
0.0
 10
101.4642632124812
 20
-138.2041395053795
 30
0.0
 10
101.3901936595483
 20
-138.1300699524467
 30
0.0
 10
101.2737494321468
 20
-138.1174953539255
 30
0.0
 10
101.2189724139314
 20
-138.1174953539255
 30
0.0
 10
101.199679879214
 20
-138.1174953539255
 30
0.0
 10
101.1638508861674
 20
-138.1195624112166
 30
0.0
 10
101.1362901222854
 20
-138.1236965257989
 30
0.0
 10
101.1362901222854
 20
-138.1236965257989
 30
0.0
 10
101.1362901222854
 20
-137.9290486308823
 30
0.0
 10
101.1362901222854
 20
-137.9290486308823
 30
0.0
 10
101.1745306821716
 20
-137.93542205753
 30
0.0
 10
101.2165608470917
 20
-137.9376613695954
 30
0.0
 10
101.2231065285137
 20
-137.9376613695954
 30
0.0
 10
101.2885633427334
 20
-137.9376613695954
 30
0.0
 10
101.4873453522323
 20
-137.9164740323612
 30
0.0
 10
101.4873453522323
 20
-137.679451462976
 30
0.0
 10
101.4873453522323
 20
-137.5018567907113
 30
0.0
 10
101.3564317237928
 20
-137.4467352629474
 30
0.0
 10
101.2461886682648
 20
-137.4467352629474
 30
0.0
 10
100.9819498445462
 20
-137.4467352629474
 30
0.0
 10
100.9733371058331
 20
-137.679451462976
 30
0.0
 10
100.9692029912508
 20
-137.7514539586177
 30
0.0
 10
100.9692029912508
 20
-137.7514539586177
 30
0.0
 10
100.765942357621
 20
-137.7514539586177
 30
0.0
 10
100.765942357621
 20
-137.7514539586177
 30
0.0
 10
100.7745550963341
 20
-137.6265692472774
 30
0.0
 10
100.8021158602161
 20
-137.2500203107396
 30
0.0
 10
101.2589355215603
 20
-137.2500203107396
 30
0.0
 10
101.48321123765
 20
-137.2500203107396
 30
0.0
 10
101.7243679216175
 20
-137.376972079371
 30
0.0
 10
101.7243679216175
 20
-137.6730780363283
 30
0.0
 10
101.7243679216175
 20
-137.859285447306
 30
0.0
 10
101.6292832862246
 20
-137.9417954841778
 30
0.0
 10
101.5297200267009
 20
-138.0031181838152
 30
0.0
 10
101.5910427263384
 20
-138.0306789476972
 30
0.0
 10
101.7729437679595
 20
-138.1111219272778
 30
0.0
 10
101.7729437679595
 20
-138.3882798590661
 30
0.0
 10
101.7729437679595
 20
-138.7267604904919
 30
0.0
 10
101.5255859121186
 20
-138.8938476215265
 30
0.0
 10
101.2486002351045
 20
-138.8938476215265
 30
0.0
  0
HATCH
  5
F3
330
EE
100
AcDbEntity
  8
_U+30EC_U+30A4_U+30E4_U+30FC 1
 62
   179
420
  2234388
100
AcDbHatch
 10
0.0
 20
0.0
 30
0.0
210
0.0
220
0.0
230
1.0
  2
SOLID
 70
     1
 71
     0
 91
        1
 92
        1
 93
        1
 72
     4
 94
        3
 73
     0
 74
     1
 95
       62
 96
       58
 40
0.0
 40
0.0
 40
0.0
 40
0.0
 40
1.0
 40
1.0
 40
1.0
 40
2.0
 40
2.0
 40
2.0
 40
3.0
 40
3.0
 40
3.0
 40
4.0
 40
4.0
 40
4.0
 40
5.0
 40
5.0
 40
5.0
 40
6.0
 40
6.0
 40
6.0
 40
7.0
 40
7.0
 40
7.0
 40
8.0
 40
8.0
 40
8.0
 40
9.0
 40
9.0
 40
9.0
 40
10.0
 40
10.0
 40
10.0
 40
11.0
 40
11.0
 40
11.0
 40
12.0
 40
12.0
 40
12.0
 40
13.0
 40
13.0
 40
13.0
 40
14.0
 40
14.0
 40
14.0
 40
15.0
 40
15.0
 40
15.0
 40
16.0
 40
16.0
 40
16.0
 40
17.0
 40
17.0
 40
17.0
 40
18.0
 40
18.0
 40
18.0
 40
19.0
 40
19.0
 40
19.0
 40
19.0
 10
101.2486002351045
 20
-138.8938476215265
 10
101.1531710901631
 20
-138.8938476215265
 10
100.9354410554953
 20
-138.8726602842923
 10
100.8103840893807
 20
-138.6864528733145
 10
100.7366590459964
 20
-138.5743150152696
 10
100.7321804218656
 20
-138.4749240105202
 10
100.7280463072833
 20
-138.3903469163573
 10
100.7280463072833
 20
-138.3903469163573
 10
100.9481879087907
 20
-138.3903469163573
 10
100.9481879087907
 20
-138.3903469163573
 10
100.9502549660819
 20
-138.4644164692901
 10
100.9605902525376
 20
-138.6991997266099
 10
101.2441216109737
 20
-138.6991997266099
 10
101.3815809208352
 20
-138.6991997266099
 10
101.5341986508317
 20
-138.6294365430336
 10
101.5341986508317
 20
-138.4008544575873
 10
101.5341986508317
 20
-138.2845824849601
 10
101.4959580909455
 20
-138.2358343838438
 10
101.4642632124812
 20
-138.2041395053795
 10
101.3901936595483
 20
-138.1300699524467
 10
101.2737494321468
 20
-138.1174953539255
 10
101.2189724139314
 20
-138.1174953539255
 10
101.199679879214
 20
-138.1174953539255
 10
101.1638508861674
 20
-138.1195624112166
 10
101.1362901222854
 20
-138.1236965257989
 10
101.1362901222854
 20
-138.1236965257989
 10
101.1362901222854
 20
-137.9290486308823
 10
101.1362901222854
 20
-137.9290486308823
 10
101.1745306821716
 20
-137.93542205753
 10
101.2165608470917
 20
-137.9376613695954
 10
101.2231065285137
 20
-137.9376613695954
 10
101.2885633427334
 20
-137.9376613695954
 10
101.4873453522323
 20
-137.9164740323612
 10
101.4873453522323
 20
-137.679451462976
 10
101.4873453522323
 20
-137.5018567907113
 10
101.3564317237928
 20
-137.4467352629474
 10
101.2461886682648
 20
-137.4467352629474
 10
100.9819498445462
 20
-137.4467352629474
 10
100.9733371058331
 20
-137.679451462976
 10
100.9692029912508
 20
-137.7514539586177
 10
100.9692029912508
 20
-137.7514539586177
 10
100.765942357621
 20
-137.7514539586177
 10
100.765942357621
 20
-137.7514539586177
 10
100.7745550963341
 20
-137.6265692472774
 10
100.8021158602161
 20
-137.2500203107396
 10
101.2589355215603
 20
-137.2500203107396
 10
101.48321123765
 20
-137.2500203107396
 10
101.7243679216175
 20
-137.376972079371
 10
101.7243679216175
 20
-137.6730780363283
 10
101.7243679216175
 20
-137.859285447306
 10
101.6292832862246
 20
-137.9417954841778
 10
101.5297200267009
 20
-138.0031181838152
 10
101.5910427263384
 20
-138.0306789476972
 10
101.7729437679595
 20
-138.1111219272778
 10
101.7729437679595
 20
-138.3882798590661
 10
101.7729437679595
 20
-138.7267604904919
 10
101.5255859121186
 20
-138.8938476215265
 10
101.2486002351045
 20
-138.8938476215265
 97
        0
 97
        0
 75
     2
 76
     1
 98
        0
  0
SPLINE
  5
F4
330
EE
100
AcDbEntity
  8
_U+30EC_U+30A4_U+30E4_U+30FC 1
370
     0
100
AcDbSpline
210
0.0
220
0.0
230
1.0
 70
    11
 71
     3
 72
    26
 73
    22
 74
     0
 42
0.0000000001
 43
0.0000000001
 12
1.0
 22
0.0
 32
0.0
 13
1.0
 23
0.0
 33
0.0
 40
0.0
 40
0.0
 40
0.0
 40
0.0
 40
1.0
 40
1.0
 40
1.0
 40
2.0
 40
2.0
 40
2.0
 40
3.0
 40
3.0
 40
3.0
 40
4.0
 40
4.0
 40
4.0
 40
5.0
 40
5.0
 40
5.0
 40
6.0
 40
6.0
 40
6.0
 40
7.0
 40
7.0
 40
7.0
 40
7.0
 10
102.344829618511
 20
-138.8430324631191
 30
0.0
 10
102.344829618511
 20
-138.8430324631191
 30
0.0
 10
102.1078070491258
 20
-138.8430324631191
 30
0.0
 10
102.1078070491258
 20
-138.8430324631191
 30
0.0
 10
102.1333007557167
 20
-138.5341796528665
 30
0.0
 10
102.3258815933421
 20
-138.0158650371106
 30
0.0
 10
102.7320583510531
 20
-137.5102972746502
 30
0.0
 10
102.7320583510531
 20
-137.5102972746502
 30
0.0
 10
101.8942111290403
 20
-137.5102972746502
 30
0.0
 10
101.8942111290403
 20
-137.5102972746502
 30
0.0
 10
101.8942111290403
 20
-137.5102972746502
 30
0.0
 10
101.8942111290403
 20
-137.2987684118559
 30
0.0
 10
101.8942111290403
 20
-137.2987684118559
 30
0.0
 10
101.8942111290403
 20
-137.2987684118559
 30
0.0
 10
102.9690809204383
 20
-137.2987684118559
 30
0.0
 10
102.9690809204383
 20
-137.2987684118559
 30
0.0
 10
102.9690809204383
 20
-137.2987684118559
 30
0.0
 10
102.9690809204383
 20
-137.5102972746502
 30
0.0
 10
102.9690809204383
 20
-137.5102972746502
 30
0.0
 10
102.6452419448248
 20
-137.8000298049597
 30
0.0
 10
102.3785915542665
 20
-138.3924139736484
 30
0.0
 10
102.344829618511
 20
-138.8430324631191
 30
0.0
  0
HATCH
  5
F5
330
EE
100
AcDbEntity
  8
_U+30EC_U+30A4_U+30E4_U+30FC 1
 62
   179
420
  2234388
100
AcDbHatch
 10
0.0
 20
0.0
 30
0.0
210
0.0
220
0.0
230
1.0
  2
SOLID
 70
     1
 71
     0
 91
        1
 92
        1
 93
        1
 72
     4
 94
        3
 73
     0
 74
     1
 95
       26
 96
       22
 40
0.0
 40
0.0
 40
0.0
 40
0.0
 40
1.0
 40
1.0
 40
1.0
 40
2.0
 40
2.0
 40
2.0
 40
3.0
 40
3.0
 40
3.0
 40
4.0
 40
4.0
 40
4.0
 40
5.0
 40
5.0
 40
5.0
 40
6.0
 40
6.0
 40
6.0
 40
7.0
 40
7.0
 40
7.0
 40
7.0
 10
102.344829618511
 20
-138.8430324631191
 10
102.344829618511
 20
-138.8430324631191
 10
102.1078070491258
 20
-138.8430324631191
 10
102.1078070491258
 20
-138.8430324631191
 10
102.1333007557167
 20
-138.5341796528665
 10
102.3258815933421
 20
-138.0158650371106
 10
102.7320583510531
 20
-137.5102972746502
 10
102.7320583510531
 20
-137.5102972746502
 10
101.8942111290403
 20
-137.5102972746502
 10
101.8942111290403
 20
-137.5102972746502
 10
101.8942111290403
 20
-137.5102972746502
 10
101.8942111290403
 20
-137.2987684118559
 10
101.8942111290403
 20
-137.2987684118559
 10
101.8942111290403
 20
-137.2987684118559
 10
102.9690809204383
 20
-137.2987684118559
 10
102.9690809204383
 20
-137.2987684118559
 10
102.9690809204383
 20
-137.2987684118559
 10
102.9690809204383
 20
-137.5102972746502
 10
102.9690809204383
 20
-137.5102972746502
 10
102.6452419448248
 20
-137.8000298049597
 10
102.3785915542665
 20
-138.3924139736484
 10
102.344829618511
 20
-138.8430324631191
 97
        0
 97
        0
 75
     2
 76
     1
 98
        0
  0
ENDBLK
  5
F1
330
EE
100
AcDbEntity
  8
0
100
AcDbBlockEnd
  0
BLOCK
  5
104
330
102
100
AcDbEntity
  8
0
100
AcDbBlockBegin
  2
block 7
 70
     0
 10
0.0
 20
0.0
 30
0.0
  3
block 7
  1

  0
SPLINE
  5
106
330
102
100
AcDbEntity
  8
_U+30EC_U+30A4_U+30E4_U+30FC 1
370
     0
100
AcDbSpline
210
0.0
220
0.0
230
1.0
 70
    11
 71
     3
 72
    26
 73
    22
 74
     0
 42
0.0000000001
 43
0.0000000001
 12
1.0
 22
0.0
 32
0.0
 13
1.0
 23
0.0
 33
0.0
 40
0.0
 40
0.0
 40
0.0
 40
0.0
 40
1.0
 40
1.0
 40
1.0
 40
2.0
 40
2.0
 40
2.0
 40
3.0
 40
3.0
 40
3.0
 40
4.0
 40
4.0
 40
4.0
 40
5.0
 40
5.0
 40
5.0
 40
6.0
 40
6.0
 40
6.0
 40
7.0
 40
7.0
 40
7.0
 40
7.0
 10
89.70890839771167
 20
-159.3415228551299
 30
0.0
 10
89.70890839771167
 20
-159.3415228551299
 30
0.0
 10
89.70890839771167
 20
-158.2373697521073
 30
0.0
 10
89.70890839771167
 20
-158.2373697521073
 30
0.0
 10
89.70890839771167
 20
-158.2373697521073
 30
0.0
 10
89.37886825022473
 20
-158.2373697521073
 30
0.0
 10
89.37886825022473
 20
-158.2373697521073
 30
0.0
 10
89.37886825022473
 20
-158.2373697521073
 30
0.0
 10
89.37886825022473
 20
-158.0892306462416
 30
0.0
 10
89.37886825022473
 20
-158.0892306462416
 30
0.0
 10
89.71097545500281
 20
-158.074416735655
 30
0.0
 10
89.75748424405369
 20
-157.9114637192027
 30
0.0
 10
89.78711206522684
 20
-157.7970865490924
 30
0.0
 10
89.78711206522684
 20
-157.7970865490924
 30
0.0
 10
89.93318411380143
 20
-157.7970865490924
 30
0.0
 10
89.93318411380143
 20
-157.7970865490924
 30
0.0
 10
89.93318411380143
 20
-157.7970865490924
 30
0.0
 10
89.93318411380143
 20
-159.3415228551299
 30
0.0
 10
89.93318411380143
 20
-159.3415228551299
 30
0.0
 10
89.93318411380143
 20
-159.3415228551299
 30
0.0
 10
89.70890839771167
 20
-159.3415228551299
 30
0.0
 10
89.70890839771167
 20
-159.3415228551299
 30
0.0
  0
HATCH
  5
107
330
102
100
AcDbEntity
  8
_U+30EC_U+30A4_U+30E4_U+30FC 1
 62
   179
420
  2234388
100
AcDbHatch
 10
0.0
 20
0.0
 30
0.0
210
0.0
220
0.0
230
1.0
  2
SOLID
 70
     1
 71
     0
 91
        1
 92
        1
 93
        1
 72
     4
 94
        3
 73
     0
 74
     1
 95
       26
 96
       22
 40
0.0
 40
0.0
 40
0.0
 40
0.0
 40
1.0
 40
1.0
 40
1.0
 40
2.0
 40
2.0
 40
2.0
 40
3.0
 40
3.0
 40
3.0
 40
4.0
 40
4.0
 40
4.0
 40
5.0
 40
5.0
 40
5.0
 40
6.0
 40
6.0
 40
6.0
 40
7.0
 40
7.0
 40
7.0
 40
7.0
 10
89.70890839771167
 20
-159.3415228551299
 10
89.70890839771167
 20
-159.3415228551299
 10
89.70890839771167
 20
-158.2373697521073
 10
89.70890839771167
 20
-158.2373697521073
 10
89.70890839771167
 20
-158.2373697521073
 10
89.37886825022473
 20
-158.2373697521073
 10
89.37886825022473
 20
-158.2373697521073
 10
89.37886825022473
 20
-158.2373697521073
 10
89.37886825022473
 20
-158.0892306462416
 10
89.37886825022473
 20
-158.0892306462416
 10
89.71097545500281
 20
-158.074416735655
 10
89.75748424405369
 20
-157.9114637192027
 10
89.78711206522684
 20
-157.7970865490924
 10
89.78711206522684
 20
-157.7970865490924
 10
89.93318411380143
 20
-157.7970865490924
 10
89.93318411380143
 20
-157.7970865490924
 10
89.93318411380143
 20
-157.7970865490924
 10
89.93318411380143
 20
-159.3415228551299
 10
89.93318411380143
 20
-159.3415228551299
 10
89.93318411380143
 20
-159.3415228551299
 10
89.70890839771167
 20
-159.3415228551299
 10
89.70890839771167
 20
-159.3415228551299
 97
        0
 97
        0
 75
     2
 76
     1
 98
        0
  0
SPLINE
  5
108
330
102
100
AcDbEntity
  8
_U+30EC_U+30A4_U+30E4_U+30FC 1
370
     0
100
AcDbSpline
210
0.0
220
0.0
230
1.0
 70
    11
 71
     3
 72
    44
 73
    40
 74
     0
 42
0.0000000001
 43
0.0000000001
 12
1.0
 22
0.0
 32
0.0
 13
1.0
 23
0.0
 33
0.0
 40
0.0
 40
0.0
 40
0.0
 40
0.0
 40
1.0
 40
1.0
 40
1.0
 40
2.0
 40
2.0
 40
2.0
 40
3.0
 40
3.0
 40
3.0
 40
4.0
 40
4.0
 40
4.0
 40
5.0
 40
5.0
 40
5.0
 40
6.0
 40
6.0
 40
6.0
 40
7.0
 40
7.0
 40
7.0
 40
8.0
 40
8.0
 40
8.0
 40
9.0
 40
9.0
 40
9.0
 40
10.0
 40
10.0
 40
10.0
 40
11.0
 40
11.0
 40
11.0
 40
12.0
 40
12.0
 40
12.0
 40
13.0
 40
13.0
 40
13.0
 40
13.0
 10
91.02734643991678
 20
-158.7596462276712
 30
0.0
 10
90.80961640524899
 20
-158.9184651295412
 30
0.0
 10
90.71659882714724
 20
-158.9925346824741
 30
0.0
 10
90.66767847125669
 20
-159.136195164209
 30
0.0
 10
90.66767847125669
 20
-159.136195164209
 30
0.0
 10
91.44627005092316
 20
-159.136195164209
 30
0.0
 10
91.44627005092316
 20
-159.136195164209
 30
0.0
 10
91.44627005092316
 20
-159.136195164209
 30
0.0
 10
91.44627005092316
 20
-159.3415228551299
 30
0.0
 10
91.44627005092316
 20
-159.3415228551299
 30
0.0
 10
91.44627005092316
 20
-159.3415228551299
 30
0.0
 10
90.4182535581246
 20
-159.3415228551299
 30
0.0
 10
90.4182535581246
 20
-159.3415228551299
 30
0.0
 10
90.44994843658891
 20
-158.983921943761
 30
0.0
 10
90.51540525080866
 20
-158.9057182762458
 30
0.0
 10
90.90056692605958
 20
-158.6073730072232
 30
0.0
 10
91.15653752061365
 20
-158.4085909977242
 30
0.0
 10
91.2219943348334
 20
-158.3407226166648
 30
0.0
 10
91.2219943348334
 20
-158.2032633068034
 30
0.0
 10
91.2219943348334
 20
-158.0847520221108
 30
0.0
 10
91.14999183919167
 20
-157.9538383936713
 30
0.0
 10
90.9532768869839
 20
-157.9538383936713
 30
0.0
 10
90.69317217784754
 20
-157.9538383936713
 30
0.0
 10
90.68455943913442
 20
-158.1843152816345
 30
0.0
 10
90.68042532455212
 20
-158.3007595090359
 30
0.0
 10
90.68042532455212
 20
-158.3007595090359
 30
0.0
 10
90.45614960846235
 20
-158.3007595090359
 30
0.0
 10
90.45614960846235
 20
-158.3007595090359
 30
0.0
 10
90.46476234717548
 20
-158.1736354856302
 30
0.0
 10
90.47544214317975
 20
-158.0616698823596
 30
0.0
 10
90.55571286798607
 20
-157.943158597667
 30
0.0
 10
90.66561141396555
 20
-157.7822726385058
 30
0.0
 10
90.85199107971756
 20
-157.7485107027504
 30
0.0
 10
90.96809079757048
 20
-157.7485107027504
 30
0.0
 10
91.24542098413309
 20
-157.7485107027504
 30
0.0
 10
91.45281573234513
 20
-157.9324788016627
 30
0.0
 10
91.45281573234513
 20
-158.2053303640945
 30
0.0
 10
91.45281573234513
 20
-158.4340847043151
 30
0.0
 10
91.33637150494368
 20
-158.5333034542903
 30
0.0
 10
91.02734643991678
 20
-158.7596462276712
 30
0.0
  0
HATCH
  5
109
330
102
100
AcDbEntity
  8
_U+30EC_U+30A4_U+30E4_U+30FC 1
 62
   179
420
  2234388
100
AcDbHatch
 10
0.0
 20
0.0
 30
0.0
210
0.0
220
0.0
230
1.0
  2
SOLID
 70
     1
 71
     0
 91
        1
 92
        1
 93
        1
 72
     4
 94
        3
 73
     0
 74
     1
 95
       44
 96
       40
 40
0.0
 40
0.0
 40
0.0
 40
0.0
 40
1.0
 40
1.0
 40
1.0
 40
2.0
 40
2.0
 40
2.0
 40
3.0
 40
3.0
 40
3.0
 40
4.0
 40
4.0
 40
4.0
 40
5.0
 40
5.0
 40
5.0
 40
6.0
 40
6.0
 40
6.0
 40
7.0
 40
7.0
 40
7.0
 40
8.0
 40
8.0
 40
8.0
 40
9.0
 40
9.0
 40
9.0
 40
10.0
 40
10.0
 40
10.0
 40
11.0
 40
11.0
 40
11.0
 40
12.0
 40
12.0
 40
12.0
 40
13.0
 40
13.0
 40
13.0
 40
13.0
 10
91.02734643991678
 20
-158.7596462276712
 10
90.80961640524899
 20
-158.9184651295412
 10
90.71659882714724
 20
-158.9925346824741
 10
90.66767847125669
 20
-159.136195164209
 10
90.66767847125669
 20
-159.136195164209
 10
91.44627005092316
 20
-159.136195164209
 10
91.44627005092316
 20
-159.136195164209
 10
91.44627005092316
 20
-159.136195164209
 10
91.44627005092316
 20
-159.3415228551299
 10
91.44627005092316
 20
-159.3415228551299
 10
91.44627005092316
 20
-159.3415228551299
 10
90.4182535581246
 20
-159.3415228551299
 10
90.4182535581246
 20
-159.3415228551299
 10
90.44994843658891
 20
-158.983921943761
 10
90.51540525080866
 20
-158.9057182762458
 10
90.90056692605958
 20
-158.6073730072232
 10
91.15653752061365
 20
-158.4085909977242
 10
91.2219943348334
 20
-158.3407226166648
 10
91.2219943348334
 20
-158.2032633068034
 10
91.2219943348334
 20
-158.0847520221108
 10
91.14999183919167
 20
-157.9538383936713
 10
90.9532768869839
 20
-157.9538383936713
 10
90.69317217784754
 20
-157.9538383936713
 10
90.68455943913442
 20
-158.1843152816345
 10
90.68042532455212
 20
-158.3007595090359
 10
90.68042532455212
 20
-158.3007595090359
 10
90.45614960846235
 20
-158.3007595090359
 10
90.45614960846235
 20
-158.3007595090359
 10
90.46476234717548
 20
-158.1736354856302
 10
90.47544214317975
 20
-158.0616698823596
 10
90.55571286798607
 20
-157.943158597667
 10
90.66561141396555
 20
-157.7822726385058
 10
90.85199107971756
 20
-157.7485107027504
 10
90.96809079757048
 20
-157.7485107027504
 10
91.24542098413309
 20
-157.7485107027504
 10
91.45281573234513
 20
-157.9324788016627
 10
91.45281573234513
 20
-158.2053303640945
 10
91.45281573234513
 20
-158.4340847043151
 10
91.33637150494368
 20
-158.5333034542903
 10
91.02734643991678
 20
-158.7596462276712
 97
        0
 97
        0
 75
     2
 76
     1
 98
        0
  0
ENDBLK
  5
105
330
102
100
AcDbEntity
  8
0
100
AcDbBlockEnd
  0
ENDSEC
  0
SECTION
  2
ENTITIES
  0
POLYLINE
  5
41
330
1F
100
AcDbEntity
  8
_U+30EC_U+30A4_U+30E4_U+30FC 1
  6
AI-Linetype-1
 62
   154
420
    23468
370
    25
100
AcDb2dPolyline
 66
     1
 10
0.0
 20
0.0
 30
0.0
  0
VERTEX
  5
42
330
41
100
AcDbEntity
  8
_U+30EC_U+30A4_U+30E4_U+30FC 1
  6
AI-Linetype-1
 62
   154
420
    23468
370
    25
100
AcDbVertex
100
AcDb2dVertex
 10
83.82412548088891
 20
-143.3884053189706
 30
0.0
  0
VERTEX
  5
43
330
41
100
AcDbEntity
  8
_U+30EC_U+30A4_U+30E4_U+30FC 1
  6
AI-Linetype-1
 62
   154
420
    23468
370
    25
100
AcDbVertex
100
AcDb2dVertex
 10
83.82412548088891
 20
-145.1889844743365
 30
0.0
  0
VERTEX
  5
44
330
41
100
AcDbEntity
  8
_U+30EC_U+30A4_U+30E4_U+30FC 1
  6
AI-Linetype-1
 62
   154
420
    23468
370
    25
100
AcDbVertex
100
AcDb2dVertex
 10
95.7794034930365
 20
-145.1889844743365
 30
0.0
  0
VERTEX
  5
45
330
41
100
AcDbEntity
  8
_U+30EC_U+30A4_U+30E4_U+30FC 1
  6
AI-Linetype-1
 62
   154
420
    23468
370
    25
100
AcDbVertex
100
AcDb2dVertex
 10
95.7794034930365
 20
-156.6151065858733
 30
0.0
  0
VERTEX
  5
46
330
41
100
AcDbEntity
  8
_U+30EC_U+30A4_U+30E4_U+30FC 1
  6
AI-Linetype-1
 62
   154
420
    23468
370
    25
100
AcDbVertex
100
AcDb2dVertex
 10
106.9786875987165
 20
-156.6151065858733
 30
0.0
  0
VERTEX
  5
47
330
41
100
AcDbEntity
  8
_U+30EC_U+30A4_U+30E4_U+30FC 1
  6
AI-Linetype-1
 62
   154
420
    23468
370
    25
100
AcDbVertex
100
AcDb2dVertex
 10
106.9786875987165
 20
-152.9522164704154
 30
0.0
  0
SEQEND
  5
49
330
41
100
AcDbEntity
  8
_U+30EC_U+30A4_U+30E4_U+30FC 1
  6
AI-Linetype-1
 62
   154
420
    23468
370
    25
  0
POLYLINE
  5
4A
330
1F
100
AcDbEntity
  8
_U+30EC_U+30A4_U+30E4_U+30FC 1
370
     0
100
AcDb2dPolyline
 66
     1
 10
0.0
 20
0.0
 30
0.0
  0
VERTEX
  5
4B
330
4A
100
AcDbEntity
  8
_U+30EC_U+30A4_U+30E4_U+30FC 1
370
     0
100
AcDbVertex
100
AcDb2dVertex
 10
84.34743548509836
 20
-144.4876922246206
 30
0.0
  0
VERTEX
  5
4C
330
4A
100
AcDbEntity
  8
_U+30EC_U+30A4_U+30E4_U+30FC 1
370
     0
100
AcDbVertex
100
AcDb2dVertex
 10
96.3457556589651
 20
-144.4876922246206
 30
0.0
  0
VERTEX
  5
4D
330
4A
100
AcDbEntity
  8
_U+30EC_U+30A4_U+30E4_U+30FC 1
370
     0
100
AcDbVertex
100
AcDb2dVertex
 10
96.3457556589651
 20
-155.9882499304854
 30
0.0
  0
VERTEX
  5
4E
330
4A
100
AcDbEntity
  8
_U+30EC_U+30A4_U+30E4_U+30FC 1
370
     0
100
AcDbVertex
100
AcDb2dVertex
 10
106.345242198213
 20
-155.9882499304854
 30
0.0
  0
VERTEX
  5
4F
330
4A
100
AcDbEntity
  8
_U+30EC_U+30A4_U+30E4_U+30FC 1
370
     0
100
AcDbVertex
100
AcDb2dVertex
 10
106.345242198213
 20
-152.9882284841596
 30
0.0
  0
VERTEX
  5
50
330
4A
100
AcDbEntity
  8
_U+30EC_U+30A4_U+30E4_U+30FC 1
370
     0
100
AcDbVertex
100
AcDb2dVertex
 10
105.3454647224704
 20
-152.9882284841596
 30
0.0
  0
VERTEX
  5
51
330
4A
100
AcDbEntity
  8
_U+30EC_U+30A4_U+30E4_U+30FC 1
370
     0
100
AcDbVertex
100
AcDb2dVertex
 10
105.3454647224704
 20
-154.988127945194
 30
0.0
  0
VERTEX
  5
52
330
4A
100
AcDbEntity
  8
_U+30EC_U+30A4_U+30E4_U+30FC 1
370
     0
100
AcDbVertex
100
AcDb2dVertex
 10
97.24568996117578
 20
-154.988127945194
 30
0.0
  0
VERTEX
  5
53
330
4A
100
AcDbEntity
  8
_U+30EC_U+30A4_U+30E4_U+30FC 1
370
     0
100
AcDbVertex
100
AcDb2dVertex
 10
97.24568996117578
 20
-144.4876922246206
 30
0.0
  0
VERTEX
  5
54
330
4A
100
AcDbEntity
  8
_U+30EC_U+30A4_U+30E4_U+30FC 1
370
     0
100
AcDbVertex
100
AcDb2dVertex
 10
121.2673933785644
 20
-144.4876922246206
 30
0.0
  0
VERTEX
  5
55
330
4A
100
AcDbEntity
  8
_U+30EC_U+30A4_U+30E4_U+30FC 1
370
     0
100
AcDbVertex
100
AcDb2dVertex
 10
121.3114906007756
 20
-143.4879255148011
 30
0.0
  0
VERTEX
  5
56
330
4A
100
AcDbEntity
  8
_U+30EC_U+30A4_U+30E4_U+30FC 1
370
     0
100
AcDbVertex
100
AcDb2dVertex
 10
84.34743548509836
 20
-143.4879255148011
 30
0.0
  0
VERTEX
  5
57
330
4A
100
AcDbEntity
  8
_U+30EC_U+30A4_U+30E4_U+30FC 1
370
     0
100
AcDbVertex
100
AcDb2dVertex
 10
84.34743548509836
 20
-144.4876922246206
 30
0.0
  0
SEQEND
  5
59
330
4A
100
AcDbEntity
  8
_U+30EC_U+30A4_U+30E4_U+30FC 1
370
     0
  0
HATCH
  5
58
330
1F
100
AcDbEntity
  8
_U+30EC_U+30A4_U+30E4_U+30FC 1
 62
     9
420
 13224394
100
AcDbHatch
 10
0.0
 20
0.0
 30
0.0
210
0.0
220
0.0
230
1.0
  2
SOLID
 70
     1
 71
     0
 91
        1
 92
        1
 93
       12
 72
     1
 10
84.34743548509836
 20
-144.4876922246206
 11
96.3457556589651
 21
-144.4876922246206
 72
     1
 10
96.3457556589651
 20
-144.4876922246206
 11
96.3457556589651
 21
-155.9882499304854
 72
     1
 10
96.3457556589651
 20
-155.9882499304854
 11
106.345242198213
 21
-155.9882499304854
 72
     1
 10
106.345242198213
 20
-155.9882499304854
 11
106.345242198213
 21
-152.9882284841596
 72
     1
 10
106.345242198213
 20
-152.9882284841596
 11
105.3454647224704
 21
-152.9882284841596
 72
     1
 10
105.3454647224704
 20
-152.9882284841596
 11
105.3454647224704
 21
-154.988127945194
 72
     1
 10
105.3454647224704
 20
-154.988127945194
 11
97.24568996117578
 21
-154.988127945194
 72
     1
 10
97.24568996117578
 20
-154.988127945194
 11
97.24568996117578
 21
-144.4876922246206
 72
     1
 10
97.24568996117578
 20
-144.4876922246206
 11
121.2673933785644
 21
-144.4876922246206
 72
     1
 10
121.2673933785644
 20
-144.4876922246206
 11
121.3114906007756
 21
-143.4879255148011
 72
     1
 10
121.3114906007756
 20
-143.4879255148011
 11
84.34743548509836
 21
-143.4879255148011
 72
     1
 10
84.34743548509836
 20
-143.4879255148011
 11
84.34743548509836
 21
-144.4876922246206
 97
        0
 75
     2
 76
     1
 98
        0
  0
POLYLINE
  5
5A
330
1F
100
AcDbEntity
  8
_U+30EC_U+30A4_U+30E4_U+30FC 1
 62
   179
420
  2234388
370
    25
100
AcDb2dPolyline
 66
     1
 10
0.0
 20
0.0
 30
0.0
  0
VERTEX
  5
5B
330
5A
100
AcDbEntity
  8
_U+30EC_U+30A4_U+30E4_U+30FC 1
 62
   179
420
  2234388
370
    25
100
AcDbVertex
100
AcDb2dVertex
 10
96.34569106342443
 20
-155.988185334945
 30
0.0
  0
VERTEX
  5
5C
330
5A
100
AcDbEntity
  8
_U+30EC_U+30A4_U+30E4_U+30FC 1
 62
   179
420
  2234388
370
    25
100
AcDbVertex
100
AcDb2dVertex
 10
106.3455221122211
 20
-155.988185334945
 30
0.0
  0
SEQEND
  5
5D
330
5A
100
AcDbEntity
  8
_U+30EC_U+30A4_U+30E4_U+30FC 1
 62
   179
420
  2234388
370
    25
  0
POLYLINE
  5
5E
330
1F
100
AcDbEntity
  8
_U+30EC_U+30A4_U+30E4_U+30FC 1
 62
   179
420
  2234388
370
    25
100
AcDb2dPolyline
 66
     1
 10
0.0
 20
0.0
 30
0.0
  0
VERTEX
  5
5F
330
5E
100
AcDbEntity
  8
_U+30EC_U+30A4_U+30E4_U+30FC 1
 62
   179
420
  2234388
370
    25
100
AcDbVertex
100
AcDb2dVertex
 10
84.34743548509836
 20
-143.4879901103411
 30
0.0
  0
VERTEX
  5
60
330
5E
100
AcDbEntity
  8
_U+30EC_U+30A4_U+30E4_U+30FC 1
 62
   179
420
  2234388
370
    25
100
AcDbVertex
100
AcDb2dVertex
 10
121.3446496448212
 20
-143.4879901103411
 30
0.0
  0
SEQEND
  5
61
330
5E
100
AcDbEntity
  8
_U+30EC_U+30A4_U+30E4_U+30FC 1
 62
   179
420
  2234388
370
    25
  0
POLYLINE
  5
62
330
1F
100
AcDbEntity
  8
_U+30EC_U+30A4_U+30E4_U+30FC 1
 62
   179
420
  2234388
370
    25
100
AcDb2dPolyline
 66
     1
 10
0.0
 20
0.0
 30
0.0
  0
VERTEX
  5
63
330
62
100
AcDbEntity
  8
_U+30EC_U+30A4_U+30E4_U+30FC 1
 62
   179
420
  2234388
370
    25
100
AcDbVertex
100
AcDb2dVertex
 10
105.3456585090911
 20
-152.9881961863895
 30
0.0
  0
VERTEX
  5
64
330
62
100
AcDbEntity
  8
_U+30EC_U+30A4_U+30E4_U+30FC 1
 62
   179
420
  2234388
370
    25
100
AcDbVertex
100
AcDb2dVertex
 10
106.3454252189106
 20
-152.9881961863895
 30
0.0
  0
SEQEND
  5
65
330
62
100
AcDbEntity
  8
_U+30EC_U+30A4_U+30E4_U+30FC 1
 62
   179
420
  2234388
370
    25
  0
POLYLINE
  5
66
330
1F
100
AcDbEntity
  8
_U+30EC_U+30A4_U+30E4_U+30FC 1
 62
   179
420
  2234388
370
    25
100
AcDb2dPolyline
 66
     1
 10
0.0
 20
0.0
 30
0.0
  0
VERTEX
  5
67
330
66
100
AcDbEntity
  8
_U+30EC_U+30A4_U+30E4_U+30FC 1
 62
   179
420
  2234388
370
    25
100
AcDbVertex
100
AcDb2dVertex
 10
106.3454252189106
 20
-155.988185334945
 30
0.0
  0
VERTEX
  5
68
330
66
100
AcDbEntity
  8
_U+30EC_U+30A4_U+30E4_U+30FC 1
 62
   179
420
  2234388
370
    25
100
AcDbVertex
100
AcDb2dVertex
 10
106.3454252189106
 20
-152.9881638886193
 30
0.0
  0
SEQEND
  5
69
330
66
100
AcDbEntity
  8
_U+30EC_U+30A4_U+30E4_U+30FC 1
 62
   179
420
  2234388
370
    25
  0
POLYLINE
  5
6A
330
1F
100
AcDbEntity
  8
_U+30EC_U+30A4_U+30E4_U+30FC 1
 62
   179
420
  2234388
370
    25
100
AcDb2dPolyline
 66
     1
 10
0.0
 20
0.0
 30
0.0
  0
VERTEX
  5
6B
330
6A
100
AcDbEntity
  8
_U+30EC_U+30A4_U+30E4_U+30FC 1
 62
   179
420
  2234388
370
    25
100
AcDbVertex
100
AcDb2dVertex
 10
84.34743548509836
 20
-144.4876922246206
 30
0.0
  0
VERTEX
  5
6C
330
6A
100
AcDbEntity
  8
_U+30EC_U+30A4_U+30E4_U+30FC 1
 62
   179
420
  2234388
370
    25
100
AcDbVertex
100
AcDb2dVertex
 10
84.34743548509836
 20
-143.4879255148011
 30
0.0
  0
SEQEND
  5
6D
330
6A
100
AcDbEntity
  8
_U+30EC_U+30A4_U+30E4_U+30FC 1
 62
   179
420
  2234388
370
    25
  0
POLYLINE
  5
6E
330
1F
100
AcDbEntity
  8
_U+30EC_U+30A4_U+30E4_U+30FC 1
 62
   179
420
  2234388
370
    25
100
AcDb2dPolyline
 66
     1
 10
0.0
 20
0.0
 30
0.0
  0
VERTEX
  5
6F
330
6E
100
AcDbEntity
  8
_U+30EC_U+30A4_U+30E4_U+30FC 1
 62
   179
420
  2234388
370
    25
100
AcDbVertex
100
AcDb2dVertex
 10
84.34743548509836
 20
-144.4876922246206
 30
0.0
  0
VERTEX
  5
70
330
6E
100
AcDbEntity
  8
_U+30EC_U+30A4_U+30E4_U+30FC 1
 62
   179
420
  2234388
370
    25
100
AcDbVertex
100
AcDb2dVertex
 10
96.3457556589651
 20
-144.4876922246206
 30
0.0
  0
SEQEND
  5
71
330
6E
100
AcDbEntity
  8
_U+30EC_U+30A4_U+30E4_U+30FC 1
 62
   179
420
  2234388
370
    25
  0
POLYLINE
  5
72
330
1F
100
AcDbEntity
  8
_U+30EC_U+30A4_U+30E4_U+30FC 1
 62
   179
420
  2234388
370
    25
100
AcDb2dPolyline
 66
     1
 10
0.0
 20
0.0
 30
0.0
  0
VERTEX
  5
73
330
72
100
AcDbEntity
  8
_U+30EC_U+30A4_U+30E4_U+30FC 1
 62
   179
420
  2234388
370
    25
100
AcDbVertex
100
AcDb2dVertex
 10
105.3456585090911
 20
-154.9880525837302
 30
0.0
  0
VERTEX
  5
74
330
72
100
AcDbEntity
  8
_U+30EC_U+30A4_U+30E4_U+30FC 1
 62
   179
420
  2234388
370
    25
100
AcDbVertex
100
AcDb2dVertex
 10
105.3456585090911
 20
-152.9881638886193
 30
0.0
  0
SEQEND
  5
75
330
72
100
AcDbEntity
  8
_U+30EC_U+30A4_U+30E4_U+30FC 1
 62
   179
420
  2234388
370
    25
  0
POLYLINE
  5
76
330
1F
100
AcDbEntity
  8
_U+30EC_U+30A4_U+30E4_U+30FC 1
 62
   179
420
  2234388
370
    25
100
AcDb2dPolyline
 66
     1
 10
0.0
 20
0.0
 30
0.0
  0
VERTEX
  5
77
330
76
100
AcDbEntity
  8
_U+30EC_U+30A4_U+30E4_U+30FC 1
 62
   179
420
  2234388
370
    25
100
AcDbVertex
100
AcDb2dVertex
 10
97.24551770640151
 20
-154.9880525837302
 30
0.0
  0
VERTEX
  5
78
330
76
100
AcDbEntity
  8
_U+30EC_U+30A4_U+30E4_U+30FC 1
 62
   179
420
  2234388
370
    25
100
AcDbVertex
100
AcDb2dVertex
 10
105.3456477431677
 20
-154.9880525837302
 30
0.0
  0
SEQEND
  5
79
330
76
100
AcDbEntity
  8
_U+30EC_U+30A4_U+30E4_U+30FC 1
 62
   179
420
  2234388
370
    25
  0
POLYLINE
  5
7A
330
1F
100
AcDbEntity
  8
_U+30EC_U+30A4_U+30E4_U+30FC 1
 62
   179
420
  2234388
370
    25
100
AcDb2dPolyline
 66
     1
 10
0.0
 20
0.0
 30
0.0
  0
VERTEX
  5
7B
330
7A
100
AcDbEntity
  8
_U+30EC_U+30A4_U+30E4_U+30FC 1
 62
   179
420
  2234388
370
    25
100
AcDbVertex
100
AcDb2dVertex
 10
96.34569106342443
 20
-155.988185334945
 30
0.0
  0
VERTEX
  5
7C
330
7A
100
AcDbEntity
  8
_U+30EC_U+30A4_U+30E4_U+30FC 1
 62
   179
420
  2234388
370
    25
100
AcDbVertex
100
AcDb2dVertex
 10
96.34569106342443
 20
-144.4876383950033
 30
0.0
  0
SEQEND
  5
7D
330
7A
100
AcDbEntity
  8
_U+30EC_U+30A4_U+30E4_U+30FC 1
 62
   179
420
  2234388
370
    25
  0
POLYLINE
  5
7E
330
1F
100
AcDbEntity
  8
_U+30EC_U+30A4_U+30E4_U+30FC 1
 62
   179
420
  2234388
370
    25
100
AcDb2dPolyline
 66
     1
 10
0.0
 20
0.0
 30
0.0
  0
VERTEX
  5
7F
330
7E
100
AcDbEntity
  8
_U+30EC_U+30A4_U+30E4_U+30FC 1
 62
   179
420
  2234388
370
    25
100
AcDbVertex
100
AcDb2dVertex
 10
97.24551770640151
 20
-154.9880525837302
 30
0.0
  0
VERTEX
  5
80
330
7E
100
AcDbEntity
  8
_U+30EC_U+30A4_U+30E4_U+30FC 1
 62
   179
420
  2234388
370
    25
100
AcDbVertex
100
AcDb2dVertex
 10
97.24551770640151
 20
-144.4876276290799
 30
0.0
  0
SEQEND
  5
81
330
7E
100
AcDbEntity
  8
_U+30EC_U+30A4_U+30E4_U+30FC 1
 62
   179
420
  2234388
370
    25
  0
POLYLINE
  5
82
330
1F
100
AcDbEntity
  8
_U+30EC_U+30A4_U+30E4_U+30FC 1
 62
   179
420
  2234388
370
    25
100
AcDb2dPolyline
 66
     1
 10
0.0
 20
0.0
 30
0.0
  0
VERTEX
  5
83
330
82
100
AcDbEntity
  8
_U+30EC_U+30A4_U+30E4_U+30FC 1
 62
   179
420
  2234388
370
    25
100
AcDbVertex
100
AcDb2dVertex
 10
121.3288129715124
 20
-144.4876922246206
 30
0.0
  0
VERTEX
  5
84
330
82
100
AcDbEntity
  8
_U+30EC_U+30A4_U+30E4_U+30FC 1
 62
   179
420
  2234388
370
    25
100
AcDbVertex
100
AcDb2dVertex
 10
121.3288129715124
 20
-143.4879255148011
 30
0.0
  0
SEQEND
  5
85
330
82
100
AcDbEntity
  8
_U+30EC_U+30A4_U+30E4_U+30FC 1
 62
   179
420
  2234388
370
    25
  0
POLYLINE
  5
86
330
1F
100
AcDbEntity
  8
_U+30EC_U+30A4_U+30E4_U+30FC 1
 62
   179
420
  2234388
370
    25
100
AcDb2dPolyline
 66
     1
 10
0.0
 20
0.0
 30
0.0
  0
VERTEX
  5
87
330
86
100
AcDbEntity
  8
_U+30EC_U+30A4_U+30E4_U+30FC 1
 62
   179
420
  2234388
370
    25
100
AcDbVertex
100
AcDb2dVertex
 10
97.24551770640151
 20
-144.4876922246206
 30
0.0
  0
VERTEX
  5
88
330
86
100
AcDbEntity
  8
_U+30EC_U+30A4_U+30E4_U+30FC 1
 62
   179
420
  2234388
370
    25
100
AcDbVertex
100
AcDb2dVertex
 10
121.3448218995954
 20
-144.4876922246206
 30
0.0
  0
SEQEND
  5
89
330
86
100
AcDbEntity
  8
_U+30EC_U+30A4_U+30E4_U+30FC 1
 62
   179
420
  2234388
370
    25
  0
SPLINE
  5
8A
330
1F
100
AcDbEntity
  8
_U+30EC_U+30A4_U+30E4_U+30FC 1
 62
   179
420
  2234388
370
     9
100
AcDbSpline
210
0.0
220
0.0
230
1.0
 70
    11
 71
     3
 72
    17
 73
    13
 74
     0
 42
0.0000000001
 43
0.0000000001
 12
1.0
 22
0.0
 32
0.0
 13
1.0
 23
0.0
 33
0.0
 40
0.0
 40
0.0
 40
0.0
 40
0.0
 40
1.0
 40
1.0
 40
1.0
 40
2.0
 40
2.0
 40
2.0
 40
3.0
 40
3.0
 40
3.0
 40
4.0
 40
4.0
 40
4.0
 40
4.0
 10
96.44559883249667
 20
-159.9878658318563
 30
0.0
 10
96.44559883249667
 20
-159.9328411974029
 30
0.0
 10
96.40079105934197
 20
-159.8880334242478
 30
0.0
 10
96.3457556589651
 20
-159.8880334242478
 30
0.0
 10
96.29072025858824
 20
-159.8880334242478
 30
0.0
 10
96.24592325135627
 20
-159.9328411974029
 30
0.0
 10
96.24592325135627
 20
-159.9878658318563
 30
0.0
 10
96.24592325135627
 20
-160.0429012322332
 30
0.0
 10
96.29072025858824
 20
-160.0877090053882
 30
0.0
 10
96.3457556589651
 20
-160.0877090053882
 30
0.0
 10
96.40079105934197
 20
-160.0877090053882
 30
0.0
 10
96.44559883249667
 20
-160.0429012322332
 30
0.0
 10
96.44559883249667
 20
-159.9878658318563
 30
0.0
  0
SPLINE
  5
8B
330
1F
100
AcDbEntity
  8
_U+30EC_U+30A4_U+30E4_U+30FC 1
 62
   179
420
  2234388
370
     9
100
AcDbSpline
210
0.0
220
0.0
230
1.0
 70
    11
 71
     3
 72
    17
 73
    13
 74
     0
 42
0.0000000001
 43
0.0000000001
 12
1.0
 22
0.0
 32
0.0
 13
1.0
 23
0.0
 33
0.0
 40
0.0
 40
0.0
 40
0.0
 40
0.0
 40
1.0
 40
1.0
 40
1.0
 40
2.0
 40
2.0
 40
2.0
 40
3.0
 40
3.0
 40
3.0
 40
4.0
 40
4.0
 40
4.0
 40
4.0
 10
106.4460004752331
 20
-159.9878658318563
 30
0.0
 10
106.4460004752331
 20
-159.9328411974029
 30
0.0
 10
106.4011927020781
 20
-159.8880334242478
 30
0.0
 10
106.3454575166808
 20
-159.8880334242478
 30
0.0
 10
106.2904221163039
 20
-159.8880334242478
 30
0.0
 10
106.2456143431489
 20
-159.9328411974029
 30
0.0
 10
106.2456143431489
 20
-159.9878658318563
 30
0.0
 10
106.2456143431489
 20
-160.0429012322332
 30
0.0
 10
106.2904221163039
 20
-160.0877090053882
 30
0.0
 10
106.3454575166808
 20
-160.0877090053882
 30
0.0
 10
106.4011927020781
 20
-160.0877090053882
 30
0.0
 10
106.4460004752331
 20
-160.0429012322332
 30
0.0
 10
106.4460004752331
 20
-159.9878658318563
 30
0.0
  0
SPLINE
  5
8C
330
1F
100
AcDbEntity
  8
_U+30EC_U+30A4_U+30E4_U+30FC 1
 62
   179
420
  2234388
370
     9
100
AcDbSpline
210
0.0
220
0.0
230
1.0
 70
    11
 71
     3
 72
    17
 73
    13
 74
     0
 42
0.0000000001
 43
0.0000000001
 12
1.0
 22
0.0
 32
0.0
 13
1.0
 23
0.0
 33
0.0
 40
0.0
 40
0.0
 40
0.0
 40
0.0
 40
1.0
 40
1.0
 40
1.0
 40
2.0
 40
2.0
 40
2.0
 40
3.0
 40
3.0
 40
3.0
 40
4.0
 40
4.0
 40
4.0
 40
4.0
 10
125.6448393613568
 20
-155.988185334945
 30
0.0
 10
125.6448393613568
 20
-155.9328054250196
 30
0.0
 10
125.6000315882018
 20
-155.8879976518646
 30
0.0
 10
125.5449961878249
 20
-155.8879976518646
 30
0.0
 10
125.489960787448
 20
-155.8879976518646
 30
0.0
 10
125.4451637802164
 20
-155.9328054250196
 30
0.0
 10
125.4451637802164
 20
-155.988185334945
 30
0.0
 10
125.4451637802164
 20
-156.0432207353219
 30
0.0
 10
125.489960787448
 20
-156.0880285084769
 30
0.0
 10
125.5449961878249
 20
-156.0880285084769
 30
0.0
 10
125.6000315882018
 20
-156.0880285084769
 30
0.0
 10
125.6448393613568
 20
-156.0432207353219
 30
0.0
 10
125.6448393613568
 20
-155.988185334945
 30
0.0
  0
SPLINE
  5
8D
330
1F
100
AcDbEntity
  8
_U+30EC_U+30A4_U+30E4_U+30FC 1
 62
   179
420
  2234388
370
     9
100
AcDbSpline
210
0.0
220
0.0
230
1.0
 70
    11
 71
     3
 72
    17
 73
    13
 74
     0
 42
0.0000000001
 43
0.0000000001
 12
1.0
 22
0.0
 32
0.0
 13
1.0
 23
0.0
 33
0.0
 40
0.0
 40
0.0
 40
0.0
 40
0.0
 40
1.0
 40
1.0
 40
1.0
 40
2.0
 40
2.0
 40
2.0
 40
3.0
 40
3.0
 40
3.0
 40
4.0
 40
4.0
 40
4.0
 40
4.0
 10
125.6448393613568
 20
-152.9881961863895
 30
0.0
 10
125.6448393613568
 20
-152.9328162764641
 30
0.0
 10
125.6000315882018
 20
-152.888008503309
 30
0.0
 10
125.5449961878249
 20
-152.888008503309
 30
0.0
 10
125.489960787448
 20
-152.888008503309
 30
0.0
 10
125.4451637802164
 20
-152.9328162764641
 30
0.0
 10
125.4451637802164
 20
-152.9881961863895
 30
0.0
 10
125.4451637802164
 20
-153.0432315867663
 30
0.0
 10
125.489960787448
 20
-153.0880393599214
 30
0.0
 10
125.5449961878249
 20
-153.0880393599214
 30
0.0
 10
125.6000315882018
 20
-153.0880393599214
 30
0.0
 10
125.6448393613568
 20
-153.0432315867663
 30
0.0
 10
125.6448393613568
 20
-152.9881961863895
 30
0.0
  0
SPLINE
  5
8E
330
1F
100
AcDbEntity
  8
_U+30EC_U+30A4_U+30E4_U+30FC 1
 62
   179
420
  2234388
370
     9
100
AcDbSpline
210
0.0
220
0.0
230
1.0
 70
    11
 71
     3
 72
    17
 73
    13
 74
     0
 42
0.0000000001
 43
0.0000000001
 12
1.0
 22
0.0
 32
0.0
 13
1.0
 23
0.0
 33
0.0
 40
0.0
 40
0.0
 40
0.0
 40
0.0
 40
1.0
 40
1.0
 40
1.0
 40
2.0
 40
2.0
 40
2.0
 40
3.0
 40
3.0
 40
3.0
 40
4.0
 40
4.0
 40
4.0
 40
4.0
 10
125.6448393613568
 20
-143.4879901103411
 30
0.0
 10
125.6448393613568
 20
-143.4329654758876
 30
0.0
 10
125.6000315882018
 20
-143.3881577027326
 30
0.0
 10
125.5449961878249
 20
-143.3881577027326
 30
0.0
 10
125.489960787448
 20
-143.3881577027326
 30
0.0
 10
125.4451637802164
 20
-143.4329654758876
 30
0.0
 10
125.4451637802164
 20
-143.4879901103411
 30
0.0
 10
125.4451637802164
 20
-143.543025510718
 30
0.0
 10
125.489960787448
 20
-143.5878332838733
 30
0.0
 10
125.5449961878249
 20
-143.5878332838733
 30
0.0
 10
125.6000315882018
 20
-143.5878332838733
 30
0.0
 10
125.6448393613568
 20
-143.543025510718
 30
0.0
 10
125.6448393613568
 20
-143.4879901103411
 30
0.0
  0
SPLINE
  5
8F
330
1F
100
AcDbEntity
  8
_U+30EC_U+30A4_U+30E4_U+30FC 1
 62
   179
420
  2234388
370
     9
100
AcDbSpline
210
0.0
220
0.0
230
1.0
 70
    11
 71
     3
 72
    17
 73
    13
 74
     0
 42
0.0000000001
 43
0.0000000001
 12
1.0
 22
0.0
 32
0.0
 13
1.0
 23
0.0
 33
0.0
 40
0.0
 40
0.0
 40
0.0
 40
0.0
 40
1.0
 40
1.0
 40
1.0
 40
2.0
 40
2.0
 40
2.0
 40
3.0
 40
3.0
 40
3.0
 40
4.0
 40
4.0
 40
4.0
 40
4.0
 10
121.4287207405847
 20
-139.4892570146882
 30
0.0
 10
121.4287207405847
 20
-139.4342323802348
 30
0.0
 10
121.3839129674296
 20
-139.3894246070797
 30
0.0
 10
121.3288775670528
 20
-139.3894246070797
 30
0.0
 10
121.2738421666759
 20
-139.3894246070797
 30
0.0
 10
121.2290451594443
 20
-139.4342323802348
 30
0.0
 10
121.2290451594443
 20
-139.4892570146882
 30
0.0
 10
121.2290451594443
 20
-139.544647690537
 30
0.0
 10
121.2738421666759
 20
-139.5894554636924
 30
0.0
 10
121.3288775670528
 20
-139.5894554636924
 30
0.0
 10
121.3839129674296
 20
-139.5894554636924
 30
0.0
 10
121.4287207405847
 20
-139.544647690537
 30
0.0
 10
121.4287207405847
 20
-139.4892570146882
 30
0.0
  0
SPLINE
  5
90
330
1F
100
AcDbEntity
  8
_U+30EC_U+30A4_U+30E4_U+30FC 1
 62
   179
420
  2234388
370
     9
100
AcDbSpline
210
0.0
220
0.0
230
1.0
 70
    11
 71
     3
 72
    17
 73
    13
 74
     0
 42
0.0000000001
 43
0.0000000001
 12
1.0
 22
0.0
 32
0.0
 13
1.0
 23
0.0
 33
0.0
 40
0.0
 40
0.0
 40
0.0
 40
0.0
 40
1.0
 40
1.0
 40
1.0
 40
2.0
 40
2.0
 40
2.0
 40
3.0
 40
3.0
 40
3.0
 40
4.0
 40
4.0
 40
4.0
 40
4.0
 10
125.6448393613568
 20
-144.4876922246206
 30
0.0
 10
125.6448393613568
 20
-144.4326675901668
 30
0.0
 10
125.6000315882018
 20
-144.3878598170118
 30
0.0
 10
125.5449961878249
 20
-144.3878598170118
 30
0.0
 10
125.489960787448
 20
-144.3878598170118
 30
0.0
 10
125.4451637802164
 20
-144.4326675901668
 30
0.0
 10
125.4451637802164
 20
-144.4876922246206
 30
0.0
 10
125.4451637802164
 20
-144.543082900469
 30
0.0
 10
125.489960787448
 20
-144.5878906736241
 30
0.0
 10
125.5449961878249
 20
-144.5878906736241
 30
0.0
 10
125.6000315882018
 20
-144.5878906736241
 30
0.0
 10
125.6448393613568
 20
-144.543082900469
 30
0.0
 10
125.6448393613568
 20
-144.4876922246206
 30
0.0
  0
SPLINE
  5
91
330
1F
100
AcDbEntity
  8
_U+30EC_U+30A4_U+30E4_U+30FC 1
 62
   179
420
  2234388
370
     9
100
AcDbSpline
210
0.0
220
0.0
230
1.0
 70
    11
 71
     3
 72
    17
 73
    13
 74
     0
 42
0.0000000001
 43
0.0000000001
 12
1.0
 22
0.0
 32
0.0
 13
1.0
 23
0.0
 33
0.0
 40
0.0
 40
0.0
 40
0.0
 40
0.0
 40
1.0
 40
1.0
 40
1.0
 40
2.0
 40
2.0
 40
2.0
 40
3.0
 40
3.0
 40
3.0
 40
4.0
 40
4.0
 40
4.0
 40
4.0
 10
84.40324603195941
 20
-159.9878658318563
 30
0.0
 10
84.40324603195941
 20
-159.9328411974029
 30
0.0
 10
84.35843825880406
 20
-159.8880334242478
 30
0.0
 10
84.30340285842719
 20
-159.8880334242478
 30
0.0
 10
84.24836745805032
 20
-159.8880334242478
 30
0.0
 10
84.20357045081869
 20
-159.9328411974029
 30
0.0
 10
84.20357045081869
 20
-159.9878658318563
 30
0.0
 10
84.20357045081869
 20
-160.0429012322332
 30
0.0
 10
84.24836745805032
 20
-160.0877090053882
 30
0.0
 10
84.30340285842719
 20
-160.0877090053882
 30
0.0
 10
84.35843825880406
 20
-160.0877090053882
 30
0.0
 10
84.40324603195941
 20
-160.0429012322332
 30
0.0
 10
84.40324603195941
 20
-159.9878658318563
 30
0.0
  0
SPLINE
  5
92
330
1F
100
AcDbEntity
  8
_U+30EC_U+30A4_U+30E4_U+30FC 1
 62
   179
420
  2234388
370
     9
100
AcDbSpline
210
0.0
220
0.0
230
1.0
 70
    11
 71
     3
 72
    17
 73
    13
 74
     0
 42
0.0000000001
 43
0.0000000001
 12
1.0
 22
0.0
 32
0.0
 13
1.0
 23
0.0
 33
0.0
 40
0.0
 40
0.0
 40
0.0
 40
0.0
 40
1.0
 40
1.0
 40
1.0
 40
2.0
 40
2.0
 40
2.0
 40
3.0
 40
3.0
 40
3.0
 40
4.0
 40
4.0
 40
4.0
 40
4.0
 10
84.4473432541706
 20
-139.4892570146882
 30
0.0
 10
84.4473432541706
 20
-139.4342323802348
 30
0.0
 10
84.40253548101525
 20
-139.3894246070797
 30
0.0
 10
84.34750008063838
 20
-139.3894246070797
 30
0.0
 10
84.29246468026152
 20
-139.3894246070797
 30
0.0
 10
84.24766767302988
 20
-139.4342323802348
 30
0.0
 10
84.24766767302988
 20
-139.4892570146882
 30
0.0
 10
84.24766767302988
 20
-139.544647690537
 30
0.0
 10
84.29246468026152
 20
-139.5894554636924
 30
0.0
 10
84.34750008063838
 20
-139.5894554636924
 30
0.0
 10
84.40253548101525
 20
-139.5894554636924
 30
0.0
 10
84.4473432541706
 20
-139.544647690537
 30
0.0
 10
84.4473432541706
 20
-139.4892570146882
 30
0.0
  0
POLYLINE
  5
93
330
1F
100
AcDbEntity
  8
_U+30EC_U+30A4_U+30E4_U+30FC 1
 62
   179
420
  2234388
370
     9
100
AcDb2dPolyline
 66
     1
 10
0.0
 20
0.0
 30
0.0
  0
VERTEX
  5
94
330
93
100
AcDbEntity
  8
_U+30EC_U+30A4_U+30E4_U+30FC 1
 62
   179
420
  2234388
370
     9
100
AcDbVertex
100
AcDb2dVertex
 10
125.5449315922846
 20
-143.4879901103411
 30
0.0
  0
VERTEX
  5
95
330
93
100
AcDbEntity
  8
_U+30EC_U+30A4_U+30E4_U+30FC 1
 62
   179
420
  2234388
370
     9
100
AcDbVertex
100
AcDb2dVertex
 10
125.5449315922846
 20
-139.7189156924737
 30
0.0
  0
SEQEND
  5
96
330
93
100
AcDbEntity
  8
_U+30EC_U+30A4_U+30E4_U+30FC 1
 62
   179
420
  2234388
370
     9
  0
POLYLINE
  5
97
330
1F
100
AcDbEntity
  8
_U+30EC_U+30A4_U+30E4_U+30FC 1
 62
   179
420
  2234388
370
     9
100
AcDb2dPolyline
 66
     1
 10
0.0
 20
0.0
 30
0.0
  0
VERTEX
  5
98
330
97
100
AcDbEntity
  8
_U+30EC_U+30A4_U+30E4_U+30FC 1
 62
   179
420
  2234388
370
     9
100
AcDbVertex
100
AcDb2dVertex
 10
125.5449315922846
 20
-143.4879901103411
 30
0.0
  0
VERTEX
  5
99
330
97
100
AcDbEntity
  8
_U+30EC_U+30A4_U+30E4_U+30FC 1
 62
   179
420
  2234388
370
     9
100
AcDbVertex
100
AcDb2dVertex
 10
125.5449315922846
 20
-144.487767586084
 30
0.0
  0
SEQEND
  5
9A
330
97
100
AcDbEntity
  8
_U+30EC_U+30A4_U+30E4_U+30FC 1
 62
   179
420
  2234388
370
     9
  0
POLYLINE
  5
9B
330
1F
100
AcDbEntity
  8
_U+30EC_U+30A4_U+30E4_U+30FC 1
 62
   179
420
  2234388
370
     9
100
AcDb2dPolyline
 66
     1
 10
0.0
 20
0.0
 30
0.0
  0
VERTEX
  5
9C
330
9B
100
AcDbEntity
  8
_U+30EC_U+30A4_U+30E4_U+30FC 1
 62
   179
420
  2234388
370
     9
100
AcDbVertex
100
AcDb2dVertex
 10
124.0848893597123
 20
-143.4879901103411
 30
0.0
  0
VERTEX
  5
9D
330
9B
100
AcDbEntity
  8
_U+30EC_U+30A4_U+30E4_U+30FC 1
 62
   179
420
  2234388
370
     9
100
AcDbVertex
100
AcDb2dVertex
 10
126.5455057463584
 20
-143.4879901103411
 30
0.0
  0
SEQEND
  5
9E
330
9B
100
AcDbEntity
  8
_U+30EC_U+30A4_U+30E4_U+30FC 1
 62
   179
420
  2234388
370
     9
  0
POLYLINE
  5
9F
330
1F
100
AcDbEntity
  8
_U+30EC_U+30A4_U+30E4_U+30FC 1
 62
   179
420
  2234388
370
     9
100
AcDb2dPolyline
 66
     1
 10
0.0
 20
0.0
 30
0.0
  0
VERTEX
  5
A0
330
9F
100
AcDbEntity
  8
_U+30EC_U+30A4_U+30E4_U+30FC 1
 62
   179
420
  2234388
370
     9
100
AcDbVertex
100
AcDb2dVertex
 10
124.0848893597123
 20
-144.4876922246206
 30
0.0
  0
VERTEX
  5
A1
330
9F
100
AcDbEntity
  8
_U+30EC_U+30A4_U+30E4_U+30FC 1
 62
   179
420
  2234388
370
     9
100
AcDbVertex
100
AcDb2dVertex
 10
126.5455057463584
 20
-144.4876922246206
 30
0.0
  0
SEQEND
  5
A2
330
9F
100
AcDbEntity
  8
_U+30EC_U+30A4_U+30E4_U+30FC 1
 62
   179
420
  2234388
370
     9
  0
INSERT
  5
A4
330
1F
100
AcDbEntity
  8
_U+30EC_U+30A4_U+30E4_U+30FC 1
100
AcDbBlockReference
  2
block 2
 10
0.0
 20
0.0
 30
0.0
  0
POLYLINE
  5
A9
330
1F
100
AcDbEntity
  8
_U+30EC_U+30A4_U+30E4_U+30FC 1
 62
   179
420
  2234388
370
     9
100
AcDb2dPolyline
 66
     1
 10
0.0
 20
0.0
 30
0.0
  0
VERTEX
  5
AA
330
A9
100
AcDbEntity
  8
_U+30EC_U+30A4_U+30E4_U+30FC 1
 62
   179
420
  2234388
370
     9
100
AcDbVertex
100
AcDb2dVertex
 10
96.34569106342443
 20
-159.9878658318563
 30
0.0
  0
VERTEX
  5
AB
330
A9
100
AcDbEntity
  8
_U+30EC_U+30A4_U+30E4_U+30FC 1
 62
   179
420
  2234388
370
     9
100
AcDbVertex
100
AcDb2dVertex
 10
106.3455221122211
 20
-159.9878658318563
 30
0.0
  0
SEQEND
  5
AC
330
A9
100
AcDbEntity
  8
_U+30EC_U+30A4_U+30E4_U+30FC 1
 62
   179
420
  2234388
370
     9
  0
POLYLINE
  5
AD
330
1F
100
AcDbEntity
  8
_U+30EC_U+30A4_U+30E4_U+30FC 1
 62
   179
420
  2234388
370
     9
100
AcDb2dPolyline
 66
     1
 10
0.0
 20
0.0
 30
0.0
  0
VERTEX
  5
AE
330
AD
100
AcDbEntity
  8
_U+30EC_U+30A4_U+30E4_U+30FC 1
 62
   179
420
  2234388
370
     9
100
AcDbVertex
100
AcDb2dVertex
 10
106.3454252189106
 20
-158.5278989607478
 30
0.0
  0
VERTEX
  5
AF
330
AD
100
AcDbEntity
  8
_U+30EC_U+30A4_U+30E4_U+30FC 1
 62
   179
420
  2234388
370
     9
100
AcDbVertex
100
AcDb2dVertex
 10
106.3454252189106
 20
-160.9881816037688
 30
0.0
  0
SEQEND
  5
B0
330
AD
100
AcDbEntity
  8
_U+30EC_U+30A4_U+30E4_U+30FC 1
 62
   179
420
  2234388
370
     9
  0
INSERT
  5
B2
330
1F
100
AcDbEntity
  8
_U+30EC_U+30A4_U+30E4_U+30FC 1
100
AcDbBlockReference
  2
block 3
 10
0.0
 20
0.0
 30
0.0
  0
POLYLINE
  5
BA
330
1F
100
AcDbEntity
  8
_U+30EC_U+30A4_U+30E4_U+30FC 1
 62
   179
420
  2234388
370
     9
100
AcDb2dPolyline
 66
     1
 10
0.0
 20
0.0
 30
0.0
  0
VERTEX
  5
BB
330
BA
100
AcDbEntity
  8
_U+30EC_U+30A4_U+30E4_U+30FC 1
 62
   179
420
  2234388
370
     9
100
AcDbVertex
100
AcDb2dVertex
 10
125.5449315922846
 20
-155.988185334945
 30
0.0
  0
VERTEX
  5
BC
330
BA
100
AcDbEntity
  8
_U+30EC_U+30A4_U+30E4_U+30FC 1
 62
   179
420
  2234388
370
     9
100
AcDbVertex
100
AcDb2dVertex
 10
125.5449315922846
 20
-152.9881638886193
 30
0.0
  0
SEQEND
  5
BD
330
BA
100
AcDbEntity
  8
_U+30EC_U+30A4_U+30E4_U+30FC 1
 62
   179
420
  2234388
370
     9
  0
POLYLINE
  5
BE
330
1F
100
AcDbEntity
  8
_U+30EC_U+30A4_U+30E4_U+30FC 1
 62
   179
420
  2234388
370
     9
100
AcDb2dPolyline
 66
     1
 10
0.0
 20
0.0
 30
0.0
  0
VERTEX
  5
BF
330
BE
100
AcDbEntity
  8
_U+30EC_U+30A4_U+30E4_U+30FC 1
 62
   179
420
  2234388
370
     9
100
AcDbVertex
100
AcDb2dVertex
 10
108.6212337646199
 20
-155.988185334945
 30
0.0
  0
VERTEX
  5
C0
330
BE
100
AcDbEntity
  8
_U+30EC_U+30A4_U+30E4_U+30FC 1
 62
   179
420
  2234388
370
     9
100
AcDbVertex
100
AcDb2dVertex
 10
126.5455165122818
 20
-155.988185334945
 30
0.0
  0
SEQEND
  5
C1
330
BE
100
AcDbEntity
  8
_U+30EC_U+30A4_U+30E4_U+30FC 1
 62
   179
420
  2234388
370
     9
  0
INSERT
  5
C3
330
1F
100
AcDbEntity
  8
_U+30EC_U+30A4_U+30E4_U+30FC 1
100
AcDbBlockReference
  2
block 4
 10
0.0
 20
0.0
 30
0.0
  0
POLYLINE
  5
C8
330
1F
100
AcDbEntity
  8
_U+30EC_U+30A4_U+30E4_U+30FC 1
 62
   179
420
  2234388
370
     9
100
AcDb2dPolyline
 66
     1
 10
0.0
 20
0.0
 30
0.0
  0
VERTEX
  5
C9
330
C8
100
AcDbEntity
  8
_U+30EC_U+30A4_U+30E4_U+30FC 1
 62
   179
420
  2234388
370
     9
100
AcDbVertex
100
AcDb2dVertex
 10
125.5449315922846
 20
-152.9881961863895
 30
0.0
  0
VERTEX
  5
CA
330
C8
100
AcDbEntity
  8
_U+30EC_U+30A4_U+30E4_U+30FC 1
 62
   179
420
  2234388
370
     9
100
AcDbVertex
100
AcDb2dVertex
 10
125.5449315922846
 20
-144.4876706927735
 30
0.0
  0
SEQEND
  5
CB
330
C8
100
AcDbEntity
  8
_U+30EC_U+30A4_U+30E4_U+30FC 1
 62
   179
420
  2234388
370
     9
  0
POLYLINE
  5
CC
330
1F
100
AcDbEntity
  8
_U+30EC_U+30A4_U+30E4_U+30FC 1
 62
   179
420
  2234388
370
     9
100
AcDb2dPolyline
 66
     1
 10
0.0
 20
0.0
 30
0.0
  0
VERTEX
  5
CD
330
CC
100
AcDbEntity
  8
_U+30EC_U+30A4_U+30E4_U+30FC 1
 62
   179
420
  2234388
370
     9
100
AcDbVertex
100
AcDb2dVertex
 10
108.6212337646199
 20
-152.9881961863895
 30
0.0
  0
VERTEX
  5
CE
330
CC
100
AcDbEntity
  8
_U+30EC_U+30A4_U+30E4_U+30FC 1
 62
   179
420
  2234388
370
     9
100
AcDbVertex
100
AcDb2dVertex
 10
126.5455165122818
 20
-152.9881961863895
 30
0.0
  0
SEQEND
  5
CF
330
CC
100
AcDbEntity
  8
_U+30EC_U+30A4_U+30E4_U+30FC 1
 62
   179
420
  2234388
370
     9
  0
INSERT
  5
D1
330
1F
100
AcDbEntity
  8
_U+30EC_U+30A4_U+30E4_U+30FC 1
100
AcDbBlockReference
  2
block 5
 10
0.0
 20
0.0
 30
0.0
  0
POLYLINE
  5
E2
330
1F
100
AcDbEntity
  8
_U+30EC_U+30A4_U+30E4_U+30FC 1
 62
   179
420
  2234388
370
     9
100
AcDb2dPolyline
 66
     1
 10
0.0
 20
0.0
 30
0.0
  0
VERTEX
  5
E3
330
E2
100
AcDbEntity
  8
_U+30EC_U+30A4_U+30E4_U+30FC 1
 62
   179
420
  2234388
370
     9
100
AcDbVertex
100
AcDb2dVertex
 10
84.34743548509836
 20
-139.4892570146882
 30
0.0
  0
VERTEX
  5
E4
330
E2
100
AcDbEntity
  8
_U+30EC_U+30A4_U+30E4_U+30FC 1
 62
   179
420
  2234388
370
     9
100
AcDbVertex
100
AcDb2dVertex
 10
121.3446496448212
 20
-139.4892570146882
 30
0.0
  0
SEQEND
  5
E5
330
E2
100
AcDbEntity
  8
_U+30EC_U+30A4_U+30E4_U+30FC 1
 62
   179
420
  2234388
370
     9
  0
POLYLINE
  5
E6
330
1F
100
AcDbEntity
  8
_U+30EC_U+30A4_U+30E4_U+30FC 1
 62
   179
420
  2234388
370
     9
100
AcDb2dPolyline
 66
     1
 10
0.0
 20
0.0
 30
0.0
  0
VERTEX
  5
E7
330
E6
100
AcDbEntity
  8
_U+30EC_U+30A4_U+30E4_U+30FC 1
 62
   179
420
  2234388
370
     9
100
AcDbVertex
100
AcDb2dVertex
 10
84.34743548509836
 20
-140.9475659335945
 30
0.0
  0
VERTEX
  5
E8
330
E6
100
AcDbEntity
  8
_U+30EC_U+30A4_U+30E4_U+30FC 1
 62
   179
420
  2234388
370
     9
100
AcDbVertex
100
AcDb2dVertex
 10
84.34743548509836
 20
-138.4890596679331
 30
0.0
  0
SEQEND
  5
E9
330
E6
100
AcDbEntity
  8
_U+30EC_U+30A4_U+30E4_U+30FC 1
 62
   179
420
  2234388
370
     9
  0
POLYLINE
  5
EA
330
1F
100
AcDbEntity
  8
_U+30EC_U+30A4_U+30E4_U+30FC 1
 62
   179
420
  2234388
370
     9
100
AcDb2dPolyline
 66
     1
 10
0.0
 20
0.0
 30
0.0
  0
VERTEX
  5
EB
330
EA
100
AcDbEntity
  8
_U+30EC_U+30A4_U+30E4_U+30FC 1
 62
   179
420
  2234388
370
     9
100
AcDbVertex
100
AcDb2dVertex
 10
121.3288129715124
 20
-140.9475659335945
 30
0.0
  0
VERTEX
  5
EC
330
EA
100
AcDbEntity
  8
_U+30EC_U+30A4_U+30E4_U+30FC 1
 62
   179
420
  2234388
370
     9
100
AcDbVertex
100
AcDb2dVertex
 10
121.3288129715124
 20
-138.4890596679331
 30
0.0
  0
SEQEND
  5
ED
330
EA
100
AcDbEntity
  8
_U+30EC_U+30A4_U+30E4_U+30FC 1
 62
   179
420
  2234388
370
     9
  0
INSERT
  5
EF
330
1F
100
AcDbEntity
  8
_U+30EC_U+30A4_U+30E4_U+30FC 1
100
AcDbBlockReference
  2
block 6
 10
0.0
 20
0.0
 30
0.0
  0
POLYLINE
  5
F6
330
1F
100
AcDbEntity
  8
_U+30EC_U+30A4_U+30E4_U+30FC 1
 62
   179
420
  2234388
370
     9
100
AcDb2dPolyline
 66
     1
 10
0.0
 20
0.0
 30
0.0
  0
VERTEX
  5
F7
330
F6
100
AcDbEntity
  8
_U+30EC_U+30A4_U+30E4_U+30FC 1
 62
   179
420
  2234388
370
     9
100
AcDbVertex
100
AcDb2dVertex
 10
84.34743548509836
 20
-159.9878658318563
 30
0.0
  0
VERTEX
  5
F8
330
F6
100
AcDbEntity
  8
_U+30EC_U+30A4_U+30E4_U+30FC 1
 62
   179
420
  2234388
370
     9
100
AcDbVertex
100
AcDb2dVertex
 10
96.3457556589651
 20
-159.9878658318563
 30
0.0
  0
SEQEND
  5
F9
330
F6
100
AcDbEntity
  8
_U+30EC_U+30A4_U+30E4_U+30FC 1
 62
   179
420
  2234388
370
     9
  0
POLYLINE
  5
FA
330
1F
100
AcDbEntity
  8
_U+30EC_U+30A4_U+30E4_U+30FC 1
 62
   179
420
  2234388
370
     9
100
AcDb2dPolyline
 66
     1
 10
0.0
 20
0.0
 30
0.0
  0
VERTEX
  5
FB
330
FA
100
AcDbEntity
  8
_U+30EC_U+30A4_U+30E4_U+30FC 1
 62
   179
420
  2234388
370
     9
100
AcDbVertex
100
AcDb2dVertex
 10
84.30333826288717
 20
-147.0281594650605
 30
0.0
  0
VERTEX
  5
FC
330
FA
100
AcDbEntity
  8
_U+30EC_U+30A4_U+30E4_U+30FC 1
 62
   179
420
  2234388
370
     9
100
AcDbVertex
100
AcDb2dVertex
 10
84.30333826288717
 20
-160.9879339875308
 30
0.0
  0
SEQEND
  5
FD
330
FA
100
AcDbEntity
  8
_U+30EC_U+30A4_U+30E4_U+30FC 1
 62
   179
420
  2234388
370
     9
  0
POLYLINE
  5
FE
330
1F
100
AcDbEntity
  8
_U+30EC_U+30A4_U+30E4_U+30FC 1
 62
   179
420
  2234388
370
     9
100
AcDb2dPolyline
 66
     1
 10
0.0
 20
0.0
 30
0.0
  0
VERTEX
  5
FF
330
FE
100
AcDbEntity
  8
_U+30EC_U+30A4_U+30E4_U+30FC 1
 62
   179
420
  2234388
370
     9
100
AcDbVertex
100
AcDb2dVertex
 10
96.34569106342443
 20
-158.5278989607478
 30
0.0
  0
VERTEX
  5
100
330
FE
100
AcDbEntity
  8
_U+30EC_U+30A4_U+30E4_U+30FC 1
 62
   179
420
  2234388
370
     9
100
AcDbVertex
100
AcDb2dVertex
 10
96.34569106342443
 20
-160.9881816037688
 30
0.0
  0
SEQEND
  5
101
330
FE
100
AcDbEntity
  8
_U+30EC_U+30A4_U+30E4_U+30FC 1
 62
   179
420
  2234388
370
     9
  0
INSERT
  5
103
330
1F
100
AcDbEntity
  8
_U+30EC_U+30A4_U+30E4_U+30FC 1
100
AcDbBlockReference
  2
block 7
 10
0.0
 20
0.0
 30
0.0
  0
ENDSEC
  0
SECTION
  2
OBJECTS
  0
DICTIONARY
  5
C
330
0
100
AcDbDictionary
281
     1
  3
ACAD_GROUP
350
D
  3
ACAD_LAYOUT
350
1A
  3
ACAD_MATERIAL
350
3B
  3
ACAD_MLEADERSTYLE
350
10B
  3
ACAD_MLINESTYLE
350
17
  3
ACAD_PLOTSETTINGS
350
19
  3
ACAD_PLOTSTYLENAME
350
E
  3
ACAD_TABLESTYLE
350
10A
  3
ACAD_VISUALSTYLE
350
2A
  0
SUN
  5
3F
330
29
100
AcDbSun
 90
        1
290
     0
 63
     7
421
 16777215
 40
1.0
291
     1
 91
  2455826
 92
 54000000
292
     0
 70
     2
 71
   256
280
     1
  0
DICTIONARY
  5
D
102
{ACAD_REACTORS
330
C
102
}
330
C
100
AcDbDictionary
281
     1
  0
DICTIONARY
  5
1A
102
{ACAD_REACTORS
330
C
102
}
330
C
100
AcDbDictionary
281
     1
  3
Layout1
350
1E
  3
Layout2
350
26
  3
Model
350
22
  0
DICTIONARY
  5
3B
102
{ACAD_REACTORS
330
C
102
}
330
C
100
AcDbDictionary
281
     1
  3
ByBlock
350
3D
  3
ByLayer
350
3C
  3
Global
350
3E
  0
DICTIONARY
  5
10B
102
{ACAD_REACTORS
330
C
102
}
330
C
100
AcDbDictionary
281
     1
  0
DICTIONARY
  5
17
102
{ACAD_REACTORS
330
C
102
}
330
C
100
AcDbDictionary
281
     1
  3
Standard
350
18
  0
DICTIONARY
  5
19
102
{ACAD_REACTORS
330
C
102
}
330
C
100
AcDbDictionary
281
     1
  0
ACDBDICTIONARYWDFLT
  5
E
102
{ACAD_REACTORS
330
C
102
}
330
C
100
AcDbDictionary
281
     1
  3
Normal
350
F
100
AcDbDictionaryWithDefault
340
F
  0
DICTIONARY
  5
10A
102
{ACAD_REACTORS
330
C
102
}
330
C
100
AcDbDictionary
281
     1
  0
DICTIONARY
  5
2A
102
{ACAD_REACTORS
330
C
102
}
330
C
100
AcDbDictionary
281
     1
  3
2dWireframe
350
2F
  3
3D Hidden
350
31
  3
3dWireframe
350
30
  3
Basic
350
32
  3
Brighten
350
36
  3
ColorChange
350
3A
  3
Conceptual
350
34
  3
Dim
350
35
  3
Facepattern
350
39
  3
Flat
350
2B
  3
FlatWithEdges
350
2C
  3
Gouraud
350
2D
  3
GouraudWithEdges
350
2E
  3
Linepattern
350
38
  3
Realistic
350
33
  3
Thicken
350
37
  0
LAYOUT
  5
1E
102
{ACAD_REACTORS
330
1A
102
}
330
1A
100
AcDbPlotSettings
  1

  2
none_device
  4

  6

 40
0.0
 41
0.0
 42
0.0
 43
0.0
 44
0.0
 45
0.0
 46
0.0
 47
0.0
 48
0.0
 49
0.0
140
0.0
141
0.0
142
1.0
143
1.0
 70
   688
 72
     0
 73
     0
 74
     5
  7

 75
    16
 76
     0
 77
     2
 78
   300
147
1.0
148
0.0
149
0.0
100
AcDbLayout
  1
Layout1
 70
     1
 71
     1
 10
0.0
 20
0.0
 11
12.0
 21
9.0
 12
0.0
 22
0.0
 32
0.0
 14
1.000000000000000E+20
 24
1.000000000000000E+20
 34
1.000000000000000E+20
 15
-1.000000000000000E+20
 25
-1.000000000000000E+20
 35
-1.000000000000000E+20
146
0.0
 13
0.0
 23
0.0
 33
0.0
 16
1.0
 26
0.0
 36
0.0
 17
0.0
 27
1.0
 37
0.0
 76
     0
330
1B
  0
LAYOUT
  5
26
102
{ACAD_REACTORS
330
1A
102
}
330
1A
100
AcDbPlotSettings
  1

  2
none_device
  4

  6

 40
0.0
 41
0.0
 42
0.0
 43
0.0
 44
0.0
 45
0.0
 46
0.0
 47
0.0
 48
0.0
 49
0.0
140
0.0
141
0.0
142
1.0
143
1.0
 70
   688
 72
     0
 73
     0
 74
     5
  7

 75
    16
 76
     0
 77
     2
 78
   300
147
1.0
148
0.0
149
0.0
100
AcDbLayout
  1
Layout2
 70
     1
 71
     2
 10
0.0
 20
0.0
 11
0.0
 21
0.0
 12
0.0
 22
0.0
 32
0.0
 14
0.0
 24
0.0
 34
0.0
 15
0.0
 25
0.0
 35
0.0
146
0.0
 13
0.0
 23
0.0
 33
0.0
 16
1.0
 26
0.0
 36
0.0
 17
0.0
 27
1.0
 37
0.0
 76
     0
330
23
  0
LAYOUT
  5
22
102
{ACAD_REACTORS
330
1A
102
}
330
1A
100
AcDbPlotSettings
  1

  2
none_device
  4

  6

 40
0.0
 41
0.0
 42
0.0
 43
0.0
 44
0.0
 45
0.0
 46
0.0
 47
0.0
 48
0.0
 49
0.0
140
0.0
141
0.0
142
1.0
143
1.0
 70
  1712
 72
     0
 73
     0
 74
     0
  7

 75
     0
 76
     0
 77
     2
 78
   300
147
1.0
148
0.0
149
0.0
100
AcDbLayout
  1
Model
 70
     1
 71
     0
 10
0.0
 20
0.0
 11
12.0
 21
9.0
 12
0.0
 22
0.0
 32
0.0
 14
1.000000000000000E+20
 24
1.000000000000000E+20
 34
1.000000000000000E+20
 15
-1.000000000000000E+20
 25
-1.000000000000000E+20
 35
-1.000000000000000E+20
146
0.0
 13
0.0
 23
0.0
 33
0.0
 16
1.0
 26
0.0
 36
0.0
 17
0.0
 27
1.0
 37
0.0
 76
     0
330
1F
331
29
  0
MATERIAL
  5
3D
102
{ACAD_REACTORS
330
3B
102
}
330
3B
100
AcDbMaterial
  1
ByBlock
 72
     1
 94
      127
  0
MATERIAL
  5
3C
102
{ACAD_REACTORS
330
3B
102
}
330
3B
100
AcDbMaterial
  1
ByLayer
 72
     1
 94
      127
  0
MATERIAL
  5
3E
102
{ACAD_REACTORS
330
3B
102
}
330
3B
100
AcDbMaterial
  1
Global
 72
     1
 94
      127
  0
MLINESTYLE
  5
18
102
{ACAD_REACTORS
330
17
102
}
330
17
100
AcDbMlineStyle
  2
Standard
 70
     0
  3

 62
   256
 51
90.0
 52
90.0
 71
     2
 49
0.5
 62
   256
  6
BYLAYER
 49
-0.5
 62
   256
  6
BYLAYER
  0
ACDBPLACEHOLDER
  5
F
102
{ACAD_REACTORS
330
E
102
}
330
E
  0
VISUALSTYLE
  5
2F
102
{ACAD_REACTORS
330
2A
102
}
330
2A
100
AcDbVisualStyle
  2
2dWireframe
 70
     4
177
     2
291
     0
 71
     0
176
     1
 72
     2
176
     1
 73
     0
176
     1
 90
        0
176
     1
 40
-0.6
176
     1
 41
-30.0
176
     1
 62
     5
 63
     7
421
 16777215
176
     1
 74
     1
176
     1
 91
        4
176
     1
 64
     7
176
     1
 65
   257
176
     1
 75
     1
176
     1
175
     1
176
     1
 42
1.0
176
     1
 92
        0
176
     1
 66
   257
176
     1
 43
1.0
176
     1
 76
     1
176
     1
 77
     6
176
     1
 78
     2
176
     1
 67
     7
176
     1
 79
     5
176
     1
170
     0
176
     1
171
     0
176
     1
290
     0
176
     1
 93
        1
176
     1
 44
0.0
176
     1
173
     0
176
     1
  0
VISUALSTYLE
  5
31
102
{ACAD_REACTORS
330
2A
102
}
330
2A
100
AcDbVisualStyle
  2
3D Hidden
 70
     6
177
     2
291
     0
 71
     1
176
     1
 72
     2
176
     1
 73
     2
176
     1
 90
        0
176
     1
 40
-0.6
176
     1
 41
-30.0
176
     1
 62
     5
 63
     7
421
 16777215
176
     1
 74
     2
176
     1
 91
        2
176
     1
 64
     7
176
     1
 65
   257
176
     1
 75
     2
176
     1
175
     1
176
     1
 42
40.0
176
     1
 92
        0
176
     1
 66
   257
176
     1
 43
1.0
176
     1
 76
     1
176
     1
 77
     6
176
     1
 78
     2
176
     1
 67
     7
176
     1
 79
     3
176
     1
170
     0
176
     1
171
     0
176
     1
290
     0
176
     1
 93
        1
176
     1
 44
0.0
176
     1
173
     0
176
     1
  0
VISUALSTYLE
  5
30
102
{ACAD_REACTORS
330
2A
102
}
330
2A
100
AcDbVisualStyle
  2
3dWireframe
 70
     5
177
     2
291
     0
 71
     0
176
     1
 72
     2
176
     1
 73
     0
176
     1
 90
        0
176
     1
 40
-0.6
176
     1
 41
-30.0
176
     1
 62
     5
 63
     7
421
 16777215
176
     1
 74
     1
176
     1
 91
        4
176
     1
 64
     7
176
     1
 65
   257
176
     1
 75
     1
176
     1
175
     1
176
     1
 42
1.0
176
     1
 92
        0
176
     1
 66
   257
176
     1
 43
1.0
176
     1
 76
     1
176
     1
 77
     6
176
     1
 78
     2
176
     1
 67
     7
176
     1
 79
     5
176
     1
170
     0
176
     1
171
     0
176
     1
290
     0
176
     1
 93
        1
176
     1
 44
0.0
176
     1
173
     0
176
     1
  0
VISUALSTYLE
  5
32
102
{ACAD_REACTORS
330
2A
102
}
330
2A
100
AcDbVisualStyle
  2
Basic
 70
     7
177
     2
291
     1
 71
     1
176
     1
 72
     0
176
     1
 73
     1
176
     1
 90
        0
176
     1
 40
-0.6
176
     1
 41
-30.0
176
     1
 62
     5
 63
     7
421
 16777215
176
     1
 74
     0
176
     1
 91
        4
176
     1
 64
     7
176
     1
 65
   257
176
     1
 75
     1
176
     1
175
     1
176
     1
 42
1.0
176
     1
 92
        8
176
     1
 66
     7
176
     1
 43
1.0
176
     1
 76
     1
176
     1
 77
     6
176
     1
 78
     2
176
     1
 67
     7
176
     1
 79
     5
176
     1
170
     0
176
     1
171
     0
176
     1
290
     0
176
     1
 93
        1
176
     1
 44
0.0
176
     1
173
     0
176
     1
  0
VISUALSTYLE
  5
36
102
{ACAD_REACTORS
330
2A
102
}
330
2A
100
AcDbVisualStyle
  2
Brighten
 70
    12
177
     2
291
     1
 71
     2
176
     1
 72
     2
176
     1
 73
     0
176
     1
 90
        0
176
     1
 40
-0.6
176
     1
 41
-30.0
176
     1
 62
     5
 63
     7
421
 16777215
176
     1
 74
     1
176
     1
 91
        4
176
     1
 64
     7
176
     1
 65
   257
176
     1
 75
     1
176
     1
175
     1
176
     1
 42
1.0
176
     1
 92
        8
176
     1
 66
     7
176
     1
 43
1.0
176
     1
 76
     1
176
     1
 77
     6
176
     1
 78
     2
176
     1
 67
     7
176
     1
 79
     5
176
     1
170
     0
176
     1
171
     0
176
     1
290
     0
176
     1
 93
        1
176
     1
 44
50.0
176
     1
173
     0
176
     1
  0
VISUALSTYLE
  5
3A
102
{ACAD_REACTORS
330
2A
102
}
330
2A
100
AcDbVisualStyle
  2
ColorChange
 70
    16
177
     2
291
     1
 71
     2
176
     1
 72
     2
176
     1
 73
     3
176
     1
 90
        0
176
     1
 40
-0.6
176
     1
 41
-30.0
176
     1
 62
     5
 63
     8
421
  8421504
176
     1
 74
     1
176
     1
 91
        4
176
     1
 64
     7
176
     1
 65
   257
176
     1
 75
     1
176
     1
175
     1
176
     1
 42
1.0
176
     1
 92
        8
176
     1
 66
     8
424
  8421504
176
     1
 43
1.0
176
     1
 76
     1
176
     1
 77
     6
176
     1
 78
     2
176
     1
 67
     7
176
     1
 79
     5
176
     1
170
     0
176
     1
171
     0
176
     1
290
     0
176
     1
 93
        1
176
     1
 44
0.0
176
     1
173
     0
176
     1
  0
VISUALSTYLE
  5
34
102
{ACAD_REACTORS
330
2A
102
}
330
2A
100
AcDbVisualStyle
  2
Conceptual
 70
     9
177
     2
291
     0
 71
     3
176
     1
 72
     2
176
     1
 73
     0
176
     1
 90
        0
176
     1
 40
-0.6
176
     1
 41
-30.0
176
     1
 62
     5
 63
     7
421
 16777215
176
     1
 74
     2
176
     1
 91
        2
176
     1
 64
     7
176
     1
 65
   257
176
     1
 75
     1
176
     1
175
     1
176
     1
 42
40.0
176
     1
 92
        8
176
     1
 66
     7
176
     1
 43
1.0
176
     1
 76
     1
176
     1
 77
     6
176
     1
 78
     2
176
     1
 67
     7
176
     1
 79
     3
176
     1
170
     0
176
     1
171
     0
176
     1
290
     0
176
     1
 93
        1
176
     1
 44
0.0
176
     1
173
     0
176
     1
  0
VISUALSTYLE
  5
35
102
{ACAD_REACTORS
330
2A
102
}
330
2A
100
AcDbVisualStyle
  2
Dim
 70
    11
177
     2
291
     1
 71
     2
176
     1
 72
     2
176
     1
 73
     0
176
     1
 90
        0
176
     1
 40
-0.6
176
     1
 41
-30.0
176
     1
 62
     5
 63
     7
421
 16777215
176
     1
 74
     1
176
     1
 91
        4
176
     1
 64
     7
176
     1
 65
   257
176
     1
 75
     1
176
     1
175
     1
176
     1
 42
1.0
176
     1
 92
        8
176
     1
 66
     7
176
     1
 43
1.0
176
     1
 76
     1
176
     1
 77
     6
176
     1
 78
     2
176
     1
 67
     7
176
     1
 79
     5
176
     1
170
     0
176
     1
171
     0
176
     1
290
     0
176
     1
 93
        1
176
     1
 44
-50.0
176
     1
173
     0
176
     1
  0
VISUALSTYLE
  5
39
102
{ACAD_REACTORS
330
2A
102
}
330
2A
100
AcDbVisualStyle
  2
Facepattern
 70
    15
177
     2
291
     1
 71
     2
176
     1
 72
     2
176
     1
 73
     0
176
     1
 90
        0
176
     1
 40
-0.6
176
     1
 41
-30.0
176
     1
 62
     5
 63
     7
421
 16777215
176
     1
 74
     1
176
     1
 91
        4
176
     1
 64
     7
176
     1
 65
   257
176
     1
 75
     1
176
     1
175
     1
176
     1
 42
1.0
176
     1
 92
        8
176
     1
 66
     7
176
     1
 43
1.0
176
     1
 76
     1
176
     1
 77
     6
176
     1
 78
     2
176
     1
 67
     7
176
     1
 79
     5
176
     1
170
     0
176
     1
171
     0
176
     1
290
     0
176
     1
 93
        1
176
     1
 44
0.0
176
     1
173
     0
176
     1
  0
VISUALSTYLE
  5
2B
102
{ACAD_REACTORS
330
2A
102
}
330
2A
100
AcDbVisualStyle
  2
Flat
 70
     0
177
     2
291
     1
 71
     2
176
     1
 72
     1
176
     1
 73
     1
176
     1
 90
        2
176
     1
 40
-0.6
176
     1
 41
30.0
176
     1
 62
     5
 63
     7
421
 16777215
176
     1
 74
     0
176
     1
 91
        4
176
     1
 64
     7
176
     1
 65
   257
176
     1
 75
     1
176
     1
175
     1
176
     1
 42
1.0
176
     1
 92
        8
176
     1
 66
     7
176
     1
 43
1.0
176
     1
 76
     1
176
     1
 77
     6
176
     1
 78
     2
176
     1
 67
     7
176
     1
 79
     5
176
     1
170
     0
176
     1
171
     0
176
     1
290
     0
176
     1
 93
       13
176
     1
 44
0.0
176
     1
173
     0
176
     1
  0
VISUALSTYLE
  5
2C
102
{ACAD_REACTORS
330
2A
102
}
330
2A
100
AcDbVisualStyle
  2
FlatWithEdges
 70
     1
177
     2
291
     1
 71
     2
176
     1
 72
     1
176
     1
 73
     1
176
     1
 90
        2
176
     1
 40
-0.6
176
     1
 41
30.0
176
     1
 62
     5
 63
     7
421
 16777215
176
     1
 74
     1
176
     1
 91
        4
176
     1
 64
     7
176
     1
 65
   257
176
     1
 75
     1
176
     1
175
     1
176
     1
 42
1.0
176
     1
 92
        0
176
     1
 66
   257
176
     1
 43
1.0
176
     1
 76
     1
176
     1
 77
     6
176
     1
 78
     2
176
     1
 67
     7
176
     1
 79
     5
176
     1
170
     0
176
     1
171
     0
176
     1
290
     0
176
     1
 93
       13
176
     1
 44
0.0
176
     1
173
     0
176
     1
  0
VISUALSTYLE
  5
2D
102
{ACAD_REACTORS
330
2A
102
}
330
2A
100
AcDbVisualStyle
  2
Gouraud
 70
     2
177
     2
291
     1
 71
     2
176
     1
 72
     2
176
     1
 73
     1
176
     1
 90
        2
176
     1
 40
-0.6
176
     1
 41
30.0
176
     1
 62
     5
 63
     7
421
 16777215
176
     1
 74
     0
176
     1
 91
        4
176
     1
 64
     7
176
     1
 65
   257
176
     1
 75
     1
176
     1
175
     1
176
     1
 42
1.0
176
     1
 92
        0
176
     1
 66
     7
176
     1
 43
1.0
176
     1
 76
     1
176
     1
 77
     6
176
     1
 78
     2
176
     1
 67
     7
176
     1
 79
     5
176
     1
170
     0
176
     1
171
     0
176
     1
290
     0
176
     1
 93
       13
176
     1
 44
0.0
176
     1
173
     0
176
     1
  0
VISUALSTYLE
  5
2E
102
{ACAD_REACTORS
330
2A
102
}
330
2A
100
AcDbVisualStyle
  2
GouraudWithEdges
 70
     3
177
     2
291
     1
 71
     2
176
     1
 72
     2
176
     1
 73
     1
176
     1
 90
        2
176
     1
 40
-0.6
176
     1
 41
30.0
176
     1
 62
     5
 63
     7
421
 16777215
176
     1
 74
     1
176
     1
 91
        4
176
     1
 64
     7
176
     1
 65
   257
176
     1
 75
     1
176
     1
175
     1
176
     1
 42
1.0
176
     1
 92
        0
176
     1
 66
   257
176
     1
 43
1.0
176
     1
 76
     1
176
     1
 77
     6
176
     1
 78
     2
176
     1
 67
     7
176
     1
 79
     5
176
     1
170
     0
176
     1
171
     0
176
     1
290
     0
176
     1
 93
       13
176
     1
 44
0.0
176
     1
173
     0
176
     1
  0
VISUALSTYLE
  5
38
102
{ACAD_REACTORS
330
2A
102
}
330
2A
100
AcDbVisualStyle
  2
Linepattern
 70
    14
177
     2
291
     1
 71
     2
176
     1
 72
     2
176
     1
 73
     0
176
     1
 90
        0
176
     1
 40
-0.6
176
     1
 41
-30.0
176
     1
 62
     5
 63
     7
421
 16777215
176
     1
 74
     1
176
     1
 91
        4
176
     1
 64
     7
176
     1
 65
   257
176
     1
 75
     7
176
     1
175
     7
176
     1
 42
1.0
176
     1
 92
        8
176
     1
 66
     7
176
     1
 43
1.0
176
     1
 76
     1
176
     1
 77
     6
176
     1
 78
     2
176
     1
 67
     7
176
     1
 79
     5
176
     1
170
     0
176
     1
171
     0
176
     1
290
     0
176
     1
 93
        1
176
     1
 44
0.0
176
     1
173
     0
176
     1
  0
VISUALSTYLE
  5
33
102
{ACAD_REACTORS
330
2A
102
}
330
2A
100
AcDbVisualStyle
  2
Realistic
 70
     8
177
     2
291
     0
 71
     2
176
     1
 72
     2
176
     1
 73
     0
176
     1
 90
        0
176
     1
 40
-0.6
176
     1
 41
-30.0
176
     1
 62
     5
 63
     7
421
 16777215
176
     1
 74
     1
176
     1
 91
        0
176
     1
 64
     7
176
     1
 65
   257
176
     1
 75
     1
176
     1
175
     1
176
     1
 42
1.0
176
     1
 92
        8
176
     1
 66
     8
424
  7895160
176
     1
 43
1.0
176
     1
 76
     1
176
     1
 77
     6
176
     1
 78
     2
176
     1
 67
     7
176
     1
 79
     5
176
     1
170
     0
176
     1
171
     0
176
     1
290
     0
176
     1
 93
       13
176
     1
 44
0.0
176
     1
173
     0
176
     1
  0
VISUALSTYLE
  5
37
102
{ACAD_REACTORS
330
2A
102
}
330
2A
100
AcDbVisualStyle
  2
Thicken
 70
    13
177
     2
291
     1
 71
     2
176
     1
 72
     2
176
     1
 73
     0
176
     1
 90
        0
176
     1
 40
-0.6
176
     1
 41
-30.0
176
     1
 62
     5
 63
     7
421
 16777215
176
     1
 74
     1
176
     1
 91
        4
176
     1
 64
     7
176
     1
 65
   257
176
     1
 75
     1
176
     1
175
     1
176
     1
 42
1.0
176
     1
 92
       12
176
     1
 66
     7
176
     1
 43
1.0
176
     1
 76
     1
176
     1
 77
     6
176
     1
 78
     2
176
     1
 67
     7
176
     1
 79
     5
176
     1
170
     0
176
     1
171
     0
176
     1
290
     0
176
     1
 93
        1
176
     1
 44
0.0
176
     1
173
     0
176
     1
  0
ENDSEC
  0
EOF
