  0
SECTION
  2
HEADER
  9
$ACADVER
  1
AC1024
  9
$ACADMAINTVER
 70
     6
  9
$DWGCODEPAGE
  3
UNDEFINED
  9
$INSBASE
 10
0.0
 20
0.0
 30
0.0
  9
$EXTMIN
 10
1.000000000000000E+20
 20
1.000000000000000E+20
 30
1.000000000000000E+20
  9
$EXTMAX
 10
-1.000000000000000E+20
 20
-1.000000000000000E+20
 30
-1.000000000000000E+20
  9
$LIMMIN
 10
0.0
 20
0.0
  9
$LIMMAX
 10
12.0
 20
9.0
  9
$ORTHOMODE
 70
     0
  9
$REGENMODE
 70
     1
  9
$FILLMODE
 70
     1
  9
$QTEXTMODE
 70
     0
  9
$MIRRTEXT
 70
     1
  9
$LTSCALE
 40
1.0
  9
$ATTMODE
 70
     1
  9
$TEXTSIZE
 40
0.2
  9
$TRACEWID
 40
0.05
  9
$TEXTSTYLE
  7
Standard
  9
$CLAYER
  8
0
  9
$CELTYPE
  6
ByLayer
  9
$CECOLOR
 62
   256
  9
$CELTSCALE
 40
1.0
  9
$DISPSILH
 70
     0
  9
$DIMSCALE
 40
1.0
  9
$DIMASZ
 40
0.18
  9
$DIMEXO
 40
0.0625
  9
$DIMDLI
 40
0.38
  9
$DIMRND
 40
0.0
  9
$DIMDLE
 40
0.0
  9
$DIMEXE
 40
0.18
  9
$DIMTP
 40
0.0
  9
$DIMTM
 40
0.0
  9
$DIMTXT
 40
0.18
  9
$DIMCEN
 40
0.09
  9
$DIMTSZ
 40
0.0
  9
$DIMTOL
 70
     0
  9
$DIMLIM
 70
     0
  9
$DIMTIH
 70
     1
  9
$DIMTOH
 70
     1
  9
$DIMSE1
 70
     0
  9
$DIMSE2
 70
     0
  9
$DIMTAD
 70
     0
  9
$DIMZIN
 70
     0
  9
$DIMBLK
  1

  9
$DIMASO
 70
     1
  9
$DIMSHO
 70
     1
  9
$DIMPOST
  1

  9
$DIMAPOST
  1

  9
$DIMALT
 70
     0
  9
$DIMALTD
 70
     2
  9
$DIMALTF
 40
25.4
  9
$DIMLFAC
 40
1.0
  9
$DIMTOFL
 70
     0
  9
$DIMTVP
 40
0.0
  9
$DIMTIX
 70
     0
  9
$DIMSOXD
 70
     0
  9
$DIMSAH
 70
     0
  9
$DIMBLK1
  1

  9
$DIMBLK2
  1

  9
$DIMSTYLE
  2
Standard
  9
$DIMCLRD
 70
     0
  9
$DIMCLRE
 70
     0
  9
$DIMCLRT
 70
     0
  9
$DIMTFAC
 40
1.0
  9
$DIMGAP
 40
0.09
  9
$DIMJUST
 70
     0
  9
$DIMSD1
 70
     0
  9
$DIMSD2
 70
     0
  9
$DIMTOLJ
 70
     1
  9
$DIMTZIN
 70
     0
  9
$DIMALTZ
 70
     0
  9
$DIMALTTZ
 70
     0
  9
$DIMUPT
 70
     0
  9
$DIMDEC
 70
     4
  9
$DIMTDEC
 70
     4
  9
$DIMALTU
 70
     2
  9
$DIMALTTD
 70
     2
  9
$DIMTXSTY
  7
Standard
  9
$DIMAUNIT
 70
     0
  9
$DIMADEC
 70
     0
  9
$DIMALTRND
 40
0.0
  9
$DIMAZIN
 70
     0
  9
$DIMDSEP
 70
    46
  9
$DIMATFIT
 70
     3
  9
$DIMFRAC
 70
     0
  9
$DIMLDRBLK
  1

  9
$DIMLUNIT
 70
     2
  9
$DIMLWD
 70
    -2
  9
$DIMLWE
 70
    -2
  9
$DIMTMOVE
 70
     0
  9
$DIMFXL
 40
1.0
  9
$DIMFXLON
 70
     0
  9
$DIMJOGANG
 40
0.7853981633974483
  9
$DIMTFILL
 70
     0
  9
$DIMTFILLCLR
 70
     0
  9
$DIMARCSYM
 70
     0
  9
$DIMLTYPE
  6

  9
$DIMLTEX1
  6

  9
$DIMLTEX2
  6

  9
$DIMTXTDIRECTION
 70
     0
  9
$LUNITS
 70
     2
  9
$LUPREC
 70
     4
  9
$SKETCHINC
 40
0.1
  9
$FILLETRAD
 40
0.5
  9
$AUNITS
 70
     0
  9
$AUPREC
 70
     0
  9
$MENU
  1
.
  9
$ELEVATION
 40
0.0
  9
$PELEVATION
 40
0.0
  9
$THICKNESS
 40
0.0
  9
$LIMCHECK
 70
     0
  9
$CHAMFERA
 40
0.5
  9
$CHAMFERB
 40
0.5
  9
$CHAMFERC
 40
1.0
  9
$CHAMFERD
 40
0.0
  9
$SKPOLY
 70
     0
  9
$TDCREATE
 40
2457917.617233797
  9
$TDUCREATE
 40
2457917.242233797
  9
$TDUPDATE
 40
2457917.617245371
  9
$TDUUPDATE
 40
2457917.242245371
  9
$TDINDWG
 40
0.0000000116
  9
$TDUSRTIMER
 40
0.0000000116
  9
$USRTIMER
 70
     1
  9
$ANGBASE
 50
0.0
  9
$ANGDIR
 70
     0
  9
$PDMODE
 70
     0
  9
$PDSIZE
 40
0.0
  9
$PLINEWID
 40
0.0
  9
$SPLFRAME
 70
     0
  9
$SPLINETYPE
 70
     6
  9
$SPLINESEGS
 70
     8
  9
$HANDSEED
  5
10A
  9
$SURFTAB1
 70
     6
  9
$SURFTAB2
 70
     6
  9
$SURFTYPE
 70
     6
  9
$SURFU
 70
     6
  9
$SURFV
 70
     6
  9
$UCSBASE
  2

  9
$UCSNAME
  2

  9
$UCSORG
 10
0.0
 20
0.0
 30
0.0
  9
$UCSXDIR
 10
1.0
 20
0.0
 30
0.0
  9
$UCSYDIR
 10
0.0
 20
1.0
 30
0.0
  9
$UCSORTHOREF
  2

  9
$UCSORTHOVIEW
 70
     0
  9
$UCSORGTOP
 10
0.0
 20
0.0
 30
0.0
  9
$UCSORGBOTTOM
 10
0.0
 20
0.0
 30
0.0
  9
$UCSORGLEFT
 10
0.0
 20
0.0
 30
0.0
  9
$UCSORGRIGHT
 10
0.0
 20
0.0
 30
0.0
  9
$UCSORGFRONT
 10
0.0
 20
0.0
 30
0.0
  9
$UCSORGBACK
 10
0.0
 20
0.0
 30
0.0
  9
$PUCSBASE
  2

  9
$PUCSNAME
  2

  9
$PUCSORG
 10
0.0
 20
0.0
 30
0.0
  9
$PUCSXDIR
 10
1.0
 20
0.0
 30
0.0
  9
$PUCSYDIR
 10
0.0
 20
1.0
 30
0.0
  9
$PUCSORTHOREF
  2

  9
$PUCSORTHOVIEW
 70
     0
  9
$PUCSORGTOP
 10
0.0
 20
0.0
 30
0.0
  9
$PUCSORGBOTTOM
 10
0.0
 20
0.0
 30
0.0
  9
$PUCSORGLEFT
 10
0.0
 20
0.0
 30
0.0
  9
$PUCSORGRIGHT
 10
0.0
 20
0.0
 30
0.0
  9
$PUCSORGFRONT
 10
0.0
 20
0.0
 30
0.0
  9
$PUCSORGBACK
 10
0.0
 20
0.0
 30
0.0
  9
$USERI1
 70
     0
  9
$USERI2
 70
     0
  9
$USERI3
 70
     0
  9
$USERI4
 70
     0
  9
$USERI5
 70
     0
  9
$USERR1
 40
0.0
  9
$USERR2
 40
0.0
  9
$USERR3
 40
0.0
  9
$USERR4
 40
0.0
  9
$USERR5
 40
0.0
  9
$WORLDVIEW
 70
     1
  9
$SHADEDGE
 70
     3
  9
$SHADEDIF
 70
    70
  9
$TILEMODE
 70
     1
  9
$MAXACTVP
 70
    64
  9
$PINSBASE
 10
0.0
 20
0.0
 30
0.0
  9
$PLIMCHECK
 70
     0
  9
$PEXTMIN
 10
1.000000000000000E+20
 20
1.000000000000000E+20
 30
1.000000000000000E+20
  9
$PEXTMAX
 10
-1.000000000000000E+20
 20
-1.000000000000000E+20
 30
-1.000000000000000E+20
  9
$PLIMMIN
 10
0.0
 20
0.0
  9
$PLIMMAX
 10
12.0
 20
9.0
  9
$UNITMODE
 70
     0
  9
$VISRETAIN
 70
     1
  9
$PLINEGEN
 70
     0
  9
$PSLTSCALE
 70
     1
  9
$TREEDEPTH
 70
  3020
  9
$CMLSTYLE
  2
Standard
  9
$CMLJUST
 70
     0
  9
$CMLSCALE
 40
1.0
  9
$PROXYGRAPHICS
 70
     1
  9
$MEASUREMENT
 70
     0
  9
$CELWEIGHT
370
    -1
  9
$ENDCAPS
280
     0
  9
$JOINSTYLE
280
     0
  9
$LWDISPLAY
290
     1
  9
$INSUNITS
 70
     1
  9
$HYPERLINKBASE
  1

  9
$STYLESHEET
  1

  9
$XEDIT
290
     1
  9
$CEPSNTYPE
380
     0
  9
$PSTYLEMODE
290
     1
  9
$FINGERPRINTGUID
  2
{6C29DD2B-B72F-5ECF-F3F0-976668839EA8}
  9
$VERSIONGUID
  2
{FAEB1C32-E019-11D5-929B-00C0DF256EC4}
  9
$EXTNAMES
290
     1
  9
$PSVPSCALE
 40
0.0
  9
$OLESTARTUP
290
     0
  9
$SORTENTS
280
   127
  9
$INDEXCTL
280
     0
  9
$HIDETEXT
280
     1
  9
$XCLIPFRAME
280
     2
  9
$HALOGAP
280
     0
  9
$OBSCOLOR
 70
   257
  9
$OBSLTYPE
280
     0
  9
$INTERSECTIONDISPLAY
280
     0
  9
$INTERSECTIONCOLOR
 70
   257
  9
$DIMASSOC
280
     2
  9
$PROJECTNAME
  1

  9
$CAMERADISPLAY
290
     0
  9
$LENSLENGTH
 40
50.0
  9
$CAMERAHEIGHT
 40
0.0
  9
$STEPSPERSEC
 40
2.0
  9
$STEPSIZE
 40
6.0
  9
$3DDWFPREC
 40
2.0
  9
$PSOLWIDTH
 40
0.25
  9
$PSOLHEIGHT
 40
4.0
  9
$LOFTANG1
 40
1.570796326794897
  9
$LOFTANG2
 40
1.570796326794897
  9
$LOFTMAG1
 40
0.0
  9
$LOFTMAG2
 40
0.0
  9
$LOFTPARAM
 70
     7
  9
$LOFTNORMALS
280
     1
  9
$LATITUDE
 40
37.795
  9
$LONGITUDE
 40
-122.394
  9
$NORTHDIRECTION
 40
0.0
  9
$TIMEZONE
 70
 -8000
  9
$LIGHTGLYPHDISPLAY
280
     1
  9
$TILEMODELIGHTSYNCH
280
     1
  9
$CMATERIAL
347
3C
  9
$SOLIDHIST
280
     1
  9
$SHOWHIST
280
     1
  9
$DWFFRAME
280
     2
  9
$DGNFRAME
280
     2
  9
$REALWORLDSCALE
290
     1
  9
$INTERFERECOLOR
 62
   256
  9
$CSHADOW
280
     0
  9
$SHADOWPLANELOCATION
 40
0.0
  0
ENDSEC
  0
SECTION
  2
CLASSES
  0
CLASS
  1
ACDBDICTIONARYWDFLT
  2
AcDbDictionaryWithDefault
  3
ObjectDBX Classes
 90
        0
 91
        4
280
     0
281
     0
  0
CLASS
  1
VISUALSTYLE
  2
AcDbVisualStyle
  3
ObjectDBX Classes
 90
     4095
 91
        4
280
     0
281
     0
  0
CLASS
  1
MATERIAL
  2
AcDbMaterial
  3
ObjectDBX Classes
 90
     1153
 91
        4
280
     0
281
     0
  0
CLASS
  1
SUN
  2
AcDbSun
  3
SCENEOE
 90
     1024
 91
        4
280
     0
281
     0
  0
ENDSEC
  0
SECTION
  2
TABLES
  0
TABLE
  2
VPORT
  5
8
330
0
100
AcDbSymbolTable
 70
     1
  0
VPORT
  5
29
330
8
100
AcDbSymbolTableRecord
100
AcDbViewportTableRecord
  2
*Active
 70
     0
 10
0.0
 20
0.0
 11
1.0
 21
1.0
 12
0.0
 22
0.0
 13
0.0
 23
0.0
 14
0.5
 24
0.5
 15
0.5
 25
0.5
 16
0.0
 26
0.0
 36
1.0
 17
91.00082462281999
 27
-128.4993055234307
 37
0.0
 40
256.9986110468615
 41
0.7081814508812795
 42
50.0
 43
0.0
 44
0.0
 50
0.0
 51
0.0
 71
     0
 72
   100
 73
     1
 74
     3
 75
     0
 76
     0
 77
     0
 78
     0
281
     0
 65
     1
110
0.0
120
0.0
130
0.0
111
1.0
121
0.0
131
0.0
112
0.0
122
1.0
132
0.0
 79
     0
146
0.0
 60
     3
 61
     5
292
     1
282
     1
141
0.0
142
0.0
 63
   250
361
3F
  0
ENDTAB
  0
TABLE
  2
LTYPE
  5
5
330
0
100
AcDbSymbolTable
 70
     1
  0
LTYPE
  5
14
330
5
100
AcDbSymbolTableRecord
100
AcDbLinetypeTableRecord
  2
ByBlock
 70
     0
  3

 72
    65
 73
     0
 40
0.0
  0
LTYPE
  5
15
330
5
100
AcDbSymbolTableRecord
100
AcDbLinetypeTableRecord
  2
ByLayer
 70
     0
  3

 72
    65
 73
     0
 40
0.0
  0
LTYPE
  5
16
330
5
100
AcDbSymbolTableRecord
100
AcDbLinetypeTableRecord
  2
Continuous
 70
     0
  3
Solid line
 72
    65
 73
     0
 40
0.0
  0
ENDTAB
  0
TABLE
  2
LAYER
  5
2
330
0
100
AcDbSymbolTable
 70
     2
  0
LAYER
  5
10
330
2
100
AcDbSymbolTableRecord
100
AcDbLayerTableRecord
  2
0
 70
     0
 62
     7
  6
Continuous
370
    -3
390
F
347
3E
  0
LAYER
  5
40
330
2
100
AcDbSymbolTableRecord
100
AcDbLayerTableRecord
  2
_U+30EC_U+30A4_U+30E4_U+30FC 1
 70
     0
 62
     7
  6
Continuous
370
    -3
390
F
347
3E
  0
ENDTAB
  0
TABLE
  2
STYLE
  5
3
330
0
100
AcDbSymbolTable
 70
     1
  0
STYLE
  5
11
330
3
100
AcDbSymbolTableRecord
100
AcDbTextStyleTableRecord
  2
Standard
 70
     0
 40
0.0
 41
1.0
 50
0.0
 71
     0
 42
0.2
  3
txt
  4

  0
ENDTAB
  0
TABLE
  2
VIEW
  5
6
330
0
100
AcDbSymbolTable
 70
     0
  0
ENDTAB
  0
TABLE
  2
UCS
  5
7
330
0
100
AcDbSymbolTable
 70
     0
  0
ENDTAB
  0
TABLE
  2
APPID
  5
9
330
0
100
AcDbSymbolTable
 70
     1
  0
APPID
  5
12
330
9
100
AcDbSymbolTableRecord
100
AcDbRegAppTableRecord
  2
ACAD
 70
     0
  0
ENDTAB
  0
TABLE
  2
DIMSTYLE
  5
A
330
0
100
AcDbSymbolTable
 70
     1
100
AcDbDimStyleTable
  0
DIMSTYLE
105
27
330
A
100
AcDbSymbolTableRecord
100
AcDbDimStyleTableRecord
  2
Standard
 70
     0
178
     0
340
11
  0
ENDTAB
  0
TABLE
  2
BLOCK_RECORD
  5
1
330
0
100
AcDbSymbolTable
 70
     7
  0
BLOCK_RECORD
  5
1F
330
1
100
AcDbSymbolTableRecord
100
AcDbBlockTableRecord
  2
*Model_Space
340
22
 70
     0
280
     1
281
     0
  0
BLOCK_RECORD
  5
1B
330
1
100
AcDbSymbolTableRecord
100
AcDbBlockTableRecord
  2
*Paper_Space
340
1E
 70
     0
280
     1
281
     0
  0
BLOCK_RECORD
  5
23
330
1
100
AcDbSymbolTableRecord
100
AcDbBlockTableRecord
  2
*Paper_Space0
340
26
 70
     0
280
     1
281
     0
  0
BLOCK_RECORD
  5
41
330
1
100
AcDbSymbolTableRecord
100
AcDbBlockTableRecord
  2
block 2
340
0
102
{BLKREFS
331
42
102
}
 70
     0
280
     1
281
     0
  0
BLOCK_RECORD
  5
A1
330
1
100
AcDbSymbolTableRecord
100
AcDbBlockTableRecord
  2
block 3
340
0
102
{BLKREFS
331
A2
102
}
 70
     0
280
     1
281
     0
  0
BLOCK_RECORD
  5
AF
330
1
100
AcDbSymbolTableRecord
100
AcDbBlockTableRecord
  2
block 4
340
0
102
{BLKREFS
331
B0
102
}
 70
     0
280
     1
281
     0
  0
BLOCK_RECORD
  5
C1
330
1
100
AcDbSymbolTableRecord
100
AcDbBlockTableRecord
  2
block 5
340
0
102
{BLKREFS
331
C2
102
}
 70
     0
280
     1
281
     0
  0
BLOCK_RECORD
  5
DE
330
1
100
AcDbSymbolTableRecord
100
AcDbBlockTableRecord
  2
block 6
340
0
102
{BLKREFS
331
DF
102
}
 70
     0
280
     1
281
     0
  0
BLOCK_RECORD
  5
F0
330
1
100
AcDbSymbolTableRecord
100
AcDbBlockTableRecord
  2
block 7
340
0
102
{BLKREFS
331
F1
102
}
 70
     0
280
     1
281
     0
  0
ENDTAB
  0
ENDSEC
  0
SECTION
  2
BLOCKS
  0
BLOCK
  5
20
330
1F
100
AcDbEntity
  8
0
100
AcDbBlockBegin
  2
*Model_Space
 70
     0
 10
0.0
 20
0.0
 30
0.0
  3
*Model_Space
  1

  0
ENDBLK
  5
21
330
1F
100
AcDbEntity
  8
0
100
AcDbBlockEnd
  0
BLOCK
  5
1C
330
1B
100
AcDbEntity
 67
     1
  8
0
100
AcDbBlockBegin
  2
*Paper_Space
 70
     0
 10
0.0
 20
0.0
 30
0.0
  3
*Paper_Space
  1

  0
ENDBLK
  5
1D
330
1B
100
AcDbEntity
 67
     1
  8
0
100
AcDbBlockEnd
  0
BLOCK
  5
24
330
23
100
AcDbEntity
  8
0
100
AcDbBlockBegin
  2
*Paper_Space0
 70
     0
 10
0.0
 20
0.0
 30
0.0
  3
*Paper_Space0
  1

  0
ENDBLK
  5
25
330
23
100
AcDbEntity
  8
0
100
AcDbBlockEnd
  0
BLOCK
  5
43
330
41
100
AcDbEntity
  8
0
100
AcDbBlockBegin
  2
block 2
 70
     0
 10
0.0
 20
0.0
 30
0.0
  3
block 2
  1

  0
SPLINE
  5
45
330
41
100
AcDbEntity
  8
_U+30EC_U+30A4_U+30E4_U+30FC 1
370
     0
100
AcDbSpline
210
0.0
220
0.0
230
1.0
 70
    11
 71
     3
 72
    32
 73
    28
 74
     0
 42
0.0000000001
 43
0.0000000001
 12
1.0
 22
0.0
 32
0.0
 13
1.0
 23
0.0
 33
0.0
 40
0.0
 40
0.0
 40
0.0
 40
0.0
 40
1.0
 40
1.0
 40
1.0
 40
2.0
 40
2.0
 40
2.0
 40
3.0
 40
3.0
 40
3.0
 40
4.0
 40
4.0
 40
4.0
 40
5.0
 40
5.0
 40
5.0
 40
6.0
 40
6.0
 40
6.0
 40
7.0
 40
7.0
 40
7.0
 40
8.0
 40
8.0
 40
8.0
 40
9.0
 40
9.0
 40
9.0
 40
9.0
 10
87.6058498587409
 20
-141.3185058240454
 30
0.0
 10
87.05411781677815
 20
-141.3185058240454
 30
0.0
 10
87.0451605685165
 20
-140.7641899604687
 30
0.0
 10
87.0451605685165
 20
-140.5505940403832
 30
0.0
 10
87.0451605685165
 20
-140.32011715242
 30
0.0
 10
87.06548663187947
 20
-139.6727837107415
 30
0.0
 10
87.64650198546686
 20
-139.6727837107415
 30
0.0
 10
87.83202037734756
 20
-139.6727837107415
 30
0.0
 10
88.09419214377506
 20
-139.7423746395436
 30
0.0
 10
88.13484427050102
 20
-140.0744818443217
 30
0.0
 10
88.13484427050102
 20
-140.0744818443217
 30
0.0
 10
87.90660669460321
 20
-140.0744818443217
 30
0.0
 10
87.90660669460321
 20
-140.0744818443217
 30
0.0
 10
87.89523787950189
 20
-140.017637768815
 30
0.0
 10
87.86130368897217
 20
-139.8694986629493
 30
0.0
 10
87.64426267340144
 20
-139.8694986629493
 30
0.0
 10
87.33230927721206
 20
-139.8694986629493
 30
0.0
 10
87.2894178384207
 20
-140.1974717531451
 30
0.0
 10
87.27580971125397
 20
-140.4024549345174
 30
0.0
 10
87.37520071600342
 20
-140.3242512670023
 30
0.0
 10
87.44754772119367
 20
-140.264995624656
 30
0.0
 10
87.64202336133603
 20
-140.264995624656
 30
0.0
 10
87.83425968941296
 20
-140.264995624656
 30
0.0
 10
88.15758190070366
 20
-140.3728271133443
 30
0.0
 10
88.15758190070366
 20
-140.7790038710553
 30
0.0
 10
88.15758190070366
 20
-141.0987087320864
 30
0.0
 10
87.94501950926374
 20
-141.3185058240454
 30
0.0
 10
87.6058498587409
 20
-141.3185058240454
 30
0.0
  0
SPLINE
  5
46
330
41
100
AcDbEntity
  8
_U+30EC_U+30A4_U+30E4_U+30FC 1
370
     0
100
AcDbSpline
210
0.0
220
0.0
230
1.0
 70
    11
 71
     3
 72
    17
 73
    13
 74
     0
 42
0.0000000001
 43
0.0000000001
 12
1.0
 22
0.0
 32
0.0
 13
1.0
 23
0.0
 33
0.0
 40
0.0
 40
0.0
 40
0.0
 40
0.0
 40
1.0
 40
1.0
 40
1.0
 40
2.0
 40
2.0
 40
2.0
 40
3.0
 40
3.0
 40
3.0
 40
4.0
 40
4.0
 40
4.0
 40
4.0
 10
87.62393661003847
 20
-140.4596435195726
 30
0.0
 10
87.34350583753913
 20
-140.4596435195726
 30
0.0
 10
87.30285371081318
 20
-140.6711723823669
 30
0.0
 10
87.30285371081318
 20
-140.7876166097684
 30
0.0
 10
87.30285371081318
 20
-140.9633164795161
 30
0.0
 10
87.40465628240231
 20
-141.1259249864199
 30
0.0
 10
87.60137123461008
 20
-141.1259249864199
 30
0.0
 10
87.73021780575843
 20
-141.1259249864199
 30
0.0
 10
87.91780325493028
 20
-141.0666693440736
 30
0.0
 10
87.91780325493028
 20
-140.7810709283464
 30
0.0
 10
87.91780325493028
 20
-140.5571397218052
 30
0.0
 10
87.76863062041896
 20
-140.4596435195726
 30
0.0
 10
87.62393661003847
 20
-140.4596435195726
 30
0.0
  0
HATCH
  5
47
330
41
100
AcDbEntity
  8
_U+30EC_U+30A4_U+30E4_U+30FC 1
 62
   179
420
  2234388
100
AcDbHatch
 10
0.0
 20
0.0
 30
0.0
210
0.0
220
0.0
230
1.0
  2
SOLID
 70
     1
 71
     0
 91
        2
 92
        1
 93
        1
 72
     4
 94
        3
 73
     0
 74
     1
 95
       32
 96
       28
 40
0.0
 40
0.0
 40
0.0
 40
0.0
 40
1.0
 40
1.0
 40
1.0
 40
2.0
 40
2.0
 40
2.0
 40
3.0
 40
3.0
 40
3.0
 40
4.0
 40
4.0
 40
4.0
 40
5.0
 40
5.0
 40
5.0
 40
6.0
 40
6.0
 40
6.0
 40
7.0
 40
7.0
 40
7.0
 40
8.0
 40
8.0
 40
8.0
 40
9.0
 40
9.0
 40
9.0
 40
9.0
 10
87.6058498587409
 20
-141.3185058240454
 10
87.05411781677815
 20
-141.3185058240454
 10
87.0451605685165
 20
-140.7641899604687
 10
87.0451605685165
 20
-140.5505940403832
 10
87.0451605685165
 20
-140.32011715242
 10
87.06548663187947
 20
-139.6727837107415
 10
87.64650198546686
 20
-139.6727837107415
 10
87.83202037734756
 20
-139.6727837107415
 10
88.09419214377506
 20
-139.7423746395436
 10
88.13484427050102
 20
-140.0744818443217
 10
88.13484427050102
 20
-140.0744818443217
 10
87.90660669460321
 20
-140.0744818443217
 10
87.90660669460321
 20
-140.0744818443217
 10
87.89523787950189
 20
-140.017637768815
 10
87.86130368897217
 20
-139.8694986629493
 10
87.64426267340144
 20
-139.8694986629493
 10
87.33230927721206
 20
-139.8694986629493
 10
87.2894178384207
 20
-140.1974717531451
 10
87.27580971125397
 20
-140.4024549345174
 10
87.37520071600342
 20
-140.3242512670023
 10
87.44754772119367
 20
-140.264995624656
 10
87.64202336133603
 20
-140.264995624656
 10
87.83425968941296
 20
-140.264995624656
 10
88.15758190070366
 20
-140.3728271133443
 10
88.15758190070366
 20
-140.7790038710553
 10
88.15758190070366
 20
-141.0987087320864
 10
87.94501950926374
 20
-141.3185058240454
 10
87.6058498587409
 20
-141.3185058240454
 97
        0
 97
        0
 92
        1
 93
        1
 72
     4
 94
        3
 73
     0
 74
     1
 95
       17
 96
       13
 40
0.0
 40
0.0
 40
0.0
 40
0.0
 40
1.0
 40
1.0
 40
1.0
 40
2.0
 40
2.0
 40
2.0
 40
3.0
 40
3.0
 40
3.0
 40
4.0
 40
4.0
 40
4.0
 40
4.0
 10
87.62393661003847
 20
-140.4596435195726
 10
87.34350583753913
 20
-140.4596435195726
 10
87.30285371081318
 20
-140.6711723823669
 10
87.30285371081318
 20
-140.7876166097684
 10
87.30285371081318
 20
-140.9633164795161
 10
87.40465628240231
 20
-141.1259249864199
 10
87.60137123461008
 20
-141.1259249864199
 10
87.73021780575843
 20
-141.1259249864199
 10
87.91780325493028
 20
-141.0666693440736
 10
87.91780325493028
 20
-140.7810709283464
 10
87.91780325493028
 20
-140.5571397218052
 10
87.76863062041896
 20
-140.4596435195726
 10
87.62393661003847
 20
-140.4596435195726
 97
        0
 97
        0
 75
     2
 76
     1
 98
        0
  0
ENDBLK
  5
44
330
41
100
AcDbEntity
  8
0
100
AcDbBlockEnd
  0
BLOCK
  5
A3
330
A1
100
AcDbEntity
  8
0
100
AcDbBlockBegin
  2
block 3
 70
     0
 10
0.0
 20
0.0
 30
0.0
  3
block 3
  1

  0
SPLINE
  5
A5
330
A1
100
AcDbEntity
  8
_U+30EC_U+30A4_U+30E4_U+30FC 1
370
     0
100
AcDbSpline
210
0.0
220
0.0
230
1.0
 70
    11
 71
     3
 72
    26
 73
    22
 74
     0
 42
0.0000000001
 43
0.0000000001
 12
1.0
 22
0.0
 32
0.0
 13
1.0
 23
0.0
 33
0.0
 40
0.0
 40
0.0
 40
0.0
 40
0.0
 40
1.0
 40
1.0
 40
1.0
 40
2.0
 40
2.0
 40
2.0
 40
3.0
 40
3.0
 40
3.0
 40
4.0
 40
4.0
 40
4.0
 40
5.0
 40
5.0
 40
5.0
 40
6.0
 40
6.0
 40
6.0
 40
7.0
 40
7.0
 40
7.0
 40
7.0
 10
104.8683620614565
 20
-122.111064965132
 30
0.0
 10
104.8683620614565
 20
-122.111064965132
 30
0.0
 10
103.764208958434
 20
-122.111064965132
 30
0.0
 10
103.764208958434
 20
-122.111064965132
 30
0.0
 10
103.764208958434
 20
-122.111064965132
 30
0.0
 10
103.764208958434
 20
-122.463498233273
 30
0.0
 10
103.764208958434
 20
-122.463498233273
 30
0.0
 10
103.764208958434
 20
-122.463498233273
 30
0.0
 10
103.6160698525682
 20
-122.463498233273
 30
0.0
 10
103.6160698525682
 20
-122.463498233273
 30
0.0
 10
103.6012559419816
 20
-122.1086533982923
 30
0.0
 10
103.4383029255293
 20
-122.0590440233047
 30
0.0
 10
103.323925755419
 20
-122.0273491448404
 30
0.0
 10
103.323925755419
 20
-122.0273491448404
 30
0.0
 10
103.323925755419
 20
-121.8712863193586
 30
0.0
 10
103.323925755419
 20
-121.8712863193586
 30
0.0
 10
103.323925755419
 20
-121.8712863193586
 30
0.0
 10
104.8683620614565
 20
-121.8712863193586
 30
0.0
 10
104.8683620614565
 20
-121.8712863193586
 30
0.0
 10
104.8683620614565
 20
-121.8712863193586
 30
0.0
 10
104.8683620614565
 20
-122.111064965132
 30
0.0
 10
104.8683620614565
 20
-122.111064965132
 30
0.0
  0
HATCH
  5
A6
330
A1
100
AcDbEntity
  8
_U+30EC_U+30A4_U+30E4_U+30FC 1
 62
   179
420
  2234388
100
AcDbHatch
 10
0.0
 20
0.0
 30
0.0
210
0.0
220
0.0
230
1.0
  2
SOLID
 70
     1
 71
     0
 91
        1
 92
        1
 93
        1
 72
     4
 94
        3
 73
     0
 74
     1
 95
       26
 96
       22
 40
0.0
 40
0.0
 40
0.0
 40
0.0
 40
1.0
 40
1.0
 40
1.0
 40
2.0
 40
2.0
 40
2.0
 40
3.0
 40
3.0
 40
3.0
 40
4.0
 40
4.0
 40
4.0
 40
5.0
 40
5.0
 40
5.0
 40
6.0
 40
6.0
 40
6.0
 40
7.0
 40
7.0
 40
7.0
 40
7.0
 10
104.8683620614565
 20
-122.111064965132
 10
104.8683620614565
 20
-122.111064965132
 10
103.764208958434
 20
-122.111064965132
 10
103.764208958434
 20
-122.111064965132
 10
103.764208958434
 20
-122.111064965132
 10
103.764208958434
 20
-122.463498233273
 10
103.764208958434
 20
-122.463498233273
 10
103.764208958434
 20
-122.463498233273
 10
103.6160698525682
 20
-122.463498233273
 10
103.6160698525682
 20
-122.463498233273
 10
103.6012559419816
 20
-122.1086533982923
 10
103.4383029255293
 20
-122.0590440233047
 10
103.323925755419
 20
-122.0273491448404
 10
103.323925755419
 20
-122.0273491448404
 10
103.323925755419
 20
-121.8712863193586
 10
103.323925755419
 20
-121.8712863193586
 10
103.323925755419
 20
-121.8712863193586
 10
104.8683620614565
 20
-121.8712863193586
 10
104.8683620614565
 20
-121.8712863193586
 10
104.8683620614565
 20
-121.8712863193586
 10
104.8683620614565
 20
-122.111064965132
 10
104.8683620614565
 20
-122.111064965132
 97
        0
 97
        0
 75
     2
 76
     1
 98
        0
  0
ENDBLK
  5
A4
330
A1
100
AcDbEntity
  8
0
100
AcDbBlockEnd
  0
BLOCK
  5
B1
330
AF
100
AcDbEntity
  8
0
100
AcDbBlockBegin
  2
block 4
 70
     0
 10
0.0
 20
0.0
 30
0.0
  3
block 4
  1

  0
SPLINE
  5
B3
330
AF
100
AcDbEntity
  8
_U+30EC_U+30A4_U+30E4_U+30FC 1
370
     0
100
AcDbSpline
210
0.0
220
0.0
230
1.0
 70
    11
 71
     3
 72
    62
 73
    58
 74
     0
 42
0.0000000001
 43
0.0000000001
 12
1.0
 22
0.0
 32
0.0
 13
1.0
 23
0.0
 33
0.0
 40
0.0
 40
0.0
 40
0.0
 40
0.0
 40
1.0
 40
1.0
 40
1.0
 40
2.0
 40
2.0
 40
2.0
 40
3.0
 40
3.0
 40
3.0
 40
4.0
 40
4.0
 40
4.0
 40
5.0
 40
5.0
 40
5.0
 40
6.0
 40
6.0
 40
6.0
 40
7.0
 40
7.0
 40
7.0
 40
8.0
 40
8.0
 40
8.0
 40
9.0
 40
9.0
 40
9.0
 40
10.0
 40
10.0
 40
10.0
 40
11.0
 40
11.0
 40
11.0
 40
12.0
 40
12.0
 40
12.0
 40
13.0
 40
13.0
 40
13.0
 40
14.0
 40
14.0
 40
14.0
 40
15.0
 40
15.0
 40
15.0
 40
16.0
 40
16.0
 40
16.0
 40
17.0
 40
17.0
 40
17.0
 40
18.0
 40
18.0
 40
18.0
 40
19.0
 40
19.0
 40
19.0
 40
19.0
 10
104.9186604555412
 20
-136.4223361204083
 30
0.0
 10
104.9186604555412
 20
-136.5239664372232
 30
0.0
 10
104.8976453730811
 20
-136.7568548920261
 30
0.0
 10
104.7116102168777
 20
-136.8901800873052
 30
0.0
 10
104.5993001040585
 20
-136.969417283466
 30
0.0
 10
104.5000813540833
 20
-136.9738959075968
 30
0.0
 10
104.4153320051462
 20
-136.9783745317276
 30
0.0
 10
104.4153320051462
 20
-136.9783745317276
 30
0.0
 10
104.4153320051462
 20
-136.7434190196336
 30
0.0
 10
104.4153320051462
 20
-136.7434190196336
 30
0.0
 10
104.489401558079
 20
-136.7410074527939
 30
0.0
 10
104.7240125606246
 20
-136.7296386376926
 30
0.0
 10
104.7240125606246
 20
-136.4268147445391
 30
0.0
 10
104.7240125606246
 20
-136.279709167319
 30
0.0
 10
104.6544216318225
 20
-136.1171006604152
 30
0.0
 10
104.4260118011505
 20
-136.1171006604152
 30
0.0
 10
104.309567573749
 20
-136.1171006604152
 30
0.0
 10
104.260991727407
 20
-136.1577527871411
 30
0.0
 10
104.2292968489427
 20
-136.1915147228966
 30
0.0
 10
104.1552272960098
 20
-136.2707519190573
 30
0.0
 10
104.1424804427144
 20
-136.3951198660749
 30
0.0
 10
104.1424804427144
 20
-136.4540309988726
 30
0.0
 10
104.1424804427144
 20
-136.4743570622356
 30
0.0
 10
104.1445475000055
 20
-136.5125976221219
 30
0.0
 10
104.1486816145878
 20
-136.542225443295
 30
0.0
 10
104.1486816145878
 20
-136.542225443295
 30
0.0
 10
103.9540337196712
 20
-136.542225443295
 30
0.0
 10
103.9540337196712
 20
-136.542225443295
 30
0.0
 10
103.9605794010932
 20
-136.5015733165691
 30
0.0
 10
103.9626464583843
 20
-136.4560980561638
 30
0.0
 10
103.9626464583843
 20
-136.4495523747418
 30
0.0
 10
103.9626464583843
 20
-136.3792724268427
 30
0.0
 10
103.9412868663758
 20
-136.1667100354028
 30
0.0
 10
103.7046088065391
 20
-136.1667100354028
 30
0.0
 10
103.5268418795002
 20
-136.1667100354028
 30
0.0
 10
103.4717203517362
 20
-136.3069254216524
 30
0.0
 10
103.4717203517362
 20
-136.4244031776995
 30
0.0
 10
103.4717203517362
 20
-136.7072455170385
 30
0.0
 10
103.7046088065391
 20
-136.7162027653001
 30
0.0
 10
103.7762667926323
 20
-136.720681389431
 30
0.0
 10
103.7762667926323
 20
-136.720681389431
 30
0.0
 10
103.7762667926323
 20
-136.9377224050017
 30
0.0
 10
103.7762667926323
 20
-136.9377224050017
 30
0.0
 10
103.6515543360663
 20
-136.92876515674
 30
0.0
 10
103.2750053995285
 20
-136.8994818451154
 30
0.0
 10
103.2750053995285
 20
-136.410967305307
 30
0.0
 10
103.2750053995285
 20
-136.1711886595336
 30
0.0
 10
103.4021294229342
 20
-135.9134955172369
 30
0.0
 10
103.6980631251172
 20
-135.9134955172369
 30
0.0
 10
103.8844427908692
 20
-135.9134955172369
 30
0.0
 10
103.9667805729666
 20
-136.0154703436003
 30
0.0
 10
104.0281032726041
 20
-136.121579284546
 30
0.0
 10
104.0556640364861
 20
-136.0561224703262
 30
0.0
 10
104.1359347612924
 20
-135.8614745754096
 30
0.0
 10
104.413264947855
 20
-135.8614745754096
 30
0.0
 10
104.7515733245066
 20
-135.8614745754096
 30
0.0
 10
104.9186604555412
 20
-136.1260579086768
 30
0.0
 10
104.9186604555412
 20
-136.4223361204083
 30
0.0
  0
HATCH
  5
B4
330
AF
100
AcDbEntity
  8
_U+30EC_U+30A4_U+30E4_U+30FC 1
 62
   179
420
  2234388
100
AcDbHatch
 10
0.0
 20
0.0
 30
0.0
210
0.0
220
0.0
230
1.0
  2
SOLID
 70
     1
 71
     0
 91
        1
 92
        1
 93
        1
 72
     4
 94
        3
 73
     0
 74
     1
 95
       62
 96
       58
 40
0.0
 40
0.0
 40
0.0
 40
0.0
 40
1.0
 40
1.0
 40
1.0
 40
2.0
 40
2.0
 40
2.0
 40
3.0
 40
3.0
 40
3.0
 40
4.0
 40
4.0
 40
4.0
 40
5.0
 40
5.0
 40
5.0
 40
6.0
 40
6.0
 40
6.0
 40
7.0
 40
7.0
 40
7.0
 40
8.0
 40
8.0
 40
8.0
 40
9.0
 40
9.0
 40
9.0
 40
10.0
 40
10.0
 40
10.0
 40
11.0
 40
11.0
 40
11.0
 40
12.0
 40
12.0
 40
12.0
 40
13.0
 40
13.0
 40
13.0
 40
14.0
 40
14.0
 40
14.0
 40
15.0
 40
15.0
 40
15.0
 40
16.0
 40
16.0
 40
16.0
 40
17.0
 40
17.0
 40
17.0
 40
18.0
 40
18.0
 40
18.0
 40
19.0
 40
19.0
 40
19.0
 40
19.0
 10
104.9186604555412
 20
-136.4223361204083
 10
104.9186604555412
 20
-136.5239664372232
 10
104.8976453730811
 20
-136.7568548920261
 10
104.7116102168777
 20
-136.8901800873052
 10
104.5993001040585
 20
-136.969417283466
 10
104.5000813540833
 20
-136.9738959075968
 10
104.4153320051462
 20
-136.9783745317276
 10
104.4153320051462
 20
-136.9783745317276
 10
104.4153320051462
 20
-136.7434190196336
 10
104.4153320051462
 20
-136.7434190196336
 10
104.489401558079
 20
-136.7410074527939
 10
104.7240125606246
 20
-136.7296386376926
 10
104.7240125606246
 20
-136.4268147445391
 10
104.7240125606246
 20
-136.279709167319
 10
104.6544216318225
 20
-136.1171006604152
 10
104.4260118011505
 20
-136.1171006604152
 10
104.309567573749
 20
-136.1171006604152
 10
104.260991727407
 20
-136.1577527871411
 10
104.2292968489427
 20
-136.1915147228966
 10
104.1552272960098
 20
-136.2707519190573
 10
104.1424804427144
 20
-136.3951198660749
 10
104.1424804427144
 20
-136.4540309988726
 10
104.1424804427144
 20
-136.4743570622356
 10
104.1445475000055
 20
-136.5125976221219
 10
104.1486816145878
 20
-136.542225443295
 10
104.1486816145878
 20
-136.542225443295
 10
103.9540337196712
 20
-136.542225443295
 10
103.9540337196712
 20
-136.542225443295
 10
103.9605794010932
 20
-136.5015733165691
 10
103.9626464583843
 20
-136.4560980561638
 10
103.9626464583843
 20
-136.4495523747418
 10
103.9626464583843
 20
-136.3792724268427
 10
103.9412868663758
 20
-136.1667100354028
 10
103.7046088065391
 20
-136.1667100354028
 10
103.5268418795002
 20
-136.1667100354028
 10
103.4717203517362
 20
-136.3069254216524
 10
103.4717203517362
 20
-136.4244031776995
 10
103.4717203517362
 20
-136.7072455170385
 10
103.7046088065391
 20
-136.7162027653001
 10
103.7762667926323
 20
-136.720681389431
 10
103.7762667926323
 20
-136.720681389431
 10
103.7762667926323
 20
-136.9377224050017
 10
103.7762667926323
 20
-136.9377224050017
 10
103.6515543360663
 20
-136.92876515674
 10
103.2750053995285
 20
-136.8994818451154
 10
103.2750053995285
 20
-136.410967305307
 10
103.2750053995285
 20
-136.1711886595336
 10
103.4021294229342
 20
-135.9134955172369
 10
103.6980631251172
 20
-135.9134955172369
 10
103.8844427908692
 20
-135.9134955172369
 10
103.9667805729666
 20
-136.0154703436003
 10
104.0281032726041
 20
-136.121579284546
 10
104.0556640364861
 20
-136.0561224703262
 10
104.1359347612924
 20
-135.8614745754096
 10
104.413264947855
 20
-135.8614745754096
 10
104.7515733245066
 20
-135.8614745754096
 10
104.9186604555412
 20
-136.1260579086768
 10
104.9186604555412
 20
-136.4223361204083
 97
        0
 97
        0
 75
     2
 76
     1
 98
        0
  0
ENDBLK
  5
B2
330
AF
100
AcDbEntity
  8
0
100
AcDbBlockEnd
  0
BLOCK
  5
C3
330
C1
100
AcDbEntity
  8
0
100
AcDbBlockBegin
  2
block 5
 70
     0
 10
0.0
 20
0.0
 30
0.0
  3
block 5
  1

  0
SPLINE
  5
C5
330
C1
100
AcDbEntity
  8
_U+30EC_U+30A4_U+30E4_U+30FC 1
370
     0
100
AcDbSpline
210
0.0
220
0.0
230
1.0
 70
    11
 71
     3
 72
    26
 73
    22
 74
     0
 42
0.0000000001
 43
0.0000000001
 12
1.0
 22
0.0
 32
0.0
 13
1.0
 23
0.0
 33
0.0
 40
0.0
 40
0.0
 40
0.0
 40
0.0
 40
1.0
 40
1.0
 40
1.0
 40
2.0
 40
2.0
 40
2.0
 40
3.0
 40
3.0
 40
3.0
 40
4.0
 40
4.0
 40
4.0
 40
5.0
 40
5.0
 40
5.0
 40
6.0
 40
6.0
 40
6.0
 40
7.0
 40
7.0
 40
7.0
 40
7.0
 10
78.92041963087753
 20
-141.2678629204122
 30
0.0
 10
78.92041963087753
 20
-141.2678629204122
 30
0.0
 10
78.92041963087753
 20
-140.1633653078411
 30
0.0
 10
78.92041963087753
 20
-140.1633653078411
 30
0.0
 10
78.92041963087753
 20
-140.1633653078411
 30
0.0
 10
78.56764185318795
 20
-140.1633653078411
 30
0.0
 10
78.56764185318795
 20
-140.1633653078411
 30
0.0
 10
78.56764185318795
 20
-140.1633653078411
 30
0.0
 10
78.56764185318795
 20
-140.0155707115239
 30
0.0
 10
78.56764185318795
 20
-140.0155707115239
 30
0.0
 10
78.92265894294295
 20
-140.0007568009373
 30
0.0
 10
78.97244057270481
 20
-139.837803784485
 30
0.0
 10
79.0041354511691
 20
-139.7234266143747
 30
0.0
 10
79.0041354511691
 20
-139.7234266143747
 30
0.0
 10
79.16002602187666
 20
-139.7234266143747
 30
0.0
 10
79.16002602187666
 20
-139.7234266143747
 30
0.0
 10
79.16002602187666
 20
-139.7234266143747
 30
0.0
 10
79.16002602187666
 20
-141.2678629204122
 30
0.0
 10
79.16002602187666
 20
-141.2678629204122
 30
0.0
 10
79.16002602187666
 20
-141.2678629204122
 30
0.0
 10
78.92041963087753
 20
-141.2678629204122
 30
0.0
 10
78.92041963087753
 20
-141.2678629204122
 30
0.0
  0
HATCH
  5
C6
330
C1
100
AcDbEntity
  8
_U+30EC_U+30A4_U+30E4_U+30FC 1
 62
   179
420
  2234388
100
AcDbHatch
 10
0.0
 20
0.0
 30
0.0
210
0.0
220
0.0
230
1.0
  2
SOLID
 70
     1
 71
     0
 91
        1
 92
        1
 93
        1
 72
     4
 94
        3
 73
     0
 74
     1
 95
       26
 96
       22
 40
0.0
 40
0.0
 40
0.0
 40
0.0
 40
1.0
 40
1.0
 40
1.0
 40
2.0
 40
2.0
 40
2.0
 40
3.0
 40
3.0
 40
3.0
 40
4.0
 40
4.0
 40
4.0
 40
5.0
 40
5.0
 40
5.0
 40
6.0
 40
6.0
 40
6.0
 40
7.0
 40
7.0
 40
7.0
 40
7.0
 10
78.92041963087753
 20
-141.2678629204122
 10
78.92041963087753
 20
-141.2678629204122
 10
78.92041963087753
 20
-140.1633653078411
 10
78.92041963087753
 20
-140.1633653078411
 10
78.92041963087753
 20
-140.1633653078411
 10
78.56764185318795
 20
-140.1633653078411
 10
78.56764185318795
 20
-140.1633653078411
 10
78.56764185318795
 20
-140.1633653078411
 10
78.56764185318795
 20
-140.0155707115239
 10
78.56764185318795
 20
-140.0155707115239
 10
78.92265894294295
 20
-140.0007568009373
 10
78.97244057270481
 20
-139.837803784485
 10
79.0041354511691
 20
-139.7234266143747
 10
79.0041354511691
 20
-139.7234266143747
 10
79.16002602187666
 20
-139.7234266143747
 10
79.16002602187666
 20
-139.7234266143747
 10
79.16002602187666
 20
-139.7234266143747
 10
79.16002602187666
 20
-141.2678629204122
 10
79.16002602187666
 20
-141.2678629204122
 10
79.16002602187666
 20
-141.2678629204122
 10
78.92041963087753
 20
-141.2678629204122
 10
78.92041963087753
 20
-141.2678629204122
 97
        0
 97
        0
 75
     2
 76
     1
 98
        0
  0
SPLINE
  5
C7
330
C1
100
AcDbEntity
  8
_U+30EC_U+30A4_U+30E4_U+30FC 1
370
     0
100
AcDbSpline
210
0.0
220
0.0
230
1.0
 70
    11
 71
     3
 72
    29
 73
    25
 74
     0
 42
0.0000000001
 43
0.0000000001
 12
1.0
 22
0.0
 32
0.0
 13
1.0
 23
0.0
 33
0.0
 40
0.0
 40
0.0
 40
0.0
 40
0.0
 40
1.0
 40
1.0
 40
1.0
 40
2.0
 40
2.0
 40
2.0
 40
3.0
 40
3.0
 40
3.0
 40
4.0
 40
4.0
 40
4.0
 40
5.0
 40
5.0
 40
5.0
 40
6.0
 40
6.0
 40
6.0
 40
7.0
 40
7.0
 40
7.0
 40
8.0
 40
8.0
 40
8.0
 40
8.0
 10
80.65519746247509
 20
-141.0900959933733
 30
0.0
 10
80.53995901849349
 20
-141.2995577988765
 30
0.0
 10
80.35461288138704
 20
-141.3185058240454
 30
0.0
 10
80.23024493436952
 20
-141.3185058240454
 30
0.0
 10
80.05833466965557
 20
-141.3185058240454
 30
0.0
 10
79.90692272307882
 20
-141.2719970349945
 30
0.0
 10
79.80512015148969
 20
-141.0900959933733
 30
0.0
 10
79.69436033163892
 20
-140.8954480984567
 30
0.0
 10
79.67403426827595
 20
-140.6584255290715
 30
0.0
 10
79.67403426827595
 20
-140.4954725126192
 30
0.0
 10
79.67403426827595
 20
-140.3518120308843
 30
0.0
 10
79.6921210195735
 20
-140.0999755509125
 30
0.0
 10
79.80512015148969
 20
-139.9011935414136
 30
0.0
 10
79.92053085024557
 20
-139.6979329077839
 30
0.0
 10
80.09226886018527
 20
-139.6748507680327
 30
0.0
 10
80.23024493436952
 20
-139.6748507680327
 30
0.0
 10
80.39974363224381
 20
-139.6748507680327
 30
0.0
 10
80.55356714566022
 20
-139.7192924997924
 30
0.0
 10
80.65519746247509
 20
-139.9011935414136
 30
0.0
 10
80.76147865819505
 20
-140.0937743790391
 30
0.0
 10
80.78628334568884
 20
-140.3221842097111
 30
0.0
 10
80.78628334568884
 20
-140.4954725126192
 30
0.0
 10
80.78628334568884
 20
-140.6670382677846
 30
0.0
 10
80.76371797026046
 20
-140.8975151557478
 30
0.0
 10
80.65519746247509
 20
-141.0900959933733
 30
0.0
  0
SPLINE
  5
C8
330
C1
100
AcDbEntity
  8
_U+30EC_U+30A4_U+30E4_U+30FC 1
370
     0
100
AcDbSpline
210
0.0
220
0.0
230
1.0
 70
    11
 71
     3
 72
    17
 73
    13
 74
     0
 42
0.0000000001
 43
0.0000000001
 12
1.0
 22
0.0
 32
0.0
 13
1.0
 23
0.0
 33
0.0
 40
0.0
 40
0.0
 40
0.0
 40
0.0
 40
1.0
 40
1.0
 40
1.0
 40
2.0
 40
2.0
 40
2.0
 40
3.0
 40
3.0
 40
3.0
 40
4.0
 40
4.0
 40
4.0
 40
4.0
 10
80.23024493436952
 20
-139.8674316056581
 30
0.0
 10
79.96342228903693
 20
-139.8674316056581
 30
0.0
 10
79.91364065927506
 20
-140.1509629640942
 30
0.0
 10
79.91364065927506
 20
-140.4954725126192
 30
0.0
 10
79.91364065927506
 20
-140.8151773736504
 30
0.0
 10
79.9520534739356
 20
-141.1238579291288
 30
0.0
 10
80.23024493436952
 20
-141.1238579291288
 30
0.0
 10
80.49465601286245
 20
-141.1238579291288
 30
0.0
 10
80.54667695468973
 20
-140.8423936279839
 30
0.0
 10
80.54667695468973
 20
-140.4954725126192
 30
0.0
 10
80.54667695468973
 20
-140.1761121611365
 30
0.0
 10
80.50602482796377
 20
-139.8674316056581
 30
0.0
 10
80.23024493436952
 20
-139.8674316056581
 30
0.0
  0
HATCH
  5
C9
330
C1
100
AcDbEntity
  8
_U+30EC_U+30A4_U+30E4_U+30FC 1
 62
   179
420
  2234388
100
AcDbHatch
 10
0.0
 20
0.0
 30
0.0
210
0.0
220
0.0
230
1.0
  2
SOLID
 70
     1
 71
     0
 91
        2
 92
        1
 93
        1
 72
     4
 94
        3
 73
     0
 74
     1
 95
       29
 96
       25
 40
0.0
 40
0.0
 40
0.0
 40
0.0
 40
1.0
 40
1.0
 40
1.0
 40
2.0
 40
2.0
 40
2.0
 40
3.0
 40
3.0
 40
3.0
 40
4.0
 40
4.0
 40
4.0
 40
5.0
 40
5.0
 40
5.0
 40
6.0
 40
6.0
 40
6.0
 40
7.0
 40
7.0
 40
7.0
 40
8.0
 40
8.0
 40
8.0
 40
8.0
 10
80.65519746247509
 20
-141.0900959933733
 10
80.53995901849349
 20
-141.2995577988765
 10
80.35461288138704
 20
-141.3185058240454
 10
80.23024493436952
 20
-141.3185058240454
 10
80.05833466965557
 20
-141.3185058240454
 10
79.90692272307882
 20
-141.2719970349945
 10
79.80512015148969
 20
-141.0900959933733
 10
79.69436033163892
 20
-140.8954480984567
 10
79.67403426827595
 20
-140.6584255290715
 10
79.67403426827595
 20
-140.4954725126192
 10
79.67403426827595
 20
-140.3518120308843
 10
79.6921210195735
 20
-140.0999755509125
 10
79.80512015148969
 20
-139.9011935414136
 10
79.92053085024557
 20
-139.6979329077839
 10
80.09226886018527
 20
-139.6748507680327
 10
80.23024493436952
 20
-139.6748507680327
 10
80.39974363224381
 20
-139.6748507680327
 10
80.55356714566022
 20
-139.7192924997924
 10
80.65519746247509
 20
-139.9011935414136
 10
80.76147865819505
 20
-140.0937743790391
 10
80.78628334568884
 20
-140.3221842097111
 10
80.78628334568884
 20
-140.4954725126192
 10
80.78628334568884
 20
-140.6670382677846
 10
80.76371797026046
 20
-140.8975151557478
 10
80.65519746247509
 20
-141.0900959933733
 97
        0
 97
        0
 92
        1
 93
        1
 72
     4
 94
        3
 73
     0
 74
     1
 95
       17
 96
       13
 40
0.0
 40
0.0
 40
0.0
 40
0.0
 40
1.0
 40
1.0
 40
1.0
 40
2.0
 40
2.0
 40
2.0
 40
3.0
 40
3.0
 40
3.0
 40
4.0
 40
4.0
 40
4.0
 40
4.0
 10
80.23024493436952
 20
-139.8674316056581
 10
79.96342228903693
 20
-139.8674316056581
 10
79.91364065927506
 20
-140.1509629640942
 10
79.91364065927506
 20
-140.4954725126192
 10
79.91364065927506
 20
-140.8151773736504
 10
79.9520534739356
 20
-141.1238579291288
 10
80.23024493436952
 20
-141.1238579291288
 10
80.49465601286245
 20
-141.1238579291288
 10
80.54667695468973
 20
-140.8423936279839
 10
80.54667695468973
 20
-140.4954725126192
 10
80.54667695468973
 20
-140.1761121611365
 10
80.50602482796377
 20
-139.8674316056581
 10
80.23024493436952
 20
-139.8674316056581
 97
        0
 97
        0
 75
     2
 76
     1
 98
        0
  0
ENDBLK
  5
C4
330
C1
100
AcDbEntity
  8
0
100
AcDbBlockEnd
  0
BLOCK
  5
E0
330
DE
100
AcDbEntity
  8
0
100
AcDbBlockBegin
  2
block 6
 70
     0
 10
0.0
 20
0.0
 30
0.0
  3
block 6
  1

  0
SPLINE
  5
E2
330
DE
100
AcDbEntity
  8
_U+30EC_U+30A4_U+30E4_U+30FC 1
370
     0
100
AcDbSpline
210
0.0
220
0.0
230
1.0
 70
    11
 71
     3
 72
    44
 73
    40
 74
     0
 42
0.0000000001
 43
0.0000000001
 12
1.0
 22
0.0
 32
0.0
 13
1.0
 23
0.0
 33
0.0
 40
0.0
 40
0.0
 40
0.0
 40
0.0
 40
1.0
 40
1.0
 40
1.0
 40
2.0
 40
2.0
 40
2.0
 40
3.0
 40
3.0
 40
3.0
 40
4.0
 40
4.0
 40
4.0
 40
5.0
 40
5.0
 40
5.0
 40
6.0
 40
6.0
 40
6.0
 40
7.0
 40
7.0
 40
7.0
 40
8.0
 40
8.0
 40
8.0
 40
9.0
 40
9.0
 40
9.0
 40
10.0
 40
10.0
 40
10.0
 40
11.0
 40
11.0
 40
11.0
 40
12.0
 40
12.0
 40
12.0
 40
13.0
 40
13.0
 40
13.0
 40
13.0
 10
88.1055609588764
 20
-116.1856729852765
 30
0.0
 10
87.8878309242086
 20
-116.3443196323723
 30
0.0
 10
87.79481334610685
 20
-116.4183891853051
 30
0.0
 10
87.7458929902163
 20
-116.5622219218143
 30
0.0
 10
87.7458929902163
 20
-116.5622219218143
 30
0.0
 10
88.52448456988277
 20
-116.5622219218143
 30
0.0
 10
88.52448456988277
 20
-116.5622219218143
 30
0.0
 10
88.52448456988277
 20
-116.5622219218143
 30
0.0
 10
88.52448456988277
 20
-116.7673773579609
 30
0.0
 10
88.52448456988277
 20
-116.7673773579609
 30
0.0
 10
88.52448456988277
 20
-116.7673773579609
 30
0.0
 10
87.49646807708422
 20
-116.7673773579609
 30
0.0
 10
87.49646807708422
 20
-116.7673773579609
 30
0.0
 10
87.52816295554852
 20
-116.409776446592
 30
0.0
 10
87.59361976976827
 20
-116.3315727790768
 30
0.0
 10
87.9787814450192
 20
-116.0332275100542
 30
0.0
 10
88.23475203957327
 20
-115.8344455005553
 30
0.0
 10
88.30020885379301
 20
-115.7667493742701
 30
0.0
 10
88.30020885379301
 20
-115.6292900644087
 30
0.0
 10
88.30020885379301
 20
-115.5107787797161
 30
0.0
 10
88.22820635815128
 20
-115.3796928965023
 30
0.0
 10
88.03149140594353
 20
-115.3796928965023
 30
0.0
 10
87.77138669680716
 20
-115.3796928965023
 30
0.0
 10
87.76277395809403
 20
-115.6101697844655
 30
0.0
 10
87.75863984351173
 20
-115.726614011867
 30
0.0
 10
87.75863984351173
 20
-115.726614011867
 30
0.0
 10
87.53436412742197
 20
-115.726614011867
 30
0.0
 10
87.53436412742197
 20
-115.726614011867
 30
0.0
 10
87.54297686613509
 20
-115.5996622432355
 30
0.0
 10
87.55365666213937
 20
-115.4875243851906
 30
0.0
 10
87.63392738694569
 20
-115.369013100498
 30
0.0
 10
87.74382593292516
 20
-115.2082993961111
 30
0.0
 10
87.93020559867718
 20
-115.1743652055814
 30
0.0
 10
88.0463053165301
 20
-115.1743652055814
 30
0.0
 10
88.3236355030927
 20
-115.1743652055814
 30
0.0
 10
88.53103025130474
 20
-115.358505559268
 30
0.0
 10
88.53103025130474
 20
-115.6313571216998
 30
0.0
 10
88.53103025130474
 20
-115.8597669523719
 30
0.0
 10
88.4145860239033
 20
-115.9593302118956
 30
0.0
 10
88.1055609588764
 20
-116.1856729852765
 30
0.0
  0
HATCH
  5
E3
330
DE
100
AcDbEntity
  8
_U+30EC_U+30A4_U+30E4_U+30FC 1
 62
   179
420
  2234388
100
AcDbHatch
 10
0.0
 20
0.0
 30
0.0
210
0.0
220
0.0
230
1.0
  2
SOLID
 70
     1
 71
     0
 91
        1
 92
        1
 93
        1
 72
     4
 94
        3
 73
     0
 74
     1
 95
       44
 96
       40
 40
0.0
 40
0.0
 40
0.0
 40
0.0
 40
1.0
 40
1.0
 40
1.0
 40
2.0
 40
2.0
 40
2.0
 40
3.0
 40
3.0
 40
3.0
 40
4.0
 40
4.0
 40
4.0
 40
5.0
 40
5.0
 40
5.0
 40
6.0
 40
6.0
 40
6.0
 40
7.0
 40
7.0
 40
7.0
 40
8.0
 40
8.0
 40
8.0
 40
9.0
 40
9.0
 40
9.0
 40
10.0
 40
10.0
 40
10.0
 40
11.0
 40
11.0
 40
11.0
 40
12.0
 40
12.0
 40
12.0
 40
13.0
 40
13.0
 40
13.0
 40
13.0
 10
88.1055609588764
 20
-116.1856729852765
 10
87.8878309242086
 20
-116.3443196323723
 10
87.79481334610685
 20
-116.4183891853051
 10
87.7458929902163
 20
-116.5622219218143
 10
87.7458929902163
 20
-116.5622219218143
 10
88.52448456988277
 20
-116.5622219218143
 10
88.52448456988277
 20
-116.5622219218143
 10
88.52448456988277
 20
-116.5622219218143
 10
88.52448456988277
 20
-116.7673773579609
 10
88.52448456988277
 20
-116.7673773579609
 10
88.52448456988277
 20
-116.7673773579609
 10
87.49646807708422
 20
-116.7673773579609
 10
87.49646807708422
 20
-116.7673773579609
 10
87.52816295554852
 20
-116.409776446592
 10
87.59361976976827
 20
-116.3315727790768
 10
87.9787814450192
 20
-116.0332275100542
 10
88.23475203957327
 20
-115.8344455005553
 10
88.30020885379301
 20
-115.7667493742701
 10
88.30020885379301
 20
-115.6292900644087
 10
88.30020885379301
 20
-115.5107787797161
 10
88.22820635815128
 20
-115.3796928965023
 10
88.03149140594353
 20
-115.3796928965023
 10
87.77138669680716
 20
-115.3796928965023
 10
87.76277395809403
 20
-115.6101697844655
 10
87.75863984351173
 20
-115.726614011867
 10
87.75863984351173
 20
-115.726614011867
 10
87.53436412742197
 20
-115.726614011867
 10
87.53436412742197
 20
-115.726614011867
 10
87.54297686613509
 20
-115.5996622432355
 10
87.55365666213937
 20
-115.4875243851906
 10
87.63392738694569
 20
-115.369013100498
 10
87.74382593292516
 20
-115.2082993961111
 10
87.93020559867718
 20
-115.1743652055814
 10
88.0463053165301
 20
-115.1743652055814
 10
88.3236355030927
 20
-115.1743652055814
 10
88.53103025130474
 20
-115.358505559268
 10
88.53103025130474
 20
-115.6313571216998
 10
88.53103025130474
 20
-115.8597669523719
 10
88.4145860239033
 20
-115.9593302118956
 10
88.1055609588764
 20
-116.1856729852765
 97
        0
 97
        0
 75
     2
 76
     1
 98
        0
  0
SPLINE
  5
E4
330
DE
100
AcDbEntity
  8
_U+30EC_U+30A4_U+30E4_U+30FC 1
370
     0
100
AcDbSpline
210
0.0
220
0.0
230
1.0
 70
    11
 71
     3
 72
    29
 73
    25
 74
     0
 42
0.0000000001
 43
0.0000000001
 12
1.0
 22
0.0
 32
0.0
 13
1.0
 23
0.0
 33
0.0
 40
0.0
 40
0.0
 40
0.0
 40
0.0
 40
1.0
 40
1.0
 40
1.0
 40
2.0
 40
2.0
 40
2.0
 40
3.0
 40
3.0
 40
3.0
 40
4.0
 40
4.0
 40
4.0
 40
5.0
 40
5.0
 40
5.0
 40
6.0
 40
6.0
 40
6.0
 40
7.0
 40
7.0
 40
7.0
 40
8.0
 40
8.0
 40
8.0
 40
8.0
 10
89.18938799853599
 20
-116.8181925163684
 30
0.0
 10
88.92273760797765
 20
-116.8181925163684
 30
0.0
 10
88.66883407071474
 20
-116.6805609517326
 30
0.0
 10
88.66883407071474
 20
-116.3315727790768
 30
0.0
 10
88.66883407071474
 20
-116.0756021845228
 30
0.0
 10
88.81077200470703
 20
-115.9803452943556
 30
0.0
 10
88.91653643610421
 20
-115.9190225947182
 30
0.0
 10
88.79182397953817
 20
-115.8597669523719
 30
0.0
 10
88.71568736931414
 20
-115.7455620370358
 30
0.0
 10
88.71568736931414
 20
-115.5848483326489
 30
0.0
 10
88.71568736931414
 20
-115.3097574581517
 30
0.0
 10
88.91446937881305
 20
-115.1743652055814
 30
0.0
 10
89.18938799853599
 20
-115.1743652055814
 30
0.0
 10
89.47291935697206
 20
-115.1743652055814
 30
0.0
 10
89.66343313730637
 20
-115.3181979420906
 30
0.0
 10
89.66343313730637
 20
-115.5848483326489
 30
0.0
 10
89.66343313730637
 20
-115.7455620370358
 30
0.0
 10
89.58488496024268
 20
-115.8597669523719
 30
0.0
 10
89.46017250367663
 20
-115.9190225947182
 30
0.0
 10
89.54905596719607
 20
-115.9698377531256
 30
0.0
 10
89.70787486906609
 20
-116.0650946432928
 30
0.0
 10
89.70787486906609
 20
-116.3274386644945
 30
0.0
 10
89.70787486906609
 20
-116.7017482889669
 30
0.0
 10
89.42847762521232
 20
-116.8181925163684
 30
0.0
 10
89.18938799853599
 20
-116.8181925163684
 30
0.0
  0
SPLINE
  5
E5
330
DE
100
AcDbEntity
  8
_U+30EC_U+30A4_U+30E4_U+30FC 1
370
     0
100
AcDbSpline
210
0.0
220
0.0
230
1.0
 70
    11
 71
     3
 72
    17
 73
    13
 74
     0
 42
0.0000000001
 43
0.0000000001
 12
1.0
 22
0.0
 32
0.0
 13
1.0
 23
0.0
 33
0.0
 40
0.0
 40
0.0
 40
0.0
 40
0.0
 40
1.0
 40
1.0
 40
1.0
 40
2.0
 40
2.0
 40
2.0
 40
3.0
 40
3.0
 40
3.0
 40
4.0
 40
4.0
 40
4.0
 40
4.0
 10
89.18938799853599
 20
-116.0270263381807
 30
0.0
 10
89.04572751680107
 20
-116.0270263381807
 30
0.0
 10
88.8931097868045
 20
-116.1136704896348
 30
0.0
 10
88.8931097868045
 20
-116.3167588684903
 30
0.0
 10
88.8931097868045
 20
-116.5219143046369
 30
0.0
 10
89.02023381021023
 20
-116.6235446214518
 30
0.0
 10
89.18938799853599
 20
-116.6235446214518
 30
0.0
 10
89.37542315473948
 20
-116.6235446214518
 30
0.0
 10
89.48566621026748
 20
-116.5008992221769
 30
0.0
 10
89.48566621026748
 20
-116.323132295138
 30
0.0
 10
89.48566621026748
 20
-116.1009236363394
 30
0.0
 10
89.32271319381516
 20
-116.0270263381807
 30
0.0
 10
89.18938799853599
 20
-116.0270263381807
 30
0.0
  0
SPLINE
  5
E6
330
DE
100
AcDbEntity
  8
_U+30EC_U+30A4_U+30E4_U+30FC 1
370
     0
100
AcDbSpline
210
0.0
220
0.0
230
1.0
 70
    11
 71
     3
 72
    17
 73
    13
 74
     0
 42
0.0000000001
 43
0.0000000001
 12
1.0
 22
0.0
 32
0.0
 13
1.0
 23
0.0
 33
0.0
 40
0.0
 40
0.0
 40
0.0
 40
0.0
 40
1.0
 40
1.0
 40
1.0
 40
2.0
 40
2.0
 40
2.0
 40
3.0
 40
3.0
 40
3.0
 40
4.0
 40
4.0
 40
4.0
 40
4.0
 10
89.18938799853599
 20
-115.3669460432069
 30
0.0
 10
89.02436792479253
 20
-115.3669460432069
 30
0.0
 10
88.93961857585538
 20
-115.4620306785998
 30
0.0
 10
88.93961857585538
 20
-115.5974229311701
 30
0.0
 10
88.93961857585538
 20
-115.7202405852192
 30
0.0
 10
89.0116210714971
 20
-115.8387518699118
 30
0.0
 10
89.18938799853599
 20
-115.8387518699118
 30
0.0
 10
89.36715492557488
 20
-115.8387518699118
 30
0.0
 10
89.4391574212166
 20
-115.7202405852192
 30
0.0
 10
89.4391574212166
 20
-115.5974229311701
 30
0.0
 10
89.4391574212166
 20
-115.4620306785998
 30
0.0
 10
89.35234101498831
 20
-115.3669460432069
 30
0.0
 10
89.18938799853599
 20
-115.3669460432069
 30
0.0
  0
HATCH
  5
E7
330
DE
100
AcDbEntity
  8
_U+30EC_U+30A4_U+30E4_U+30FC 1
 62
   179
420
  2234388
100
AcDbHatch
 10
0.0
 20
0.0
 30
0.0
210
0.0
220
0.0
230
1.0
  2
SOLID
 70
     1
 71
     0
 91
        3
 92
        1
 93
        1
 72
     4
 94
        3
 73
     0
 74
     1
 95
       29
 96
       25
 40
0.0
 40
0.0
 40
0.0
 40
0.0
 40
1.0
 40
1.0
 40
1.0
 40
2.0
 40
2.0
 40
2.0
 40
3.0
 40
3.0
 40
3.0
 40
4.0
 40
4.0
 40
4.0
 40
5.0
 40
5.0
 40
5.0
 40
6.0
 40
6.0
 40
6.0
 40
7.0
 40
7.0
 40
7.0
 40
8.0
 40
8.0
 40
8.0
 40
8.0
 10
89.18938799853599
 20
-116.8181925163684
 10
88.92273760797765
 20
-116.8181925163684
 10
88.66883407071474
 20
-116.6805609517326
 10
88.66883407071474
 20
-116.3315727790768
 10
88.66883407071474
 20
-116.0756021845228
 10
88.81077200470703
 20
-115.9803452943556
 10
88.91653643610421
 20
-115.9190225947182
 10
88.79182397953817
 20
-115.8597669523719
 10
88.71568736931414
 20
-115.7455620370358
 10
88.71568736931414
 20
-115.5848483326489
 10
88.71568736931414
 20
-115.3097574581517
 10
88.91446937881305
 20
-115.1743652055814
 10
89.18938799853599
 20
-115.1743652055814
 10
89.47291935697206
 20
-115.1743652055814
 10
89.66343313730637
 20
-115.3181979420906
 10
89.66343313730637
 20
-115.5848483326489
 10
89.66343313730637
 20
-115.7455620370358
 10
89.58488496024268
 20
-115.8597669523719
 10
89.46017250367663
 20
-115.9190225947182
 10
89.54905596719607
 20
-115.9698377531256
 10
89.70787486906609
 20
-116.0650946432928
 10
89.70787486906609
 20
-116.3274386644945
 10
89.70787486906609
 20
-116.7017482889669
 10
89.42847762521232
 20
-116.8181925163684
 10
89.18938799853599
 20
-116.8181925163684
 97
        0
 97
        0
 92
        1
 93
        1
 72
     4
 94
        3
 73
     0
 74
     1
 95
       17
 96
       13
 40
0.0
 40
0.0
 40
0.0
 40
0.0
 40
1.0
 40
1.0
 40
1.0
 40
2.0
 40
2.0
 40
2.0
 40
3.0
 40
3.0
 40
3.0
 40
4.0
 40
4.0
 40
4.0
 40
4.0
 10
89.18938799853599
 20
-116.0270263381807
 10
89.04572751680107
 20
-116.0270263381807
 10
88.8931097868045
 20
-116.1136704896348
 10
88.8931097868045
 20
-116.3167588684903
 10
88.8931097868045
 20
-116.5219143046369
 10
89.02023381021023
 20
-116.6235446214518
 10
89.18938799853599
 20
-116.6235446214518
 10
89.37542315473948
 20
-116.6235446214518
 10
89.48566621026748
 20
-116.5008992221769
 10
89.48566621026748
 20
-116.323132295138
 10
89.48566621026748
 20
-116.1009236363394
 10
89.32271319381516
 20
-116.0270263381807
 10
89.18938799853599
 20
-116.0270263381807
 97
        0
 97
        0
 92
        1
 93
        1
 72
     4
 94
        3
 73
     0
 74
     1
 95
       17
 96
       13
 40
0.0
 40
0.0
 40
0.0
 40
0.0
 40
1.0
 40
1.0
 40
1.0
 40
2.0
 40
2.0
 40
2.0
 40
3.0
 40
3.0
 40
3.0
 40
4.0
 40
4.0
 40
4.0
 40
4.0
 10
89.18938799853599
 20
-115.3669460432069
 10
89.02436792479253
 20
-115.3669460432069
 10
88.93961857585538
 20
-115.4620306785998
 10
88.93961857585538
 20
-115.5974229311701
 10
88.93961857585538
 20
-115.7202405852192
 10
89.0116210714971
 20
-115.8387518699118
 10
89.18938799853599
 20
-115.8387518699118
 10
89.36715492557488
 20
-115.8387518699118
 10
89.4391574212166
 20
-115.7202405852192
 10
89.4391574212166
 20
-115.5974229311701
 10
89.4391574212166
 20
-115.4620306785998
 10
89.35234101498831
 20
-115.3669460432069
 10
89.18938799853599
 20
-115.3669460432069
 97
        0
 97
        0
 75
     2
 76
     1
 98
        0
  0
ENDBLK
  5
E1
330
DE
100
AcDbEntity
  8
0
100
AcDbBlockEnd
  0
BLOCK
  5
F2
330
F0
100
AcDbEntity
  8
0
100
AcDbBlockBegin
  2
block 7
 70
     0
 10
0.0
 20
0.0
 30
0.0
  3
block 7
  1

  0
SPLINE
  5
F4
330
F0
100
AcDbEntity
  8
_U+30EC_U+30A4_U+30E4_U+30FC 1
370
     0
100
AcDbSpline
210
0.0
220
0.0
230
1.0
 70
    11
 71
     3
 72
    26
 73
    22
 74
     0
 42
0.0000000001
 43
0.0000000001
 12
1.0
 22
0.0
 32
0.0
 13
1.0
 23
0.0
 33
0.0
 40
0.0
 40
0.0
 40
0.0
 40
0.0
 40
1.0
 40
1.0
 40
1.0
 40
2.0
 40
2.0
 40
2.0
 40
3.0
 40
3.0
 40
3.0
 40
4.0
 40
4.0
 40
4.0
 40
5.0
 40
5.0
 40
5.0
 40
6.0
 40
6.0
 40
6.0
 40
7.0
 40
7.0
 40
7.0
 40
7.0
 10
104.8673285328109
 20
-130.2676730360095
 30
0.0
 10
104.8673285328109
 20
-130.2676730360095
 30
0.0
 10
103.7631754297884
 20
-130.2676730360095
 30
0.0
 10
103.7631754297884
 20
-130.2676730360095
 30
0.0
 10
103.7631754297884
 20
-130.2676730360095
 30
0.0
 10
103.7631754297884
 20
-130.6201063041505
 30
0.0
 10
103.7631754297884
 20
-130.6201063041505
 30
0.0
 10
103.7631754297884
 20
-130.6201063041505
 30
0.0
 10
103.6150363239226
 20
-130.6201063041505
 30
0.0
 10
103.6150363239226
 20
-130.6201063041505
 30
0.0
 10
103.6002224133361
 20
-130.2652614691698
 30
0.0
 10
103.4372693968837
 20
-130.2156520941822
 30
0.0
 10
103.3228922267734
 20
-130.1839572157179
 30
0.0
 10
103.3228922267734
 20
-130.1839572157179
 30
0.0
 10
103.3228922267734
 20
-130.0278943902361
 30
0.0
 10
103.3228922267734
 20
-130.0278943902361
 30
0.0
 10
103.3228922267734
 20
-130.0278943902361
 30
0.0
 10
104.8673285328109
 20
-130.0278943902361
 30
0.0
 10
104.8673285328109
 20
-130.0278943902361
 30
0.0
 10
104.8673285328109
 20
-130.0278943902361
 30
0.0
 10
104.8673285328109
 20
-130.2676730360095
 30
0.0
 10
104.8673285328109
 20
-130.2676730360095
 30
0.0
  0
HATCH
  5
F5
330
F0
100
AcDbEntity
  8
_U+30EC_U+30A4_U+30E4_U+30FC 1
 62
   179
420
  2234388
100
AcDbHatch
 10
0.0
 20
0.0
 30
0.0
210
0.0
220
0.0
230
1.0
  2
SOLID
 70
     1
 71
     0
 91
        1
 92
        1
 93
        1
 72
     4
 94
        3
 73
     0
 74
     1
 95
       26
 96
       22
 40
0.0
 40
0.0
 40
0.0
 40
0.0
 40
1.0
 40
1.0
 40
1.0
 40
2.0
 40
2.0
 40
2.0
 40
3.0
 40
3.0
 40
3.0
 40
4.0
 40
4.0
 40
4.0
 40
5.0
 40
5.0
 40
5.0
 40
6.0
 40
6.0
 40
6.0
 40
7.0
 40
7.0
 40
7.0
 40
7.0
 10
104.8673285328109
 20
-130.2676730360095
 10
104.8673285328109
 20
-130.2676730360095
 10
103.7631754297884
 20
-130.2676730360095
 10
103.7631754297884
 20
-130.2676730360095
 10
103.7631754297884
 20
-130.2676730360095
 10
103.7631754297884
 20
-130.6201063041505
 10
103.7631754297884
 20
-130.6201063041505
 10
103.7631754297884
 20
-130.6201063041505
 10
103.6150363239226
 20
-130.6201063041505
 10
103.6150363239226
 20
-130.6201063041505
 10
103.6002224133361
 20
-130.2652614691698
 10
103.4372693968837
 20
-130.2156520941822
 10
103.3228922267734
 20
-130.1839572157179
 10
103.3228922267734
 20
-130.1839572157179
 10
103.3228922267734
 20
-130.0278943902361
 10
103.3228922267734
 20
-130.0278943902361
 10
103.3228922267734
 20
-130.0278943902361
 10
104.8673285328109
 20
-130.0278943902361
 10
104.8673285328109
 20
-130.0278943902361
 10
104.8673285328109
 20
-130.0278943902361
 10
104.8673285328109
 20
-130.2676730360095
 10
104.8673285328109
 20
-130.2676730360095
 97
        0
 97
        0
 75
     2
 76
     1
 98
        0
  0
SPLINE
  5
F6
330
F0
100
AcDbEntity
  8
_U+30EC_U+30A4_U+30E4_U+30FC 1
370
     0
100
AcDbSpline
210
0.0
220
0.0
230
1.0
 70
    11
 71
     3
 72
    44
 73
    40
 74
     0
 42
0.0000000001
 43
0.0000000001
 12
1.0
 22
0.0
 32
0.0
 13
1.0
 23
0.0
 33
0.0
 40
0.0
 40
0.0
 40
0.0
 40
0.0
 40
1.0
 40
1.0
 40
1.0
 40
2.0
 40
2.0
 40
2.0
 40
3.0
 40
3.0
 40
3.0
 40
4.0
 40
4.0
 40
4.0
 40
5.0
 40
5.0
 40
5.0
 40
6.0
 40
6.0
 40
6.0
 40
7.0
 40
7.0
 40
7.0
 40
8.0
 40
8.0
 40
8.0
 40
9.0
 40
9.0
 40
9.0
 40
10.0
 40
10.0
 40
10.0
 40
11.0
 40
11.0
 40
11.0
 40
12.0
 40
12.0
 40
12.0
 40
13.0
 40
13.0
 40
13.0
 40
13.0
 10
104.2854519053522
 20
-128.8582844729938
 30
0.0
 10
104.4442708072223
 20
-129.0911729277967
 30
0.0
 10
104.5183403601551
 20
-129.1907361873204
 30
0.0
 10
104.6620008418901
 20
-129.2427571291477
 30
0.0
 10
104.6620008418901
 20
-129.2427571291477
 30
0.0
 10
104.6620008418901
 20
-128.4104220599113
 30
0.0
 10
104.6620008418901
 20
-128.4104220599113
 30
0.0
 10
104.6620008418901
 20
-128.4104220599113
 30
0.0
 10
104.8673285328109
 20
-128.4104220599113
 30
0.0
 10
104.8673285328109
 20
-128.4104220599113
 30
0.0
 10
104.8673285328109
 20
-128.4104220599113
 30
0.0
 10
104.8673285328109
 20
-129.509407519706
 30
0.0
 10
104.8673285328109
 20
-129.509407519706
 30
0.0
 10
104.509727621442
 20
-129.475301074402
 30
0.0
 10
104.4315239539268
 20
-129.4053656360514
 30
0.0
 10
104.1331786849042
 20
-128.9940212351126
 30
0.0
 10
103.9343966754053
 20
-128.7204806535838
 30
0.0
 10
103.8665282943459
 20
-128.6502007056847
 30
0.0
 10
103.7290689844844
 20
-128.6502007056847
 30
0.0
 10
103.6105576997918
 20
-128.6502007056847
 30
0.0
 10
103.4796440713523
 20
-128.7270263350057
 30
0.0
 10
103.4796440713523
 20
-128.9375216691545
 30
0.0
 10
103.4796440713523
 20
-129.2155408748142
 30
0.0
 10
103.7101209593155
 20
-129.2244981230758
 30
0.0
 10
103.826565186717
 20
-129.2289767472066
 30
0.0
 10
103.826565186717
 20
-129.2289767472066
 30
0.0
 10
103.826565186717
 20
-129.46875539298
 30
0.0
 10
103.826565186717
 20
-129.46875539298
 30
0.0
 10
103.6994411633112
 20
-129.4597981447184
 30
0.0
 10
103.5874755600406
 20
-129.4484293296171
 30
0.0
 10
103.468964275348
 20
-129.3623019424858
 30
0.0
 10
103.3080783161869
 20
-129.2448241864388
 30
0.0
 10
103.2743163804314
 20
-129.0460421769399
 30
0.0
 10
103.2743163804314
 20
-128.9216742299224
 30
0.0
 10
103.2743163804314
 20
-128.6253960181909
 30
0.0
 10
103.4582844793438
 20
-128.4038763784893
 30
0.0
 10
103.7311360417756
 20
-128.4038763784893
 30
0.0
 10
103.9598903819961
 20
-128.4038763784893
 30
0.0
 10
104.0591091319713
 20
-128.5282443255068
 30
0.0
 10
104.2854519053522
 20
-128.8582844729938
 30
0.0
  0
HATCH
  5
F7
330
F0
100
AcDbEntity
  8
_U+30EC_U+30A4_U+30E4_U+30FC 1
 62
   179
420
  2234388
100
AcDbHatch
 10
0.0
 20
0.0
 30
0.0
210
0.0
220
0.0
230
1.0
  2
SOLID
 70
     1
 71
     0
 91
        1
 92
        1
 93
        1
 72
     4
 94
        3
 73
     0
 74
     1
 95
       44
 96
       40
 40
0.0
 40
0.0
 40
0.0
 40
0.0
 40
1.0
 40
1.0
 40
1.0
 40
2.0
 40
2.0
 40
2.0
 40
3.0
 40
3.0
 40
3.0
 40
4.0
 40
4.0
 40
4.0
 40
5.0
 40
5.0
 40
5.0
 40
6.0
 40
6.0
 40
6.0
 40
7.0
 40
7.0
 40
7.0
 40
8.0
 40
8.0
 40
8.0
 40
9.0
 40
9.0
 40
9.0
 40
10.0
 40
10.0
 40
10.0
 40
11.0
 40
11.0
 40
11.0
 40
12.0
 40
12.0
 40
12.0
 40
13.0
 40
13.0
 40
13.0
 40
13.0
 10
104.2854519053522
 20
-128.8582844729938
 10
104.4442708072223
 20
-129.0911729277967
 10
104.5183403601551
 20
-129.1907361873204
 10
104.6620008418901
 20
-129.2427571291477
 10
104.6620008418901
 20
-129.2427571291477
 10
104.6620008418901
 20
-128.4104220599113
 10
104.6620008418901
 20
-128.4104220599113
 10
104.6620008418901
 20
-128.4104220599113
 10
104.8673285328109
 20
-128.4104220599113
 10
104.8673285328109
 20
-128.4104220599113
 10
104.8673285328109
 20
-128.4104220599113
 10
104.8673285328109
 20
-129.509407519706
 10
104.8673285328109
 20
-129.509407519706
 10
104.509727621442
 20
-129.475301074402
 10
104.4315239539268
 20
-129.4053656360514
 10
104.1331786849042
 20
-128.9940212351126
 10
103.9343966754053
 20
-128.7204806535838
 10
103.8665282943459
 20
-128.6502007056847
 10
103.7290689844844
 20
-128.6502007056847
 10
103.6105576997918
 20
-128.6502007056847
 10
103.4796440713523
 20
-128.7270263350057
 10
103.4796440713523
 20
-128.9375216691545
 10
103.4796440713523
 20
-129.2155408748142
 10
103.7101209593155
 20
-129.2244981230758
 10
103.826565186717
 20
-129.2289767472066
 10
103.826565186717
 20
-129.2289767472066
 10
103.826565186717
 20
-129.46875539298
 10
103.826565186717
 20
-129.46875539298
 10
103.6994411633112
 20
-129.4597981447184
 10
103.5874755600406
 20
-129.4484293296171
 10
103.468964275348
 20
-129.3623019424858
 10
103.3080783161869
 20
-129.2448241864388
 10
103.2743163804314
 20
-129.0460421769399
 10
103.2743163804314
 20
-128.9216742299224
 10
103.2743163804314
 20
-128.6253960181909
 10
103.4582844793438
 20
-128.4038763784893
 10
103.7311360417756
 20
-128.4038763784893
 10
103.9598903819961
 20
-128.4038763784893
 10
104.0591091319713
 20
-128.5282443255068
 10
104.2854519053522
 20
-128.8582844729938
 97
        0
 97
        0
 75
     2
 76
     1
 98
        0
  0
POLYLINE
  5
F8
330
F0
100
AcDbEntity
  8
_U+30EC_U+30A4_U+30E4_U+30FC 1
370
     0
100
AcDb2dPolyline
 66
     1
 10
0.0
 20
0.0
 30
0.0
  0
VERTEX
  5
F9
330
F8
100
AcDbEntity
  8
_U+30EC_U+30A4_U+30E4_U+30FC 1
370
     0
100
AcDbVertex
100
AcDb2dVertex
 10
104.8673285328109
 20
-128.1702989045894
 30
0.0
  0
VERTEX
  5
FA
330
F8
100
AcDbEntity
  8
_U+30EC_U+30A4_U+30E4_U+30FC 1
370
     0
100
AcDbVertex
100
AcDb2dVertex
 10
104.6154920528392
 20
-128.1702989045894
 30
0.0
  0
VERTEX
  5
FB
330
F8
100
AcDbEntity
  8
_U+30EC_U+30A4_U+30E4_U+30FC 1
370
     0
100
AcDbVertex
100
AcDb2dVertex
 10
104.6154920528392
 20
-127.9012369471914
 30
0.0
  0
VERTEX
  5
FC
330
F8
100
AcDbEntity
  8
_U+30EC_U+30A4_U+30E4_U+30FC 1
370
     0
100
AcDbVertex
100
AcDb2dVertex
 10
104.8673285328109
 20
-127.9012369471914
 30
0.0
  0
VERTEX
  5
FD
330
F8
100
AcDbEntity
  8
_U+30EC_U+30A4_U+30E4_U+30FC 1
370
     0
100
AcDbVertex
100
AcDb2dVertex
 10
104.8673285328109
 20
-128.1702989045894
 30
0.0
  0
SEQEND
  5
FE
330
F8
100
AcDbEntity
  8
_U+30EC_U+30A4_U+30E4_U+30FC 1
370
     0
  0
HATCH
  5
FF
330
F0
100
AcDbEntity
  8
_U+30EC_U+30A4_U+30E4_U+30FC 1
 62
   179
420
  2234388
100
AcDbHatch
 10
0.0
 20
0.0
 30
0.0
210
0.0
220
0.0
230
1.0
  2
SOLID
 70
     1
 71
     0
 91
        1
 92
        1
 93
        4
 72
     1
 10
104.8673285328109
 20
-128.1702989045894
 11
104.6154920528392
 21
-128.1702989045894
 72
     1
 10
104.6154920528392
 20
-128.1702989045894
 11
104.6154920528392
 21
-127.9012369471914
 72
     1
 10
104.6154920528392
 20
-127.9012369471914
 11
104.8673285328109
 21
-127.9012369471914
 72
     1
 10
104.8673285328109
 20
-127.9012369471914
 11
104.8673285328109
 21
-128.1702989045894
 97
        0
 75
     2
 76
     1
 98
        0
  0
SPLINE
  5
100
330
F0
100
AcDbEntity
  8
_U+30EC_U+30A4_U+30E4_U+30FC 1
370
     0
100
AcDbSpline
210
0.0
220
0.0
230
1.0
 70
    11
 71
     3
 72
    53
 73
    49
 74
     0
 42
0.0000000001
 43
0.0000000001
 12
1.0
 22
0.0
 32
0.0
 13
1.0
 23
0.0
 33
0.0
 40
0.0
 40
0.0
 40
0.0
 40
0.0
 40
1.0
 40
1.0
 40
1.0
 40
2.0
 40
2.0
 40
2.0
 40
3.0
 40
3.0
 40
3.0
 40
4.0
 40
4.0
 40
4.0
 40
5.0
 40
5.0
 40
5.0
 40
6.0
 40
6.0
 40
6.0
 40
7.0
 40
7.0
 40
7.0
 40
8.0
 40
8.0
 40
8.0
 40
9.0
 40
9.0
 40
9.0
 40
10.0
 40
10.0
 40
10.0
 40
11.0
 40
11.0
 40
11.0
 40
12.0
 40
12.0
 40
12.0
 40
13.0
 40
13.0
 40
13.0
 40
14.0
 40
14.0
 40
14.0
 40
15.0
 40
15.0
 40
15.0
 40
16.0
 40
16.0
 40
16.0
 40
16.0
 10
104.9179714364441
 20
-127.1343586921747
 30
0.0
 10
104.9179714364441
 20
-127.2177300029178
 30
0.0
 10
104.9010904685664
 20
-127.3265950202517
 30
0.0
 10
104.8377007116378
 20
-127.4347710184885
 30
0.0
 10
104.7278021656583
 20
-127.6204616651435
 30
0.0
 10
104.5965440276703
 20
-127.6428547857976
 30
0.0
 10
104.488712538982
 20
-127.6631808491606
 30
0.0
 10
104.488712538982
 20
-127.6631808491606
 30
0.0
 10
104.488712538982
 20
-127.4258137702269
 30
0.0
 10
104.488712538982
 20
-127.4258137702269
 30
0.0
 10
104.6874945484809
 20
-127.3672471469776
 30
0.0
 10
104.7171223696541
 20
-127.2315103848588
 30
0.0
 10
104.7171223696541
 20
-127.1319471253351
 30
0.0
 10
104.7171223696541
 20
-126.9827744908238
 30
0.0
 10
104.6175591101303
 20
-126.82016598392
 30
0.0
 10
104.385015164876
 20
-126.82016598392
 30
0.0
 10
104.1290445703219
 20
-126.82016598392
 30
0.0
 10
104.0591091319713
 20
-127.0120578024484
 30
0.0
 10
104.0591091319713
 20
-127.1409043735967
 30
0.0
 10
104.0591091319713
 20
-127.1750108189007
 30
0.0
 10
104.0591091319713
 20
-127.3265950202517
 30
0.0
 10
104.1883002126682
 20
-127.4213351460961
 30
0.0
 10
104.1883002126682
 20
-127.4213351460961
 30
0.0
 10
104.1693521874993
 20
-127.6090928500422
 30
0.0
 10
104.1693521874993
 20
-127.6090928500422
 30
0.0
 10
104.1693521874993
 20
-127.6090928500422
 30
0.0
 10
103.3228922267734
 20
-127.4802462788938
 30
0.0
 10
103.3228922267734
 20
-127.4802462788938
 30
0.0
 10
103.3228922267734
 20
-127.4802462788938
 30
0.0
 10
103.3228922267734
 20
-126.648255719206
 30
0.0
 10
103.3228922267734
 20
-126.648255719206
 30
0.0
 10
103.3228922267734
 20
-126.648255719206
 30
0.0
 10
103.5175401216901
 20
-126.648255719206
 30
0.0
 10
103.5175401216901
 20
-126.648255719206
 30
0.0
 10
103.5175401216901
 20
-126.648255719206
 30
0.0
 10
103.5175401216901
 20
-127.3059244473402
 30
0.0
 10
103.5175401216901
 20
-127.3059244473402
 30
0.0
 10
103.5175401216901
 20
-127.3059244473402
 30
0.0
 10
103.9405978472787
 20
-127.3762043952393
 30
0.0
 10
103.9405978472787
 20
-127.3762043952393
 30
0.0
 10
103.9068359115233
 20
-127.3107475810195
 30
0.0
 10
103.8665282943459
 20
-127.2225531365971
 30
0.0
 10
103.8665282943459
 20
-127.09577362274
 30
0.0
 10
103.8665282943459
 20
-126.8246446080508
 30
0.0
 10
104.0529079600979
 20
-126.5714300898849
 30
0.0
 10
104.3660671397071
 20
-126.5714300898849
 30
0.0
 10
104.6833604338986
 20
-126.5714300898849
 30
0.0
 10
104.9179714364441
 20
-126.8108642261098
 30
0.0
 10
104.9179714364441
 20
-127.1343586921747
 30
0.0
  0
HATCH
  5
101
330
F0
100
AcDbEntity
  8
_U+30EC_U+30A4_U+30E4_U+30FC 1
 62
   179
420
  2234388
100
AcDbHatch
 10
0.0
 20
0.0
 30
0.0
210
0.0
220
0.0
230
1.0
  2
SOLID
 70
     1
 71
     0
 91
        1
 92
        1
 93
        1
 72
     4
 94
        3
 73
     0
 74
     1
 95
       53
 96
       49
 40
0.0
 40
0.0
 40
0.0
 40
0.0
 40
1.0
 40
1.0
 40
1.0
 40
2.0
 40
2.0
 40
2.0
 40
3.0
 40
3.0
 40
3.0
 40
4.0
 40
4.0
 40
4.0
 40
5.0
 40
5.0
 40
5.0
 40
6.0
 40
6.0
 40
6.0
 40
7.0
 40
7.0
 40
7.0
 40
8.0
 40
8.0
 40
8.0
 40
9.0
 40
9.0
 40
9.0
 40
10.0
 40
10.0
 40
10.0
 40
11.0
 40
11.0
 40
11.0
 40
12.0
 40
12.0
 40
12.0
 40
13.0
 40
13.0
 40
13.0
 40
14.0
 40
14.0
 40
14.0
 40
15.0
 40
15.0
 40
15.0
 40
16.0
 40
16.0
 40
16.0
 40
16.0
 10
104.9179714364441
 20
-127.1343586921747
 10
104.9179714364441
 20
-127.2177300029178
 10
104.9010904685664
 20
-127.3265950202517
 10
104.8377007116378
 20
-127.4347710184885
 10
104.7278021656583
 20
-127.6204616651435
 10
104.5965440276703
 20
-127.6428547857976
 10
104.488712538982
 20
-127.6631808491606
 10
104.488712538982
 20
-127.6631808491606
 10
104.488712538982
 20
-127.4258137702269
 10
104.488712538982
 20
-127.4258137702269
 10
104.6874945484809
 20
-127.3672471469776
 10
104.7171223696541
 20
-127.2315103848588
 10
104.7171223696541
 20
-127.1319471253351
 10
104.7171223696541
 20
-126.9827744908238
 10
104.6175591101303
 20
-126.82016598392
 10
104.385015164876
 20
-126.82016598392
 10
104.1290445703219
 20
-126.82016598392
 10
104.0591091319713
 20
-127.0120578024484
 10
104.0591091319713
 20
-127.1409043735967
 10
104.0591091319713
 20
-127.1750108189007
 10
104.0591091319713
 20
-127.3265950202517
 10
104.1883002126682
 20
-127.4213351460961
 10
104.1883002126682
 20
-127.4213351460961
 10
104.1693521874993
 20
-127.6090928500422
 10
104.1693521874993
 20
-127.6090928500422
 10
104.1693521874993
 20
-127.6090928500422
 10
103.3228922267734
 20
-127.4802462788938
 10
103.3228922267734
 20
-127.4802462788938
 10
103.3228922267734
 20
-127.4802462788938
 10
103.3228922267734
 20
-126.648255719206
 10
103.3228922267734
 20
-126.648255719206
 10
103.3228922267734
 20
-126.648255719206
 10
103.5175401216901
 20
-126.648255719206
 10
103.5175401216901
 20
-126.648255719206
 10
103.5175401216901
 20
-126.648255719206
 10
103.5175401216901
 20
-127.3059244473402
 10
103.5175401216901
 20
-127.3059244473402
 10
103.5175401216901
 20
-127.3059244473402
 10
103.9405978472787
 20
-127.3762043952393
 10
103.9405978472787
 20
-127.3762043952393
 10
103.9068359115233
 20
-127.3107475810195
 10
103.8665282943459
 20
-127.2225531365971
 10
103.8665282943459
 20
-127.09577362274
 10
103.8665282943459
 20
-126.8246446080508
 10
104.0529079600979
 20
-126.5714300898849
 10
104.3660671397071
 20
-126.5714300898849
 10
104.6833604338986
 20
-126.5714300898849
 10
104.9179714364441
 20
-126.8108642261098
 10
104.9179714364441
 20
-127.1343586921747
 97
        0
 97
        0
 75
     2
 76
     1
 98
        0
  0
ENDBLK
  5
F3
330
F0
100
AcDbEntity
  8
0
100
AcDbBlockEnd
  0
ENDSEC
  0
SECTION
  2
ENTITIES
  0
INSERT
  5
42
330
1F
100
AcDbEntity
  8
_U+30EC_U+30A4_U+30E4_U+30FC 1
100
AcDbBlockReference
  2
block 2
 10
0.0
 20
0.0
 30
0.0
  0
POLYLINE
  5
48
330
1F
100
AcDbEntity
  8
_U+30EC_U+30A4_U+30E4_U+30FC 1
370
     0
100
AcDb2dPolyline
 66
     1
 10
0.0
 20
0.0
 30
0.0
  0
VERTEX
  5
49
330
48
100
AcDbEntity
  8
_U+30EC_U+30A4_U+30E4_U+30FC 1
370
     0
100
AcDbVertex
100
AcDb2dVertex
 10
74.60078587455317
 20
-122.41286580273
 30
0.0
  0
VERTEX
  5
4A
330
48
100
AcDbEntity
  8
_U+30EC_U+30A4_U+30E4_U+30FC 1
370
     0
100
AcDbVertex
100
AcDb2dVertex
 10
84.60154173052375
 20
-122.41286580273
 30
0.0
  0
VERTEX
  5
4B
330
48
100
AcDbEntity
  8
_U+30EC_U+30A4_U+30E4_U+30FC 1
370
     0
100
AcDbVertex
100
AcDb2dVertex
 10
84.60154173052375
 20
-137.8678838544219
 30
0.0
  0
VERTEX
  5
4C
330
48
100
AcDbEntity
  8
_U+30EC_U+30A4_U+30E4_U+30FC 1
370
     0
100
AcDbVertex
100
AcDb2dVertex
 10
90.60257379964689
 20
-137.8678838544219
 30
0.0
  0
VERTEX
  5
4D
330
48
100
AcDbEntity
  8
_U+30EC_U+30A4_U+30E4_U+30FC 1
370
     0
100
AcDbVertex
100
AcDb2dVertex
 10
90.60257379964689
 20
-134.9970841329176
 30
0.0
  0
VERTEX
  5
4E
330
48
100
AcDbEntity
  8
_U+30EC_U+30A4_U+30E4_U+30FC 1
370
     0
100
AcDbVertex
100
AcDb2dVertex
 10
89.6024488251622
 20
-134.9970841329176
 30
0.0
  0
VERTEX
  5
4F
330
48
100
AcDbEntity
  8
_U+30EC_U+30A4_U+30E4_U+30FC 1
370
     0
100
AcDbVertex
100
AcDb2dVertex
 10
89.6024488251622
 20
-136.9136199657716
 30
0.0
  0
VERTEX
  5
50
330
48
100
AcDbEntity
  8
_U+30EC_U+30A4_U+30E4_U+30FC 1
370
     0
100
AcDbVertex
100
AcDb2dVertex
 10
85.60166670500843
 20
-136.9136199657716
 30
0.0
  0
VERTEX
  5
51
330
48
100
AcDbEntity
  8
_U+30EC_U+30A4_U+30E4_U+30FC 1
370
     0
100
AcDbVertex
100
AcDb2dVertex
 10
85.60166670500843
 20
-122.41286580273
 30
0.0
  0
VERTEX
  5
52
330
48
100
AcDbEntity
  8
_U+30EC_U+30A4_U+30E4_U+30FC 1
370
     0
100
AcDbVertex
100
AcDb2dVertex
 10
102.6038971045787
 20
-122.41286580273
 30
0.0
  0
VERTEX
  5
53
330
48
100
AcDbEntity
  8
_U+30EC_U+30A4_U+30E4_U+30FC 1
370
     0
100
AcDbVertex
100
AcDb2dVertex
 10
102.6038971045787
 20
-121.4130935807578
 30
0.0
  0
VERTEX
  5
54
330
48
100
AcDbEntity
  8
_U+30EC_U+30A4_U+30E4_U+30FC 1
370
     0
100
AcDbVertex
100
AcDb2dVertex
 10
74.60078587455317
 20
-121.4130935807578
 30
0.0
  0
VERTEX
  5
55
330
48
100
AcDbEntity
  8
_U+30EC_U+30A4_U+30E4_U+30FC 1
370
     0
100
AcDbVertex
100
AcDb2dVertex
 10
74.60078587455317
 20
-122.41286580273
 30
0.0
  0
SEQEND
  5
57
330
48
100
AcDbEntity
  8
_U+30EC_U+30A4_U+30E4_U+30FC 1
370
     0
  0
HATCH
  5
56
330
1F
100
AcDbEntity
  8
_U+30EC_U+30A4_U+30E4_U+30FC 1
 62
   253
420
 11711154
100
AcDbHatch
 10
0.0
 20
0.0
 30
0.0
210
0.0
220
0.0
230
1.0
  2
SOLID
 70
     1
 71
     0
 91
        1
 92
        1
 93
       12
 72
     1
 10
74.60078587455317
 20
-122.41286580273
 11
84.60154173052375
 21
-122.41286580273
 72
     1
 10
84.60154173052375
 20
-122.41286580273
 11
84.60154173052375
 21
-137.8678838544219
 72
     1
 10
84.60154173052375
 20
-137.8678838544219
 11
90.60257379964689
 21
-137.8678838544219
 72
     1
 10
90.60257379964689
 20
-137.8678838544219
 11
90.60257379964689
 21
-134.9970841329176
 72
     1
 10
90.60257379964689
 20
-134.9970841329176
 11
89.6024488251622
 21
-134.9970841329176
 72
     1
 10
89.6024488251622
 20
-134.9970841329176
 11
89.6024488251622
 21
-136.9136199657716
 72
     1
 10
89.6024488251622
 20
-136.9136199657716
 11
85.60166670500843
 21
-136.9136199657716
 72
     1
 10
85.60166670500843
 20
-136.9136199657716
 11
85.60166670500843
 21
-122.41286580273
 72
     1
 10
85.60166670500843
 20
-122.41286580273
 11
102.6038971045787
 21
-122.41286580273
 72
     1
 10
102.6038971045787
 20
-122.41286580273
 11
102.6038971045787
 21
-121.4130935807578
 72
     1
 10
102.6038971045787
 20
-121.4130935807578
 11
74.60078587455317
 21
-121.4130935807578
 72
     1
 10
74.60078587455317
 20
-121.4130935807578
 11
74.60078587455317
 21
-122.41286580273
 97
        0
 75
     2
 76
     1
 98
        0
  0
POLYLINE
  5
58
330
1F
100
AcDbEntity
  8
_U+30EC_U+30A4_U+30E4_U+30FC 1
 62
   179
420
  2234388
370
    25
100
AcDb2dPolyline
 66
     1
 10
0.0
 20
0.0
 30
0.0
  0
VERTEX
  5
59
330
58
100
AcDbEntity
  8
_U+30EC_U+30A4_U+30E4_U+30FC 1
 62
   179
420
  2234388
370
    25
100
AcDbVertex
100
AcDb2dVertex
 10
74.60078587455317
 20
-121.4130935807578
 30
0.0
  0
VERTEX
  5
5A
330
58
100
AcDbEntity
  8
_U+30EC_U+30A4_U+30E4_U+30FC 1
 62
   179
420
  2234388
370
    25
100
AcDbVertex
100
AcDb2dVertex
 10
102.6038971045787
 20
-121.4130935807578
 30
0.0
  0
SEQEND
  5
5B
330
58
100
AcDbEntity
  8
_U+30EC_U+30A4_U+30E4_U+30FC 1
 62
   179
420
  2234388
370
    25
  0
POLYLINE
  5
5C
330
1F
100
AcDbEntity
  8
_U+30EC_U+30A4_U+30E4_U+30FC 1
 62
   179
420
  2234388
370
    25
100
AcDb2dPolyline
 66
     1
 10
0.0
 20
0.0
 30
0.0
  0
VERTEX
  5
5D
330
5C
100
AcDbEntity
  8
_U+30EC_U+30A4_U+30E4_U+30FC 1
 62
   179
420
  2234388
370
    25
100
AcDbVertex
100
AcDb2dVertex
 10
74.60078587455317
 20
-122.4135360805077
 30
0.0
  0
VERTEX
  5
5E
330
5C
100
AcDbEntity
  8
_U+30EC_U+30A4_U+30E4_U+30FC 1
 62
   179
420
  2234388
370
    25
100
AcDbVertex
100
AcDb2dVertex
 10
84.60154173052375
 20
-122.4135360805077
 30
0.0
  0
SEQEND
  5
5F
330
5C
100
AcDbEntity
  8
_U+30EC_U+30A4_U+30E4_U+30FC 1
 62
   179
420
  2234388
370
    25
  0
POLYLINE
  5
60
330
1F
100
AcDbEntity
  8
_U+30EC_U+30A4_U+30E4_U+30FC 1
 62
   179
420
  2234388
370
    25
100
AcDb2dPolyline
 66
     1
 10
0.0
 20
0.0
 30
0.0
  0
VERTEX
  5
61
330
60
100
AcDbEntity
  8
_U+30EC_U+30A4_U+30E4_U+30FC 1
 62
   179
420
  2234388
370
    25
100
AcDbVertex
100
AcDb2dVertex
 10
102.6038971045787
 20
-122.41286580273
 30
0.0
  0
VERTEX
  5
62
330
60
100
AcDbEntity
  8
_U+30EC_U+30A4_U+30E4_U+30FC 1
 62
   179
420
  2234388
370
    25
100
AcDbVertex
100
AcDb2dVertex
 10
102.6038971045787
 20
-121.4130935807578
 30
0.0
  0
SEQEND
  5
63
330
60
100
AcDbEntity
  8
_U+30EC_U+30A4_U+30E4_U+30FC 1
 62
   179
420
  2234388
370
    25
  0
POLYLINE
  5
64
330
1F
100
AcDbEntity
  8
_U+30EC_U+30A4_U+30E4_U+30FC 1
 62
   179
420
  2234388
370
    25
100
AcDb2dPolyline
 66
     1
 10
0.0
 20
0.0
 30
0.0
  0
VERTEX
  5
65
330
64
100
AcDbEntity
  8
_U+30EC_U+30A4_U+30E4_U+30FC 1
 62
   179
420
  2234388
370
    25
100
AcDbVertex
100
AcDb2dVertex
 10
85.60166670500843
 20
-122.4135360805077
 30
0.0
  0
VERTEX
  5
66
330
64
100
AcDbEntity
  8
_U+30EC_U+30A4_U+30E4_U+30FC 1
 62
   179
420
  2234388
370
    25
100
AcDbVertex
100
AcDb2dVertex
 10
102.6038971045787
 20
-122.4135360805077
 30
0.0
  0
SEQEND
  5
67
330
64
100
AcDbEntity
  8
_U+30EC_U+30A4_U+30E4_U+30FC 1
 62
   179
420
  2234388
370
    25
  0
POLYLINE
  5
68
330
1F
100
AcDbEntity
  8
_U+30EC_U+30A4_U+30E4_U+30FC 1
 62
   179
420
  2234388
370
    25
100
AcDb2dPolyline
 66
     1
 10
0.0
 20
0.0
 30
0.0
  0
VERTEX
  5
69
330
68
100
AcDbEntity
  8
_U+30EC_U+30A4_U+30E4_U+30FC 1
 62
   179
420
  2234388
370
    25
100
AcDbVertex
100
AcDb2dVertex
 10
74.60078587455317
 20
-122.4135360805077
 30
0.0
  0
VERTEX
  5
6A
330
68
100
AcDbEntity
  8
_U+30EC_U+30A4_U+30E4_U+30FC 1
 62
   179
420
  2234388
370
    25
100
AcDbVertex
100
AcDb2dVertex
 10
74.60078587455317
 20
-121.4137638585354
 30
0.0
  0
SEQEND
  5
6B
330
68
100
AcDbEntity
  8
_U+30EC_U+30A4_U+30E4_U+30FC 1
 62
   179
420
  2234388
370
    25
  0
POLYLINE
  5
6C
330
1F
100
AcDbEntity
  8
_U+30EC_U+30A4_U+30E4_U+30FC 1
 62
   179
420
  2234388
370
    25
100
AcDb2dPolyline
 66
     1
 10
0.0
 20
0.0
 30
0.0
  0
VERTEX
  5
6D
330
6C
100
AcDbEntity
  8
_U+30EC_U+30A4_U+30E4_U+30FC 1
 62
   179
420
  2234388
370
    25
100
AcDbVertex
100
AcDb2dVertex
 10
84.60154173052375
 20
-137.913356909966
 30
0.0
  0
VERTEX
  5
6E
330
6C
100
AcDbEntity
  8
_U+30EC_U+30A4_U+30E4_U+30FC 1
 62
   179
420
  2234388
370
    25
100
AcDbVertex
100
AcDb2dVertex
 10
84.60154173052375
 20
-122.41286580273
 30
0.0
  0
SEQEND
  5
6F
330
6C
100
AcDbEntity
  8
_U+30EC_U+30A4_U+30E4_U+30FC 1
 62
   179
420
  2234388
370
    25
  0
POLYLINE
  5
70
330
1F
100
AcDbEntity
  8
_U+30EC_U+30A4_U+30E4_U+30FC 1
 62
   179
420
  2234388
370
    25
100
AcDb2dPolyline
 66
     1
 10
0.0
 20
0.0
 30
0.0
  0
VERTEX
  5
71
330
70
100
AcDbEntity
  8
_U+30EC_U+30A4_U+30E4_U+30FC 1
 62
   179
420
  2234388
370
    25
100
AcDbVertex
100
AcDb2dVertex
 10
89.6024488251622
 20
-134.9133699662716
 30
0.0
  0
VERTEX
  5
72
330
70
100
AcDbEntity
  8
_U+30EC_U+30A4_U+30E4_U+30FC 1
 62
   179
420
  2234388
370
    25
100
AcDbVertex
100
AcDb2dVertex
 10
90.60257379964689
 20
-134.9133699662716
 30
0.0
  0
SEQEND
  5
73
330
70
100
AcDbEntity
  8
_U+30EC_U+30A4_U+30E4_U+30FC 1
 62
   179
420
  2234388
370
    25
  0
POLYLINE
  5
74
330
1F
100
AcDbEntity
  8
_U+30EC_U+30A4_U+30E4_U+30FC 1
 62
   179
420
  2234388
370
    25
100
AcDb2dPolyline
 66
     1
 10
0.0
 20
0.0
 30
0.0
  0
VERTEX
  5
75
330
74
100
AcDbEntity
  8
_U+30EC_U+30A4_U+30E4_U+30FC 1
 62
   179
420
  2234388
370
    25
100
AcDbVertex
100
AcDb2dVertex
 10
84.60154173052375
 20
-137.913356909966
 30
0.0
  0
VERTEX
  5
76
330
74
100
AcDbEntity
  8
_U+30EC_U+30A4_U+30E4_U+30FC 1
 62
   179
420
  2234388
370
    25
100
AcDbVertex
100
AcDb2dVertex
 10
90.60257379964689
 20
-137.913356909966
 30
0.0
  0
SEQEND
  5
77
330
74
100
AcDbEntity
  8
_U+30EC_U+30A4_U+30E4_U+30FC 1
 62
   179
420
  2234388
370
    25
  0
POLYLINE
  5
78
330
1F
100
AcDbEntity
  8
_U+30EC_U+30A4_U+30E4_U+30FC 1
 62
   179
420
  2234388
370
    25
100
AcDb2dPolyline
 66
     1
 10
0.0
 20
0.0
 30
0.0
  0
VERTEX
  5
79
330
78
100
AcDbEntity
  8
_U+30EC_U+30A4_U+30E4_U+30FC 1
 62
   179
420
  2234388
370
    25
100
AcDbVertex
100
AcDb2dVertex
 10
85.60166670500843
 20
-136.9136199657716
 30
0.0
  0
VERTEX
  5
7A
330
78
100
AcDbEntity
  8
_U+30EC_U+30A4_U+30E4_U+30FC 1
 62
   179
420
  2234388
370
    25
100
AcDbVertex
100
AcDb2dVertex
 10
89.6024488251622
 20
-136.9136199657716
 30
0.0
  0
SEQEND
  5
7B
330
78
100
AcDbEntity
  8
_U+30EC_U+30A4_U+30E4_U+30FC 1
 62
   179
420
  2234388
370
    25
  0
POLYLINE
  5
7C
330
1F
100
AcDbEntity
  8
_U+30EC_U+30A4_U+30E4_U+30FC 1
 62
   179
420
  2234388
370
    25
100
AcDb2dPolyline
 66
     1
 10
0.0
 20
0.0
 30
0.0
  0
VERTEX
  5
7D
330
7C
100
AcDbEntity
  8
_U+30EC_U+30A4_U+30E4_U+30FC 1
 62
   179
420
  2234388
370
    25
100
AcDbVertex
100
AcDb2dVertex
 10
90.60257379964689
 20
-137.913356909966
 30
0.0
  0
VERTEX
  5
7E
330
7C
100
AcDbEntity
  8
_U+30EC_U+30A4_U+30E4_U+30FC 1
 62
   179
420
  2234388
370
    25
100
AcDbVertex
100
AcDb2dVertex
 10
90.60257379964689
 20
-134.9133699662716
 30
0.0
  0
SEQEND
  5
7F
330
7C
100
AcDbEntity
  8
_U+30EC_U+30A4_U+30E4_U+30FC 1
 62
   179
420
  2234388
370
    25
  0
POLYLINE
  5
80
330
1F
100
AcDbEntity
  8
_U+30EC_U+30A4_U+30E4_U+30FC 1
 62
   179
420
  2234388
370
    25
100
AcDb2dPolyline
 66
     1
 10
0.0
 20
0.0
 30
0.0
  0
VERTEX
  5
81
330
80
100
AcDbEntity
  8
_U+30EC_U+30A4_U+30E4_U+30FC 1
 62
   179
420
  2234388
370
    25
100
AcDbVertex
100
AcDb2dVertex
 10
89.6024488251622
 20
-136.9136199657716
 30
0.0
  0
VERTEX
  5
82
330
80
100
AcDbEntity
  8
_U+30EC_U+30A4_U+30E4_U+30FC 1
 62
   179
420
  2234388
370
    25
100
AcDbVertex
100
AcDb2dVertex
 10
89.6024488251622
 20
-134.9133699662716
 30
0.0
  0
SEQEND
  5
83
330
80
100
AcDbEntity
  8
_U+30EC_U+30A4_U+30E4_U+30FC 1
 62
   179
420
  2234388
370
    25
  0
POLYLINE
  5
84
330
1F
100
AcDbEntity
  8
_U+30EC_U+30A4_U+30E4_U+30FC 1
 62
   179
420
  2234388
370
    25
100
AcDb2dPolyline
 66
     1
 10
0.0
 20
0.0
 30
0.0
  0
VERTEX
  5
85
330
84
100
AcDbEntity
  8
_U+30EC_U+30A4_U+30E4_U+30FC 1
 62
   179
420
  2234388
370
    25
100
AcDbVertex
100
AcDb2dVertex
 10
85.60166670500843
 20
-128.290531634594
 30
0.0
  0
VERTEX
  5
86
330
84
100
AcDbEntity
  8
_U+30EC_U+30A4_U+30E4_U+30FC 1
 62
   179
420
  2234388
370
    25
100
AcDbVertex
100
AcDb2dVertex
 10
85.60166670500843
 20
-122.41286580273
 30
0.0
  0
SEQEND
  5
87
330
84
100
AcDbEntity
  8
_U+30EC_U+30A4_U+30E4_U+30FC 1
 62
   179
420
  2234388
370
    25
  0
POLYLINE
  5
88
330
1F
100
AcDbEntity
  8
_U+30EC_U+30A4_U+30E4_U+30FC 1
 62
   179
420
  2234388
370
    25
100
AcDb2dPolyline
 66
     1
 10
0.0
 20
0.0
 30
0.0
  0
VERTEX
  5
89
330
88
100
AcDbEntity
  8
_U+30EC_U+30A4_U+30E4_U+30FC 1
 62
   179
420
  2234388
370
    25
100
AcDbVertex
100
AcDb2dVertex
 10
85.60166670500843
 20
-136.9136199657716
 30
0.0
  0
VERTEX
  5
8A
330
88
100
AcDbEntity
  8
_U+30EC_U+30A4_U+30E4_U+30FC 1
 62
   179
420
  2234388
370
    25
100
AcDbVertex
100
AcDb2dVertex
 10
85.60166670500843
 20
-129.0367271899631
 30
0.0
  0
SEQEND
  5
8B
330
88
100
AcDbEntity
  8
_U+30EC_U+30A4_U+30E4_U+30FC 1
 62
   179
420
  2234388
370
    25
  0
SPLINE
  5
8C
330
1F
100
AcDbEntity
  8
_U+30EC_U+30A4_U+30E4_U+30FC 1
 62
   179
420
  2234388
370
     9
100
AcDbSpline
210
0.0
220
0.0
230
1.0
 70
    11
 71
     3
 72
    17
 73
    13
 74
     0
 42
0.0000000001
 43
0.0000000001
 12
1.0
 22
0.0
 32
0.0
 13
1.0
 23
0.0
 33
0.0
 40
0.0
 40
0.0
 40
0.0
 40
0.0
 40
1.0
 40
1.0
 40
1.0
 40
2.0
 40
2.0
 40
2.0
 40
3.0
 40
3.0
 40
3.0
 40
4.0
 40
4.0
 40
4.0
 40
4.0
 10
74.70069442576927
 20
-117.4133344150912
 30
0.0
 10
74.70069442576927
 20
-117.3581952484381
 30
0.0
 10
74.65589164800255
 20
-117.3134277484496
 30
0.0
 10
74.60078587455317
 20
-117.3134277484496
 30
0.0
 10
74.54564670929322
 20
-117.3134277484496
 30
0.0
 10
74.50087921043533
 20
-117.3581952484381
 30
0.0
 10
74.50087921043533
 20
-117.4133344150912
 30
0.0
 10
74.50087921043533
 20
-117.4691438595216
 30
0.0
 10
74.54564670929322
 20
-117.513946637288
 30
0.0
 10
74.60078587455317
 20
-117.513946637288
 30
0.0
 10
74.65589164800255
 20
-117.513946637288
 30
0.0
 10
74.70069442576927
 20
-117.4691438595216
 30
0.0
 10
74.70069442576927
 20
-117.4133344150912
 30
0.0
  0
SPLINE
  5
8D
330
1F
100
AcDbEntity
  8
_U+30EC_U+30A4_U+30E4_U+30FC 1
 62
   179
420
  2234388
370
     9
100
AcDbSpline
210
0.0
220
0.0
230
1.0
 70
    11
 71
     3
 72
    17
 73
    13
 74
     0
 42
0.0000000001
 43
0.0000000001
 12
1.0
 22
0.0
 32
0.0
 13
1.0
 23
0.0
 33
0.0
 40
0.0
 40
0.0
 40
0.0
 40
0.0
 40
1.0
 40
1.0
 40
1.0
 40
2.0
 40
2.0
 40
2.0
 40
3.0
 40
3.0
 40
3.0
 40
4.0
 40
4.0
 40
4.0
 40
4.0
 10
102.7038037686966
 20
-117.4133344150912
 30
0.0
 10
102.7038037686966
 20
-117.3581952484381
 30
0.0
 10
102.6590388632243
 20
-117.3134277484496
 30
0.0
 10
102.6038971045787
 20
-117.3134277484496
 30
0.0
 10
102.5487932170957
 20
-117.3134277484496
 30
0.0
 10
102.5039904404609
 20
-117.3581952484381
 30
0.0
 10
102.5039904404609
 20
-117.4133344150912
 30
0.0
 10
102.5039904404609
 20
-117.4691438595216
 30
0.0
 10
102.5487932170957
 20
-117.513946637288
 30
0.0
 10
102.6038971045787
 20
-117.513946637288
 30
0.0
 10
102.6590388632243
 20
-117.513946637288
 30
0.0
 10
102.7038037686966
 20
-117.4691438595216
 30
0.0
 10
102.7038037686966
 20
-117.4133344150912
 30
0.0
  0
SPLINE
  5
8E
330
1F
100
AcDbEntity
  8
_U+30EC_U+30A4_U+30E4_U+30FC 1
 62
   179
420
  2234388
370
     9
100
AcDbSpline
210
0.0
220
0.0
230
1.0
 70
    11
 71
     3
 72
    17
 73
    13
 74
     0
 42
0.0000000001
 43
0.0000000001
 12
1.0
 22
0.0
 32
0.0
 13
1.0
 23
0.0
 33
0.0
 40
0.0
 40
0.0
 40
0.0
 40
0.0
 40
1.0
 40
1.0
 40
1.0
 40
2.0
 40
2.0
 40
2.0
 40
3.0
 40
3.0
 40
3.0
 40
4.0
 40
4.0
 40
4.0
 40
4.0
 10
106.7042683888584
 20
-121.4130935807578
 30
0.0
 10
106.7042683888584
 20
-121.357954414105
 30
0.0
 10
106.6587600566861
 20
-121.3131869141161
 30
0.0
 10
106.6043264469637
 20
-121.3131869141161
 30
0.0
 10
106.5485170039431
 20
-121.3131869141161
 30
0.0
 10
106.5044197828459
 20
-121.357954414105
 30
0.0
 10
106.5044197828459
 20
-121.4130935807578
 30
0.0
 10
106.5044197828459
 20
-121.468197469633
 30
0.0
 10
106.5485170039431
 20
-121.5130002473994
 30
0.0
 10
106.6043264469637
 20
-121.5130002473994
 30
0.0
 10
106.6587600566861
 20
-121.5130002473994
 30
0.0
 10
106.7042683888584
 20
-121.468197469633
 30
0.0
 10
106.7042683888584
 20
-121.4130935807578
 30
0.0
  0
SPLINE
  5
8F
330
1F
100
AcDbEntity
  8
_U+30EC_U+30A4_U+30E4_U+30FC 1
 62
   179
420
  2234388
370
     9
100
AcDbSpline
210
0.0
220
0.0
230
1.0
 70
    11
 71
     3
 72
    17
 73
    13
 74
     0
 42
0.0000000001
 43
0.0000000001
 12
1.0
 22
0.0
 32
0.0
 13
1.0
 23
0.0
 33
0.0
 40
0.0
 40
0.0
 40
0.0
 40
0.0
 40
1.0
 40
1.0
 40
1.0
 40
2.0
 40
2.0
 40
2.0
 40
3.0
 40
3.0
 40
3.0
 40
4.0
 40
4.0
 40
4.0
 40
4.0
 10
106.7042683888584
 20
-122.41286580273
 30
0.0
 10
106.7042683888584
 20
-122.3577266360772
 30
0.0
 10
106.6587600566861
 20
-122.3129591360883
 30
0.0
 10
106.6043264469637
 20
-122.3129591360883
 30
0.0
 10
106.5485170039431
 20
-122.3129591360883
 30
0.0
 10
106.5044197828459
 20
-122.3577266360772
 30
0.0
 10
106.5044197828459
 20
-122.41286580273
 30
0.0
 10
106.5044197828459
 20
-122.4686752471607
 30
0.0
 10
106.5485170039431
 20
-122.5134427471493
 30
0.0
 10
106.6043264469637
 20
-122.5134427471493
 30
0.0
 10
106.6587600566861
 20
-122.5134427471493
 30
0.0
 10
106.7042683888584
 20
-122.4686752471607
 30
0.0
 10
106.7042683888584
 20
-122.41286580273
 30
0.0
  0
SPLINE
  5
90
330
1F
100
AcDbEntity
  8
_U+30EC_U+30A4_U+30E4_U+30FC 1
 62
   179
420
  2234388
370
     9
100
AcDbSpline
210
0.0
220
0.0
230
1.0
 70
    11
 71
     3
 72
    17
 73
    13
 74
     0
 42
0.0000000001
 43
0.0000000001
 12
1.0
 22
0.0
 32
0.0
 13
1.0
 23
0.0
 33
0.0
 40
0.0
 40
0.0
 40
0.0
 40
0.0
 40
1.0
 40
1.0
 40
1.0
 40
2.0
 40
2.0
 40
2.0
 40
3.0
 40
3.0
 40
3.0
 40
4.0
 40
4.0
 40
4.0
 40
4.0
 10
106.7042683888584
 20
-134.9133699662716
 30
0.0
 10
106.7042683888584
 20
-134.8582660773967
 30
0.0
 10
106.6587600566861
 20
-134.81346329963
 30
0.0
 10
106.6043264469637
 20
-134.81346329963
 30
0.0
 10
106.5485170039431
 20
-134.81346329963
 30
0.0
 10
106.5044197828459
 20
-134.8582660773967
 30
0.0
 10
106.5044197828459
 20
-134.9133699662716
 30
0.0
 10
106.5044197828459
 20
-134.9685091329247
 30
0.0
 10
106.5485170039431
 20
-135.0132766329133
 30
0.0
 10
106.6043264469637
 20
-135.0132766329133
 30
0.0
 10
106.6587600566861
 20
-135.0132766329133
 30
0.0
 10
106.7042683888584
 20
-134.9685091329247
 30
0.0
 10
106.7042683888584
 20
-134.9133699662716
 30
0.0
  0
SPLINE
  5
91
330
1F
100
AcDbEntity
  8
_U+30EC_U+30A4_U+30E4_U+30FC 1
 62
   179
420
  2234388
370
     9
100
AcDbSpline
210
0.0
220
0.0
230
1.0
 70
    11
 71
     3
 72
    17
 73
    13
 74
     0
 42
0.0000000001
 43
0.0000000001
 12
1.0
 22
0.0
 32
0.0
 13
1.0
 23
0.0
 33
0.0
 40
0.0
 40
0.0
 40
0.0
 40
0.0
 40
1.0
 40
1.0
 40
1.0
 40
2.0
 40
2.0
 40
2.0
 40
3.0
 40
3.0
 40
3.0
 40
4.0
 40
4.0
 40
4.0
 40
4.0
 10
106.7042683888584
 20
-137.913356909966
 30
0.0
 10
106.7042683888584
 20
-137.8582530210911
 30
0.0
 10
106.6587600566861
 20
-137.8134502433243
 30
0.0
 10
106.6043264469637
 20
-137.8134502433243
 30
0.0
 10
106.5485170039431
 20
-137.8134502433243
 30
0.0
 10
106.5044197828459
 20
-137.8582530210911
 30
0.0
 10
106.5044197828459
 20
-137.913356909966
 30
0.0
 10
106.5044197828459
 20
-137.968496076619
 30
0.0
 10
106.5485170039431
 20
-138.0132988543858
 30
0.0
 10
106.6043264469637
 20
-138.0132988543858
 30
0.0
 10
106.6587600566861
 20
-138.0132988543858
 30
0.0
 10
106.7042683888584
 20
-137.968496076619
 30
0.0
 10
106.7042683888584
 20
-137.913356909966
 30
0.0
  0
SPLINE
  5
92
330
1F
100
AcDbEntity
  8
_U+30EC_U+30A4_U+30E4_U+30FC 1
 62
   179
420
  2234388
370
     9
100
AcDbSpline
210
0.0
220
0.0
230
1.0
 70
    11
 71
     3
 72
    17
 73
    13
 74
     0
 42
0.0000000001
 43
0.0000000001
 12
1.0
 22
0.0
 32
0.0
 13
1.0
 23
0.0
 33
0.0
 40
0.0
 40
0.0
 40
0.0
 40
0.0
 40
1.0
 40
1.0
 40
1.0
 40
2.0
 40
2.0
 40
2.0
 40
3.0
 40
3.0
 40
3.0
 40
4.0
 40
4.0
 40
4.0
 40
4.0
 10
84.70144839464157
 20
-141.9131160756328
 30
0.0
 10
84.70144839464157
 20
-141.8580121867579
 30
0.0
 10
84.6566808957837
 20
-141.8132094089912
 30
0.0
 10
84.60154173052375
 20
-141.8132094089912
 30
0.0
 10
84.54643784304068
 20
-141.8132094089912
 30
0.0
 10
84.50163506640591
 20
-141.8580121867579
 30
0.0
 10
84.50163506640591
 20
-141.9131160756328
 30
0.0
 10
84.50163506640591
 20
-141.9682552422859
 30
0.0
 10
84.54643784304068
 20
-142.0130227422745
 30
0.0
 10
84.60154173052375
 20
-142.0130227422745
 30
0.0
 10
84.6566808957837
 20
-142.0130227422745
 30
0.0
 10
84.70144839464157
 20
-141.9682552422859
 30
0.0
 10
84.70144839464157
 20
-141.9131160756328
 30
0.0
  0
SPLINE
  5
93
330
1F
100
AcDbEntity
  8
_U+30EC_U+30A4_U+30E4_U+30FC 1
 62
   179
420
  2234388
370
     9
100
AcDbSpline
210
0.0
220
0.0
230
1.0
 70
    11
 71
     3
 72
    17
 73
    13
 74
     0
 42
0.0000000001
 43
0.0000000001
 12
1.0
 22
0.0
 32
0.0
 13
1.0
 23
0.0
 33
0.0
 40
0.0
 40
0.0
 40
0.0
 40
0.0
 40
1.0
 40
1.0
 40
1.0
 40
2.0
 40
2.0
 40
2.0
 40
3.0
 40
3.0
 40
3.0
 40
4.0
 40
4.0
 40
4.0
 40
4.0
 10
90.70248046376472
 20
-141.9131160756328
 30
0.0
 10
90.70248046376472
 20
-141.8580121867579
 30
0.0
 10
90.65767768712996
 20
-141.8132094089912
 30
0.0
 10
90.60257379964689
 20
-141.8132094089912
 30
0.0
 10
90.54743463438693
 20
-141.8132094089912
 30
0.0
 10
90.50266942181867
 20
-141.8580121867579
 30
0.0
 10
90.50266942181867
 20
-141.9131160756328
 30
0.0
 10
90.50266942181867
 20
-141.9682552422859
 30
0.0
 10
90.54743463438693
 20
-142.0130227422745
 30
0.0
 10
90.60257379964689
 20
-142.0130227422745
 30
0.0
 10
90.65767768712996
 20
-142.0130227422745
 30
0.0
 10
90.70248046376472
 20
-141.9682552422859
 30
0.0
 10
90.70248046376472
 20
-141.9131160756328
 30
0.0
  0
SPLINE
  5
94
330
1F
100
AcDbEntity
  8
_U+30EC_U+30A4_U+30E4_U+30FC 1
 62
   179
420
  2234388
370
     9
100
AcDbSpline
210
0.0
220
0.0
230
1.0
 70
    11
 71
     3
 72
    17
 73
    13
 74
     0
 42
0.0000000001
 43
0.0000000001
 12
1.0
 22
0.0
 32
0.0
 13
1.0
 23
0.0
 33
0.0
 40
0.0
 40
0.0
 40
0.0
 40
0.0
 40
1.0
 40
1.0
 40
1.0
 40
2.0
 40
2.0
 40
2.0
 40
3.0
 40
3.0
 40
3.0
 40
4.0
 40
4.0
 40
4.0
 40
4.0
 10
74.70069442576927
 20
-141.9131160756328
 30
0.0
 10
74.70069442576927
 20
-141.8580121867579
 30
0.0
 10
74.65589164800255
 20
-141.8132094089912
 30
0.0
 10
74.60078587455317
 20
-141.8132094089912
 30
0.0
 10
74.54564670929322
 20
-141.8132094089912
 30
0.0
 10
74.50087921043533
 20
-141.8580121867579
 30
0.0
 10
74.50087921043533
 20
-141.9131160756328
 30
0.0
 10
74.50087921043533
 20
-141.9682552422859
 30
0.0
 10
74.54564670929322
 20
-142.0130227422745
 30
0.0
 10
74.60078587455317
 20
-142.0130227422745
 30
0.0
 10
74.65589164800255
 20
-142.0130227422745
 30
0.0
 10
74.70069442576927
 20
-141.9682552422859
 30
0.0
 10
74.70069442576927
 20
-141.9131160756328
 30
0.0
  0
POLYLINE
  5
95
330
1F
100
AcDbEntity
  8
_U+30EC_U+30A4_U+30E4_U+30FC 1
 62
   179
420
  2234388
370
     9
100
AcDb2dPolyline
 66
     1
 10
0.0
 20
0.0
 30
0.0
  0
VERTEX
  5
96
330
95
100
AcDbEntity
  8
_U+30EC_U+30A4_U+30E4_U+30FC 1
 62
   179
420
  2234388
370
     9
100
AcDbVertex
100
AcDb2dVertex
 10
106.6043264469637
 20
-117.6427810817003
 30
0.0
  0
VERTEX
  5
97
330
95
100
AcDbEntity
  8
_U+30EC_U+30A4_U+30E4_U+30FC 1
 62
   179
420
  2234388
370
     9
100
AcDbVertex
100
AcDb2dVertex
 10
106.6043264469637
 20
-122.41286580273
 30
0.0
  0
SEQEND
  5
98
330
95
100
AcDbEntity
  8
_U+30EC_U+30A4_U+30E4_U+30FC 1
 62
   179
420
  2234388
370
     9
  0
POLYLINE
  5
99
330
1F
100
AcDbEntity
  8
_U+30EC_U+30A4_U+30E4_U+30FC 1
 62
   179
420
  2234388
370
     9
100
AcDb2dPolyline
 66
     1
 10
0.0
 20
0.0
 30
0.0
  0
VERTEX
  5
9A
330
99
100
AcDbEntity
  8
_U+30EC_U+30A4_U+30E4_U+30FC 1
 62
   179
420
  2234388
370
     9
100
AcDbVertex
100
AcDb2dVertex
 10
105.1436148175629
 20
-121.4130935807578
 30
0.0
  0
VERTEX
  5
9B
330
99
100
AcDbEntity
  8
_U+30EC_U+30A4_U+30E4_U+30FC 1
 62
   179
420
  2234388
370
     9
100
AcDbVertex
100
AcDb2dVertex
 10
107.6040986436796
 20
-121.4130935807578
 30
0.0
  0
SEQEND
  5
9C
330
99
100
AcDbEntity
  8
_U+30EC_U+30A4_U+30E4_U+30FC 1
 62
   179
420
  2234388
370
     9
  0
POLYLINE
  5
9D
330
1F
100
AcDbEntity
  8
_U+30EC_U+30A4_U+30E4_U+30FC 1
 62
   179
420
  2234388
370
     9
100
AcDb2dPolyline
 66
     1
 10
0.0
 20
0.0
 30
0.0
  0
VERTEX
  5
9E
330
9D
100
AcDbEntity
  8
_U+30EC_U+30A4_U+30E4_U+30FC 1
 62
   179
420
  2234388
370
     9
100
AcDbVertex
100
AcDb2dVertex
 10
105.1436148175629
 20
-122.41286580273
 30
0.0
  0
VERTEX
  5
9F
330
9D
100
AcDbEntity
  8
_U+30EC_U+30A4_U+30E4_U+30FC 1
 62
   179
420
  2234388
370
     9
100
AcDbVertex
100
AcDb2dVertex
 10
107.6040986436796
 20
-122.4135360805077
 30
0.0
  0
SEQEND
  5
A0
330
9D
100
AcDbEntity
  8
_U+30EC_U+30A4_U+30E4_U+30FC 1
 62
   179
420
  2234388
370
     9
  0
INSERT
  5
A2
330
1F
100
AcDbEntity
  8
_U+30EC_U+30A4_U+30E4_U+30FC 1
100
AcDbBlockReference
  2
block 3
 10
0.0
 20
0.0
 30
0.0
  0
POLYLINE
  5
A7
330
1F
100
AcDbEntity
  8
_U+30EC_U+30A4_U+30E4_U+30FC 1
 62
   179
420
  2234388
370
     9
100
AcDb2dPolyline
 66
     1
 10
0.0
 20
0.0
 30
0.0
  0
VERTEX
  5
A8
330
A7
100
AcDbEntity
  8
_U+30EC_U+30A4_U+30E4_U+30FC 1
 62
   179
420
  2234388
370
     9
100
AcDbVertex
100
AcDb2dVertex
 10
106.6043264469637
 20
-137.913356909966
 30
0.0
  0
VERTEX
  5
A9
330
A7
100
AcDbEntity
  8
_U+30EC_U+30A4_U+30E4_U+30FC 1
 62
   179
420
  2234388
370
     9
100
AcDbVertex
100
AcDb2dVertex
 10
106.6043264469637
 20
-134.9133699662716
 30
0.0
  0
SEQEND
  5
AA
330
A7
100
AcDbEntity
  8
_U+30EC_U+30A4_U+30E4_U+30FC 1
 62
   179
420
  2234388
370
     9
  0
POLYLINE
  5
AB
330
1F
100
AcDbEntity
  8
_U+30EC_U+30A4_U+30E4_U+30FC 1
 62
   179
420
  2234388
370
     9
100
AcDb2dPolyline
 66
     1
 10
0.0
 20
0.0
 30
0.0
  0
VERTEX
  5
AC
330
AB
100
AcDbEntity
  8
_U+30EC_U+30A4_U+30E4_U+30FC 1
 62
   179
420
  2234388
370
     9
100
AcDbVertex
100
AcDb2dVertex
 10
92.14354237144461
 20
-137.913356909966
 30
0.0
  0
VERTEX
  5
AD
330
AB
100
AcDbEntity
  8
_U+30EC_U+30A4_U+30E4_U+30FC 1
 62
   179
420
  2234388
370
     9
100
AcDbVertex
100
AcDb2dVertex
 10
107.6040986436796
 20
-137.913356909966
 30
0.0
  0
SEQEND
  5
AE
330
AB
100
AcDbEntity
  8
_U+30EC_U+30A4_U+30E4_U+30FC 1
 62
   179
420
  2234388
370
     9
  0
INSERT
  5
B0
330
1F
100
AcDbEntity
  8
_U+30EC_U+30A4_U+30E4_U+30FC 1
100
AcDbBlockReference
  2
block 4
 10
0.0
 20
0.0
 30
0.0
  0
POLYLINE
  5
B5
330
1F
100
AcDbEntity
  8
_U+30EC_U+30A4_U+30E4_U+30FC 1
 62
   179
420
  2234388
370
     9
100
AcDb2dPolyline
 66
     1
 10
0.0
 20
0.0
 30
0.0
  0
VERTEX
  5
B6
330
B5
100
AcDbEntity
  8
_U+30EC_U+30A4_U+30E4_U+30FC 1
 62
   179
420
  2234388
370
     9
100
AcDbVertex
100
AcDb2dVertex
 10
74.60078587455317
 20
-141.9131160756328
 30
0.0
  0
VERTEX
  5
B7
330
B5
100
AcDbEntity
  8
_U+30EC_U+30A4_U+30E4_U+30FC 1
 62
   179
420
  2234388
370
     9
100
AcDbVertex
100
AcDb2dVertex
 10
84.60154173052375
 20
-141.9131160756328
 30
0.0
  0
SEQEND
  5
B8
330
B5
100
AcDbEntity
  8
_U+30EC_U+30A4_U+30E4_U+30FC 1
 62
   179
420
  2234388
370
     9
  0
POLYLINE
  5
B9
330
1F
100
AcDbEntity
  8
_U+30EC_U+30A4_U+30E4_U+30FC 1
 62
   179
420
  2234388
370
     9
100
AcDb2dPolyline
 66
     1
 10
0.0
 20
0.0
 30
0.0
  0
VERTEX
  5
BA
330
B9
100
AcDbEntity
  8
_U+30EC_U+30A4_U+30E4_U+30FC 1
 62
   179
420
  2234388
370
     9
100
AcDbVertex
100
AcDb2dVertex
 10
74.60078587455317
 20
-124.9133194132161
 30
0.0
  0
VERTEX
  5
BB
330
B9
100
AcDbEntity
  8
_U+30EC_U+30A4_U+30E4_U+30FC 1
 62
   179
420
  2234388
370
     9
100
AcDbVertex
100
AcDb2dVertex
 10
74.60078587455317
 20
-142.9135938531603
 30
0.0
  0
SEQEND
  5
BC
330
B9
100
AcDbEntity
  8
_U+30EC_U+30A4_U+30E4_U+30FC 1
 62
   179
420
  2234388
370
     9
  0
POLYLINE
  5
BD
330
1F
100
AcDbEntity
  8
_U+30EC_U+30A4_U+30E4_U+30FC 1
 62
   179
420
  2234388
370
     9
100
AcDb2dPolyline
 66
     1
 10
0.0
 20
0.0
 30
0.0
  0
VERTEX
  5
BE
330
BD
100
AcDbEntity
  8
_U+30EC_U+30A4_U+30E4_U+30FC 1
 62
   179
420
  2234388
370
     9
100
AcDbVertex
100
AcDb2dVertex
 10
84.60154173052375
 20
-140.4531099648867
 30
0.0
  0
VERTEX
  5
BF
330
BD
100
AcDbEntity
  8
_U+30EC_U+30A4_U+30E4_U+30FC 1
 62
   179
420
  2234388
370
     9
100
AcDbVertex
100
AcDb2dVertex
 10
84.60154173052375
 20
-142.9135938531603
 30
0.0
  0
SEQEND
  5
C0
330
BD
100
AcDbEntity
  8
_U+30EC_U+30A4_U+30E4_U+30FC 1
 62
   179
420
  2234388
370
     9
  0
INSERT
  5
C2
330
1F
100
AcDbEntity
  8
_U+30EC_U+30A4_U+30E4_U+30FC 1
100
AcDbBlockReference
  2
block 5
 10
0.0
 20
0.0
 30
0.0
  0
POLYLINE
  5
CA
330
1F
100
AcDbEntity
  8
_U+30EC_U+30A4_U+30E4_U+30FC 1
 62
   179
420
  2234388
370
     9
100
AcDb2dPolyline
 66
     1
 10
0.0
 20
0.0
 30
0.0
  0
VERTEX
  5
CB
330
CA
100
AcDbEntity
  8
_U+30EC_U+30A4_U+30E4_U+30FC 1
 62
   179
420
  2234388
370
     9
100
AcDbVertex
100
AcDb2dVertex
 10
84.60154173052375
 20
-141.9131160756328
 30
0.0
  0
VERTEX
  5
CC
330
CA
100
AcDbEntity
  8
_U+30EC_U+30A4_U+30E4_U+30FC 1
 62
   179
420
  2234388
370
     9
100
AcDbVertex
100
AcDb2dVertex
 10
90.60257379964689
 20
-141.9131160756328
 30
0.0
  0
SEQEND
  5
CD
330
CA
100
AcDbEntity
  8
_U+30EC_U+30A4_U+30E4_U+30FC 1
 62
   179
420
  2234388
370
     9
  0
POLYLINE
  5
CE
330
1F
100
AcDbEntity
  8
_U+30EC_U+30A4_U+30E4_U+30FC 1
 62
   179
420
  2234388
370
     9
100
AcDb2dPolyline
 66
     1
 10
0.0
 20
0.0
 30
0.0
  0
VERTEX
  5
CF
330
CE
100
AcDbEntity
  8
_U+30EC_U+30A4_U+30E4_U+30FC 1
 62
   179
420
  2234388
370
     9
100
AcDbVertex
100
AcDb2dVertex
 10
90.60257379964689
 20
-140.4531099648867
 30
0.0
  0
VERTEX
  5
D0
330
CE
100
AcDbEntity
  8
_U+30EC_U+30A4_U+30E4_U+30FC 1
 62
   179
420
  2234388
370
     9
100
AcDbVertex
100
AcDb2dVertex
 10
90.60257379964689
 20
-142.9135938531603
 30
0.0
  0
SEQEND
  5
D1
330
CE
100
AcDbEntity
  8
_U+30EC_U+30A4_U+30E4_U+30FC 1
 62
   179
420
  2234388
370
     9
  0
POLYLINE
  5
D2
330
1F
100
AcDbEntity
  8
_U+30EC_U+30A4_U+30E4_U+30FC 1
 62
   179
420
  2234388
370
     9
100
AcDb2dPolyline
 66
     1
 10
0.0
 20
0.0
 30
0.0
  0
VERTEX
  5
D3
330
D2
100
AcDbEntity
  8
_U+30EC_U+30A4_U+30E4_U+30FC 1
 62
   179
420
  2234388
370
     9
100
AcDbVertex
100
AcDb2dVertex
 10
74.60078587455317
 20
-117.4133344150912
 30
0.0
  0
VERTEX
  5
D4
330
D2
100
AcDbEntity
  8
_U+30EC_U+30A4_U+30E4_U+30FC 1
 62
   179
420
  2234388
370
     9
100
AcDbVertex
100
AcDb2dVertex
 10
102.6038971045787
 20
-117.4133344150912
 30
0.0
  0
SEQEND
  5
D5
330
D2
100
AcDbEntity
  8
_U+30EC_U+30A4_U+30E4_U+30FC 1
 62
   179
420
  2234388
370
     9
  0
POLYLINE
  5
D6
330
1F
100
AcDbEntity
  8
_U+30EC_U+30A4_U+30E4_U+30FC 1
 62
   179
420
  2234388
370
     9
100
AcDb2dPolyline
 66
     1
 10
0.0
 20
0.0
 30
0.0
  0
VERTEX
  5
D7
330
D6
100
AcDbEntity
  8
_U+30EC_U+30A4_U+30E4_U+30FC 1
 62
   179
420
  2234388
370
     9
100
AcDbVertex
100
AcDb2dVertex
 10
74.60078587455317
 20
-118.8733758036149
 30
0.0
  0
VERTEX
  5
D8
330
D6
100
AcDbEntity
  8
_U+30EC_U+30A4_U+30E4_U+30FC 1
 62
   179
420
  2234388
370
     9
100
AcDbVertex
100
AcDb2dVertex
 10
74.60078587455317
 20
-116.413562193119
 30
0.0
  0
SEQEND
  5
D9
330
D6
100
AcDbEntity
  8
_U+30EC_U+30A4_U+30E4_U+30FC 1
 62
   179
420
  2234388
370
     9
  0
POLYLINE
  5
DA
330
1F
100
AcDbEntity
  8
_U+30EC_U+30A4_U+30E4_U+30FC 1
 62
   179
420
  2234388
370
     9
100
AcDb2dPolyline
 66
     1
 10
0.0
 20
0.0
 30
0.0
  0
VERTEX
  5
DB
330
DA
100
AcDbEntity
  8
_U+30EC_U+30A4_U+30E4_U+30FC 1
 62
   179
420
  2234388
370
     9
100
AcDbVertex
100
AcDb2dVertex
 10
102.6038971045787
 20
-118.8733758036149
 30
0.0
  0
VERTEX
  5
DC
330
DA
100
AcDbEntity
  8
_U+30EC_U+30A4_U+30E4_U+30FC 1
 62
   179
420
  2234388
370
     9
100
AcDbVertex
100
AcDb2dVertex
 10
102.6038971045787
 20
-116.413562193119
 30
0.0
  0
SEQEND
  5
DD
330
DA
100
AcDbEntity
  8
_U+30EC_U+30A4_U+30E4_U+30FC 1
 62
   179
420
  2234388
370
     9
  0
INSERT
  5
DF
330
1F
100
AcDbEntity
  8
_U+30EC_U+30A4_U+30E4_U+30FC 1
100
AcDbBlockReference
  2
block 6
 10
0.0
 20
0.0
 30
0.0
  0
POLYLINE
  5
E8
330
1F
100
AcDbEntity
  8
_U+30EC_U+30A4_U+30E4_U+30FC 1
 62
   179
420
  2234388
370
     9
100
AcDb2dPolyline
 66
     1
 10
0.0
 20
0.0
 30
0.0
  0
VERTEX
  5
E9
330
E8
100
AcDbEntity
  8
_U+30EC_U+30A4_U+30E4_U+30FC 1
 62
   179
420
  2234388
370
     9
100
AcDbVertex
100
AcDb2dVertex
 10
106.6043264469637
 20
-122.4135360805077
 30
0.0
  0
VERTEX
  5
EA
330
E8
100
AcDbEntity
  8
_U+30EC_U+30A4_U+30E4_U+30FC 1
 62
   179
420
  2234388
370
     9
100
AcDbVertex
100
AcDb2dVertex
 10
106.6043264469637
 20
-134.9137227440494
 30
0.0
  0
SEQEND
  5
EB
330
E8
100
AcDbEntity
  8
_U+30EC_U+30A4_U+30E4_U+30FC 1
 62
   179
420
  2234388
370
     9
  0
POLYLINE
  5
EC
330
1F
100
AcDbEntity
  8
_U+30EC_U+30A4_U+30E4_U+30FC 1
 62
   179
420
  2234388
370
     9
100
AcDb2dPolyline
 66
     1
 10
0.0
 20
0.0
 30
0.0
  0
VERTEX
  5
ED
330
EC
100
AcDbEntity
  8
_U+30EC_U+30A4_U+30E4_U+30FC 1
 62
   179
420
  2234388
370
     9
100
AcDbVertex
100
AcDb2dVertex
 10
92.14354237144461
 20
-134.9133699662716
 30
0.0
  0
VERTEX
  5
EE
330
EC
100
AcDbEntity
  8
_U+30EC_U+30A4_U+30E4_U+30FC 1
 62
   179
420
  2234388
370
     9
100
AcDbVertex
100
AcDb2dVertex
 10
107.6040986436796
 20
-134.9133699662716
 30
0.0
  0
SEQEND
  5
EF
330
EC
100
AcDbEntity
  8
_U+30EC_U+30A4_U+30E4_U+30FC 1
 62
   179
420
  2234388
370
     9
  0
INSERT
  5
F1
330
1F
100
AcDbEntity
  8
_U+30EC_U+30A4_U+30E4_U+30FC 1
100
AcDbBlockReference
  2
block 7
 10
0.0
 20
0.0
 30
0.0
  0
POLYLINE
  5
102
330
1F
100
AcDbEntity
  8
_U+30EC_U+30A4_U+30E4_U+30FC 1
 62
   179
420
  2234388
370
    25
100
AcDb2dPolyline
 66
     1
 10
0.0
 20
0.0
 30
0.0
  0
VERTEX
  5
103
330
102
100
AcDbEntity
  8
_U+30EC_U+30A4_U+30E4_U+30FC 1
 62
   179
420
  2234388
370
    25
100
AcDbVertex
100
AcDb2dVertex
 10
85.60166670500843
 20
-129.0367271899631
 30
0.0
  0
VERTEX
  5
104
330
102
100
AcDbEntity
  8
_U+30EC_U+30A4_U+30E4_U+30FC 1
 62
   179
420
  2234388
370
    25
100
AcDbVertex
100
AcDb2dVertex
 10
85.90174164519131
 20
-128.6639821900563
 30
0.0
  0
VERTEX
  5
105
330
102
100
AcDbEntity
  8
_U+30EC_U+30A4_U+30E4_U+30FC 1
 62
   179
420
  2234388
370
    25
100
AcDbVertex
100
AcDb2dVertex
 10
85.60166670500843
 20
-128.290531634594
 30
0.0
  0
SEQEND
  5
107
330
102
100
AcDbEntity
  8
_U+30EC_U+30A4_U+30E4_U+30FC 1
 62
   179
420
  2234388
370
    25
  0
HATCH
  5
106
330
1F
100
AcDbEntity
  8
_U+30EC_U+30A4_U+30E4_U+30FC 1
 62
   253
420
 11711154
100
AcDbHatch
 10
0.0
 20
0.0
 30
0.0
210
0.0
220
0.0
230
1.0
  2
SOLID
 70
     1
 71
     0
 91
        1
 92
        1
 93
        3
 72
     1
 10
85.60166670500843
 20
-129.0367271899631
 11
85.90174164519131
 21
-128.6639821900563
 72
     1
 10
85.90174164519131
 20
-128.6639821900563
 11
85.60166670500843
 21
-128.290531634594
 72
     1
 10
85.60166670500843
 20
-128.290531634594
 11
85.60166670500843
 21
-129.036727189963
 97
        0
 75
     2
 76
     1
 98
        0
  0
ENDSEC
  0
SECTION
  2
OBJECTS
  0
DICTIONARY
  5
C
330
0
100
AcDbDictionary
281
     1
  3
ACAD_GROUP
350
D
  3
ACAD_LAYOUT
350
1A
  3
ACAD_MATERIAL
350
3B
  3
ACAD_MLEADERSTYLE
350
109
  3
ACAD_MLINESTYLE
350
17
  3
ACAD_PLOTSETTINGS
350
19
  3
ACAD_PLOTSTYLENAME
350
E
  3
ACAD_TABLESTYLE
350
108
  3
ACAD_VISUALSTYLE
350
2A
  0
SUN
  5
3F
330
29
100
AcDbSun
 90
        1
290
     0
 63
     7
421
 16777215
 40
1.0
291
     1
 91
  2455826
 92
 54000000
292
     0
 70
     2
 71
   256
280
     1
  0
DICTIONARY
  5
D
102
{ACAD_REACTORS
330
C
102
}
330
C
100
AcDbDictionary
281
     1
  0
DICTIONARY
  5
1A
102
{ACAD_REACTORS
330
C
102
}
330
C
100
AcDbDictionary
281
     1
  3
Layout1
350
1E
  3
Layout2
350
26
  3
Model
350
22
  0
DICTIONARY
  5
3B
102
{ACAD_REACTORS
330
C
102
}
330
C
100
AcDbDictionary
281
     1
  3
ByBlock
350
3D
  3
ByLayer
350
3C
  3
Global
350
3E
  0
DICTIONARY
  5
109
102
{ACAD_REACTORS
330
C
102
}
330
C
100
AcDbDictionary
281
     1
  0
DICTIONARY
  5
17
102
{ACAD_REACTORS
330
C
102
}
330
C
100
AcDbDictionary
281
     1
  3
Standard
350
18
  0
DICTIONARY
  5
19
102
{ACAD_REACTORS
330
C
102
}
330
C
100
AcDbDictionary
281
     1
  0
ACDBDICTIONARYWDFLT
  5
E
102
{ACAD_REACTORS
330
C
102
}
330
C
100
AcDbDictionary
281
     1
  3
Normal
350
F
100
AcDbDictionaryWithDefault
340
F
  0
DICTIONARY
  5
108
102
{ACAD_REACTORS
330
C
102
}
330
C
100
AcDbDictionary
281
     1
  0
DICTIONARY
  5
2A
102
{ACAD_REACTORS
330
C
102
}
330
C
100
AcDbDictionary
281
     1
  3
2dWireframe
350
2F
  3
3D Hidden
350
31
  3
3dWireframe
350
30
  3
Basic
350
32
  3
Brighten
350
36
  3
ColorChange
350
3A
  3
Conceptual
350
34
  3
Dim
350
35
  3
Facepattern
350
39
  3
Flat
350
2B
  3
FlatWithEdges
350
2C
  3
Gouraud
350
2D
  3
GouraudWithEdges
350
2E
  3
Linepattern
350
38
  3
Realistic
350
33
  3
Thicken
350
37
  0
LAYOUT
  5
1E
102
{ACAD_REACTORS
330
1A
102
}
330
1A
100
AcDbPlotSettings
  1

  2
none_device
  4

  6

 40
0.0
 41
0.0
 42
0.0
 43
0.0
 44
0.0
 45
0.0
 46
0.0
 47
0.0
 48
0.0
 49
0.0
140
0.0
141
0.0
142
1.0
143
1.0
 70
   688
 72
     0
 73
     0
 74
     5
  7

 75
    16
 76
     0
 77
     2
 78
   300
147
1.0
148
0.0
149
0.0
100
AcDbLayout
  1
Layout1
 70
     1
 71
     1
 10
0.0
 20
0.0
 11
12.0
 21
9.0
 12
0.0
 22
0.0
 32
0.0
 14
1.000000000000000E+20
 24
1.000000000000000E+20
 34
1.000000000000000E+20
 15
-1.000000000000000E+20
 25
-1.000000000000000E+20
 35
-1.000000000000000E+20
146
0.0
 13
0.0
 23
0.0
 33
0.0
 16
1.0
 26
0.0
 36
0.0
 17
0.0
 27
1.0
 37
0.0
 76
     0
330
1B
  0
LAYOUT
  5
26
102
{ACAD_REACTORS
330
1A
102
}
330
1A
100
AcDbPlotSettings
  1

  2
none_device
  4

  6

 40
0.0
 41
0.0
 42
0.0
 43
0.0
 44
0.0
 45
0.0
 46
0.0
 47
0.0
 48
0.0
 49
0.0
140
0.0
141
0.0
142
1.0
143
1.0
 70
   688
 72
     0
 73
     0
 74
     5
  7

 75
    16
 76
     0
 77
     2
 78
   300
147
1.0
148
0.0
149
0.0
100
AcDbLayout
  1
Layout2
 70
     1
 71
     2
 10
0.0
 20
0.0
 11
0.0
 21
0.0
 12
0.0
 22
0.0
 32
0.0
 14
0.0
 24
0.0
 34
0.0
 15
0.0
 25
0.0
 35
0.0
146
0.0
 13
0.0
 23
0.0
 33
0.0
 16
1.0
 26
0.0
 36
0.0
 17
0.0
 27
1.0
 37
0.0
 76
     0
330
23
  0
LAYOUT
  5
22
102
{ACAD_REACTORS
330
1A
102
}
330
1A
100
AcDbPlotSettings
  1

  2
none_device
  4

  6

 40
0.0
 41
0.0
 42
0.0
 43
0.0
 44
0.0
 45
0.0
 46
0.0
 47
0.0
 48
0.0
 49
0.0
140
0.0
141
0.0
142
1.0
143
1.0
 70
  1712
 72
     0
 73
     0
 74
     0
  7

 75
     0
 76
     0
 77
     2
 78
   300
147
1.0
148
0.0
149
0.0
100
AcDbLayout
  1
Model
 70
     1
 71
     0
 10
0.0
 20
0.0
 11
12.0
 21
9.0
 12
0.0
 22
0.0
 32
0.0
 14
1.000000000000000E+20
 24
1.000000000000000E+20
 34
1.000000000000000E+20
 15
-1.000000000000000E+20
 25
-1.000000000000000E+20
 35
-1.000000000000000E+20
146
0.0
 13
0.0
 23
0.0
 33
0.0
 16
1.0
 26
0.0
 36
0.0
 17
0.0
 27
1.0
 37
0.0
 76
     0
330
1F
331
29
  0
MATERIAL
  5
3D
102
{ACAD_REACTORS
330
3B
102
}
330
3B
100
AcDbMaterial
  1
ByBlock
 72
     1
 94
      127
  0
MATERIAL
  5
3C
102
{ACAD_REACTORS
330
3B
102
}
330
3B
100
AcDbMaterial
  1
ByLayer
 72
     1
 94
      127
  0
MATERIAL
  5
3E
102
{ACAD_REACTORS
330
3B
102
}
330
3B
100
AcDbMaterial
  1
Global
 72
     1
 94
      127
  0
MLINESTYLE
  5
18
102
{ACAD_REACTORS
330
17
102
}
330
17
100
AcDbMlineStyle
  2
Standard
 70
     0
  3

 62
   256
 51
90.0
 52
90.0
 71
     2
 49
0.5
 62
   256
  6
BYLAYER
 49
-0.5
 62
   256
  6
BYLAYER
  0
ACDBPLACEHOLDER
  5
F
102
{ACAD_REACTORS
330
E
102
}
330
E
  0
VISUALSTYLE
  5
2F
102
{ACAD_REACTORS
330
2A
102
}
330
2A
100
AcDbVisualStyle
  2
2dWireframe
 70
     4
177
     2
291
     0
 71
     0
176
     1
 72
     2
176
     1
 73
     0
176
     1
 90
        0
176
     1
 40
-0.6
176
     1
 41
-30.0
176
     1
 62
     5
 63
     7
421
 16777215
176
     1
 74
     1
176
     1
 91
        4
176
     1
 64
     7
176
     1
 65
   257
176
     1
 75
     1
176
     1
175
     1
176
     1
 42
1.0
176
     1
 92
        0
176
     1
 66
   257
176
     1
 43
1.0
176
     1
 76
     1
176
     1
 77
     6
176
     1
 78
     2
176
     1
 67
     7
176
     1
 79
     5
176
     1
170
     0
176
     1
171
     0
176
     1
290
     0
176
     1
 93
        1
176
     1
 44
0.0
176
     1
173
     0
176
     1
  0
VISUALSTYLE
  5
31
102
{ACAD_REACTORS
330
2A
102
}
330
2A
100
AcDbVisualStyle
  2
3D Hidden
 70
     6
177
     2
291
     0
 71
     1
176
     1
 72
     2
176
     1
 73
     2
176
     1
 90
        0
176
     1
 40
-0.6
176
     1
 41
-30.0
176
     1
 62
     5
 63
     7
421
 16777215
176
     1
 74
     2
176
     1
 91
        2
176
     1
 64
     7
176
     1
 65
   257
176
     1
 75
     2
176
     1
175
     1
176
     1
 42
40.0
176
     1
 92
        0
176
     1
 66
   257
176
     1
 43
1.0
176
     1
 76
     1
176
     1
 77
     6
176
     1
 78
     2
176
     1
 67
     7
176
     1
 79
     3
176
     1
170
     0
176
     1
171
     0
176
     1
290
     0
176
     1
 93
        1
176
     1
 44
0.0
176
     1
173
     0
176
     1
  0
VISUALSTYLE
  5
30
102
{ACAD_REACTORS
330
2A
102
}
330
2A
100
AcDbVisualStyle
  2
3dWireframe
 70
     5
177
     2
291
     0
 71
     0
176
     1
 72
     2
176
     1
 73
     0
176
     1
 90
        0
176
     1
 40
-0.6
176
     1
 41
-30.0
176
     1
 62
     5
 63
     7
421
 16777215
176
     1
 74
     1
176
     1
 91
        4
176
     1
 64
     7
176
     1
 65
   257
176
     1
 75
     1
176
     1
175
     1
176
     1
 42
1.0
176
     1
 92
        0
176
     1
 66
   257
176
     1
 43
1.0
176
     1
 76
     1
176
     1
 77
     6
176
     1
 78
     2
176
     1
 67
     7
176
     1
 79
     5
176
     1
170
     0
176
     1
171
     0
176
     1
290
     0
176
     1
 93
        1
176
     1
 44
0.0
176
     1
173
     0
176
     1
  0
VISUALSTYLE
  5
32
102
{ACAD_REACTORS
330
2A
102
}
330
2A
100
AcDbVisualStyle
  2
Basic
 70
     7
177
     2
291
     1
 71
     1
176
     1
 72
     0
176
     1
 73
     1
176
     1
 90
        0
176
     1
 40
-0.6
176
     1
 41
-30.0
176
     1
 62
     5
 63
     7
421
 16777215
176
     1
 74
     0
176
     1
 91
        4
176
     1
 64
     7
176
     1
 65
   257
176
     1
 75
     1
176
     1
175
     1
176
     1
 42
1.0
176
     1
 92
        8
176
     1
 66
     7
176
     1
 43
1.0
176
     1
 76
     1
176
     1
 77
     6
176
     1
 78
     2
176
     1
 67
     7
176
     1
 79
     5
176
     1
170
     0
176
     1
171
     0
176
     1
290
     0
176
     1
 93
        1
176
     1
 44
0.0
176
     1
173
     0
176
     1
  0
VISUALSTYLE
  5
36
102
{ACAD_REACTORS
330
2A
102
}
330
2A
100
AcDbVisualStyle
  2
Brighten
 70
    12
177
     2
291
     1
 71
     2
176
     1
 72
     2
176
     1
 73
     0
176
     1
 90
        0
176
     1
 40
-0.6
176
     1
 41
-30.0
176
     1
 62
     5
 63
     7
421
 16777215
176
     1
 74
     1
176
     1
 91
        4
176
     1
 64
     7
176
     1
 65
   257
176
     1
 75
     1
176
     1
175
     1
176
     1
 42
1.0
176
     1
 92
        8
176
     1
 66
     7
176
     1
 43
1.0
176
     1
 76
     1
176
     1
 77
     6
176
     1
 78
     2
176
     1
 67
     7
176
     1
 79
     5
176
     1
170
     0
176
     1
171
     0
176
     1
290
     0
176
     1
 93
        1
176
     1
 44
50.0
176
     1
173
     0
176
     1
  0
VISUALSTYLE
  5
3A
102
{ACAD_REACTORS
330
2A
102
}
330
2A
100
AcDbVisualStyle
  2
ColorChange
 70
    16
177
     2
291
     1
 71
     2
176
     1
 72
     2
176
     1
 73
     3
176
     1
 90
        0
176
     1
 40
-0.6
176
     1
 41
-30.0
176
     1
 62
     5
 63
     8
421
  8421504
176
     1
 74
     1
176
     1
 91
        4
176
     1
 64
     7
176
     1
 65
   257
176
     1
 75
     1
176
     1
175
     1
176
     1
 42
1.0
176
     1
 92
        8
176
     1
 66
     8
424
  8421504
176
     1
 43
1.0
176
     1
 76
     1
176
     1
 77
     6
176
     1
 78
     2
176
     1
 67
     7
176
     1
 79
     5
176
     1
170
     0
176
     1
171
     0
176
     1
290
     0
176
     1
 93
        1
176
     1
 44
0.0
176
     1
173
     0
176
     1
  0
VISUALSTYLE
  5
34
102
{ACAD_REACTORS
330
2A
102
}
330
2A
100
AcDbVisualStyle
  2
Conceptual
 70
     9
177
     2
291
     0
 71
     3
176
     1
 72
     2
176
     1
 73
     0
176
     1
 90
        0
176
     1
 40
-0.6
176
     1
 41
-30.0
176
     1
 62
     5
 63
     7
421
 16777215
176
     1
 74
     2
176
     1
 91
        2
176
     1
 64
     7
176
     1
 65
   257
176
     1
 75
     1
176
     1
175
     1
176
     1
 42
40.0
176
     1
 92
        8
176
     1
 66
     7
176
     1
 43
1.0
176
     1
 76
     1
176
     1
 77
     6
176
     1
 78
     2
176
     1
 67
     7
176
     1
 79
     3
176
     1
170
     0
176
     1
171
     0
176
     1
290
     0
176
     1
 93
        1
176
     1
 44
0.0
176
     1
173
     0
176
     1
  0
VISUALSTYLE
  5
35
102
{ACAD_REACTORS
330
2A
102
}
330
2A
100
AcDbVisualStyle
  2
Dim
 70
    11
177
     2
291
     1
 71
     2
176
     1
 72
     2
176
     1
 73
     0
176
     1
 90
        0
176
     1
 40
-0.6
176
     1
 41
-30.0
176
     1
 62
     5
 63
     7
421
 16777215
176
     1
 74
     1
176
     1
 91
        4
176
     1
 64
     7
176
     1
 65
   257
176
     1
 75
     1
176
     1
175
     1
176
     1
 42
1.0
176
     1
 92
        8
176
     1
 66
     7
176
     1
 43
1.0
176
     1
 76
     1
176
     1
 77
     6
176
     1
 78
     2
176
     1
 67
     7
176
     1
 79
     5
176
     1
170
     0
176
     1
171
     0
176
     1
290
     0
176
     1
 93
        1
176
     1
 44
-50.0
176
     1
173
     0
176
     1
  0
VISUALSTYLE
  5
39
102
{ACAD_REACTORS
330
2A
102
}
330
2A
100
AcDbVisualStyle
  2
Facepattern
 70
    15
177
     2
291
     1
 71
     2
176
     1
 72
     2
176
     1
 73
     0
176
     1
 90
        0
176
     1
 40
-0.6
176
     1
 41
-30.0
176
     1
 62
     5
 63
     7
421
 16777215
176
     1
 74
     1
176
     1
 91
        4
176
     1
 64
     7
176
     1
 65
   257
176
     1
 75
     1
176
     1
175
     1
176
     1
 42
1.0
176
     1
 92
        8
176
     1
 66
     7
176
     1
 43
1.0
176
     1
 76
     1
176
     1
 77
     6
176
     1
 78
     2
176
     1
 67
     7
176
     1
 79
     5
176
     1
170
     0
176
     1
171
     0
176
     1
290
     0
176
     1
 93
        1
176
     1
 44
0.0
176
     1
173
     0
176
     1
  0
VISUALSTYLE
  5
2B
102
{ACAD_REACTORS
330
2A
102
}
330
2A
100
AcDbVisualStyle
  2
Flat
 70
     0
177
     2
291
     1
 71
     2
176
     1
 72
     1
176
     1
 73
     1
176
     1
 90
        2
176
     1
 40
-0.6
176
     1
 41
30.0
176
     1
 62
     5
 63
     7
421
 16777215
176
     1
 74
     0
176
     1
 91
        4
176
     1
 64
     7
176
     1
 65
   257
176
     1
 75
     1
176
     1
175
     1
176
     1
 42
1.0
176
     1
 92
        8
176
     1
 66
     7
176
     1
 43
1.0
176
     1
 76
     1
176
     1
 77
     6
176
     1
 78
     2
176
     1
 67
     7
176
     1
 79
     5
176
     1
170
     0
176
     1
171
     0
176
     1
290
     0
176
     1
 93
       13
176
     1
 44
0.0
176
     1
173
     0
176
     1
  0
VISUALSTYLE
  5
2C
102
{ACAD_REACTORS
330
2A
102
}
330
2A
100
AcDbVisualStyle
  2
FlatWithEdges
 70
     1
177
     2
291
     1
 71
     2
176
     1
 72
     1
176
     1
 73
     1
176
     1
 90
        2
176
     1
 40
-0.6
176
     1
 41
30.0
176
     1
 62
     5
 63
     7
421
 16777215
176
     1
 74
     1
176
     1
 91
        4
176
     1
 64
     7
176
     1
 65
   257
176
     1
 75
     1
176
     1
175
     1
176
     1
 42
1.0
176
     1
 92
        0
176
     1
 66
   257
176
     1
 43
1.0
176
     1
 76
     1
176
     1
 77
     6
176
     1
 78
     2
176
     1
 67
     7
176
     1
 79
     5
176
     1
170
     0
176
     1
171
     0
176
     1
290
     0
176
     1
 93
       13
176
     1
 44
0.0
176
     1
173
     0
176
     1
  0
VISUALSTYLE
  5
2D
102
{ACAD_REACTORS
330
2A
102
}
330
2A
100
AcDbVisualStyle
  2
Gouraud
 70
     2
177
     2
291
     1
 71
     2
176
     1
 72
     2
176
     1
 73
     1
176
     1
 90
        2
176
     1
 40
-0.6
176
     1
 41
30.0
176
     1
 62
     5
 63
     7
421
 16777215
176
     1
 74
     0
176
     1
 91
        4
176
     1
 64
     7
176
     1
 65
   257
176
     1
 75
     1
176
     1
175
     1
176
     1
 42
1.0
176
     1
 92
        0
176
     1
 66
     7
176
     1
 43
1.0
176
     1
 76
     1
176
     1
 77
     6
176
     1
 78
     2
176
     1
 67
     7
176
     1
 79
     5
176
     1
170
     0
176
     1
171
     0
176
     1
290
     0
176
     1
 93
       13
176
     1
 44
0.0
176
     1
173
     0
176
     1
  0
VISUALSTYLE
  5
2E
102
{ACAD_REACTORS
330
2A
102
}
330
2A
100
AcDbVisualStyle
  2
GouraudWithEdges
 70
     3
177
     2
291
     1
 71
     2
176
     1
 72
     2
176
     1
 73
     1
176
     1
 90
        2
176
     1
 40
-0.6
176
     1
 41
30.0
176
     1
 62
     5
 63
     7
421
 16777215
176
     1
 74
     1
176
     1
 91
        4
176
     1
 64
     7
176
     1
 65
   257
176
     1
 75
     1
176
     1
175
     1
176
     1
 42
1.0
176
     1
 92
        0
176
     1
 66
   257
176
     1
 43
1.0
176
     1
 76
     1
176
     1
 77
     6
176
     1
 78
     2
176
     1
 67
     7
176
     1
 79
     5
176
     1
170
     0
176
     1
171
     0
176
     1
290
     0
176
     1
 93
       13
176
     1
 44
0.0
176
     1
173
     0
176
     1
  0
VISUALSTYLE
  5
38
102
{ACAD_REACTORS
330
2A
102
}
330
2A
100
AcDbVisualStyle
  2
Linepattern
 70
    14
177
     2
291
     1
 71
     2
176
     1
 72
     2
176
     1
 73
     0
176
     1
 90
        0
176
     1
 40
-0.6
176
     1
 41
-30.0
176
     1
 62
     5
 63
     7
421
 16777215
176
     1
 74
     1
176
     1
 91
        4
176
     1
 64
     7
176
     1
 65
   257
176
     1
 75
     7
176
     1
175
     7
176
     1
 42
1.0
176
     1
 92
        8
176
     1
 66
     7
176
     1
 43
1.0
176
     1
 76
     1
176
     1
 77
     6
176
     1
 78
     2
176
     1
 67
     7
176
     1
 79
     5
176
     1
170
     0
176
     1
171
     0
176
     1
290
     0
176
     1
 93
        1
176
     1
 44
0.0
176
     1
173
     0
176
     1
  0
VISUALSTYLE
  5
33
102
{ACAD_REACTORS
330
2A
102
}
330
2A
100
AcDbVisualStyle
  2
Realistic
 70
     8
177
     2
291
     0
 71
     2
176
     1
 72
     2
176
     1
 73
     0
176
     1
 90
        0
176
     1
 40
-0.6
176
     1
 41
-30.0
176
     1
 62
     5
 63
     7
421
 16777215
176
     1
 74
     1
176
     1
 91
        0
176
     1
 64
     7
176
     1
 65
   257
176
     1
 75
     1
176
     1
175
     1
176
     1
 42
1.0
176
     1
 92
        8
176
     1
 66
     8
424
  7895160
176
     1
 43
1.0
176
     1
 76
     1
176
     1
 77
     6
176
     1
 78
     2
176
     1
 67
     7
176
     1
 79
     5
176
     1
170
     0
176
     1
171
     0
176
     1
290
     0
176
     1
 93
       13
176
     1
 44
0.0
176
     1
173
     0
176
     1
  0
VISUALSTYLE
  5
37
102
{ACAD_REACTORS
330
2A
102
}
330
2A
100
AcDbVisualStyle
  2
Thicken
 70
    13
177
     2
291
     1
 71
     2
176
     1
 72
     2
176
     1
 73
     0
176
     1
 90
        0
176
     1
 40
-0.6
176
     1
 41
-30.0
176
     1
 62
     5
 63
     7
421
 16777215
176
     1
 74
     1
176
     1
 91
        4
176
     1
 64
     7
176
     1
 65
   257
176
     1
 75
     1
176
     1
175
     1
176
     1
 42
1.0
176
     1
 92
       12
176
     1
 66
     7
176
     1
 43
1.0
176
     1
 76
     1
176
     1
 77
     6
176
     1
 78
     2
176
     1
 67
     7
176
     1
 79
     5
176
     1
170
     0
176
     1
171
     0
176
     1
290
     0
176
     1
 93
        1
176
     1
 44
0.0
176
     1
173
     0
176
     1
  0
ENDSEC
  0
EOF
