  0
SECTION
  2
HEADER
  9
$ACADVER
  1
AC1024
  9
$ACADMAINTVER
 70
     6
  9
$DWGCODEPAGE
  3
UNDEFINED
  9
$INSBASE
 10
0.0
 20
0.0
 30
0.0
  9
$EXTMIN
 10
1.000000000000000E+20
 20
1.000000000000000E+20
 30
1.000000000000000E+20
  9
$EXTMAX
 10
-1.000000000000000E+20
 20
-1.000000000000000E+20
 30
-1.000000000000000E+20
  9
$LIMMIN
 10
0.0
 20
0.0
  9
$LIMMAX
 10
12.0
 20
9.0
  9
$ORTHOMODE
 70
     0
  9
$REGENMODE
 70
     1
  9
$FILLMODE
 70
     1
  9
$QTEXTMODE
 70
     0
  9
$MIRRTEXT
 70
     1
  9
$LTSCALE
 40
1.0
  9
$ATTMODE
 70
     1
  9
$TEXTSIZE
 40
0.2
  9
$TRACEWID
 40
0.05
  9
$TEXTSTYLE
  7
Standard
  9
$CLAYER
  8
0
  9
$CELTYPE
  6
ByLayer
  9
$CECOLOR
 62
   256
  9
$CELTSCALE
 40
1.0
  9
$DISPSILH
 70
     0
  9
$DIMSCALE
 40
1.0
  9
$DIMASZ
 40
0.18
  9
$DIMEXO
 40
0.0625
  9
$DIMDLI
 40
0.38
  9
$DIMRND
 40
0.0
  9
$DIMDLE
 40
0.0
  9
$DIMEXE
 40
0.18
  9
$DIMTP
 40
0.0
  9
$DIMTM
 40
0.0
  9
$DIMTXT
 40
0.18
  9
$DIMCEN
 40
0.09
  9
$DIMTSZ
 40
0.0
  9
$DIMTOL
 70
     0
  9
$DIMLIM
 70
     0
  9
$DIMTIH
 70
     1
  9
$DIMTOH
 70
     1
  9
$DIMSE1
 70
     0
  9
$DIMSE2
 70
     0
  9
$DIMTAD
 70
     0
  9
$DIMZIN
 70
     0
  9
$DIMBLK
  1

  9
$DIMASO
 70
     1
  9
$DIMSHO
 70
     1
  9
$DIMPOST
  1

  9
$DIMAPOST
  1

  9
$DIMALT
 70
     0
  9
$DIMALTD
 70
     2
  9
$DIMALTF
 40
25.4
  9
$DIMLFAC
 40
1.0
  9
$DIMTOFL
 70
     0
  9
$DIMTVP
 40
0.0
  9
$DIMTIX
 70
     0
  9
$DIMSOXD
 70
     0
  9
$DIMSAH
 70
     0
  9
$DIMBLK1
  1

  9
$DIMBLK2
  1

  9
$DIMSTYLE
  2
Standard
  9
$DIMCLRD
 70
     0
  9
$DIMCLRE
 70
     0
  9
$DIMCLRT
 70
     0
  9
$DIMTFAC
 40
1.0
  9
$DIMGAP
 40
0.09
  9
$DIMJUST
 70
     0
  9
$DIMSD1
 70
     0
  9
$DIMSD2
 70
     0
  9
$DIMTOLJ
 70
     1
  9
$DIMTZIN
 70
     0
  9
$DIMALTZ
 70
     0
  9
$DIMALTTZ
 70
     0
  9
$DIMUPT
 70
     0
  9
$DIMDEC
 70
     4
  9
$DIMTDEC
 70
     4
  9
$DIMALTU
 70
     2
  9
$DIMALTTD
 70
     2
  9
$DIMTXSTY
  7
Standard
  9
$DIMAUNIT
 70
     0
  9
$DIMADEC
 70
     0
  9
$DIMALTRND
 40
0.0
  9
$DIMAZIN
 70
     0
  9
$DIMDSEP
 70
    46
  9
$DIMATFIT
 70
     3
  9
$DIMFRAC
 70
     0
  9
$DIMLDRBLK
  1

  9
$DIMLUNIT
 70
     2
  9
$DIMLWD
 70
    -2
  9
$DIMLWE
 70
    -2
  9
$DIMTMOVE
 70
     0
  9
$DIMFXL
 40
1.0
  9
$DIMFXLON
 70
     0
  9
$DIMJOGANG
 40
0.7853981633974483
  9
$DIMTFILL
 70
     0
  9
$DIMTFILLCLR
 70
     0
  9
$DIMARCSYM
 70
     0
  9
$DIMLTYPE
  6

  9
$DIMLTEX1
  6

  9
$DIMLTEX2
  6

  9
$DIMTXTDIRECTION
 70
     0
  9
$LUNITS
 70
     2
  9
$LUPREC
 70
     4
  9
$SKETCHINC
 40
0.1
  9
$FILLETRAD
 40
0.5
  9
$AUNITS
 70
     0
  9
$AUPREC
 70
     0
  9
$MENU
  1
.
  9
$ELEVATION
 40
0.0
  9
$PELEVATION
 40
0.0
  9
$THICKNESS
 40
0.0
  9
$LIMCHECK
 70
     0
  9
$CHAMFERA
 40
0.5
  9
$CHAMFERB
 40
0.5
  9
$CHAMFERC
 40
1.0
  9
$CHAMFERD
 40
0.0
  9
$SKPOLY
 70
     0
  9
$TDCREATE
 40
2457917.617199062
  9
$TDUCREATE
 40
2457917.242199074
  9
$TDUPDATE
 40
2457917.617199062
  9
$TDUUPDATE
 40
2457917.242199074
  9
$TDINDWG
 40
0.0000000116
  9
$TDUSRTIMER
 40
0.0000000116
  9
$USRTIMER
 70
     1
  9
$ANGBASE
 50
0.0
  9
$ANGDIR
 70
     0
  9
$PDMODE
 70
     0
  9
$PDSIZE
 40
0.0
  9
$PLINEWID
 40
0.0
  9
$SPLFRAME
 70
     0
  9
$SPLINETYPE
 70
     6
  9
$SPLINESEGS
 70
     8
  9
$HANDSEED
  5
10D
  9
$SURFTAB1
 70
     6
  9
$SURFTAB2
 70
     6
  9
$SURFTYPE
 70
     6
  9
$SURFU
 70
     6
  9
$SURFV
 70
     6
  9
$UCSBASE
  2

  9
$UCSNAME
  2

  9
$UCSORG
 10
0.0
 20
0.0
 30
0.0
  9
$UCSXDIR
 10
1.0
 20
0.0
 30
0.0
  9
$UCSYDIR
 10
0.0
 20
1.0
 30
0.0
  9
$UCSORTHOREF
  2

  9
$UCSORTHOVIEW
 70
     0
  9
$UCSORGTOP
 10
0.0
 20
0.0
 30
0.0
  9
$UCSORGBOTTOM
 10
0.0
 20
0.0
 30
0.0
  9
$UCSORGLEFT
 10
0.0
 20
0.0
 30
0.0
  9
$UCSORGRIGHT
 10
0.0
 20
0.0
 30
0.0
  9
$UCSORGFRONT
 10
0.0
 20
0.0
 30
0.0
  9
$UCSORGBACK
 10
0.0
 20
0.0
 30
0.0
  9
$PUCSBASE
  2

  9
$PUCSNAME
  2

  9
$PUCSORG
 10
0.0
 20
0.0
 30
0.0
  9
$PUCSXDIR
 10
1.0
 20
0.0
 30
0.0
  9
$PUCSYDIR
 10
0.0
 20
1.0
 30
0.0
  9
$PUCSORTHOREF
  2

  9
$PUCSORTHOVIEW
 70
     0
  9
$PUCSORGTOP
 10
0.0
 20
0.0
 30
0.0
  9
$PUCSORGBOTTOM
 10
0.0
 20
0.0
 30
0.0
  9
$PUCSORGLEFT
 10
0.0
 20
0.0
 30
0.0
  9
$PUCSORGRIGHT
 10
0.0
 20
0.0
 30
0.0
  9
$PUCSORGFRONT
 10
0.0
 20
0.0
 30
0.0
  9
$PUCSORGBACK
 10
0.0
 20
0.0
 30
0.0
  9
$USERI1
 70
     0
  9
$USERI2
 70
     0
  9
$USERI3
 70
     0
  9
$USERI4
 70
     0
  9
$USERI5
 70
     0
  9
$USERR1
 40
0.0
  9
$USERR2
 40
0.0
  9
$USERR3
 40
0.0
  9
$USERR4
 40
0.0
  9
$USERR5
 40
0.0
  9
$WORLDVIEW
 70
     1
  9
$SHADEDGE
 70
     3
  9
$SHADEDIF
 70
    70
  9
$TILEMODE
 70
     1
  9
$MAXACTVP
 70
    64
  9
$PINSBASE
 10
0.0
 20
0.0
 30
0.0
  9
$PLIMCHECK
 70
     0
  9
$PEXTMIN
 10
1.000000000000000E+20
 20
1.000000000000000E+20
 30
1.000000000000000E+20
  9
$PEXTMAX
 10
-1.000000000000000E+20
 20
-1.000000000000000E+20
 30
-1.000000000000000E+20
  9
$PLIMMIN
 10
0.0
 20
0.0
  9
$PLIMMAX
 10
12.0
 20
9.0
  9
$UNITMODE
 70
     0
  9
$VISRETAIN
 70
     1
  9
$PLINEGEN
 70
     0
  9
$PSLTSCALE
 70
     1
  9
$TREEDEPTH
 70
  3020
  9
$CMLSTYLE
  2
Standard
  9
$CMLJUST
 70
     0
  9
$CMLSCALE
 40
1.0
  9
$PROXYGRAPHICS
 70
     1
  9
$MEASUREMENT
 70
     0
  9
$CELWEIGHT
370
    -1
  9
$ENDCAPS
280
     0
  9
$JOINSTYLE
280
     0
  9
$LWDISPLAY
290
     1
  9
$INSUNITS
 70
     1
  9
$HYPERLINKBASE
  1

  9
$STYLESHEET
  1

  9
$XEDIT
290
     1
  9
$CEPSNTYPE
380
     0
  9
$PSTYLEMODE
290
     1
  9
$FINGERPRINTGUID
  2
{D8535FFC-5BCE-6413-8DF6-29E139ABAC9B}
  9
$VERSIONGUID
  2
{FAEB1C32-E019-11D5-929B-00C0DF256EC4}
  9
$EXTNAMES
290
     1
  9
$PSVPSCALE
 40
0.0
  9
$OLESTARTUP
290
     0
  9
$SORTENTS
280
   127
  9
$INDEXCTL
280
     0
  9
$HIDETEXT
280
     1
  9
$XCLIPFRAME
280
     2
  9
$HALOGAP
280
     0
  9
$OBSCOLOR
 70
   257
  9
$OBSLTYPE
280
     0
  9
$INTERSECTIONDISPLAY
280
     0
  9
$INTERSECTIONCOLOR
 70
   257
  9
$DIMASSOC
280
     2
  9
$PROJECTNAME
  1

  9
$CAMERADISPLAY
290
     0
  9
$LENSLENGTH
 40
50.0
  9
$CAMERAHEIGHT
 40
0.0
  9
$STEPSPERSEC
 40
2.0
  9
$STEPSIZE
 40
6.0
  9
$3DDWFPREC
 40
2.0
  9
$PSOLWIDTH
 40
0.25
  9
$PSOLHEIGHT
 40
4.0
  9
$LOFTANG1
 40
1.570796326794897
  9
$LOFTANG2
 40
1.570796326794897
  9
$LOFTMAG1
 40
0.0
  9
$LOFTMAG2
 40
0.0
  9
$LOFTPARAM
 70
     7
  9
$LOFTNORMALS
280
     1
  9
$LATITUDE
 40
37.795
  9
$LONGITUDE
 40
-122.394
  9
$NORTHDIRECTION
 40
0.0
  9
$TIMEZONE
 70
 -8000
  9
$LIGHTGLYPHDISPLAY
280
     1
  9
$TILEMODELIGHTSYNCH
280
     1
  9
$CMATERIAL
347
3C
  9
$SOLIDHIST
280
     1
  9
$SHOWHIST
280
     1
  9
$DWFFRAME
280
     2
  9
$DGNFRAME
280
     2
  9
$REALWORLDSCALE
290
     1
  9
$INTERFERECOLOR
 62
   256
  9
$CSHADOW
280
     0
  9
$SHADOWPLANELOCATION
 40
0.0
  0
ENDSEC
  0
SECTION
  2
CLASSES
  0
CLASS
  1
ACDBDICTIONARYWDFLT
  2
AcDbDictionaryWithDefault
  3
ObjectDBX Classes
 90
        0
 91
        4
280
     0
281
     0
  0
CLASS
  1
VISUALSTYLE
  2
AcDbVisualStyle
  3
ObjectDBX Classes
 90
     4095
 91
        4
280
     0
281
     0
  0
CLASS
  1
MATERIAL
  2
AcDbMaterial
  3
ObjectDBX Classes
 90
     1153
 91
        4
280
     0
281
     0
  0
CLASS
  1
SUN
  2
AcDbSun
  3
SCENEOE
 90
     1024
 91
        4
280
     0
281
     0
  0
ENDSEC
  0
SECTION
  2
TABLES
  0
TABLE
  2
VPORT
  5
8
330
0
100
AcDbSymbolTable
 70
     1
  0
VPORT
  5
29
330
8
100
AcDbSymbolTableRecord
100
AcDbViewportTableRecord
  2
*Active
 70
     0
 10
0.0
 20
0.0
 11
1.0
 21
1.0
 12
0.0
 22
0.0
 13
0.0
 23
0.0
 14
0.5
 24
0.5
 15
0.5
 25
0.5
 16
0.0
 26
0.0
 36
1.0
 17
91.00082462281999
 27
-128.4993055234307
 37
0.0
 40
256.9986110468615
 41
0.7081814508812795
 42
50.0
 43
0.0
 44
0.0
 50
0.0
 51
0.0
 71
     0
 72
   100
 73
     1
 74
     3
 75
     0
 76
     0
 77
     0
 78
     0
281
     0
 65
     1
110
0.0
120
0.0
130
0.0
111
1.0
121
0.0
131
0.0
112
0.0
122
1.0
132
0.0
 79
     0
146
0.0
 60
     3
 61
     5
292
     1
282
     1
141
0.0
142
0.0
 63
   250
361
3F
  0
ENDTAB
  0
TABLE
  2
LTYPE
  5
5
330
0
100
AcDbSymbolTable
 70
     1
  0
LTYPE
  5
14
330
5
100
AcDbSymbolTableRecord
100
AcDbLinetypeTableRecord
  2
ByBlock
 70
     0
  3

 72
    65
 73
     0
 40
0.0
  0
LTYPE
  5
15
330
5
100
AcDbSymbolTableRecord
100
AcDbLinetypeTableRecord
  2
ByLayer
 70
     0
  3

 72
    65
 73
     0
 40
0.0
  0
LTYPE
  5
16
330
5
100
AcDbSymbolTableRecord
100
AcDbLinetypeTableRecord
  2
Continuous
 70
     0
  3
Solid line
 72
    65
 73
     0
 40
0.0
  0
ENDTAB
  0
TABLE
  2
LAYER
  5
2
330
0
100
AcDbSymbolTable
 70
     2
  0
LAYER
  5
10
330
2
100
AcDbSymbolTableRecord
100
AcDbLayerTableRecord
  2
0
 70
     0
 62
     7
  6
Continuous
370
    -3
390
F
347
3E
  0
LAYER
  5
40
330
2
100
AcDbSymbolTableRecord
100
AcDbLayerTableRecord
  2
_U+30EC_U+30A4_U+30E4_U+30FC 1
 70
     0
 62
     7
  6
Continuous
370
    -3
390
F
347
3E
  0
ENDTAB
  0
TABLE
  2
STYLE
  5
3
330
0
100
AcDbSymbolTable
 70
     1
  0
STYLE
  5
11
330
3
100
AcDbSymbolTableRecord
100
AcDbTextStyleTableRecord
  2
Standard
 70
     0
 40
0.0
 41
1.0
 50
0.0
 71
     0
 42
0.2
  3
txt
  4

  0
ENDTAB
  0
TABLE
  2
VIEW
  5
6
330
0
100
AcDbSymbolTable
 70
     0
  0
ENDTAB
  0
TABLE
  2
UCS
  5
7
330
0
100
AcDbSymbolTable
 70
     0
  0
ENDTAB
  0
TABLE
  2
APPID
  5
9
330
0
100
AcDbSymbolTable
 70
     1
  0
APPID
  5
12
330
9
100
AcDbSymbolTableRecord
100
AcDbRegAppTableRecord
  2
ACAD
 70
     0
  0
ENDTAB
  0
TABLE
  2
DIMSTYLE
  5
A
330
0
100
AcDbSymbolTable
 70
     1
100
AcDbDimStyleTable
  0
DIMSTYLE
105
27
330
A
100
AcDbSymbolTableRecord
100
AcDbDimStyleTableRecord
  2
Standard
 70
     0
178
     0
340
11
  0
ENDTAB
  0
TABLE
  2
BLOCK_RECORD
  5
1
330
0
100
AcDbSymbolTable
 70
     7
  0
BLOCK_RECORD
  5
1F
330
1
100
AcDbSymbolTableRecord
100
AcDbBlockTableRecord
  2
*Model_Space
340
22
 70
     0
280
     1
281
     0
  0
BLOCK_RECORD
  5
1B
330
1
100
AcDbSymbolTableRecord
100
AcDbBlockTableRecord
  2
*Paper_Space
340
1E
 70
     0
280
     1
281
     0
  0
BLOCK_RECORD
  5
23
330
1
100
AcDbSymbolTableRecord
100
AcDbBlockTableRecord
  2
*Paper_Space0
340
26
 70
     0
280
     1
281
     0
  0
BLOCK_RECORD
  5
90
330
1
100
AcDbSymbolTableRecord
100
AcDbBlockTableRecord
  2
block 2
340
0
102
{BLKREFS
331
91
102
}
 70
     0
280
     1
281
     0
  0
BLOCK_RECORD
  5
A9
330
1
100
AcDbSymbolTableRecord
100
AcDbBlockTableRecord
  2
block 3
340
0
102
{BLKREFS
331
AA
102
}
 70
     0
280
     1
281
     0
  0
BLOCK_RECORD
  5
BB
330
1
100
AcDbSymbolTableRecord
100
AcDbBlockTableRecord
  2
block 4
340
0
102
{BLKREFS
331
BC
102
}
 70
     0
280
     1
281
     0
  0
BLOCK_RECORD
  5
D0
330
1
100
AcDbSymbolTableRecord
100
AcDbBlockTableRecord
  2
block 5
340
0
102
{BLKREFS
331
D1
102
}
 70
     0
280
     1
281
     0
  0
BLOCK_RECORD
  5
E5
330
1
100
AcDbSymbolTableRecord
100
AcDbBlockTableRecord
  2
block 6
340
0
102
{BLKREFS
331
E6
102
}
 70
     0
280
     1
281
     0
  0
BLOCK_RECORD
  5
EF
330
1
100
AcDbSymbolTableRecord
100
AcDbBlockTableRecord
  2
block 7
340
0
102
{BLKREFS
331
F0
102
}
 70
     0
280
     1
281
     0
  0
ENDTAB
  0
ENDSEC
  0
SECTION
  2
BLOCKS
  0
BLOCK
  5
20
330
1F
100
AcDbEntity
  8
0
100
AcDbBlockBegin
  2
*Model_Space
 70
     0
 10
0.0
 20
0.0
 30
0.0
  3
*Model_Space
  1

  0
ENDBLK
  5
21
330
1F
100
AcDbEntity
  8
0
100
AcDbBlockEnd
  0
BLOCK
  5
1C
330
1B
100
AcDbEntity
 67
     1
  8
0
100
AcDbBlockBegin
  2
*Paper_Space
 70
     0
 10
0.0
 20
0.0
 30
0.0
  3
*Paper_Space
  1

  0
ENDBLK
  5
1D
330
1B
100
AcDbEntity
 67
     1
  8
0
100
AcDbBlockEnd
  0
BLOCK
  5
24
330
23
100
AcDbEntity
  8
0
100
AcDbBlockBegin
  2
*Paper_Space0
 70
     0
 10
0.0
 20
0.0
 30
0.0
  3
*Paper_Space0
  1

  0
ENDBLK
  5
25
330
23
100
AcDbEntity
  8
0
100
AcDbBlockEnd
  0
BLOCK
  5
92
330
90
100
AcDbEntity
  8
0
100
AcDbBlockBegin
  2
block 2
 70
     0
 10
0.0
 20
0.0
 30
0.0
  3
block 2
  1

  0
SPLINE
  5
94
330
90
100
AcDbEntity
  8
_U+30EC_U+30A4_U+30E4_U+30FC 1
370
     0
100
AcDbSpline
210
0.0
220
0.0
230
1.0
 70
    11
 71
     3
 72
    26
 73
    22
 74
     0
 42
0.0000000001
 43
0.0000000001
 12
1.0
 22
0.0
 32
0.0
 13
1.0
 23
0.0
 33
0.0
 40
0.0
 40
0.0
 40
0.0
 40
0.0
 40
1.0
 40
1.0
 40
1.0
 40
2.0
 40
2.0
 40
2.0
 40
3.0
 40
3.0
 40
3.0
 40
4.0
 40
4.0
 40
4.0
 40
5.0
 40
5.0
 40
5.0
 40
6.0
 40
6.0
 40
6.0
 40
7.0
 40
7.0
 40
7.0
 40
7.0
 10
84.68888751137986
 20
-141.7295057154357
 30
0.0
 10
84.68888751137986
 20
-141.7295057154357
 30
0.0
 10
84.68888751137986
 20
-140.6253526124131
 30
0.0
 10
84.68888751137986
 20
-140.6253526124131
 30
0.0
 10
84.68888751137986
 20
-140.6253526124131
 30
0.0
 10
84.35884736389293
 20
-140.6253526124131
 30
0.0
 10
84.35884736389293
 20
-140.6253526124131
 30
0.0
 10
84.35884736389293
 20
-140.6253526124131
 30
0.0
 10
84.35884736389293
 20
-140.4772135065474
 30
0.0
 10
84.35884736389293
 20
-140.4772135065474
 30
0.0
 10
84.69095456867102
 20
-140.4623995959608
 30
0.0
 10
84.7374633577219
 20
-140.2994465795085
 30
0.0
 10
84.76709117889504
 20
-140.1850694093982
 30
0.0
 10
84.76709117889504
 20
-140.1850694093982
 30
0.0
 10
84.91316322746962
 20
-140.1850694093982
 30
0.0
 10
84.91316322746962
 20
-140.1850694093982
 30
0.0
 10
84.91316322746962
 20
-140.1850694093982
 30
0.0
 10
84.91316322746962
 20
-141.7295057154357
 30
0.0
 10
84.91316322746962
 20
-141.7295057154357
 30
0.0
 10
84.91316322746962
 20
-141.7295057154357
 30
0.0
 10
84.68888751137986
 20
-141.7295057154357
 30
0.0
 10
84.68888751137986
 20
-141.7295057154357
 30
0.0
  0
HATCH
  5
95
330
90
100
AcDbEntity
  8
_U+30EC_U+30A4_U+30E4_U+30FC 1
 62
     7
420
 16777215
100
AcDbHatch
 10
0.0
 20
0.0
 30
0.0
210
0.0
220
0.0
230
1.0
  2
SOLID
 70
     1
 71
     0
 91
        1
 92
        1
 93
        1
 72
     4
 94
        3
 73
     0
 74
     1
 95
       26
 96
       22
 40
0.0
 40
0.0
 40
0.0
 40
0.0
 40
1.0
 40
1.0
 40
1.0
 40
2.0
 40
2.0
 40
2.0
 40
3.0
 40
3.0
 40
3.0
 40
4.0
 40
4.0
 40
4.0
 40
5.0
 40
5.0
 40
5.0
 40
6.0
 40
6.0
 40
6.0
 40
7.0
 40
7.0
 40
7.0
 40
7.0
 10
84.68888751137986
 20
-141.7295057154357
 10
84.68888751137986
 20
-141.7295057154357
 10
84.68888751137986
 20
-140.6253526124131
 10
84.68888751137986
 20
-140.6253526124131
 10
84.68888751137986
 20
-140.6253526124131
 10
84.35884736389293
 20
-140.6253526124131
 10
84.35884736389293
 20
-140.6253526124131
 10
84.35884736389293
 20
-140.6253526124131
 10
84.35884736389293
 20
-140.4772135065474
 10
84.35884736389293
 20
-140.4772135065474
 10
84.69095456867102
 20
-140.4623995959608
 10
84.7374633577219
 20
-140.2994465795085
 10
84.76709117889504
 20
-140.1850694093982
 10
84.76709117889504
 20
-140.1850694093982
 10
84.91316322746962
 20
-140.1850694093982
 10
84.91316322746962
 20
-140.1850694093982
 10
84.91316322746962
 20
-140.1850694093982
 10
84.91316322746962
 20
-141.7295057154357
 10
84.91316322746962
 20
-141.7295057154357
 10
84.91316322746962
 20
-141.7295057154357
 10
84.68888751137986
 20
-141.7295057154357
 10
84.68888751137986
 20
-141.7295057154357
 97
        0
 97
        0
 75
     2
 76
     1
 98
        0
  0
SPLINE
  5
96
330
90
100
AcDbEntity
  8
_U+30EC_U+30A4_U+30E4_U+30FC 1
370
     0
100
AcDbSpline
210
0.0
220
0.0
230
1.0
 70
    11
 71
     3
 72
    29
 73
    25
 74
     0
 42
0.0000000001
 43
0.0000000001
 12
1.0
 22
0.0
 32
0.0
 13
1.0
 23
0.0
 33
0.0
 40
0.0
 40
0.0
 40
0.0
 40
0.0
 40
1.0
 40
1.0
 40
1.0
 40
2.0
 40
2.0
 40
2.0
 40
3.0
 40
3.0
 40
3.0
 40
4.0
 40
4.0
 40
4.0
 40
5.0
 40
5.0
 40
5.0
 40
6.0
 40
6.0
 40
6.0
 40
7.0
 40
7.0
 40
7.0
 40
8.0
 40
8.0
 40
8.0
 40
8.0
 10
86.31221650402959
 20
-141.5517387883968
 30
0.0
 10
86.20404050579275
 20
-141.7612005939
 30
0.0
 10
86.03075220288467
 20
-141.7801486190689
 30
0.0
 10
85.91430797548323
 20
-141.7801486190689
 30
0.0
 10
85.75342201632206
 20
-141.7801486190689
 30
0.0
 10
85.6118285918783
 20
-141.733639830018
 30
0.0
 10
85.5167439564854
 20
-141.5517387883968
 30
0.0
 10
85.41304658237938
 20
-141.3570908934802
 30
0.0
 10
85.39375404766199
 20
-141.120068324095
 30
0.0
 10
85.39375404766199
 20
-140.9574598171912
 30
0.0
 10
85.39375404766199
 20
-140.8134548259077
 30
0.0
 10
85.41097952508824
 20
-140.561618345936
 30
0.0
 10
85.5167439564854
 20
-140.3628363364371
 30
0.0
 10
85.62457544517372
 20
-140.1595757028073
 30
0.0
 10
85.78546140433488
 20
-140.1364935630561
 30
0.0
 10
85.91430797548323
 20
-140.1364935630561
 30
0.0
 10
86.07312687735325
 20
-140.1364935630561
 30
0.0
 10
86.21678735908817
 20
-140.1809352948159
 30
0.0
 10
86.31221650402959
 20
-140.3628363364371
 30
0.0
 10
86.41143525400479
 20
-140.5554171740625
 30
0.0
 10
86.43486190330448
 20
-140.7838270047346
 30
0.0
 10
86.43486190330448
 20
-140.9574598171912
 30
0.0
 10
86.43486190330448
 20
-141.1286810628081
 30
0.0
 10
86.41350231129593
 20
-141.3591579507713
 30
0.0
 10
86.31221650402959
 20
-141.5517387883968
 30
0.0
  0
SPLINE
  5
97
330
90
100
AcDbEntity
  8
_U+30EC_U+30A4_U+30E4_U+30FC 1
370
     0
100
AcDbSpline
210
0.0
220
0.0
230
1.0
 70
    11
 71
     3
 72
    17
 73
    13
 74
     0
 42
0.0000000001
 43
0.0000000001
 12
1.0
 22
0.0
 32
0.0
 13
1.0
 23
0.0
 33
0.0
 40
0.0
 40
0.0
 40
0.0
 40
0.0
 40
1.0
 40
1.0
 40
1.0
 40
2.0
 40
2.0
 40
2.0
 40
3.0
 40
3.0
 40
3.0
 40
4.0
 40
4.0
 40
4.0
 40
4.0
 10
85.91430797548323
 20
-140.3290744006816
 30
0.0
 10
85.66453855280263
 20
-140.3290744006816
 30
0.0
 10
85.61802976375175
 20
-140.6126057591177
 30
0.0
 10
85.61802976375175
 20
-140.9574598171912
 30
0.0
 10
85.61802976375175
 20
-141.2768201686739
 30
0.0
 10
85.65420326634687
 20
-141.5855007241522
 30
0.0
 10
85.91430797548323
 20
-141.5855007241522
 30
0.0
 10
86.1620103408727
 20
-141.5855007241522
 30
0.0
 10
86.21058618721472
 20
-141.3043809325559
 30
0.0
 10
86.21058618721472
 20
-140.9574598171912
 30
0.0
 10
86.21058618721472
 20
-140.63775495616
 30
0.0
 10
86.17234562732844
 20
-140.3290744006816
 30
0.0
 10
85.91430797548323
 20
-140.3290744006816
 30
0.0
  0
HATCH
  5
98
330
90
100
AcDbEntity
  8
_U+30EC_U+30A4_U+30E4_U+30FC 1
 62
     7
420
 16777215
100
AcDbHatch
 10
0.0
 20
0.0
 30
0.0
210
0.0
220
0.0
230
1.0
  2
SOLID
 70
     1
 71
     0
 91
        2
 92
        1
 93
        1
 72
     4
 94
        3
 73
     0
 74
     1
 95
       29
 96
       25
 40
0.0
 40
0.0
 40
0.0
 40
0.0
 40
1.0
 40
1.0
 40
1.0
 40
2.0
 40
2.0
 40
2.0
 40
3.0
 40
3.0
 40
3.0
 40
4.0
 40
4.0
 40
4.0
 40
5.0
 40
5.0
 40
5.0
 40
6.0
 40
6.0
 40
6.0
 40
7.0
 40
7.0
 40
7.0
 40
8.0
 40
8.0
 40
8.0
 40
8.0
 10
86.31221650402959
 20
-141.5517387883968
 10
86.20404050579275
 20
-141.7612005939
 10
86.03075220288467
 20
-141.7801486190689
 10
85.91430797548323
 20
-141.7801486190689
 10
85.75342201632206
 20
-141.7801486190689
 10
85.6118285918783
 20
-141.733639830018
 10
85.5167439564854
 20
-141.5517387883968
 10
85.41304658237938
 20
-141.3570908934802
 10
85.39375404766199
 20
-141.120068324095
 10
85.39375404766199
 20
-140.9574598171912
 10
85.39375404766199
 20
-140.8134548259077
 10
85.41097952508824
 20
-140.561618345936
 10
85.5167439564854
 20
-140.3628363364371
 10
85.62457544517372
 20
-140.1595757028073
 10
85.78546140433488
 20
-140.1364935630561
 10
85.91430797548323
 20
-140.1364935630561
 10
86.07312687735325
 20
-140.1364935630561
 10
86.21678735908817
 20
-140.1809352948159
 10
86.31221650402959
 20
-140.3628363364371
 10
86.41143525400479
 20
-140.5554171740625
 10
86.43486190330448
 20
-140.7838270047346
 10
86.43486190330448
 20
-140.9574598171912
 10
86.43486190330448
 20
-141.1286810628081
 10
86.41350231129593
 20
-141.3591579507713
 10
86.31221650402959
 20
-141.5517387883968
 97
        0
 97
        0
 92
        1
 93
        1
 72
     4
 94
        3
 73
     0
 74
     1
 95
       17
 96
       13
 40
0.0
 40
0.0
 40
0.0
 40
0.0
 40
1.0
 40
1.0
 40
1.0
 40
2.0
 40
2.0
 40
2.0
 40
3.0
 40
3.0
 40
3.0
 40
4.0
 40
4.0
 40
4.0
 40
4.0
 10
85.91430797548323
 20
-140.3290744006816
 10
85.66453855280263
 20
-140.3290744006816
 10
85.61802976375175
 20
-140.6126057591177
 10
85.61802976375175
 20
-140.9574598171912
 10
85.61802976375175
 20
-141.2768201686739
 10
85.65420326634687
 20
-141.5855007241522
 10
85.91430797548323
 20
-141.5855007241522
 10
86.1620103408727
 20
-141.5855007241522
 10
86.21058618721472
 20
-141.3043809325559
 10
86.21058618721472
 20
-140.9574598171912
 10
86.21058618721472
 20
-140.63775495616
 10
86.17234562732844
 20
-140.3290744006816
 10
85.91430797548323
 20
-140.3290744006816
 97
        0
 97
        0
 75
     2
 76
     1
 98
        0
  0
ENDBLK
  5
93
330
90
100
AcDbEntity
  8
0
100
AcDbBlockEnd
  0
BLOCK
  5
AB
330
A9
100
AcDbEntity
  8
0
100
AcDbBlockBegin
  2
block 3
 70
     0
 10
0.0
 20
0.0
 30
0.0
  3
block 3
  1

  0
SPLINE
  5
AD
330
A9
100
AcDbEntity
  8
_U+30EC_U+30A4_U+30E4_U+30FC 1
370
     0
100
AcDbSpline
210
0.0
220
0.0
230
1.0
 70
    11
 71
     3
 72
    26
 73
    22
 74
     0
 42
0.0000000001
 43
0.0000000001
 12
1.0
 22
0.0
 32
0.0
 13
1.0
 23
0.0
 33
0.0
 40
0.0
 40
0.0
 40
0.0
 40
0.0
 40
1.0
 40
1.0
 40
1.0
 40
2.0
 40
2.0
 40
2.0
 40
3.0
 40
3.0
 40
3.0
 40
4.0
 40
4.0
 40
4.0
 40
5.0
 40
5.0
 40
5.0
 40
6.0
 40
6.0
 40
6.0
 40
7.0
 40
7.0
 40
7.0
 40
7.0
 10
106.0276366922431
 20
-122.1747992316091
 30
0.0
 10
106.0276366922431
 20
-122.1747992316091
 30
0.0
 10
104.9234835892205
 20
-122.1747992316091
 30
0.0
 10
104.9234835892205
 20
-122.1747992316091
 30
0.0
 10
104.9234835892205
 20
-122.1747992316091
 30
0.0
 10
104.9234835892205
 20
-122.504839379096
 30
0.0
 10
104.9234835892205
 20
-122.504839379096
 30
0.0
 10
104.9234835892205
 20
-122.504839379096
 30
0.0
 10
104.7753444833548
 20
-122.504839379096
 30
0.0
 10
104.7753444833548
 20
-122.504839379096
 30
0.0
 10
104.7605305727682
 20
-122.1727321743179
 30
0.0
 10
104.5975775563159
 20
-122.1262233852671
 30
0.0
 10
104.4832003862056
 20
-122.0965955640939
 30
0.0
 10
104.4832003862056
 20
-122.0965955640939
 30
0.0
 10
104.4832003862056
 20
-121.9505235155193
 30
0.0
 10
104.4832003862056
 20
-121.9505235155193
 30
0.0
 10
104.4832003862056
 20
-121.9505235155193
 30
0.0
 10
106.0276366922431
 20
-121.9505235155193
 30
0.0
 10
106.0276366922431
 20
-121.9505235155193
 30
0.0
 10
106.0276366922431
 20
-121.9505235155193
 30
0.0
 10
106.0276366922431
 20
-122.1747992316091
 30
0.0
 10
106.0276366922431
 20
-122.1747992316091
 30
0.0
  0
HATCH
  5
AE
330
A9
100
AcDbEntity
  8
_U+30EC_U+30A4_U+30E4_U+30FC 1
 62
     7
420
 16777215
100
AcDbHatch
 10
0.0
 20
0.0
 30
0.0
210
0.0
220
0.0
230
1.0
  2
SOLID
 70
     1
 71
     0
 91
        1
 92
        1
 93
        1
 72
     4
 94
        3
 73
     0
 74
     1
 95
       26
 96
       22
 40
0.0
 40
0.0
 40
0.0
 40
0.0
 40
1.0
 40
1.0
 40
1.0
 40
2.0
 40
2.0
 40
2.0
 40
3.0
 40
3.0
 40
3.0
 40
4.0
 40
4.0
 40
4.0
 40
5.0
 40
5.0
 40
5.0
 40
6.0
 40
6.0
 40
6.0
 40
7.0
 40
7.0
 40
7.0
 40
7.0
 10
106.0276366922431
 20
-122.1747992316091
 10
106.0276366922431
 20
-122.1747992316091
 10
104.9234835892205
 20
-122.1747992316091
 10
104.9234835892205
 20
-122.1747992316091
 10
104.9234835892205
 20
-122.1747992316091
 10
104.9234835892205
 20
-122.504839379096
 10
104.9234835892205
 20
-122.504839379096
 10
104.9234835892205
 20
-122.504839379096
 10
104.7753444833548
 20
-122.504839379096
 10
104.7753444833548
 20
-122.504839379096
 10
104.7605305727682
 20
-122.1727321743179
 10
104.5975775563159
 20
-122.1262233852671
 10
104.4832003862056
 20
-122.0965955640939
 10
104.4832003862056
 20
-122.0965955640939
 10
104.4832003862056
 20
-121.9505235155193
 10
104.4832003862056
 20
-121.9505235155193
 10
104.4832003862056
 20
-121.9505235155193
 10
106.0276366922431
 20
-121.9505235155193
 10
106.0276366922431
 20
-121.9505235155193
 10
106.0276366922431
 20
-121.9505235155193
 10
106.0276366922431
 20
-122.1747992316091
 10
106.0276366922431
 20
-122.1747992316091
 97
        0
 97
        0
 75
     2
 76
     1
 98
        0
  0
ENDBLK
  5
AC
330
A9
100
AcDbEntity
  8
0
100
AcDbBlockEnd
  0
BLOCK
  5
BD
330
BB
100
AcDbEntity
  8
0
100
AcDbBlockBegin
  2
block 4
 70
     0
 10
0.0
 20
0.0
 30
0.0
  3
block 4
  1

  0
SPLINE
  5
BF
330
BB
100
AcDbEntity
  8
_U+30EC_U+30A4_U+30E4_U+30FC 1
370
     0
100
AcDbSpline
210
0.0
220
0.0
230
1.0
 70
    11
 71
     3
 72
    44
 73
    40
 74
     0
 42
0.0000000001
 43
0.0000000001
 12
1.0
 22
0.0
 32
0.0
 13
1.0
 23
0.0
 33
0.0
 40
0.0
 40
0.0
 40
0.0
 40
0.0
 40
1.0
 40
1.0
 40
1.0
 40
2.0
 40
2.0
 40
2.0
 40
3.0
 40
3.0
 40
3.0
 40
4.0
 40
4.0
 40
4.0
 40
5.0
 40
5.0
 40
5.0
 40
6.0
 40
6.0
 40
6.0
 40
7.0
 40
7.0
 40
7.0
 40
8.0
 40
8.0
 40
8.0
 40
9.0
 40
9.0
 40
9.0
 40
10.0
 40
10.0
 40
10.0
 40
11.0
 40
11.0
 40
11.0
 40
12.0
 40
12.0
 40
12.0
 40
13.0
 40
13.0
 40
13.0
 40
13.0
 10
87.645296202047
 20
-116.254230385433
 30
0.0
 10
87.42756616737923
 20
-116.4128770325287
 30
0.0
 10
87.33454858927747
 20
-116.4869465854616
 30
0.0
 10
87.28562823338693
 20
-116.6307793219708
 30
0.0
 10
87.28562823338693
 20
-116.6307793219708
 30
0.0
 10
88.0642198130534
 20
-116.6307793219708
 30
0.0
 10
88.0642198130534
 20
-116.6307793219708
 30
0.0
 10
88.0642198130534
 20
-116.6307793219708
 30
0.0
 10
88.0642198130534
 20
-116.8359347581174
 30
0.0
 10
88.0642198130534
 20
-116.8359347581174
 30
0.0
 10
88.0642198130534
 20
-116.8359347581174
 30
0.0
 10
87.03620332025484
 20
-116.8359347581174
 30
0.0
 10
87.03620332025484
 20
-116.8359347581174
 30
0.0
 10
87.06789819871913
 20
-116.4783338467485
 30
0.0
 10
87.13335501293889
 20
-116.4001301792333
 30
0.0
 10
87.51851668818982
 20
-116.1017849102107
 30
0.0
 10
87.77448728274388
 20
-115.9030029007118
 30
0.0
 10
87.83994409696363
 20
-115.8353067744266
 30
0.0
 10
87.83994409696363
 20
-115.6978474645651
 30
0.0
 10
87.83994409696363
 20
-115.5793361798725
 30
0.0
 10
87.76794160132191
 20
-115.4482502966588
 30
0.0
 10
87.57122664911414
 20
-115.4482502966588
 30
0.0
 10
87.31112193997778
 20
-115.4482502966588
 30
0.0
 10
87.30250920126466
 20
-115.678727184622
 30
0.0
 10
87.29837508668236
 20
-115.7951714120234
 30
0.0
 10
87.29837508668236
 20
-115.7951714120234
 30
0.0
 10
87.07409937059259
 20
-115.7951714120234
 30
0.0
 10
87.07409937059259
 20
-115.7951714120234
 30
0.0
 10
87.08271210930572
 20
-115.668219643392
 30
0.0
 10
87.09339190530999
 20
-115.5560817853471
 30
0.0
 10
87.17366263011631
 20
-115.4375705006545
 30
0.0
 10
87.28356117609579
 20
-115.2768567962676
 30
0.0
 10
87.4699408418478
 20
-115.2429226057379
 30
0.0
 10
87.58604055970072
 20
-115.2429226057379
 30
0.0
 10
87.86337074626333
 20
-115.2429226057379
 30
0.0
 10
88.07076549447537
 20
-115.4270629594245
 30
0.0
 10
88.07076549447537
 20
-115.6999145218563
 30
0.0
 10
88.07076549447537
 20
-115.9283243525283
 30
0.0
 10
87.95432126707392
 20
-116.0278876120521
 30
0.0
 10
87.645296202047
 20
-116.254230385433
 30
0.0
  0
HATCH
  5
C0
330
BB
100
AcDbEntity
  8
_U+30EC_U+30A4_U+30E4_U+30FC 1
 62
     7
420
 16777215
100
AcDbHatch
 10
0.0
 20
0.0
 30
0.0
210
0.0
220
0.0
230
1.0
  2
SOLID
 70
     1
 71
     0
 91
        1
 92
        1
 93
        1
 72
     4
 94
        3
 73
     0
 74
     1
 95
       44
 96
       40
 40
0.0
 40
0.0
 40
0.0
 40
0.0
 40
1.0
 40
1.0
 40
1.0
 40
2.0
 40
2.0
 40
2.0
 40
3.0
 40
3.0
 40
3.0
 40
4.0
 40
4.0
 40
4.0
 40
5.0
 40
5.0
 40
5.0
 40
6.0
 40
6.0
 40
6.0
 40
7.0
 40
7.0
 40
7.0
 40
8.0
 40
8.0
 40
8.0
 40
9.0
 40
9.0
 40
9.0
 40
10.0
 40
10.0
 40
10.0
 40
11.0
 40
11.0
 40
11.0
 40
12.0
 40
12.0
 40
12.0
 40
13.0
 40
13.0
 40
13.0
 40
13.0
 10
87.645296202047
 20
-116.254230385433
 10
87.42756616737923
 20
-116.4128770325287
 10
87.33454858927747
 20
-116.4869465854616
 10
87.28562823338693
 20
-116.6307793219708
 10
87.28562823338693
 20
-116.6307793219708
 10
88.0642198130534
 20
-116.6307793219708
 10
88.0642198130534
 20
-116.6307793219708
 10
88.0642198130534
 20
-116.6307793219708
 10
88.0642198130534
 20
-116.8359347581174
 10
88.0642198130534
 20
-116.8359347581174
 10
88.0642198130534
 20
-116.8359347581174
 10
87.03620332025484
 20
-116.8359347581174
 10
87.03620332025484
 20
-116.8359347581174
 10
87.06789819871913
 20
-116.4783338467485
 10
87.13335501293889
 20
-116.4001301792333
 10
87.51851668818982
 20
-116.1017849102107
 10
87.77448728274388
 20
-115.9030029007118
 10
87.83994409696363
 20
-115.8353067744266
 10
87.83994409696363
 20
-115.6978474645651
 10
87.83994409696363
 20
-115.5793361798725
 10
87.76794160132191
 20
-115.4482502966588
 10
87.57122664911414
 20
-115.4482502966588
 10
87.31112193997778
 20
-115.4482502966588
 10
87.30250920126466
 20
-115.678727184622
 10
87.29837508668236
 20
-115.7951714120234
 10
87.29837508668236
 20
-115.7951714120234
 10
87.07409937059259
 20
-115.7951714120234
 10
87.07409937059259
 20
-115.7951714120234
 10
87.08271210930572
 20
-115.668219643392
 10
87.09339190530999
 20
-115.5560817853471
 10
87.17366263011631
 20
-115.4375705006545
 10
87.28356117609579
 20
-115.2768567962676
 10
87.4699408418478
 20
-115.2429226057379
 10
87.58604055970072
 20
-115.2429226057379
 10
87.86337074626333
 20
-115.2429226057379
 10
88.07076549447537
 20
-115.4270629594245
 10
88.07076549447537
 20
-115.6999145218563
 10
88.07076549447537
 20
-115.9283243525283
 10
87.95432126707392
 20
-116.0278876120521
 10
87.645296202047
 20
-116.254230385433
 97
        0
 97
        0
 75
     2
 76
     1
 98
        0
  0
SPLINE
  5
C1
330
BB
100
AcDbEntity
  8
_U+30EC_U+30A4_U+30E4_U+30FC 1
370
     0
100
AcDbSpline
210
0.0
220
0.0
230
1.0
 70
    11
 71
     3
 72
    32
 73
    28
 74
     0
 42
0.0000000001
 43
0.0000000001
 12
1.0
 22
0.0
 32
0.0
 13
1.0
 23
0.0
 33
0.0
 40
0.0
 40
0.0
 40
0.0
 40
0.0
 40
1.0
 40
1.0
 40
1.0
 40
2.0
 40
2.0
 40
2.0
 40
3.0
 40
3.0
 40
3.0
 40
4.0
 40
4.0
 40
4.0
 40
5.0
 40
5.0
 40
5.0
 40
6.0
 40
6.0
 40
6.0
 40
7.0
 40
7.0
 40
7.0
 40
8.0
 40
8.0
 40
8.0
 40
9.0
 40
9.0
 40
9.0
 40
9.0
 10
88.68674856723804
 20
-116.8867499165248
 30
0.0
 10
88.51346026432998
 20
-116.8867499165248
 30
0.0
 10
88.26782495623166
 20
-116.8168144781743
 30
0.0
 10
88.22992890589391
 20
-116.4847072733962
 30
0.0
 10
88.22992890589391
 20
-116.4847072733962
 30
0.0
 10
88.4435248259794
 20
-116.4847072733962
 30
0.0
 10
88.4435248259794
 20
-116.4847072733962
 30
0.0
 10
88.45420462198368
 20
-116.5439629157425
 30
0.0
 10
88.48589950044797
 20
-116.6921020216082
 30
0.0
 10
88.68881562452918
 20
-116.6921020216082
 30
0.0
 10
88.98095972167837
 20
-116.6921020216082
 30
0.0
 10
89.01885577201612
 20
-116.3620618741213
 30
0.0
 10
89.03160262531155
 20
-116.1569064379747
 30
0.0
 10
88.94065210450096
 20
-116.237177162781
 30
0.0
 10
88.87312823299006
 20
-116.2943657478361
 30
0.0
 10
88.69122719136887
 20
-116.2943657478361
 30
0.0
 10
88.51139320703882
 20
-116.2943657478361
 30
0.0
 10
88.20856931388536
 20
-116.188601316439
 30
0.0
 10
88.20856931388536
 20
-115.782424558728
 30
0.0
 10
88.20856931388536
 20
-115.4628919524711
 30
0.0
 10
88.4076958329328
 20
-115.2429226057379
 30
0.0
 10
88.72498912712432
 20
-115.2429226057379
 30
0.0
 10
89.23899737352359
 20
-115.2429226057379
 30
0.0
 10
89.24967716952786
 20
-115.7972384693146
 30
0.0
 10
89.24967716952786
 20
-116.0108343894001
 30
0.0
 10
89.24967716952786
 20
-116.2414835321376
 30
0.0
 10
89.23038463481046
 20
-116.8867499165248
 30
0.0
 10
88.68674856723804
 20
-116.8867499165248
 30
0.0
  0
SPLINE
  5
C2
330
BB
100
AcDbEntity
  8
_U+30EC_U+30A4_U+30E4_U+30FC 1
370
     0
100
AcDbSpline
210
0.0
220
0.0
230
1.0
 70
    11
 71
     3
 72
    17
 73
    13
 74
     0
 42
0.0000000001
 43
0.0000000001
 12
1.0
 22
0.0
 32
0.0
 13
1.0
 23
0.0
 33
0.0
 40
0.0
 40
0.0
 40
0.0
 40
0.0
 40
1.0
 40
1.0
 40
1.0
 40
2.0
 40
2.0
 40
2.0
 40
3.0
 40
3.0
 40
3.0
 40
4.0
 40
4.0
 40
4.0
 40
4.0
 10
88.72705618441546
 20
-115.4355034433633
 30
0.0
 10
88.60854489972287
 20
-115.4355034433633
 30
0.0
 10
88.43284502997513
 20
-115.4925197736442
 30
0.0
 10
88.43284502997513
 20
-115.7781181893715
 30
0.0
 10
88.43284502997513
 20
-116.0044609627524
 30
0.0
 10
88.57271590667627
 20
-116.0997178529195
 30
0.0
 10
88.70810815924659
 20
-116.0997178529195
 30
0.0
 10
88.9702799256741
 20
-116.0997178529195
 30
0.0
 10
89.00852048556037
 20
-115.8902560474163
 30
0.0
 10
89.00852048556037
 20
-115.7739840747892
 30
0.0
 10
89.00852048556037
 20
-115.5982842050414
 30
0.0
 10
88.91309134061895
 20
-115.4355034433633
 30
0.0
 10
88.72705618441546
 20
-115.4355034433633
 30
0.0
  0
HATCH
  5
C3
330
BB
100
AcDbEntity
  8
_U+30EC_U+30A4_U+30E4_U+30FC 1
 62
     7
420
 16777215
100
AcDbHatch
 10
0.0
 20
0.0
 30
0.0
210
0.0
220
0.0
230
1.0
  2
SOLID
 70
     1
 71
     0
 91
        2
 92
        1
 93
        1
 72
     4
 94
        3
 73
     0
 74
     1
 95
       32
 96
       28
 40
0.0
 40
0.0
 40
0.0
 40
0.0
 40
1.0
 40
1.0
 40
1.0
 40
2.0
 40
2.0
 40
2.0
 40
3.0
 40
3.0
 40
3.0
 40
4.0
 40
4.0
 40
4.0
 40
5.0
 40
5.0
 40
5.0
 40
6.0
 40
6.0
 40
6.0
 40
7.0
 40
7.0
 40
7.0
 40
8.0
 40
8.0
 40
8.0
 40
9.0
 40
9.0
 40
9.0
 40
9.0
 10
88.68674856723804
 20
-116.8867499165248
 10
88.51346026432998
 20
-116.8867499165248
 10
88.26782495623166
 20
-116.8168144781743
 10
88.22992890589391
 20
-116.4847072733962
 10
88.22992890589391
 20
-116.4847072733962
 10
88.4435248259794
 20
-116.4847072733962
 10
88.4435248259794
 20
-116.4847072733962
 10
88.45420462198368
 20
-116.5439629157425
 10
88.48589950044797
 20
-116.6921020216082
 10
88.68881562452918
 20
-116.6921020216082
 10
88.98095972167837
 20
-116.6921020216082
 10
89.01885577201612
 20
-116.3620618741213
 10
89.03160262531155
 20
-116.1569064379747
 10
88.94065210450096
 20
-116.237177162781
 10
88.87312823299006
 20
-116.2943657478361
 10
88.69122719136887
 20
-116.2943657478361
 10
88.51139320703882
 20
-116.2943657478361
 10
88.20856931388536
 20
-116.188601316439
 10
88.20856931388536
 20
-115.782424558728
 10
88.20856931388536
 20
-115.4628919524711
 10
88.4076958329328
 20
-115.2429226057379
 10
88.72498912712432
 20
-115.2429226057379
 10
89.23899737352359
 20
-115.2429226057379
 10
89.24967716952786
 20
-115.7972384693146
 10
89.24967716952786
 20
-116.0108343894001
 10
89.24967716952786
 20
-116.2414835321376
 10
89.23038463481046
 20
-116.8867499165248
 10
88.68674856723804
 20
-116.8867499165248
 97
        0
 97
        0
 92
        1
 93
        1
 72
     4
 94
        3
 73
     0
 74
     1
 95
       17
 96
       13
 40
0.0
 40
0.0
 40
0.0
 40
0.0
 40
1.0
 40
1.0
 40
1.0
 40
2.0
 40
2.0
 40
2.0
 40
3.0
 40
3.0
 40
3.0
 40
4.0
 40
4.0
 40
4.0
 40
4.0
 10
88.72705618441546
 20
-115.4355034433633
 10
88.60854489972287
 20
-115.4355034433633
 10
88.43284502997513
 20
-115.4925197736442
 10
88.43284502997513
 20
-115.7781181893715
 10
88.43284502997513
 20
-116.0044609627524
 10
88.57271590667627
 20
-116.0997178529195
 10
88.70810815924659
 20
-116.0997178529195
 10
88.9702799256741
 20
-116.0997178529195
 10
89.00852048556037
 20
-115.8902560474163
 10
89.00852048556037
 20
-115.7739840747892
 10
89.00852048556037
 20
-115.5982842050414
 10
88.91309134061895
 20
-115.4355034433633
 10
88.72705618441546
 20
-115.4355034433633
 97
        0
 97
        0
 75
     2
 76
     1
 98
        0
  0
ENDBLK
  5
BE
330
BB
100
AcDbEntity
  8
0
100
AcDbBlockEnd
  0
BLOCK
  5
D2
330
D0
100
AcDbEntity
  8
0
100
AcDbBlockBegin
  2
block 5
 70
     0
 10
0.0
 20
0.0
 30
0.0
  3
block 5
  1

  0
SPLINE
  5
D4
330
D0
100
AcDbEntity
  8
_U+30EC_U+30A4_U+30E4_U+30FC 1
370
     0
100
AcDbSpline
210
0.0
220
0.0
230
1.0
 70
    11
 71
     3
 72
    32
 73
    28
 74
     0
 42
0.0000000001
 43
0.0000000001
 12
1.0
 22
0.0
 32
0.0
 13
1.0
 23
0.0
 33
0.0
 40
0.0
 40
0.0
 40
0.0
 40
0.0
 40
1.0
 40
1.0
 40
1.0
 40
2.0
 40
2.0
 40
2.0
 40
3.0
 40
3.0
 40
3.0
 40
4.0
 40
4.0
 40
4.0
 40
5.0
 40
5.0
 40
5.0
 40
6.0
 40
6.0
 40
6.0
 40
7.0
 40
7.0
 40
7.0
 40
8.0
 40
8.0
 40
8.0
 40
9.0
 40
9.0
 40
9.0
 40
9.0
 10
76.99082164958911
 20
-141.7801486190689
 30
0.0
 10
76.47457409112441
 20
-141.7801486190689
 30
0.0
 10
76.46613360718555
 20
-141.2261772650407
 30
0.0
 10
76.46613360718555
 20
-141.0122368354067
 30
0.0
 10
76.46613360718555
 20
-140.7817599474434
 30
0.0
 10
76.48525388712869
 20
-140.134426505765
 30
0.0
 10
77.02888995470111
 20
-140.134426505765
 30
0.0
 10
77.20235051238345
 20
-140.134426505765
 30
0.0
 10
77.44781356570749
 20
-140.2043619441156
 30
0.0
 10
77.48588187081951
 20
-140.5364691488937
 30
0.0
 10
77.48588187081951
 20
-140.5364691488937
 30
0.0
 10
77.27211369595975
 20
-140.5364691488937
 30
0.0
 10
77.27211369595975
 20
-140.5364691488937
 30
0.0
 10
77.26160615472975
 20
-140.4792805638385
 30
0.0
 10
77.22991127626544
 20
-140.3311414579728
 30
0.0
 10
77.02682289740997
 20
-140.3311414579728
 30
0.0
 10
76.73485105503504
 20
-140.3311414579728
 30
0.0
 10
76.69454343785762
 20
-140.6591145481686
 30
0.0
 10
76.68196883933645
 20
-140.8640977295409
 30
0.0
 10
76.7749864174382
 20
-140.7858940620258
 30
0.0
 10
76.84268254372336
 20
-140.7266384196795
 30
0.0
 10
77.02458358534456
 20
-140.7266384196795
 30
0.0
 10
77.20441756967459
 20
-140.7266384196795
 30
0.0
 10
77.50689695327952
 20
-140.8348144179163
 30
0.0
 10
77.50689695327952
 20
-141.2409911756273
 30
0.0
 10
77.50689695327952
 20
-141.5603515271099
 30
0.0
 10
77.30811494378061
 20
-141.7801486190689
 30
0.0
 10
76.99082164958911
 20
-141.7801486190689
 30
0.0
  0
SPLINE
  5
D5
330
D0
100
AcDbEntity
  8
_U+30EC_U+30A4_U+30E4_U+30FC 1
370
     0
100
AcDbSpline
210
0.0
220
0.0
230
1.0
 70
    11
 71
     3
 72
    17
 73
    13
 74
     0
 42
0.0000000001
 43
0.0000000001
 12
1.0
 22
0.0
 32
0.0
 13
1.0
 23
0.0
 33
0.0
 40
0.0
 40
0.0
 40
0.0
 40
0.0
 40
1.0
 40
1.0
 40
1.0
 40
2.0
 40
2.0
 40
2.0
 40
3.0
 40
3.0
 40
3.0
 40
4.0
 40
4.0
 40
4.0
 40
4.0
 10
77.00770261746683
 20
-140.9212863145961
 30
0.0
 10
76.74535859626505
 20
-140.9212863145961
 30
0.0
 10
76.70729029115304
 20
-141.1328151773904
 30
0.0
 10
76.70729029115304
 20
-141.2492594047919
 30
0.0
 10
76.70729029115304
 20
-141.4249592745396
 30
0.0
 10
76.8025471813202
 20
-141.5879122909919
 30
0.0
 10
76.98651528023254
 20
-141.5879122909919
 30
0.0
 10
77.10709362221628
 20
-141.5879122909919
 30
0.0
 10
77.28279349196403
 20
-141.5286566486456
 30
0.0
 10
77.28279349196403
 20
-141.2430582329184
 30
0.0
 10
77.28279349196403
 20
-141.0187825168287
 30
0.0
 10
77.14309487003715
 20
-140.9212863145961
 30
0.0
 10
77.00770261746683
 20
-140.9212863145961
 30
0.0
  0
HATCH
  5
D6
330
D0
100
AcDbEntity
  8
_U+30EC_U+30A4_U+30E4_U+30FC 1
 62
     7
420
 16777215
100
AcDbHatch
 10
0.0
 20
0.0
 30
0.0
210
0.0
220
0.0
230
1.0
  2
SOLID
 70
     1
 71
     0
 91
        2
 92
        1
 93
        1
 72
     4
 94
        3
 73
     0
 74
     1
 95
       32
 96
       28
 40
0.0
 40
0.0
 40
0.0
 40
0.0
 40
1.0
 40
1.0
 40
1.0
 40
2.0
 40
2.0
 40
2.0
 40
3.0
 40
3.0
 40
3.0
 40
4.0
 40
4.0
 40
4.0
 40
5.0
 40
5.0
 40
5.0
 40
6.0
 40
6.0
 40
6.0
 40
7.0
 40
7.0
 40
7.0
 40
8.0
 40
8.0
 40
8.0
 40
9.0
 40
9.0
 40
9.0
 40
9.0
 10
76.99082164958911
 20
-141.7801486190689
 10
76.47457409112441
 20
-141.7801486190689
 10
76.46613360718555
 20
-141.2261772650407
 10
76.46613360718555
 20
-141.0122368354067
 10
76.46613360718555
 20
-140.7817599474434
 10
76.48525388712869
 20
-140.134426505765
 10
77.02888995470111
 20
-140.134426505765
 10
77.20235051238345
 20
-140.134426505765
 10
77.44781356570749
 20
-140.2043619441156
 10
77.48588187081951
 20
-140.5364691488937
 10
77.48588187081951
 20
-140.5364691488937
 10
77.27211369595975
 20
-140.5364691488937
 10
77.27211369595975
 20
-140.5364691488937
 10
77.26160615472975
 20
-140.4792805638385
 10
77.22991127626544
 20
-140.3311414579728
 10
77.02682289740997
 20
-140.3311414579728
 10
76.73485105503504
 20
-140.3311414579728
 10
76.69454343785762
 20
-140.6591145481686
 10
76.68196883933645
 20
-140.8640977295409
 10
76.7749864174382
 20
-140.7858940620258
 10
76.84268254372336
 20
-140.7266384196795
 10
77.02458358534456
 20
-140.7266384196795
 10
77.20441756967459
 20
-140.7266384196795
 10
77.50689695327952
 20
-140.8348144179163
 10
77.50689695327952
 20
-141.2409911756273
 10
77.50689695327952
 20
-141.5603515271099
 10
77.30811494378061
 20
-141.7801486190689
 10
76.99082164958911
 20
-141.7801486190689
 97
        0
 97
        0
 92
        1
 93
        1
 72
     4
 94
        3
 73
     0
 74
     1
 95
       17
 96
       13
 40
0.0
 40
0.0
 40
0.0
 40
0.0
 40
1.0
 40
1.0
 40
1.0
 40
2.0
 40
2.0
 40
2.0
 40
3.0
 40
3.0
 40
3.0
 40
4.0
 40
4.0
 40
4.0
 40
4.0
 10
77.00770261746683
 20
-140.9212863145961
 10
76.74535859626505
 20
-140.9212863145961
 10
76.70729029115304
 20
-141.1328151773904
 10
76.70729029115304
 20
-141.2492594047919
 10
76.70729029115304
 20
-141.4249592745396
 10
76.8025471813202
 20
-141.5879122909919
 10
76.98651528023254
 20
-141.5879122909919
 10
77.10709362221628
 20
-141.5879122909919
 10
77.28279349196403
 20
-141.5286566486456
 10
77.28279349196403
 20
-141.2430582329184
 10
77.28279349196403
 20
-141.0187825168287
 10
77.14309487003715
 20
-140.9212863145961
 10
77.00770261746683
 20
-140.9212863145961
 97
        0
 97
        0
 75
     2
 76
     1
 98
        0
  0
ENDBLK
  5
D3
330
D0
100
AcDbEntity
  8
0
100
AcDbBlockEnd
  0
BLOCK
  5
E7
330
E5
100
AcDbEntity
  8
0
100
AcDbBlockBegin
  2
block 6
 70
     0
 10
0.0
 20
0.0
 30
0.0
  3
block 6
  1

  0
SPLINE
  5
E9
330
E5
100
AcDbEntity
  8
_U+30EC_U+30A4_U+30E4_U+30FC 1
370
     0
100
AcDbSpline
210
0.0
220
0.0
230
1.0
 70
    11
 71
     3
 72
    62
 73
    58
 74
     0
 42
0.0000000001
 43
0.0000000001
 12
1.0
 22
0.0
 32
0.0
 13
1.0
 23
0.0
 33
0.0
 40
0.0
 40
0.0
 40
0.0
 40
0.0
 40
1.0
 40
1.0
 40
1.0
 40
2.0
 40
2.0
 40
2.0
 40
3.0
 40
3.0
 40
3.0
 40
4.0
 40
4.0
 40
4.0
 40
5.0
 40
5.0
 40
5.0
 40
6.0
 40
6.0
 40
6.0
 40
7.0
 40
7.0
 40
7.0
 40
8.0
 40
8.0
 40
8.0
 40
9.0
 40
9.0
 40
9.0
 40
10.0
 40
10.0
 40
10.0
 40
11.0
 40
11.0
 40
11.0
 40
12.0
 40
12.0
 40
12.0
 40
13.0
 40
13.0
 40
13.0
 40
14.0
 40
14.0
 40
14.0
 40
15.0
 40
15.0
 40
15.0
 40
16.0
 40
16.0
 40
16.0
 40
17.0
 40
17.0
 40
17.0
 40
18.0
 40
18.0
 40
18.0
 40
19.0
 40
19.0
 40
19.0
 40
19.0
 10
106.0782795958763
 20
-136.5291340804511
 30
0.0
 10
106.0782795958763
 20
-136.6245632253925
 30
0.0
 10
106.0572645134162
 20
-136.8422932600603
 30
0.0
 10
105.8712293572128
 20
-136.9673502261748
 30
0.0
 10
105.7589192443936
 20
-137.0410752695592
 30
0.0
 10
105.6597004944184
 20
-137.04555389369
 30
0.0
 10
105.5749511454813
 20
-137.0496880082723
 30
0.0
 10
105.5749511454813
 20
-137.0496880082723
 30
0.0
 10
105.5749511454813
 20
-136.8295464067648
 30
0.0
 10
105.5749511454813
 20
-136.8295464067648
 30
0.0
 10
105.6490206984141
 20
-136.8274793494737
 30
0.0
 10
105.8836317009597
 20
-136.8171440630179
 30
0.0
 10
105.8836317009597
 20
-136.5336127045819
 30
0.0
 10
105.8836317009597
 20
-136.3961533947204
 30
0.0
 10
105.8140407721576
 20
-136.2435356647239
 30
0.0
 10
105.5856309414855
 20
-136.2435356647239
 30
0.0
 10
105.4691867140841
 20
-136.2435356647239
 30
0.0
 10
105.4206108677421
 20
-136.2817762246101
 30
0.0
 10
105.3889159892778
 20
-136.3134711030744
 30
0.0
 10
105.3148464363449
 20
-136.3875406560073
 30
0.0
 10
105.3020995830495
 20
-136.5039848834087
 30
0.0
 10
105.3020995830495
 20
-136.5587619016242
 30
0.0
 10
105.3020995830495
 20
-136.5780544363416
 30
0.0
 10
105.3041666403406
 20
-136.6138834293882
 30
0.0
 10
105.3083007549229
 20
-136.6414441932702
 30
0.0
 10
105.3083007549229
 20
-136.6414441932702
 30
0.0
 10
105.1136528600063
 20
-136.6414441932702
 30
0.0
 10
105.1136528600063
 20
-136.6414441932702
 30
0.0
 10
105.1201985414283
 20
-136.6032036333839
 30
0.0
 10
105.1222655987194
 20
-136.5611734684639
 30
0.0
 10
105.1222655987194
 20
-136.5546277870419
 30
0.0
 10
105.1222655987194
 20
-136.4891709728222
 30
0.0
 10
105.1009060067109
 20
-136.2903889633232
 30
0.0
 10
104.8642279468742
 20
-136.2903889633232
 30
0.0
 10
104.6864610198353
 20
-136.2903889633232
 30
0.0
 10
104.6313394920713
 20
-136.4213025917627
 30
0.0
 10
104.6313394920713
 20
-136.5315456472907
 30
0.0
 10
104.6313394920713
 20
-136.7957844710094
 30
0.0
 10
104.8642279468742
 20
-136.8043972097225
 30
0.0
 10
104.9358859329674
 20
-136.8085313243048
 30
0.0
 10
104.9358859329674
 20
-136.8085313243048
 30
0.0
 10
104.9358859329674
 20
-137.0117919579345
 30
0.0
 10
104.9358859329674
 20
-137.0117919579345
 30
0.0
 10
104.8111734764014
 20
-137.0031792192214
 30
0.0
 10
104.4346245398636
 20
-136.9756184553394
 30
0.0
 10
104.4346245398636
 20
-136.5187987939953
 30
0.0
 10
104.4346245398636
 20
-136.2945230779056
 30
0.0
 10
104.5617485632693
 20
-136.0533663939381
 30
0.0
 10
104.8576822654523
 20
-136.0533663939381
 30
0.0
 10
105.0440619312043
 20
-136.0533663939381
 30
0.0
 10
105.1263997133017
 20
-136.1484510293309
 30
0.0
 10
105.1877224129392
 20
-136.2480142888547
 30
0.0
 10
105.2152831768212
 20
-136.1866915892172
 30
0.0
 10
105.2955539016275
 20
-136.004790547596
 30
0.0
 10
105.5728840881901
 20
-136.004790547596
 30
0.0
 10
105.9111924648416
 20
-136.004790547596
 30
0.0
 10
106.0782795958763
 20
-136.252148403437
 30
0.0
 10
106.0782795958763
 20
-136.5291340804511
 30
0.0
  0
HATCH
  5
EA
330
E5
100
AcDbEntity
  8
_U+30EC_U+30A4_U+30E4_U+30FC 1
 62
     7
420
 16777215
100
AcDbHatch
 10
0.0
 20
0.0
 30
0.0
210
0.0
220
0.0
230
1.0
  2
SOLID
 70
     1
 71
     0
 91
        1
 92
        1
 93
        1
 72
     4
 94
        3
 73
     0
 74
     1
 95
       62
 96
       58
 40
0.0
 40
0.0
 40
0.0
 40
0.0
 40
1.0
 40
1.0
 40
1.0
 40
2.0
 40
2.0
 40
2.0
 40
3.0
 40
3.0
 40
3.0
 40
4.0
 40
4.0
 40
4.0
 40
5.0
 40
5.0
 40
5.0
 40
6.0
 40
6.0
 40
6.0
 40
7.0
 40
7.0
 40
7.0
 40
8.0
 40
8.0
 40
8.0
 40
9.0
 40
9.0
 40
9.0
 40
10.0
 40
10.0
 40
10.0
 40
11.0
 40
11.0
 40
11.0
 40
12.0
 40
12.0
 40
12.0
 40
13.0
 40
13.0
 40
13.0
 40
14.0
 40
14.0
 40
14.0
 40
15.0
 40
15.0
 40
15.0
 40
16.0
 40
16.0
 40
16.0
 40
17.0
 40
17.0
 40
17.0
 40
18.0
 40
18.0
 40
18.0
 40
19.0
 40
19.0
 40
19.0
 40
19.0
 10
106.0782795958763
 20
-136.5291340804511
 10
106.0782795958763
 20
-136.6245632253925
 10
106.0572645134162
 20
-136.8422932600603
 10
105.8712293572128
 20
-136.9673502261748
 10
105.7589192443936
 20
-137.0410752695592
 10
105.6597004944184
 20
-137.04555389369
 10
105.5749511454813
 20
-137.0496880082723
 10
105.5749511454813
 20
-137.0496880082723
 10
105.5749511454813
 20
-136.8295464067648
 10
105.5749511454813
 20
-136.8295464067648
 10
105.6490206984141
 20
-136.8274793494737
 10
105.8836317009597
 20
-136.8171440630179
 10
105.8836317009597
 20
-136.5336127045819
 10
105.8836317009597
 20
-136.3961533947204
 10
105.8140407721576
 20
-136.2435356647239
 10
105.5856309414855
 20
-136.2435356647239
 10
105.4691867140841
 20
-136.2435356647239
 10
105.4206108677421
 20
-136.2817762246101
 10
105.3889159892778
 20
-136.3134711030744
 10
105.3148464363449
 20
-136.3875406560073
 10
105.3020995830495
 20
-136.5039848834087
 10
105.3020995830495
 20
-136.5587619016242
 10
105.3020995830495
 20
-136.5780544363416
 10
105.3041666403406
 20
-136.6138834293882
 10
105.3083007549229
 20
-136.6414441932702
 10
105.3083007549229
 20
-136.6414441932702
 10
105.1136528600063
 20
-136.6414441932702
 10
105.1136528600063
 20
-136.6414441932702
 10
105.1201985414283
 20
-136.6032036333839
 10
105.1222655987194
 20
-136.5611734684639
 10
105.1222655987194
 20
-136.5546277870419
 10
105.1222655987194
 20
-136.4891709728222
 10
105.1009060067109
 20
-136.2903889633232
 10
104.8642279468742
 20
-136.2903889633232
 10
104.6864610198353
 20
-136.2903889633232
 10
104.6313394920713
 20
-136.4213025917627
 10
104.6313394920713
 20
-136.5315456472907
 10
104.6313394920713
 20
-136.7957844710094
 10
104.8642279468742
 20
-136.8043972097225
 10
104.9358859329674
 20
-136.8085313243048
 10
104.9358859329674
 20
-136.8085313243048
 10
104.9358859329674
 20
-137.0117919579345
 10
104.9358859329674
 20
-137.0117919579345
 10
104.8111734764014
 20
-137.0031792192214
 10
104.4346245398636
 20
-136.9756184553394
 10
104.4346245398636
 20
-136.5187987939953
 10
104.4346245398636
 20
-136.2945230779056
 10
104.5617485632693
 20
-136.0533663939381
 10
104.8576822654523
 20
-136.0533663939381
 10
105.0440619312043
 20
-136.0533663939381
 10
105.1263997133017
 20
-136.1484510293309
 10
105.1877224129392
 20
-136.2480142888547
 10
105.2152831768212
 20
-136.1866915892172
 10
105.2955539016275
 20
-136.004790547596
 10
105.5728840881901
 20
-136.004790547596
 10
105.9111924648416
 20
-136.004790547596
 10
106.0782795958763
 20
-136.252148403437
 10
106.0782795958763
 20
-136.5291340804511
 97
        0
 97
        0
 75
     2
 76
     1
 98
        0
  0
ENDBLK
  5
E8
330
E5
100
AcDbEntity
  8
0
100
AcDbBlockEnd
  0
BLOCK
  5
F1
330
EF
100
AcDbEntity
  8
0
100
AcDbBlockBegin
  2
block 7
 70
     0
 10
0.0
 20
0.0
 30
0.0
  3
block 7
  1

  0
SPLINE
  5
F3
330
EF
100
AcDbEntity
  8
_U+30EC_U+30A4_U+30E4_U+30FC 1
370
     0
100
AcDbSpline
210
0.0
220
0.0
230
1.0
 70
    11
 71
     3
 72
    26
 73
    22
 74
     0
 42
0.0000000001
 43
0.0000000001
 12
1.0
 22
0.0
 32
0.0
 13
1.0
 23
0.0
 33
0.0
 40
0.0
 40
0.0
 40
0.0
 40
0.0
 40
1.0
 40
1.0
 40
1.0
 40
2.0
 40
2.0
 40
2.0
 40
3.0
 40
3.0
 40
3.0
 40
4.0
 40
4.0
 40
4.0
 40
5.0
 40
5.0
 40
5.0
 40
6.0
 40
6.0
 40
6.0
 40
7.0
 40
7.0
 40
7.0
 40
7.0
 10
106.0276366922431
 20
-131.3025797197785
 30
0.0
 10
106.0276366922431
 20
-131.3025797197785
 30
0.0
 10
104.9234835892205
 20
-131.3025797197785
 30
0.0
 10
104.9234835892205
 20
-131.3025797197785
 30
0.0
 10
104.9234835892205
 20
-131.3025797197785
 30
0.0
 10
104.9234835892205
 20
-131.6326198672655
 30
0.0
 10
104.9234835892205
 20
-131.6326198672655
 30
0.0
 10
104.9234835892205
 20
-131.6326198672655
 30
0.0
 10
104.7753444833548
 20
-131.6326198672655
 30
0.0
 10
104.7753444833548
 20
-131.6326198672655
 30
0.0
 10
104.7605305727682
 20
-131.3005126624874
 30
0.0
 10
104.5975775563159
 20
-131.2540038734365
 30
0.0
 10
104.4832003862056
 20
-131.2243760522634
 30
0.0
 10
104.4832003862056
 20
-131.2243760522634
 30
0.0
 10
104.4832003862056
 20
-131.0783040036888
 30
0.0
 10
104.4832003862056
 20
-131.0783040036888
 30
0.0
 10
104.4832003862056
 20
-131.0783040036888
 30
0.0
 10
106.0276366922431
 20
-131.0783040036888
 30
0.0
 10
106.0276366922431
 20
-131.0783040036888
 30
0.0
 10
106.0276366922431
 20
-131.0783040036888
 30
0.0
 10
106.0276366922431
 20
-131.3025797197785
 30
0.0
 10
106.0276366922431
 20
-131.3025797197785
 30
0.0
  0
HATCH
  5
F4
330
EF
100
AcDbEntity
  8
_U+30EC_U+30A4_U+30E4_U+30FC 1
 62
     7
420
 16777215
100
AcDbHatch
 10
0.0
 20
0.0
 30
0.0
210
0.0
220
0.0
230
1.0
  2
SOLID
 70
     1
 71
     0
 91
        1
 92
        1
 93
        1
 72
     4
 94
        3
 73
     0
 74
     1
 95
       26
 96
       22
 40
0.0
 40
0.0
 40
0.0
 40
0.0
 40
1.0
 40
1.0
 40
1.0
 40
2.0
 40
2.0
 40
2.0
 40
3.0
 40
3.0
 40
3.0
 40
4.0
 40
4.0
 40
4.0
 40
5.0
 40
5.0
 40
5.0
 40
6.0
 40
6.0
 40
6.0
 40
7.0
 40
7.0
 40
7.0
 40
7.0
 10
106.0276366922431
 20
-131.3025797197785
 10
106.0276366922431
 20
-131.3025797197785
 10
104.9234835892205
 20
-131.3025797197785
 10
104.9234835892205
 20
-131.3025797197785
 10
104.9234835892205
 20
-131.3025797197785
 10
104.9234835892205
 20
-131.6326198672655
 10
104.9234835892205
 20
-131.6326198672655
 10
104.9234835892205
 20
-131.6326198672655
 10
104.7753444833548
 20
-131.6326198672655
 10
104.7753444833548
 20
-131.6326198672655
 10
104.7605305727682
 20
-131.3005126624874
 10
104.5975775563159
 20
-131.2540038734365
 10
104.4832003862056
 20
-131.2243760522634
 10
104.4832003862056
 20
-131.2243760522634
 10
104.4832003862056
 20
-131.0783040036888
 10
104.4832003862056
 20
-131.0783040036888
 10
104.4832003862056
 20
-131.0783040036888
 10
106.0276366922431
 20
-131.0783040036888
 10
106.0276366922431
 20
-131.0783040036888
 10
106.0276366922431
 20
-131.0783040036888
 10
106.0276366922431
 20
-131.3025797197785
 10
106.0276366922431
 20
-131.3025797197785
 97
        0
 97
        0
 75
     2
 76
     1
 98
        0
  0
SPLINE
  5
F5
330
EF
100
AcDbEntity
  8
_U+30EC_U+30A4_U+30E4_U+30FC 1
370
     0
100
AcDbSpline
210
0.0
220
0.0
230
1.0
 70
    11
 71
     3
 72
    44
 73
    40
 74
     0
 42
0.0000000001
 43
0.0000000001
 12
1.0
 22
0.0
 32
0.0
 13
1.0
 23
0.0
 33
0.0
 40
0.0
 40
0.0
 40
0.0
 40
0.0
 40
1.0
 40
1.0
 40
1.0
 40
2.0
 40
2.0
 40
2.0
 40
3.0
 40
3.0
 40
3.0
 40
4.0
 40
4.0
 40
4.0
 40
5.0
 40
5.0
 40
5.0
 40
6.0
 40
6.0
 40
6.0
 40
7.0
 40
7.0
 40
7.0
 40
8.0
 40
8.0
 40
8.0
 40
9.0
 40
9.0
 40
9.0
 40
10.0
 40
10.0
 40
10.0
 40
11.0
 40
11.0
 40
11.0
 40
12.0
 40
12.0
 40
12.0
 40
13.0
 40
13.0
 40
13.0
 40
13.0
 10
105.4457600647844
 20
-129.9841416775734
 30
0.0
 10
105.6045789666544
 20
-130.2018717122412
 30
0.0
 10
105.6786485195873
 20
-130.294889290343
 30
0.0
 10
105.8223090013222
 20
-130.3438096462335
 30
0.0
 10
105.8223090013222
 20
-130.3438096462335
 30
0.0
 10
105.8223090013222
 20
-129.565218066567
 30
0.0
 10
105.8223090013222
 20
-129.565218066567
 30
0.0
 10
105.8223090013222
 20
-129.565218066567
 30
0.0
 10
106.0276366922431
 20
-129.565218066567
 30
0.0
 10
106.0276366922431
 20
-129.565218066567
 30
0.0
 10
106.0276366922431
 20
-129.565218066567
 30
0.0
 10
106.0276366922431
 20
-130.5932345593656
 30
0.0
 10
106.0276366922431
 20
-130.5932345593656
 30
0.0
 10
105.6700357808742
 20
-130.5615396809013
 30
0.0
 10
105.591832113359
 20
-130.4960828666815
 30
0.0
 10
105.2934868443364
 20
-130.1109211914306
 30
0.0
 10
105.0947048348374
 20
-129.8549505968765
 30
0.0
 10
105.026836453778
 20
-129.7894937826568
 30
0.0
 10
104.8893771439165
 20
-129.7894937826568
 30
0.0
 10
104.770865859224
 20
-129.7894937826568
 30
0.0
 10
104.6399522307845
 20
-129.8614962782985
 30
0.0
 10
104.6399522307845
 20
-130.0582112305063
 30
0.0
 10
104.6399522307845
 20
-130.3183159396426
 30
0.0
 10
104.8704291187477
 20
-130.3265841688072
 30
0.0
 10
104.9868733461491
 20
-130.3310627929381
 30
0.0
 10
104.9868733461491
 20
-130.3310627929381
 30
0.0
 10
104.9868733461491
 20
-130.5553385090278
 30
0.0
 10
104.9868733461491
 20
-130.5553385090278
 30
0.0
 10
104.8597493227434
 20
-130.5467257703147
 30
0.0
 10
104.7477837194728
 20
-130.5360459743104
 30
0.0
 10
104.6292724347802
 20
-130.4557752495041
 30
0.0
 10
104.468386475619
 20
-130.3458767035247
 30
0.0
 10
104.4346245398636
 20
-130.1594970377726
 30
0.0
 10
104.4346245398636
 20
-130.0433973199197
 30
0.0
 10
104.4346245398636
 20
-129.7660671333571
 30
0.0
 10
104.6185926387759
 20
-129.5586723851451
 30
0.0
 10
104.8914442012077
 20
-129.5586723851451
 30
0.0
 10
105.1201985414283
 20
-129.5586723851451
 30
0.0
 10
105.2194172914035
 20
-129.6751166125465
 30
0.0
 10
105.4457600647844
 20
-129.9841416775734
 30
0.0
  0
HATCH
  5
F6
330
EF
100
AcDbEntity
  8
_U+30EC_U+30A4_U+30E4_U+30FC 1
 62
     7
420
 16777215
100
AcDbHatch
 10
0.0
 20
0.0
 30
0.0
210
0.0
220
0.0
230
1.0
  2
SOLID
 70
     1
 71
     0
 91
        1
 92
        1
 93
        1
 72
     4
 94
        3
 73
     0
 74
     1
 95
       44
 96
       40
 40
0.0
 40
0.0
 40
0.0
 40
0.0
 40
1.0
 40
1.0
 40
1.0
 40
2.0
 40
2.0
 40
2.0
 40
3.0
 40
3.0
 40
3.0
 40
4.0
 40
4.0
 40
4.0
 40
5.0
 40
5.0
 40
5.0
 40
6.0
 40
6.0
 40
6.0
 40
7.0
 40
7.0
 40
7.0
 40
8.0
 40
8.0
 40
8.0
 40
9.0
 40
9.0
 40
9.0
 40
10.0
 40
10.0
 40
10.0
 40
11.0
 40
11.0
 40
11.0
 40
12.0
 40
12.0
 40
12.0
 40
13.0
 40
13.0
 40
13.0
 40
13.0
 10
105.4457600647844
 20
-129.9841416775734
 10
105.6045789666544
 20
-130.2018717122412
 10
105.6786485195873
 20
-130.294889290343
 10
105.8223090013222
 20
-130.3438096462335
 10
105.8223090013222
 20
-130.3438096462335
 10
105.8223090013222
 20
-129.565218066567
 10
105.8223090013222
 20
-129.565218066567
 10
105.8223090013222
 20
-129.565218066567
 10
106.0276366922431
 20
-129.565218066567
 10
106.0276366922431
 20
-129.565218066567
 10
106.0276366922431
 20
-129.565218066567
 10
106.0276366922431
 20
-130.5932345593656
 10
106.0276366922431
 20
-130.5932345593656
 10
105.6700357808742
 20
-130.5615396809013
 10
105.591832113359
 20
-130.4960828666815
 10
105.2934868443364
 20
-130.1109211914306
 10
105.0947048348374
 20
-129.8549505968765
 10
105.026836453778
 20
-129.7894937826568
 10
104.8893771439165
 20
-129.7894937826568
 10
104.770865859224
 20
-129.7894937826568
 10
104.6399522307845
 20
-129.8614962782985
 10
104.6399522307845
 20
-130.0582112305063
 10
104.6399522307845
 20
-130.3183159396426
 10
104.8704291187477
 20
-130.3265841688072
 10
104.9868733461491
 20
-130.3310627929381
 10
104.9868733461491
 20
-130.3310627929381
 10
104.9868733461491
 20
-130.5553385090278
 10
104.9868733461491
 20
-130.5553385090278
 10
104.8597493227434
 20
-130.5467257703147
 10
104.7477837194728
 20
-130.5360459743104
 10
104.6292724347802
 20
-130.4557752495041
 10
104.468386475619
 20
-130.3458767035247
 10
104.4346245398636
 20
-130.1594970377726
 10
104.4346245398636
 20
-130.0433973199197
 10
104.4346245398636
 20
-129.7660671333571
 10
104.6185926387759
 20
-129.5586723851451
 10
104.8914442012077
 20
-129.5586723851451
 10
105.1201985414283
 20
-129.5586723851451
 10
105.2194172914035
 20
-129.6751166125465
 10
105.4457600647844
 20
-129.9841416775734
 97
        0
 97
        0
 75
     2
 76
     1
 98
        0
  0
POLYLINE
  5
F7
330
EF
100
AcDbEntity
  8
_U+30EC_U+30A4_U+30E4_U+30FC 1
370
     0
100
AcDb2dPolyline
 66
     1
 10
0.0
 20
0.0
 30
0.0
  0
VERTEX
  5
F8
330
F7
100
AcDbEntity
  8
_U+30EC_U+30A4_U+30E4_U+30FC 1
370
     0
100
AcDbVertex
100
AcDb2dVertex
 10
106.0276366922431
 20
-129.3402533313802
 30
0.0
  0
VERTEX
  5
F9
330
F7
100
AcDbEntity
  8
_U+30EC_U+30A4_U+30E4_U+30FC 1
370
     0
100
AcDbVertex
100
AcDb2dVertex
 10
105.7758002122713
 20
-129.3402533313802
 30
0.0
  0
VERTEX
  5
FA
330
F7
100
AcDbEntity
  8
_U+30EC_U+30A4_U+30E4_U+30FC 1
370
     0
100
AcDbVertex
100
AcDb2dVertex
 10
105.7758002122713
 20
-129.0884168514085
 30
0.0
  0
VERTEX
  5
FB
330
F7
100
AcDbEntity
  8
_U+30EC_U+30A4_U+30E4_U+30FC 1
370
     0
100
AcDbVertex
100
AcDb2dVertex
 10
106.0276366922431
 20
-129.0884168514085
 30
0.0
  0
VERTEX
  5
FC
330
F7
100
AcDbEntity
  8
_U+30EC_U+30A4_U+30E4_U+30FC 1
370
     0
100
AcDbVertex
100
AcDb2dVertex
 10
106.0276366922431
 20
-129.3402533313802
 30
0.0
  0
SEQEND
  5
FD
330
F7
100
AcDbEntity
  8
_U+30EC_U+30A4_U+30E4_U+30FC 1
370
     0
  0
HATCH
  5
FE
330
EF
100
AcDbEntity
  8
_U+30EC_U+30A4_U+30E4_U+30FC 1
 62
     7
420
 16777215
100
AcDbHatch
 10
0.0
 20
0.0
 30
0.0
210
0.0
220
0.0
230
1.0
  2
SOLID
 70
     1
 71
     0
 91
        1
 92
        1
 93
        4
 72
     1
 10
106.0276366922431
 20
-129.3402533313802
 11
105.7758002122713
 21
-129.3402533313802
 72
     1
 10
105.7758002122713
 20
-129.3402533313802
 11
105.7758002122713
 21
-129.0884168514085
 72
     1
 10
105.7758002122713
 20
-129.0884168514085
 11
106.0276366922431
 21
-129.0884168514085
 72
     1
 10
106.0276366922431
 20
-129.0884168514085
 11
106.0276366922431
 21
-129.3402533313802
 97
        0
 75
     2
 76
     1
 98
        0
  0
SPLINE
  5
FF
330
EF
100
AcDbEntity
  8
_U+30EC_U+30A4_U+30E4_U+30FC 1
370
     0
100
AcDbSpline
210
0.0
220
0.0
230
1.0
 70
    11
 71
     3
 72
    53
 73
    49
 74
     0
 42
0.0000000001
 43
0.0000000001
 12
1.0
 22
0.0
 32
0.0
 13
1.0
 23
0.0
 33
0.0
 40
0.0
 40
0.0
 40
0.0
 40
0.0
 40
1.0
 40
1.0
 40
1.0
 40
2.0
 40
2.0
 40
2.0
 40
3.0
 40
3.0
 40
3.0
 40
4.0
 40
4.0
 40
4.0
 40
5.0
 40
5.0
 40
5.0
 40
6.0
 40
6.0
 40
6.0
 40
7.0
 40
7.0
 40
7.0
 40
8.0
 40
8.0
 40
8.0
 40
9.0
 40
9.0
 40
9.0
 40
10.0
 40
10.0
 40
10.0
 40
11.0
 40
11.0
 40
11.0
 40
12.0
 40
12.0
 40
12.0
 40
13.0
 40
13.0
 40
13.0
 40
14.0
 40
14.0
 40
14.0
 40
15.0
 40
15.0
 40
15.0
 40
16.0
 40
16.0
 40
16.0
 40
16.0
 10
106.0782795958763
 20
-128.3711479713794
 30
0.0
 10
106.0782795958763
 20
-128.4493516388946
 30
0.0
 10
106.0613986279985
 20
-128.5509819557095
 30
0.0
 10
105.9980088710699
 20
-128.6526122725244
 30
0.0
 10
105.8881103250905
 20
-128.8259005754324
 30
0.0
 10
105.7568521871025
 20
-128.847260167441
 30
0.0
 10
105.6490206984141
 20
-128.8662081926098
 30
0.0
 10
105.6490206984141
 20
-128.8662081926098
 30
0.0
 10
105.6490206984141
 20
-128.6439995338112
 30
0.0
 10
105.6490206984141
 20
-128.6439995338112
 30
0.0
 10
105.8478027079131
 20
-128.5892225155958
 30
0.0
 10
105.8774305290862
 20
-128.46209849219
 30
0.0
 10
105.8774305290862
 20
-128.3690809140883
 30
0.0
 10
105.8774305290862
 20
-128.2295545469357
 30
0.0
 10
105.7778672695625
 20
-128.0772813264876
 30
0.0
 10
105.5453233243081
 20
-128.0772813264876
 30
0.0
 10
105.2893527297541
 20
-128.0772813264876
 30
0.0
 10
105.2194172914035
 20
-128.2571153108177
 30
0.0
 10
105.2194172914035
 20
-128.3776936528014
 30
0.0
 10
105.2194172914035
 20
-128.4093885312657
 30
0.0
 10
105.2194172914035
 20
-128.5509819557095
 30
0.0
 10
105.3486083721004
 20
-128.6398654192289
 30
0.0
 10
105.3486083721004
 20
-128.6398654192289
 30
0.0
 10
105.3296603469315
 20
-128.8155652889767
 30
0.0
 10
105.3296603469315
 20
-128.8155652889767
 30
0.0
 10
105.3296603469315
 20
-128.8155652889767
 30
0.0
 10
104.4832003862056
 20
-128.6949869469929
 30
0.0
 10
104.4832003862056
 20
-128.6949869469929
 30
0.0
 10
104.4832003862056
 20
-128.6949869469929
 30
0.0
 10
104.4832003862056
 20
-127.9163953673265
 30
0.0
 10
104.4832003862056
 20
-127.9163953673265
 30
0.0
 10
104.4832003862056
 20
-127.9163953673265
 30
0.0
 10
104.6778482811222
 20
-127.9163953673265
 30
0.0
 10
104.6778482811222
 20
-127.9163953673265
 30
0.0
 10
104.6778482811222
 20
-127.9163953673265
 30
0.0
 10
104.6778482811222
 20
-128.5320339305406
 30
0.0
 10
104.6778482811222
 20
-128.5320339305406
 30
0.0
 10
104.6778482811222
 20
-128.5320339305406
 30
0.0
 10
105.1009060067109
 20
-128.5974907447604
 30
0.0
 10
105.1009060067109
 20
-128.5974907447604
 30
0.0
 10
105.0671440709554
 20
-128.5361680451229
 30
0.0
 10
105.026836453778
 20
-128.4538302630254
 30
0.0
 10
105.026836453778
 20
-128.3353189783329
 30
0.0
 10
105.026836453778
 20
-128.0814154410699
 30
0.0
 10
105.21321611953
 20
-127.8443928716847
 30
0.0
 10
105.5263752991392
 20
-127.8443928716847
 30
0.0
 10
105.8436685933307
 20
-127.8443928716847
 30
0.0
 10
106.0782795958763
 20
-128.0686685877745
 30
0.0
 10
106.0782795958763
 20
-128.3711479713794
 30
0.0
  0
HATCH
  5
100
330
EF
100
AcDbEntity
  8
_U+30EC_U+30A4_U+30E4_U+30FC 1
 62
     7
420
 16777215
100
AcDbHatch
 10
0.0
 20
0.0
 30
0.0
210
0.0
220
0.0
230
1.0
  2
SOLID
 70
     1
 71
     0
 91
        1
 92
        1
 93
        1
 72
     4
 94
        3
 73
     0
 74
     1
 95
       53
 96
       49
 40
0.0
 40
0.0
 40
0.0
 40
0.0
 40
1.0
 40
1.0
 40
1.0
 40
2.0
 40
2.0
 40
2.0
 40
3.0
 40
3.0
 40
3.0
 40
4.0
 40
4.0
 40
4.0
 40
5.0
 40
5.0
 40
5.0
 40
6.0
 40
6.0
 40
6.0
 40
7.0
 40
7.0
 40
7.0
 40
8.0
 40
8.0
 40
8.0
 40
9.0
 40
9.0
 40
9.0
 40
10.0
 40
10.0
 40
10.0
 40
11.0
 40
11.0
 40
11.0
 40
12.0
 40
12.0
 40
12.0
 40
13.0
 40
13.0
 40
13.0
 40
14.0
 40
14.0
 40
14.0
 40
15.0
 40
15.0
 40
15.0
 40
16.0
 40
16.0
 40
16.0
 40
16.0
 10
106.0782795958763
 20
-128.3711479713794
 10
106.0782795958763
 20
-128.4493516388946
 10
106.0613986279985
 20
-128.5509819557095
 10
105.9980088710699
 20
-128.6526122725244
 10
105.8881103250905
 20
-128.8259005754324
 10
105.7568521871025
 20
-128.847260167441
 10
105.6490206984141
 20
-128.8662081926098
 10
105.6490206984141
 20
-128.8662081926098
 10
105.6490206984141
 20
-128.6439995338112
 10
105.6490206984141
 20
-128.6439995338112
 10
105.8478027079131
 20
-128.5892225155958
 10
105.8774305290862
 20
-128.46209849219
 10
105.8774305290862
 20
-128.3690809140883
 10
105.8774305290862
 20
-128.2295545469357
 10
105.7778672695625
 20
-128.0772813264876
 10
105.5453233243081
 20
-128.0772813264876
 10
105.2893527297541
 20
-128.0772813264876
 10
105.2194172914035
 20
-128.2571153108177
 10
105.2194172914035
 20
-128.3776936528014
 10
105.2194172914035
 20
-128.4093885312657
 10
105.2194172914035
 20
-128.5509819557095
 10
105.3486083721004
 20
-128.6398654192289
 10
105.3486083721004
 20
-128.6398654192289
 10
105.3296603469315
 20
-128.8155652889767
 10
105.3296603469315
 20
-128.8155652889767
 10
105.3296603469315
 20
-128.8155652889767
 10
104.4832003862056
 20
-128.6949869469929
 10
104.4832003862056
 20
-128.6949869469929
 10
104.4832003862056
 20
-128.6949869469929
 10
104.4832003862056
 20
-127.9163953673265
 10
104.4832003862056
 20
-127.9163953673265
 10
104.4832003862056
 20
-127.9163953673265
 10
104.6778482811222
 20
-127.9163953673265
 10
104.6778482811222
 20
-127.9163953673265
 10
104.6778482811222
 20
-127.9163953673265
 10
104.6778482811222
 20
-128.5320339305406
 10
104.6778482811222
 20
-128.5320339305406
 10
104.6778482811222
 20
-128.5320339305406
 10
105.1009060067109
 20
-128.5974907447604
 10
105.1009060067109
 20
-128.5974907447604
 10
105.0671440709554
 20
-128.5361680451229
 10
105.026836453778
 20
-128.4538302630254
 10
105.026836453778
 20
-128.3353189783329
 10
105.026836453778
 20
-128.0814154410699
 10
105.21321611953
 20
-127.8443928716847
 10
105.5263752991392
 20
-127.8443928716847
 10
105.8436685933307
 20
-127.8443928716847
 10
106.0782795958763
 20
-128.0686685877745
 10
106.0782795958763
 20
-128.3711479713794
 97
        0
 97
        0
 75
     2
 76
     1
 98
        0
  0
ENDBLK
  5
F2
330
EF
100
AcDbEntity
  8
0
100
AcDbBlockEnd
  0
ENDSEC
  0
SECTION
  2
ENTITIES
  0
POLYLINE
  5
41
330
1F
100
AcDbEntity
  8
_U+30EC_U+30A4_U+30E4_U+30FC 1
 62
   253
420
 11711154
370
     9
100
AcDb2dPolyline
 66
     1
 10
0.0
 20
0.0
 30
0.0
  0
VERTEX
  5
42
330
41
100
AcDbEntity
  8
_U+30EC_U+30A4_U+30E4_U+30FC 1
 62
   253
420
 11711154
370
     9
100
AcDbVertex
100
AcDb2dVertex
 10
74.06318783271288
 20
-121.512647469622
 30
0.0
  0
VERTEX
  5
43
330
41
100
AcDbEntity
  8
_U+30EC_U+30A4_U+30E4_U+30FC 1
 62
   253
420
 11711154
370
     9
100
AcDbVertex
100
AcDb2dVertex
 10
74.06318783271288
 20
-122.4276824693931
 30
0.0
  0
VERTEX
  5
44
330
41
100
AcDbEntity
  8
_U+30EC_U+30A4_U+30E4_U+30FC 1
 62
   253
420
 11711154
370
     9
100
AcDbVertex
100
AcDb2dVertex
 10
79.9584218489796
 20
-122.4276824693931
 30
0.0
  0
VERTEX
  5
45
330
41
100
AcDbEntity
  8
_U+30EC_U+30A4_U+30E4_U+30FC 1
 62
   253
420
 11711154
370
     9
100
AcDbVertex
100
AcDb2dVertex
 10
79.9584218489796
 20
-138.057396076597
 30
0.0
  0
VERTEX
  5
46
330
41
100
AcDbEntity
  8
_U+30EC_U+30A4_U+30E4_U+30FC 1
 62
   253
420
 11711154
370
     9
100
AcDbVertex
100
AcDb2dVertex
 10
90.17003297734858
 20
-138.057396076597
 30
0.0
  0
VERTEX
  5
47
330
41
100
AcDbEntity
  8
_U+30EC_U+30A4_U+30E4_U+30FC 1
 62
   253
420
 11711154
370
     9
100
AcDbVertex
100
AcDb2dVertex
 10
90.17003297734858
 20
-135.0925457995604
 30
0.0
  0
VERTEX
  5
48
330
41
100
AcDbEntity
  8
_U+30EC_U+30A4_U+30E4_U+30FC 1
 62
   253
420
 11711154
370
     9
100
AcDbVertex
100
AcDb2dVertex
 10
89.14510772571883
 20
-135.0925457995604
 30
0.0
  0
VERTEX
  5
49
330
41
100
AcDbEntity
  8
_U+30EC_U+30A4_U+30E4_U+30FC 1
 62
   253
420
 11711154
370
     9
100
AcDbVertex
100
AcDb2dVertex
 10
89.14510772571883
 20
-137.1058485768349
 30
0.0
  0
VERTEX
  5
4A
330
41
100
AcDbEntity
  8
_U+30EC_U+30A4_U+30E4_U+30FC 1
 62
   253
420
 11711154
370
     9
100
AcDbVertex
100
AcDb2dVertex
 10
80.98334710060935
 20
-137.1058485768349
 30
0.0
  0
VERTEX
  5
4B
330
41
100
AcDbEntity
  8
_U+30EC_U+30A4_U+30E4_U+30FC 1
 62
   253
420
 11711154
370
     9
100
AcDbVertex
100
AcDb2dVertex
 10
80.98334710060935
 20
-122.4648652471617
 30
0.0
  0
VERTEX
  5
4C
330
41
100
AcDbEntity
  8
_U+30EC_U+30A4_U+30E4_U+30FC 1
 62
   253
420
 11711154
370
     9
100
AcDbVertex
100
AcDb2dVertex
 10
103.1633673680832
 20
-122.4648652471617
 30
0.0
  0
VERTEX
  5
4D
330
41
100
AcDbEntity
  8
_U+30EC_U+30A4_U+30E4_U+30FC 1
 62
   253
420
 11711154
370
     9
100
AcDbVertex
100
AcDb2dVertex
 10
103.1633673680832
 20
-121.476134969631
 30
0.0
  0
VERTEX
  5
4E
330
41
100
AcDbEntity
  8
_U+30EC_U+30A4_U+30E4_U+30FC 1
 62
   253
420
 11711154
370
     9
100
AcDbVertex
100
AcDb2dVertex
 10
74.06318783271288
 20
-121.512647469622
 30
0.0
  0
SEQEND
  5
50
330
41
100
AcDbEntity
  8
_U+30EC_U+30A4_U+30E4_U+30FC 1
 62
   253
420
 11711154
370
     9
  0
HATCH
  5
4F
330
1F
100
AcDbEntity
  8
_U+30EC_U+30A4_U+30E4_U+30FC 1
 62
   253
420
 11711154
100
AcDbHatch
 10
0.0
 20
0.0
 30
0.0
210
0.0
220
0.0
230
1.0
  2
SOLID
 70
     1
 71
     0
 91
        1
 92
        1
 93
       12
 72
     1
 10
74.06318783271288
 20
-121.512647469622
 11
74.06318783271288
 21
-122.4276824693931
 72
     1
 10
74.06318783271288
 20
-122.4276824693931
 11
79.9584218489796
 21
-122.4276824693931
 72
     1
 10
79.9584218489796
 20
-122.4276824693931
 11
79.9584218489796
 21
-138.057396076597
 72
     1
 10
79.9584218489796
 20
-138.057396076597
 11
90.17003297734858
 21
-138.057396076597
 72
     1
 10
90.17003297734858
 20
-138.057396076597
 11
90.17003297734858
 21
-135.0925457995604
 72
     1
 10
90.17003297734858
 20
-135.0925457995604
 11
89.14510772571883
 21
-135.0925457995604
 72
     1
 10
89.14510772571883
 20
-135.0925457995604
 11
89.14510772571883
 21
-137.1058485768349
 72
     1
 10
89.14510772571883
 20
-137.1058485768349
 11
80.98334710060935
 21
-137.1058485768349
 72
     1
 10
80.98334710060935
 20
-137.1058485768349
 11
80.98334710060935
 21
-122.4648652471617
 72
     1
 10
80.98334710060935
 20
-122.4648652471617
 11
103.1633673680832
 21
-122.4648652471617
 72
     1
 10
103.1633673680832
 20
-122.4648652471617
 11
103.1633673680832
 21
-121.476134969631
 72
     1
 10
103.1633673680832
 20
-121.476134969631
 11
74.06318783271288
 21
-121.512647469622
 97
        0
 75
     2
 76
     1
 98
        0
  0
POLYLINE
  5
51
330
1F
100
AcDbEntity
  8
_U+30EC_U+30A4_U+30E4_U+30FC 1
 62
     7
420
 16777215
370
    25
100
AcDb2dPolyline
 66
     1
 10
0.0
 20
0.0
 30
0.0
  0
VERTEX
  5
52
330
51
100
AcDbEntity
  8
_U+30EC_U+30A4_U+30E4_U+30FC 1
 62
     7
420
 16777215
370
    25
100
AcDbVertex
100
AcDb2dVertex
 10
74.07525283240508
 20
-121.4816383029629
 30
0.0
  0
VERTEX
  5
53
330
51
100
AcDbEntity
  8
_U+30EC_U+30A4_U+30E4_U+30FC 1
 62
     7
420
 16777215
370
    25
100
AcDbVertex
100
AcDb2dVertex
 10
103.0758784814264
 20
-121.4816383029629
 30
0.0
  0
SEQEND
  5
54
330
51
100
AcDbEntity
  8
_U+30EC_U+30A4_U+30E4_U+30FC 1
 62
     7
420
 16777215
370
    25
  0
POLYLINE
  5
55
330
1F
100
AcDbEntity
  8
_U+30EC_U+30A4_U+30E4_U+30FC 1
 62
     7
420
 16777215
370
    25
100
AcDb2dPolyline
 66
     1
 10
0.0
 20
0.0
 30
0.0
  0
VERTEX
  5
56
330
55
100
AcDbEntity
  8
_U+30EC_U+30A4_U+30E4_U+30FC 1
 62
     7
420
 16777215
370
    25
100
AcDbVertex
100
AcDb2dVertex
 10
74.07525283240508
 20
-122.4814105249351
 30
0.0
  0
VERTEX
  5
57
330
55
100
AcDbEntity
  8
_U+30EC_U+30A4_U+30E4_U+30FC 1
 62
     7
420
 16777215
370
    25
100
AcDbVertex
100
AcDb2dVertex
 10
80.07554406821379
 20
-122.4814105249351
 30
0.0
  0
SEQEND
  5
58
330
55
100
AcDbEntity
  8
_U+30EC_U+30A4_U+30E4_U+30FC 1
 62
     7
420
 16777215
370
    25
  0
POLYLINE
  5
59
330
1F
100
AcDbEntity
  8
_U+30EC_U+30A4_U+30E4_U+30FC 1
 62
     7
420
 16777215
370
    25
100
AcDb2dPolyline
 66
     1
 10
0.0
 20
0.0
 30
0.0
  0
VERTEX
  5
5A
330
59
100
AcDbEntity
  8
_U+30EC_U+30A4_U+30E4_U+30FC 1
 62
     7
420
 16777215
370
    25
100
AcDbVertex
100
AcDb2dVertex
 10
103.1268548690147
 20
-122.4814105249351
 30
0.0
  0
VERTEX
  5
5B
330
59
100
AcDbEntity
  8
_U+30EC_U+30A4_U+30E4_U+30FC 1
 62
     7
420
 16777215
370
    25
100
AcDbVertex
100
AcDb2dVertex
 10
103.1268548690147
 20
-121.4816383029629
 30
0.0
  0
SEQEND
  5
5C
330
59
100
AcDbEntity
  8
_U+30EC_U+30A4_U+30E4_U+30FC 1
 62
     7
420
 16777215
370
    25
  0
POLYLINE
  5
5D
330
1F
100
AcDbEntity
  8
_U+30EC_U+30A4_U+30E4_U+30FC 1
 62
     7
420
 16777215
370
    25
100
AcDb2dPolyline
 66
     1
 10
0.0
 20
0.0
 30
0.0
  0
VERTEX
  5
5E
330
5D
100
AcDbEntity
  8
_U+30EC_U+30A4_U+30E4_U+30FC 1
 62
     7
420
 16777215
370
    25
100
AcDbVertex
100
AcDb2dVertex
 10
80.97576237858064
 20
-122.4814105249351
 30
0.0
  0
VERTEX
  5
5F
330
5D
100
AcDbEntity
  8
_U+30EC_U+30A4_U+30E4_U+30FC 1
 62
     7
420
 16777215
370
    25
100
AcDbVertex
100
AcDb2dVertex
 10
103.1268548690147
 20
-122.4814105249351
 30
0.0
  0
SEQEND
  5
60
330
5D
100
AcDbEntity
  8
_U+30EC_U+30A4_U+30E4_U+30FC 1
 62
     7
420
 16777215
370
    25
  0
POLYLINE
  5
61
330
1F
100
AcDbEntity
  8
_U+30EC_U+30A4_U+30E4_U+30FC 1
 62
     7
420
 16777215
370
    25
100
AcDb2dPolyline
 66
     1
 10
0.0
 20
0.0
 30
0.0
  0
VERTEX
  5
62
330
61
100
AcDbEntity
  8
_U+30EC_U+30A4_U+30E4_U+30FC 1
 62
     7
420
 16777215
370
    25
100
AcDbVertex
100
AcDb2dVertex
 10
74.11589283136827
 20
-122.4814105249351
 30
0.0
  0
VERTEX
  5
63
330
61
100
AcDbEntity
  8
_U+30EC_U+30A4_U+30E4_U+30FC 1
 62
     7
420
 16777215
370
    25
100
AcDbVertex
100
AcDb2dVertex
 10
74.11589283136827
 20
-121.4816383029629
 30
0.0
  0
SEQEND
  5
64
330
61
100
AcDbEntity
  8
_U+30EC_U+30A4_U+30E4_U+30FC 1
 62
     7
420
 16777215
370
    25
  0
POLYLINE
  5
65
330
1F
100
AcDbEntity
  8
_U+30EC_U+30A4_U+30E4_U+30FC 1
 62
     7
420
 16777215
370
    25
100
AcDb2dPolyline
 66
     1
 10
0.0
 20
0.0
 30
0.0
  0
VERTEX
  5
66
330
65
100
AcDbEntity
  8
_U+30EC_U+30A4_U+30E4_U+30FC 1
 62
     7
420
 16777215
370
    25
100
AcDbVertex
100
AcDb2dVertex
 10
80.07554406821379
 20
-138.149718021018
 30
0.0
  0
VERTEX
  5
67
330
65
100
AcDbEntity
  8
_U+30EC_U+30A4_U+30E4_U+30FC 1
 62
     7
420
 16777215
370
    25
100
AcDbVertex
100
AcDb2dVertex
 10
80.07554406821379
 20
-122.4814105249351
 30
0.0
  0
SEQEND
  5
68
330
65
100
AcDbEntity
  8
_U+30EC_U+30A4_U+30E4_U+30FC 1
 62
     7
420
 16777215
370
    25
  0
POLYLINE
  5
69
330
1F
100
AcDbEntity
  8
_U+30EC_U+30A4_U+30E4_U+30FC 1
 62
     7
420
 16777215
370
    25
100
AcDb2dPolyline
 66
     1
 10
0.0
 20
0.0
 30
0.0
  0
VERTEX
  5
6A
330
69
100
AcDbEntity
  8
_U+30EC_U+30A4_U+30E4_U+30FC 1
 62
     7
420
 16777215
370
    25
100
AcDbVertex
100
AcDb2dVertex
 10
80.07554406821379
 20
-138.149718021018
 30
0.0
  0
VERTEX
  5
6B
330
69
100
AcDbEntity
  8
_U+30EC_U+30A4_U+30E4_U+30FC 1
 62
     7
420
 16777215
370
    25
100
AcDbVertex
100
AcDb2dVertex
 10
90.07562964642368
 20
-138.149718021018
 30
0.0
  0
SEQEND
  5
6C
330
69
100
AcDbEntity
  8
_U+30EC_U+30A4_U+30E4_U+30FC 1
 62
     7
420
 16777215
370
    25
  0
POLYLINE
  5
6D
330
1F
100
AcDbEntity
  8
_U+30EC_U+30A4_U+30E4_U+30FC 1
 62
     7
420
 16777215
370
    25
100
AcDb2dPolyline
 66
     1
 10
0.0
 20
0.0
 30
0.0
  0
VERTEX
  5
6E
330
6D
100
AcDbEntity
  8
_U+30EC_U+30A4_U+30E4_U+30FC 1
 62
     7
420
 16777215
370
    25
100
AcDbVertex
100
AcDb2dVertex
 10
80.97576237858064
 20
-137.1499457990461
 30
0.0
  0
VERTEX
  5
6F
330
6D
100
AcDbEntity
  8
_U+30EC_U+30A4_U+30E4_U+30FC 1
 62
     7
420
 16777215
370
    25
100
AcDbVertex
100
AcDb2dVertex
 10
89.1657805029692
 20
-137.1499457990461
 30
0.0
  0
SEQEND
  5
70
330
6D
100
AcDbEntity
  8
_U+30EC_U+30A4_U+30E4_U+30FC 1
 62
     7
420
 16777215
370
    25
  0
POLYLINE
  5
71
330
1F
100
AcDbEntity
  8
_U+30EC_U+30A4_U+30E4_U+30FC 1
 62
     7
420
 16777215
370
    25
100
AcDb2dPolyline
 66
     1
 10
0.0
 20
0.0
 30
0.0
  0
VERTEX
  5
72
330
71
100
AcDbEntity
  8
_U+30EC_U+30A4_U+30E4_U+30FC 1
 62
     7
420
 16777215
370
    25
100
AcDbVertex
100
AcDb2dVertex
 10
89.14098022582414
 20
-135.1497310773237
 30
0.0
  0
VERTEX
  5
73
330
71
100
AcDbEntity
  8
_U+30EC_U+30A4_U+30E4_U+30FC 1
 62
     7
420
 16777215
370
    25
100
AcDbVertex
100
AcDb2dVertex
 10
90.14142497746472
 20
-135.1497310773237
 30
0.0
  0
SEQEND
  5
74
330
71
100
AcDbEntity
  8
_U+30EC_U+30A4_U+30E4_U+30FC 1
 62
     7
420
 16777215
370
    25
  0
POLYLINE
  5
75
330
1F
100
AcDbEntity
  8
_U+30EC_U+30A4_U+30E4_U+30FC 1
 62
     7
420
 16777215
370
    25
100
AcDb2dPolyline
 66
     1
 10
0.0
 20
0.0
 30
0.0
  0
VERTEX
  5
76
330
75
100
AcDbEntity
  8
_U+30EC_U+30A4_U+30E4_U+30FC 1
 62
     7
420
 16777215
370
    25
100
AcDbVertex
100
AcDb2dVertex
 10
90.14142497746472
 20
-138.149718021018
 30
0.0
  0
VERTEX
  5
77
330
75
100
AcDbEntity
  8
_U+30EC_U+30A4_U+30E4_U+30FC 1
 62
     7
420
 16777215
370
    25
100
AcDbVertex
100
AcDb2dVertex
 10
90.14142497746472
 20
-135.1497310773237
 30
0.0
  0
SEQEND
  5
78
330
75
100
AcDbEntity
  8
_U+30EC_U+30A4_U+30E4_U+30FC 1
 62
     7
420
 16777215
370
    25
  0
POLYLINE
  5
79
330
1F
100
AcDbEntity
  8
_U+30EC_U+30A4_U+30E4_U+30FC 1
 62
     7
420
 16777215
370
    25
100
AcDb2dPolyline
 66
     1
 10
0.0
 20
0.0
 30
0.0
  0
VERTEX
  5
7A
330
79
100
AcDbEntity
  8
_U+30EC_U+30A4_U+30E4_U+30FC 1
 62
     7
420
 16777215
370
    25
100
AcDbVertex
100
AcDb2dVertex
 10
89.14098022582414
 20
-137.1499457990461
 30
0.0
  0
VERTEX
  5
7B
330
79
100
AcDbEntity
  8
_U+30EC_U+30A4_U+30E4_U+30FC 1
 62
     7
420
 16777215
370
    25
100
AcDbVertex
100
AcDb2dVertex
 10
89.14098022582414
 20
-135.1497310773237
 30
0.0
  0
SEQEND
  5
7C
330
79
100
AcDbEntity
  8
_U+30EC_U+30A4_U+30E4_U+30FC 1
 62
     7
420
 16777215
370
    25
  0
POLYLINE
  5
7D
330
1F
100
AcDbEntity
  8
_U+30EC_U+30A4_U+30E4_U+30FC 1
 62
     7
420
 16777215
370
    25
100
AcDb2dPolyline
 66
     1
 10
0.0
 20
0.0
 30
0.0
  0
VERTEX
  5
7E
330
7D
100
AcDbEntity
  8
_U+30EC_U+30A4_U+30E4_U+30FC 1
 62
     7
420
 16777215
370
    25
100
AcDbVertex
100
AcDb2dVertex
 10
80.97576237858064
 20
-128.3584060790214
 30
0.0
  0
VERTEX
  5
7F
330
7D
100
AcDbEntity
  8
_U+30EC_U+30A4_U+30E4_U+30FC 1
 62
     7
420
 16777215
370
    25
100
AcDbVertex
100
AcDb2dVertex
 10
80.97576237858064
 20
-122.4814105249351
 30
0.0
  0
SEQEND
  5
80
330
7D
100
AcDbEntity
  8
_U+30EC_U+30A4_U+30E4_U+30FC 1
 62
     7
420
 16777215
370
    25
  0
SPLINE
  5
81
330
1F
100
AcDbEntity
  8
_U+30EC_U+30A4_U+30E4_U+30FC 1
 62
     7
420
 16777215
370
     9
100
AcDbSpline
210
0.0
220
0.0
230
1.0
 70
    11
 71
     3
 72
    17
 73
    13
 74
     0
 42
0.0000000001
 43
0.0000000001
 12
1.0
 22
0.0
 32
0.0
 13
1.0
 23
0.0
 33
0.0
 40
0.0
 40
0.0
 40
0.0
 40
0.0
 40
1.0
 40
1.0
 40
1.0
 40
2.0
 40
2.0
 40
2.0
 40
3.0
 40
3.0
 40
3.0
 40
4.0
 40
4.0
 40
4.0
 40
4.0
 10
74.1434447751098
 20
-117.4812088595186
 30
0.0
 10
74.1434447751098
 20
-117.4260696928659
 30
0.0
 10
74.09867727625192
 20
-117.381302192877
 30
0.0
 10
74.04353811099197
 20
-117.381302192877
 30
0.0
 10
73.98843609261392
 20
-117.381302192877
 30
0.0
 10
73.94363331484752
 20
-117.4260696928659
 30
0.0
 10
73.94363331484752
 20
-117.4812088595186
 30
0.0
 10
73.94363331484752
 20
-117.5370183039491
 30
0.0
 10
73.98843609261392
 20
-117.581785803938
 30
0.0
 10
74.04353811099197
 20
-117.581785803938
 30
0.0
 10
74.09867727625192
 20
-117.581785803938
 30
0.0
 10
74.1434447751098
 20
-117.5370183039491
 30
0.0
 10
74.1434447751098
 20
-117.4812088595186
 30
0.0
  0
SPLINE
  5
82
330
1F
100
AcDbEntity
  8
_U+30EC_U+30A4_U+30E4_U+30FC 1
 62
     7
420
 16777215
370
     9
100
AcDbSpline
210
0.0
220
0.0
230
1.0
 70
    11
 71
     3
 72
    17
 73
    13
 74
     0
 42
0.0000000001
 43
0.0000000001
 12
1.0
 22
0.0
 32
0.0
 13
1.0
 23
0.0
 33
0.0
 40
0.0
 40
0.0
 40
0.0
 40
0.0
 40
1.0
 40
1.0
 40
1.0
 40
2.0
 40
2.0
 40
2.0
 40
3.0
 40
3.0
 40
3.0
 40
4.0
 40
4.0
 40
4.0
 40
4.0
 10
103.0441990377901
 20
-117.4812088595186
 30
0.0
 10
103.0441990377901
 20
-117.4260696928659
 30
0.0
 10
102.9993962611554
 20
-117.381302192877
 30
0.0
 10
102.9442570958954
 20
-117.381302192877
 30
0.0
 10
102.8891532084124
 20
-117.381302192877
 30
0.0
 10
102.8443504317776
 20
-117.4260696928659
 30
0.0
 10
102.8443504317776
 20
-117.4812088595186
 30
0.0
 10
102.8443504317776
 20
-117.5370183039491
 30
0.0
 10
102.8891532084124
 20
-117.581785803938
 30
0.0
 10
102.9442570958954
 20
-117.581785803938
 30
0.0
 10
102.9993962611554
 20
-117.581785803938
 30
0.0
 10
103.0441990377901
 20
-117.5370183039491
 30
0.0
 10
103.0441990377901
 20
-117.4812088595186
 30
0.0
  0
SPLINE
  5
83
330
1F
100
AcDbEntity
  8
_U+30EC_U+30A4_U+30E4_U+30FC 1
 62
     7
420
 16777215
370
     9
100
AcDbSpline
210
0.0
220
0.0
230
1.0
 70
    11
 71
     3
 72
    17
 73
    13
 74
     0
 42
0.0000000001
 43
0.0000000001
 12
1.0
 22
0.0
 32
0.0
 13
1.0
 23
0.0
 33
0.0
 40
0.0
 40
0.0
 40
0.0
 40
0.0
 40
1.0
 40
1.0
 40
1.0
 40
2.0
 40
2.0
 40
2.0
 40
3.0
 40
3.0
 40
3.0
 40
4.0
 40
4.0
 40
4.0
 40
4.0
 10
107.2437388620778
 20
-121.4816383029629
 30
0.0
 10
107.2437388620778
 20
-121.426534414088
 30
0.0
 10
107.1989686540154
 20
-121.3817316363212
 30
0.0
 10
107.1438294887554
 20
-121.3817316363212
 30
0.0
 10
107.0887256012723
 20
-121.3817316363212
 30
0.0
 10
107.0439228246376
 20
-121.426534414088
 30
0.0
 10
107.0439228246376
 20
-121.4816383029629
 30
0.0
 10
107.0439228246376
 20
-121.536777469616
 30
0.0
 10
107.0887256012723
 20
-121.5815449696045
 30
0.0
 10
107.1438294887554
 20
-121.5815449696045
 30
0.0
 10
107.1989686540154
 20
-121.5815449696045
 30
0.0
 10
107.2437388620778
 20
-121.536777469616
 30
0.0
 10
107.2437388620778
 20
-121.4816383029629
 30
0.0
  0
SPLINE
  5
84
330
1F
100
AcDbEntity
  8
_U+30EC_U+30A4_U+30E4_U+30FC 1
 62
     7
420
 16777215
370
     9
100
AcDbSpline
210
0.0
220
0.0
230
1.0
 70
    11
 71
     3
 72
    17
 73
    13
 74
     0
 42
0.0000000001
 43
0.0000000001
 12
1.0
 22
0.0
 32
0.0
 13
1.0
 23
0.0
 33
0.0
 40
0.0
 40
0.0
 40
0.0
 40
0.0
 40
1.0
 40
1.0
 40
1.0
 40
2.0
 40
2.0
 40
2.0
 40
3.0
 40
3.0
 40
3.0
 40
4.0
 40
4.0
 40
4.0
 40
4.0
 10
107.2437388620778
 20
-122.4814105249351
 30
0.0
 10
107.2437388620778
 20
-122.4263066360602
 30
0.0
 10
107.1989686540154
 20
-122.3815038582935
 30
0.0
 10
107.1438294887554
 20
-122.3815038582935
 30
0.0
 10
107.0887256012723
 20
-122.3815038582935
 30
0.0
 10
107.0439228246376
 20
-122.4263066360602
 30
0.0
 10
107.0439228246376
 20
-122.4814105249351
 30
0.0
 10
107.0439228246376
 20
-122.5365496915882
 30
0.0
 10
107.0887256012723
 20
-122.5813171915767
 30
0.0
 10
107.1438294887554
 20
-122.5813171915767
 30
0.0
 10
107.1989686540154
 20
-122.5813171915767
 30
0.0
 10
107.2437388620778
 20
-122.5365496915882
 30
0.0
 10
107.2437388620778
 20
-122.4814105249351
 30
0.0
  0
SPLINE
  5
85
330
1F
100
AcDbEntity
  8
_U+30EC_U+30A4_U+30E4_U+30FC 1
 62
     7
420
 16777215
370
     9
100
AcDbSpline
210
0.0
220
0.0
230
1.0
 70
    11
 71
     3
 72
    17
 73
    13
 74
     0
 42
0.0000000001
 43
0.0000000001
 12
1.0
 22
0.0
 32
0.0
 13
1.0
 23
0.0
 33
0.0
 40
0.0
 40
0.0
 40
0.0
 40
0.0
 40
1.0
 40
1.0
 40
1.0
 40
2.0
 40
2.0
 40
2.0
 40
3.0
 40
3.0
 40
3.0
 40
4.0
 40
4.0
 40
4.0
 40
4.0
 10
80.17580553551176
 20
-142.3754666310731
 30
0.0
 10
80.17580553551176
 20
-142.32032746442
 30
0.0
 10
80.13103601124251
 20
-142.2755599644314
 30
0.0
 10
80.07554406821379
 20
-142.2755599644314
 30
0.0
 10
80.02044018073072
 20
-142.2755599644314
 30
0.0
 10
79.97563740409595
 20
-142.32032746442
 30
0.0
 10
79.97563740409595
 20
-142.3754666310731
 30
0.0
 10
79.97563740409595
 20
-142.430570519948
 30
0.0
 10
80.02044018073072
 20
-142.4753732977147
 30
0.0
 10
80.07554406821379
 20
-142.4753732977147
 30
0.0
 10
80.13103601124251
 20
-142.4753732977147
 30
0.0
 10
80.17580553551176
 20
-142.430570519948
 30
0.0
 10
80.17580553551176
 20
-142.3754666310731
 30
0.0
  0
SPLINE
  5
86
330
1F
100
AcDbEntity
  8
_U+30EC_U+30A4_U+30E4_U+30FC 1
 62
     7
420
 16777215
370
     9
100
AcDbSpline
210
0.0
220
0.0
230
1.0
 70
    11
 71
     3
 72
    17
 73
    13
 74
     0
 42
0.0000000001
 43
0.0000000001
 12
1.0
 22
0.0
 32
0.0
 13
1.0
 23
0.0
 33
0.0
 40
0.0
 40
0.0
 40
0.0
 40
0.0
 40
1.0
 40
1.0
 40
1.0
 40
2.0
 40
2.0
 40
2.0
 40
3.0
 40
3.0
 40
3.0
 40
4.0
 40
4.0
 40
4.0
 40
4.0
 10
90.3267721400165
 20
-142.3754666310731
 30
0.0
 10
90.3267721400165
 20
-142.32032746442
 30
0.0
 10
90.28200464115862
 20
-142.2755599644314
 30
0.0
 10
90.22686547589866
 20
-142.2755599644314
 30
0.0
 10
90.1717638663458
 20
-142.2755599644314
 30
0.0
 10
90.12696108857939
 20
-142.32032746442
 30
0.0
 10
90.12696108857939
 20
-142.3754666310731
 30
0.0
 10
90.12696108857939
 20
-142.430570519948
 30
0.0
 10
90.1717638663458
 20
-142.4753732977147
 30
0.0
 10
90.22686547589866
 20
-142.4753732977147
 30
0.0
 10
90.28200464115862
 20
-142.4753732977147
 30
0.0
 10
90.3267721400165
 20
-142.430570519948
 30
0.0
 10
90.3267721400165
 20
-142.3754666310731
 30
0.0
  0
SPLINE
  5
87
330
1F
100
AcDbEntity
  8
_U+30EC_U+30A4_U+30E4_U+30FC 1
 62
     7
420
 16777215
370
     9
100
AcDbSpline
210
0.0
220
0.0
230
1.0
 70
    11
 71
     3
 72
    17
 73
    13
 74
     0
 42
0.0000000001
 43
0.0000000001
 12
1.0
 22
0.0
 32
0.0
 13
1.0
 23
0.0
 33
0.0
 40
0.0
 40
0.0
 40
0.0
 40
0.0
 40
1.0
 40
1.0
 40
1.0
 40
2.0
 40
2.0
 40
2.0
 40
3.0
 40
3.0
 40
3.0
 40
4.0
 40
4.0
 40
4.0
 40
4.0
 10
74.2884717158543
 20
-142.3754666310731
 30
0.0
 10
74.2884717158543
 20
-142.32032746442
 30
0.0
 10
74.24370421699642
 20
-142.2755599644314
 30
0.0
 10
74.18856505173646
 20
-142.2755599644314
 30
0.0
 10
74.13310838648462
 20
-142.2755599644314
 30
0.0
 10
74.08834088762673
 20
-142.32032746442
 30
0.0
 10
74.08834088762673
 20
-142.3754666310731
 30
0.0
 10
74.08834088762673
 20
-142.430570519948
 30
0.0
 10
74.13310838648462
 20
-142.4753732977147
 30
0.0
 10
74.18856505173646
 20
-142.4753732977147
 30
0.0
 10
74.24370421699642
 20
-142.4753732977147
 30
0.0
 10
74.2884717158543
 20
-142.430570519948
 30
0.0
 10
74.2884717158543
 20
-142.3754666310731
 30
0.0
  0
POLYLINE
  5
88
330
1F
100
AcDbEntity
  8
_U+30EC_U+30A4_U+30E4_U+30FC 1
 62
     7
420
 16777215
370
     9
100
AcDb2dPolyline
 66
     1
 10
0.0
 20
0.0
 30
0.0
  0
VERTEX
  5
89
330
88
100
AcDbEntity
  8
_U+30EC_U+30A4_U+30E4_U+30FC 1
 62
     7
420
 16777215
370
     9
100
AcDbVertex
100
AcDb2dVertex
 10
80.07554406821379
 20
-142.3754666310731
 30
0.0
  0
VERTEX
  5
8A
330
88
100
AcDbEntity
  8
_U+30EC_U+30A4_U+30E4_U+30FC 1
 62
     7
420
 16777215
370
     9
100
AcDbVertex
100
AcDb2dVertex
 10
90.07562964642368
 20
-142.3754666310731
 30
0.0
  0
SEQEND
  5
8B
330
88
100
AcDbEntity
  8
_U+30EC_U+30A4_U+30E4_U+30FC 1
 62
     7
420
 16777215
370
     9
  0
POLYLINE
  5
8C
330
1F
100
AcDbEntity
  8
_U+30EC_U+30A4_U+30E4_U+30FC 1
 62
     7
420
 16777215
370
     9
100
AcDb2dPolyline
 66
     1
 10
0.0
 20
0.0
 30
0.0
  0
VERTEX
  5
8D
330
8C
100
AcDbEntity
  8
_U+30EC_U+30A4_U+30E4_U+30FC 1
 62
     7
420
 16777215
370
     9
100
AcDbVertex
100
AcDb2dVertex
 10
90.22686547589866
 20
-140.9154252425487
 30
0.0
  0
VERTEX
  5
8E
330
8C
100
AcDbEntity
  8
_U+30EC_U+30A4_U+30E4_U+30FC 1
 62
     7
420
 16777215
370
     9
100
AcDbVertex
100
AcDb2dVertex
 10
90.22686547589866
 20
-143.375238853045
 30
0.0
  0
SEQEND
  5
8F
330
8C
100
AcDbEntity
  8
_U+30EC_U+30A4_U+30E4_U+30FC 1
 62
     7
420
 16777215
370
     9
  0
INSERT
  5
91
330
1F
100
AcDbEntity
  8
_U+30EC_U+30A4_U+30E4_U+30FC 1
100
AcDbBlockReference
  2
block 2
 10
0.0
 20
0.0
 30
0.0
  0
POLYLINE
  5
99
330
1F
100
AcDbEntity
  8
_U+30EC_U+30A4_U+30E4_U+30FC 1
 62
     7
420
 16777215
370
     9
100
AcDb2dPolyline
 66
     1
 10
0.0
 20
0.0
 30
0.0
  0
VERTEX
  5
9A
330
99
100
AcDbEntity
  8
_U+30EC_U+30A4_U+30E4_U+30FC 1
 62
     7
420
 16777215
370
     9
100
AcDbVertex
100
AcDb2dVertex
 10
107.1438294887554
 20
-121.4816383029629
 30
0.0
  0
VERTEX
  5
9B
330
99
100
AcDbEntity
  8
_U+30EC_U+30A4_U+30E4_U+30FC 1
 62
     7
420
 16777215
370
     9
100
AcDbVertex
100
AcDb2dVertex
 10
107.1438294887554
 20
-117.7113258039055
 30
0.0
  0
SEQEND
  5
9C
330
99
100
AcDbEntity
  8
_U+30EC_U+30A4_U+30E4_U+30FC 1
 62
     7
420
 16777215
370
     9
  0
POLYLINE
  5
9D
330
1F
100
AcDbEntity
  8
_U+30EC_U+30A4_U+30E4_U+30FC 1
 62
     7
420
 16777215
370
     9
100
AcDb2dPolyline
 66
     1
 10
0.0
 20
0.0
 30
0.0
  0
VERTEX
  5
9E
330
9D
100
AcDbEntity
  8
_U+30EC_U+30A4_U+30E4_U+30FC 1
 62
     7
420
 16777215
370
     9
100
AcDbVertex
100
AcDb2dVertex
 10
107.1438294887554
 20
-121.4816383029629
 30
0.0
  0
VERTEX
  5
9F
330
9D
100
AcDbEntity
  8
_U+30EC_U+30A4_U+30E4_U+30FC 1
 62
     7
420
 16777215
370
     9
100
AcDbVertex
100
AcDb2dVertex
 10
107.1438294887554
 20
-122.4814105249351
 30
0.0
  0
SEQEND
  5
A0
330
9D
100
AcDbEntity
  8
_U+30EC_U+30A4_U+30E4_U+30FC 1
 62
     7
420
 16777215
370
     9
  0
POLYLINE
  5
A1
330
1F
100
AcDbEntity
  8
_U+30EC_U+30A4_U+30E4_U+30FC 1
 62
     7
420
 16777215
370
     9
100
AcDb2dPolyline
 66
     1
 10
0.0
 20
0.0
 30
0.0
  0
VERTEX
  5
A2
330
A1
100
AcDbEntity
  8
_U+30EC_U+30A4_U+30E4_U+30FC 1
 62
     7
420
 16777215
370
     9
100
AcDbVertex
100
AcDb2dVertex
 10
105.6838234148921
 20
-121.4816383029629
 30
0.0
  0
VERTEX
  5
A3
330
A1
100
AcDbEntity
  8
_U+30EC_U+30A4_U+30E4_U+30FC 1
 62
     7
420
 16777215
370
     9
100
AcDbVertex
100
AcDb2dVertex
 10
108.1436016854713
 20
-121.4816383029629
 30
0.0
  0
SEQEND
  5
A4
330
A1
100
AcDbEntity
  8
_U+30EC_U+30A4_U+30E4_U+30FC 1
 62
     7
420
 16777215
370
     9
  0
POLYLINE
  5
A5
330
1F
100
AcDbEntity
  8
_U+30EC_U+30A4_U+30E4_U+30FC 1
 62
     7
420
 16777215
370
     9
100
AcDb2dPolyline
 66
     1
 10
0.0
 20
0.0
 30
0.0
  0
VERTEX
  5
A6
330
A5
100
AcDbEntity
  8
_U+30EC_U+30A4_U+30E4_U+30FC 1
 62
     7
420
 16777215
370
     9
100
AcDbVertex
100
AcDb2dVertex
 10
105.6838234148921
 20
-122.4814105249351
 30
0.0
  0
VERTEX
  5
A7
330
A5
100
AcDbEntity
  8
_U+30EC_U+30A4_U+30E4_U+30FC 1
 62
     7
420
 16777215
370
     9
100
AcDbVertex
100
AcDb2dVertex
 10
108.1436016854713
 20
-122.4814105249351
 30
0.0
  0
SEQEND
  5
A8
330
A5
100
AcDbEntity
  8
_U+30EC_U+30A4_U+30E4_U+30FC 1
 62
     7
420
 16777215
370
     9
  0
INSERT
  5
AA
330
1F
100
AcDbEntity
  8
_U+30EC_U+30A4_U+30E4_U+30FC 1
100
AcDbBlockReference
  2
block 3
 10
0.0
 20
0.0
 30
0.0
  0
POLYLINE
  5
AF
330
1F
100
AcDbEntity
  8
_U+30EC_U+30A4_U+30E4_U+30FC 1
 62
     7
420
 16777215
370
     9
100
AcDb2dPolyline
 66
     1
 10
0.0
 20
0.0
 30
0.0
  0
VERTEX
  5
B0
330
AF
100
AcDbEntity
  8
_U+30EC_U+30A4_U+30E4_U+30FC 1
 62
     7
420
 16777215
370
     9
100
AcDbVertex
100
AcDb2dVertex
 10
74.04353811099197
 20
-117.4812088595186
 30
0.0
  0
VERTEX
  5
B1
330
AF
100
AcDbEntity
  8
_U+30EC_U+30A4_U+30E4_U+30FC 1
 62
     7
420
 16777215
370
     9
100
AcDbVertex
100
AcDb2dVertex
 10
103.0441990377901
 20
-117.4812088595186
 30
0.0
  0
SEQEND
  5
B2
330
AF
100
AcDbEntity
  8
_U+30EC_U+30A4_U+30E4_U+30FC 1
 62
     7
420
 16777215
370
     9
  0
POLYLINE
  5
B3
330
1F
100
AcDbEntity
  8
_U+30EC_U+30A4_U+30E4_U+30FC 1
 62
     7
420
 16777215
370
     9
100
AcDb2dPolyline
 66
     1
 10
0.0
 20
0.0
 30
0.0
  0
VERTEX
  5
B4
330
B3
100
AcDbEntity
  8
_U+30EC_U+30A4_U+30E4_U+30FC 1
 62
     7
420
 16777215
370
     9
100
AcDbVertex
100
AcDb2dVertex
 10
74.04353811099197
 20
-118.9412502480424
 30
0.0
  0
VERTEX
  5
B5
330
B3
100
AcDbEntity
  8
_U+30EC_U+30A4_U+30E4_U+30FC 1
 62
     7
420
 16777215
370
     9
100
AcDbVertex
100
AcDb2dVertex
 10
74.04353811099197
 20
-116.4814366375464
 30
0.0
  0
SEQEND
  5
B6
330
B3
100
AcDbEntity
  8
_U+30EC_U+30A4_U+30E4_U+30FC 1
 62
     7
420
 16777215
370
     9
  0
POLYLINE
  5
B7
330
1F
100
AcDbEntity
  8
_U+30EC_U+30A4_U+30E4_U+30FC 1
 62
     7
420
 16777215
370
     9
100
AcDb2dPolyline
 66
     1
 10
0.0
 20
0.0
 30
0.0
  0
VERTEX
  5
B8
330
B7
100
AcDbEntity
  8
_U+30EC_U+30A4_U+30E4_U+30FC 1
 62
     7
420
 16777215
370
     9
100
AcDbVertex
100
AcDb2dVertex
 10
102.9442570958954
 20
-118.9412502480424
 30
0.0
  0
VERTEX
  5
B9
330
B7
100
AcDbEntity
  8
_U+30EC_U+30A4_U+30E4_U+30FC 1
 62
     7
420
 16777215
370
     9
100
AcDbVertex
100
AcDb2dVertex
 10
102.9442570958954
 20
-116.4814366375464
 30
0.0
  0
SEQEND
  5
BA
330
B7
100
AcDbEntity
  8
_U+30EC_U+30A4_U+30E4_U+30FC 1
 62
     7
420
 16777215
370
     9
  0
INSERT
  5
BC
330
1F
100
AcDbEntity
  8
_U+30EC_U+30A4_U+30E4_U+30FC 1
100
AcDbBlockReference
  2
block 4
 10
0.0
 20
0.0
 30
0.0
  0
POLYLINE
  5
C4
330
1F
100
AcDbEntity
  8
_U+30EC_U+30A4_U+30E4_U+30FC 1
 62
     7
420
 16777215
370
     9
100
AcDb2dPolyline
 66
     1
 10
0.0
 20
0.0
 30
0.0
  0
VERTEX
  5
C5
330
C4
100
AcDbEntity
  8
_U+30EC_U+30A4_U+30E4_U+30FC 1
 62
     7
420
 16777215
370
     9
100
AcDbVertex
100
AcDb2dVertex
 10
74.07525283240508
 20
-142.3754666310731
 30
0.0
  0
VERTEX
  5
C6
330
C4
100
AcDbEntity
  8
_U+30EC_U+30A4_U+30E4_U+30FC 1
 62
     7
420
 16777215
370
     9
100
AcDbVertex
100
AcDb2dVertex
 10
80.07554406821379
 20
-142.3754666310731
 30
0.0
  0
SEQEND
  5
C7
330
C4
100
AcDbEntity
  8
_U+30EC_U+30A4_U+30E4_U+30FC 1
 62
     7
420
 16777215
370
     9
  0
POLYLINE
  5
C8
330
1F
100
AcDbEntity
  8
_U+30EC_U+30A4_U+30E4_U+30FC 1
 62
     7
420
 16777215
370
     9
100
AcDb2dPolyline
 66
     1
 10
0.0
 20
0.0
 30
0.0
  0
VERTEX
  5
C9
330
C8
100
AcDbEntity
  8
_U+30EC_U+30A4_U+30E4_U+30FC 1
 62
     7
420
 16777215
370
     9
100
AcDbVertex
100
AcDb2dVertex
 10
74.18856505173646
 20
-125.0218338576335
 30
0.0
  0
VERTEX
  5
CA
330
C8
100
AcDbEntity
  8
_U+30EC_U+30A4_U+30E4_U+30FC 1
 62
     7
420
 16777215
370
     9
100
AcDbVertex
100
AcDb2dVertex
 10
74.18856505173646
 20
-143.375238853045
 30
0.0
  0
SEQEND
  5
CB
330
C8
100
AcDbEntity
  8
_U+30EC_U+30A4_U+30E4_U+30FC 1
 62
     7
420
 16777215
370
     9
  0
POLYLINE
  5
CC
330
1F
100
AcDbEntity
  8
_U+30EC_U+30A4_U+30E4_U+30FC 1
 62
     7
420
 16777215
370
     9
100
AcDb2dPolyline
 66
     1
 10
0.0
 20
0.0
 30
0.0
  0
VERTEX
  5
CD
330
CC
100
AcDbEntity
  8
_U+30EC_U+30A4_U+30E4_U+30FC 1
 62
     7
420
 16777215
370
     9
100
AcDbVertex
100
AcDb2dVertex
 10
80.07554406821379
 20
-140.9154252425487
 30
0.0
  0
VERTEX
  5
CE
330
CC
100
AcDbEntity
  8
_U+30EC_U+30A4_U+30E4_U+30FC 1
 62
     7
420
 16777215
370
     9
100
AcDbVertex
100
AcDb2dVertex
 10
80.07554406821379
 20
-143.375238853045
 30
0.0
  0
SEQEND
  5
CF
330
CC
100
AcDbEntity
  8
_U+30EC_U+30A4_U+30E4_U+30FC 1
 62
     7
420
 16777215
370
     9
  0
INSERT
  5
D1
330
1F
100
AcDbEntity
  8
_U+30EC_U+30A4_U+30E4_U+30FC 1
100
AcDbBlockReference
  2
block 5
 10
0.0
 20
0.0
 30
0.0
  0
POLYLINE
  5
D7
330
1F
100
AcDbEntity
  8
_U+30EC_U+30A4_U+30E4_U+30FC 1
 62
     7
420
 16777215
370
     9
100
AcDb2dPolyline
 66
     1
 10
0.0
 20
0.0
 30
0.0
  0
VERTEX
  5
D8
330
D7
100
AcDbEntity
  8
_U+30EC_U+30A4_U+30E4_U+30FC 1
 62
     7
420
 16777215
370
     9
100
AcDbVertex
100
AcDb2dVertex
 10
107.1438294887554
 20
-134.9815971884768
 30
0.0
  0
VERTEX
  5
D9
330
D7
100
AcDbEntity
  8
_U+30EC_U+30A4_U+30E4_U+30FC 1
 62
     7
420
 16777215
370
     9
100
AcDbVertex
100
AcDb2dVertex
 10
107.1438294887554
 20
-122.4814105249351
 30
0.0
  0
SEQEND
  5
DA
330
D7
100
AcDbEntity
  8
_U+30EC_U+30A4_U+30E4_U+30FC 1
 62
     7
420
 16777215
370
     9
  0
SPLINE
  5
DB
330
1F
100
AcDbEntity
  8
_U+30EC_U+30A4_U+30E4_U+30FC 1
 62
     7
420
 16777215
370
     9
100
AcDbSpline
210
0.0
220
0.0
230
1.0
 70
    11
 71
     3
 72
    17
 73
    13
 74
     0
 42
0.0000000001
 43
0.0000000001
 12
1.0
 22
0.0
 32
0.0
 13
1.0
 23
0.0
 33
0.0
 40
0.0
 40
0.0
 40
0.0
 40
0.0
 40
1.0
 40
1.0
 40
1.0
 40
2.0
 40
2.0
 40
2.0
 40
3.0
 40
3.0
 40
3.0
 40
4.0
 40
4.0
 40
4.0
 40
4.0
 10
107.2437388620778
 20
-135.0215669106894
 30
0.0
 10
107.2437388620778
 20
-134.9657574662583
 30
0.0
 10
107.1989686540154
 20
-134.9209546884922
 30
0.0
 10
107.1438294887554
 20
-134.9209546884922
 30
0.0
 10
107.0887256012723
 20
-134.9209546884922
 30
0.0
 10
107.0439228246376
 20
-134.9657574662583
 30
0.0
 10
107.0439228246376
 20
-135.0215669106894
 30
0.0
 10
107.0439228246376
 20
-135.0766707995643
 30
0.0
 10
107.0887256012723
 20
-135.121473577331
 30
0.0
 10
107.1438294887554
 20
-135.121473577331
 30
0.0
 10
107.1989686540154
 20
-135.121473577331
 30
0.0
 10
107.2437388620778
 20
-135.0766707995643
 30
0.0
 10
107.2437388620778
 20
-135.0215669106894
 30
0.0
  0
SPLINE
  5
DC
330
1F
100
AcDbEntity
  8
_U+30EC_U+30A4_U+30E4_U+30FC 1
 62
     7
420
 16777215
370
     9
100
AcDbSpline
210
0.0
220
0.0
230
1.0
 70
    11
 71
     3
 72
    17
 73
    13
 74
     0
 42
0.0000000001
 43
0.0000000001
 12
1.0
 22
0.0
 32
0.0
 13
1.0
 23
0.0
 33
0.0
 40
0.0
 40
0.0
 40
0.0
 40
0.0
 40
1.0
 40
1.0
 40
1.0
 40
2.0
 40
2.0
 40
2.0
 40
3.0
 40
3.0
 40
3.0
 40
4.0
 40
4.0
 40
4.0
 40
4.0
 10
107.2437388620778
 20
-138.0215538543837
 30
0.0
 10
107.2437388620778
 20
-137.9657444099533
 30
0.0
 10
107.1989686540154
 20
-137.9209416321866
 30
0.0
 10
107.1438294887554
 20
-137.9209416321866
 30
0.0
 10
107.0887256012723
 20
-137.9209416321866
 30
0.0
 10
107.0439228246376
 20
-137.9657444099533
 30
0.0
 10
107.0439228246376
 20
-138.0215538543837
 30
0.0
 10
107.0439228246376
 20
-138.0766577432586
 30
0.0
 10
107.0887256012723
 20
-138.1214605210253
 30
0.0
 10
107.1438294887554
 20
-138.1214605210253
 30
0.0
 10
107.1989686540154
 20
-138.1214605210253
 30
0.0
 10
107.2437388620778
 20
-138.0766577432586
 30
0.0
 10
107.2437388620778
 20
-138.0215538543837
 30
0.0
  0
POLYLINE
  5
DD
330
1F
100
AcDbEntity
  8
_U+30EC_U+30A4_U+30E4_U+30FC 1
 62
     7
420
 16777215
370
     9
100
AcDb2dPolyline
 66
     1
 10
0.0
 20
0.0
 30
0.0
  0
VERTEX
  5
DE
330
DD
100
AcDbEntity
  8
_U+30EC_U+30A4_U+30E4_U+30FC 1
 62
     7
420
 16777215
370
     9
100
AcDbVertex
100
AcDb2dVertex
 10
107.1438294887554
 20
-138.0215538543837
 30
0.0
  0
VERTEX
  5
DF
330
DD
100
AcDbEntity
  8
_U+30EC_U+30A4_U+30E4_U+30FC 1
 62
     7
420
 16777215
370
     9
100
AcDbVertex
100
AcDb2dVertex
 10
107.1438294887554
 20
-135.0215669106894
 30
0.0
  0
SEQEND
  5
E0
330
DD
100
AcDbEntity
  8
_U+30EC_U+30A4_U+30E4_U+30FC 1
 62
     7
420
 16777215
370
     9
  0
POLYLINE
  5
E1
330
1F
100
AcDbEntity
  8
_U+30EC_U+30A4_U+30E4_U+30FC 1
 62
     7
420
 16777215
370
     9
100
AcDb2dPolyline
 66
     1
 10
0.0
 20
0.0
 30
0.0
  0
VERTEX
  5
E2
330
E1
100
AcDbEntity
  8
_U+30EC_U+30A4_U+30E4_U+30FC 1
 62
     7
420
 16777215
370
     9
100
AcDbVertex
100
AcDb2dVertex
 10
92.70544680155368
 20
-138.0215538543837
 30
0.0
  0
VERTEX
  5
E3
330
E1
100
AcDbEntity
  8
_U+30EC_U+30A4_U+30E4_U+30FC 1
 62
     7
420
 16777215
370
     9
100
AcDbVertex
100
AcDb2dVertex
 10
108.1436016854713
 20
-138.0215538543837
 30
0.0
  0
SEQEND
  5
E4
330
E1
100
AcDbEntity
  8
_U+30EC_U+30A4_U+30E4_U+30FC 1
 62
     7
420
 16777215
370
     9
  0
INSERT
  5
E6
330
1F
100
AcDbEntity
  8
_U+30EC_U+30A4_U+30E4_U+30FC 1
100
AcDbBlockReference
  2
block 6
 10
0.0
 20
0.0
 30
0.0
  0
POLYLINE
  5
EB
330
1F
100
AcDbEntity
  8
_U+30EC_U+30A4_U+30E4_U+30FC 1
 62
     7
420
 16777215
370
     9
100
AcDb2dPolyline
 66
     1
 10
0.0
 20
0.0
 30
0.0
  0
VERTEX
  5
EC
330
EB
100
AcDbEntity
  8
_U+30EC_U+30A4_U+30E4_U+30FC 1
 62
     7
420
 16777215
370
     9
100
AcDbVertex
100
AcDb2dVertex
 10
92.70544680155368
 20
-135.0215669106894
 30
0.0
  0
VERTEX
  5
ED
330
EB
100
AcDbEntity
  8
_U+30EC_U+30A4_U+30E4_U+30FC 1
 62
     7
420
 16777215
370
     9
100
AcDbVertex
100
AcDb2dVertex
 10
108.1436016854713
 20
-135.0215669106894
 30
0.0
  0
SEQEND
  5
EE
330
EB
100
AcDbEntity
  8
_U+30EC_U+30A4_U+30E4_U+30FC 1
 62
     7
420
 16777215
370
     9
  0
INSERT
  5
F0
330
1F
100
AcDbEntity
  8
_U+30EC_U+30A4_U+30E4_U+30FC 1
100
AcDbBlockReference
  2
block 7
 10
0.0
 20
0.0
 30
0.0
  0
POLYLINE
  5
101
330
1F
100
AcDbEntity
  8
_U+30EC_U+30A4_U+30E4_U+30FC 1
 62
     7
420
 16777215
370
    25
100
AcDb2dPolyline
 66
     1
 10
0.0
 20
0.0
 30
0.0
  0
VERTEX
  5
102
330
101
100
AcDbEntity
  8
_U+30EC_U+30A4_U+30E4_U+30FC 1
 62
     7
420
 16777215
370
    25
100
AcDbVertex
100
AcDb2dVertex
 10
80.97576237858064
 20
-137.1499457990461
 30
0.0
  0
VERTEX
  5
103
330
101
100
AcDbEntity
  8
_U+30EC_U+30A4_U+30E4_U+30FC 1
 62
     7
420
 16777215
370
    25
100
AcDbVertex
100
AcDb2dVertex
 10
80.97576237858064
 20
-129.1046016343905
 30
0.0
  0
SEQEND
  5
104
330
101
100
AcDbEntity
  8
_U+30EC_U+30A4_U+30E4_U+30FC 1
 62
     7
420
 16777215
370
    25
  0
POLYLINE
  5
105
330
1F
100
AcDbEntity
  8
_U+30EC_U+30A4_U+30E4_U+30FC 1
 62
   179
420
  2234388
370
    25
100
AcDb2dPolyline
 66
     1
 10
0.0
 20
0.0
 30
0.0
  0
VERTEX
  5
106
330
105
100
AcDbEntity
  8
_U+30EC_U+30A4_U+30E4_U+30FC 1
 62
   179
420
  2234388
370
    25
100
AcDbVertex
100
AcDb2dVertex
 10
80.97576237858064
 20
-129.1046016343905
 30
0.0
  0
VERTEX
  5
107
330
105
100
AcDbEntity
  8
_U+30EC_U+30A4_U+30E4_U+30FC 1
 62
   179
420
  2234388
370
    25
100
AcDbVertex
100
AcDb2dVertex
 10
81.27583514870292
 20
-128.7318566344837
 30
0.0
  0
VERTEX
  5
108
330
105
100
AcDbEntity
  8
_U+30EC_U+30A4_U+30E4_U+30FC 1
 62
   179
420
  2234388
370
    25
100
AcDbVertex
100
AcDb2dVertex
 10
80.97576237858064
 20
-128.3584060790214
 30
0.0
  0
SEQEND
  5
10A
330
105
100
AcDbEntity
  8
_U+30EC_U+30A4_U+30E4_U+30FC 1
 62
   179
420
  2234388
370
    25
  0
HATCH
  5
109
330
1F
100
AcDbEntity
  8
_U+30EC_U+30A4_U+30E4_U+30FC 1
 62
   253
420
 11711154
100
AcDbHatch
 10
0.0
 20
0.0
 30
0.0
210
0.0
220
0.0
230
1.0
  2
SOLID
 70
     1
 71
     0
 91
        1
 92
        1
 93
        3
 72
     1
 10
80.97576237858064
 20
-129.1046016343905
 11
81.27583514870292
 21
-128.7318566344837
 72
     1
 10
81.27583514870292
 20
-128.7318566344837
 11
80.97576237858064
 21
-128.3584060790214
 72
     1
 10
80.97576237858064
 20
-128.3584060790214
 11
80.97576237858064
 21
-129.1046016343905
 97
        0
 75
     2
 76
     1
 98
        0
  0
ENDSEC
  0
SECTION
  2
OBJECTS
  0
DICTIONARY
  5
C
330
0
100
AcDbDictionary
281
     1
  3
ACAD_GROUP
350
D
  3
ACAD_LAYOUT
350
1A
  3
ACAD_MATERIAL
350
3B
  3
ACAD_MLEADERSTYLE
350
10C
  3
ACAD_MLINESTYLE
350
17
  3
ACAD_PLOTSETTINGS
350
19
  3
ACAD_PLOTSTYLENAME
350
E
  3
ACAD_TABLESTYLE
350
10B
  3
ACAD_VISUALSTYLE
350
2A
  0
SUN
  5
3F
330
29
100
AcDbSun
 90
        1
290
     0
 63
     7
421
 16777215
 40
1.0
291
     1
 91
  2455826
 92
 54000000
292
     0
 70
     2
 71
   256
280
     1
  0
DICTIONARY
  5
D
102
{ACAD_REACTORS
330
C
102
}
330
C
100
AcDbDictionary
281
     1
  0
DICTIONARY
  5
1A
102
{ACAD_REACTORS
330
C
102
}
330
C
100
AcDbDictionary
281
     1
  3
Layout1
350
1E
  3
Layout2
350
26
  3
Model
350
22
  0
DICTIONARY
  5
3B
102
{ACAD_REACTORS
330
C
102
}
330
C
100
AcDbDictionary
281
     1
  3
ByBlock
350
3D
  3
ByLayer
350
3C
  3
Global
350
3E
  0
DICTIONARY
  5
10C
102
{ACAD_REACTORS
330
C
102
}
330
C
100
AcDbDictionary
281
     1
  0
DICTIONARY
  5
17
102
{ACAD_REACTORS
330
C
102
}
330
C
100
AcDbDictionary
281
     1
  3
Standard
350
18
  0
DICTIONARY
  5
19
102
{ACAD_REACTORS
330
C
102
}
330
C
100
AcDbDictionary
281
     1
  0
ACDBDICTIONARYWDFLT
  5
E
102
{ACAD_REACTORS
330
C
102
}
330
C
100
AcDbDictionary
281
     1
  3
Normal
350
F
100
AcDbDictionaryWithDefault
340
F
  0
DICTIONARY
  5
10B
102
{ACAD_REACTORS
330
C
102
}
330
C
100
AcDbDictionary
281
     1
  0
DICTIONARY
  5
2A
102
{ACAD_REACTORS
330
C
102
}
330
C
100
AcDbDictionary
281
     1
  3
2dWireframe
350
2F
  3
3D Hidden
350
31
  3
3dWireframe
350
30
  3
Basic
350
32
  3
Brighten
350
36
  3
ColorChange
350
3A
  3
Conceptual
350
34
  3
Dim
350
35
  3
Facepattern
350
39
  3
Flat
350
2B
  3
FlatWithEdges
350
2C
  3
Gouraud
350
2D
  3
GouraudWithEdges
350
2E
  3
Linepattern
350
38
  3
Realistic
350
33
  3
Thicken
350
37
  0
LAYOUT
  5
1E
102
{ACAD_REACTORS
330
1A
102
}
330
1A
100
AcDbPlotSettings
  1

  2
none_device
  4

  6

 40
0.0
 41
0.0
 42
0.0
 43
0.0
 44
0.0
 45
0.0
 46
0.0
 47
0.0
 48
0.0
 49
0.0
140
0.0
141
0.0
142
1.0
143
1.0
 70
   688
 72
     0
 73
     0
 74
     5
  7

 75
    16
 76
     0
 77
     2
 78
   300
147
1.0
148
0.0
149
0.0
100
AcDbLayout
  1
Layout1
 70
     1
 71
     1
 10
0.0
 20
0.0
 11
12.0
 21
9.0
 12
0.0
 22
0.0
 32
0.0
 14
1.000000000000000E+20
 24
1.000000000000000E+20
 34
1.000000000000000E+20
 15
-1.000000000000000E+20
 25
-1.000000000000000E+20
 35
-1.000000000000000E+20
146
0.0
 13
0.0
 23
0.0
 33
0.0
 16
1.0
 26
0.0
 36
0.0
 17
0.0
 27
1.0
 37
0.0
 76
     0
330
1B
  0
LAYOUT
  5
26
102
{ACAD_REACTORS
330
1A
102
}
330
1A
100
AcDbPlotSettings
  1

  2
none_device
  4

  6

 40
0.0
 41
0.0
 42
0.0
 43
0.0
 44
0.0
 45
0.0
 46
0.0
 47
0.0
 48
0.0
 49
0.0
140
0.0
141
0.0
142
1.0
143
1.0
 70
   688
 72
     0
 73
     0
 74
     5
  7

 75
    16
 76
     0
 77
     2
 78
   300
147
1.0
148
0.0
149
0.0
100
AcDbLayout
  1
Layout2
 70
     1
 71
     2
 10
0.0
 20
0.0
 11
0.0
 21
0.0
 12
0.0
 22
0.0
 32
0.0
 14
0.0
 24
0.0
 34
0.0
 15
0.0
 25
0.0
 35
0.0
146
0.0
 13
0.0
 23
0.0
 33
0.0
 16
1.0
 26
0.0
 36
0.0
 17
0.0
 27
1.0
 37
0.0
 76
     0
330
23
  0
LAYOUT
  5
22
102
{ACAD_REACTORS
330
1A
102
}
330
1A
100
AcDbPlotSettings
  1

  2
none_device
  4

  6

 40
0.0
 41
0.0
 42
0.0
 43
0.0
 44
0.0
 45
0.0
 46
0.0
 47
0.0
 48
0.0
 49
0.0
140
0.0
141
0.0
142
1.0
143
1.0
 70
  1712
 72
     0
 73
     0
 74
     0
  7

 75
     0
 76
     0
 77
     2
 78
   300
147
1.0
148
0.0
149
0.0
100
AcDbLayout
  1
Model
 70
     1
 71
     0
 10
0.0
 20
0.0
 11
12.0
 21
9.0
 12
0.0
 22
0.0
 32
0.0
 14
1.000000000000000E+20
 24
1.000000000000000E+20
 34
1.000000000000000E+20
 15
-1.000000000000000E+20
 25
-1.000000000000000E+20
 35
-1.000000000000000E+20
146
0.0
 13
0.0
 23
0.0
 33
0.0
 16
1.0
 26
0.0
 36
0.0
 17
0.0
 27
1.0
 37
0.0
 76
     0
330
1F
331
29
  0
MATERIAL
  5
3D
102
{ACAD_REACTORS
330
3B
102
}
330
3B
100
AcDbMaterial
  1
ByBlock
 72
     1
 94
      127
  0
MATERIAL
  5
3C
102
{ACAD_REACTORS
330
3B
102
}
330
3B
100
AcDbMaterial
  1
ByLayer
 72
     1
 94
      127
  0
MATERIAL
  5
3E
102
{ACAD_REACTORS
330
3B
102
}
330
3B
100
AcDbMaterial
  1
Global
 72
     1
 94
      127
  0
MLINESTYLE
  5
18
102
{ACAD_REACTORS
330
17
102
}
330
17
100
AcDbMlineStyle
  2
Standard
 70
     0
  3

 62
   256
 51
90.0
 52
90.0
 71
     2
 49
0.5
 62
   256
  6
BYLAYER
 49
-0.5
 62
   256
  6
BYLAYER
  0
ACDBPLACEHOLDER
  5
F
102
{ACAD_REACTORS
330
E
102
}
330
E
  0
VISUALSTYLE
  5
2F
102
{ACAD_REACTORS
330
2A
102
}
330
2A
100
AcDbVisualStyle
  2
2dWireframe
 70
     4
177
     2
291
     0
 71
     0
176
     1
 72
     2
176
     1
 73
     0
176
     1
 90
        0
176
     1
 40
-0.6
176
     1
 41
-30.0
176
     1
 62
     5
 63
     7
421
 16777215
176
     1
 74
     1
176
     1
 91
        4
176
     1
 64
     7
176
     1
 65
   257
176
     1
 75
     1
176
     1
175
     1
176
     1
 42
1.0
176
     1
 92
        0
176
     1
 66
   257
176
     1
 43
1.0
176
     1
 76
     1
176
     1
 77
     6
176
     1
 78
     2
176
     1
 67
     7
176
     1
 79
     5
176
     1
170
     0
176
     1
171
     0
176
     1
290
     0
176
     1
 93
        1
176
     1
 44
0.0
176
     1
173
     0
176
     1
  0
VISUALSTYLE
  5
31
102
{ACAD_REACTORS
330
2A
102
}
330
2A
100
AcDbVisualStyle
  2
3D Hidden
 70
     6
177
     2
291
     0
 71
     1
176
     1
 72
     2
176
     1
 73
     2
176
     1
 90
        0
176
     1
 40
-0.6
176
     1
 41
-30.0
176
     1
 62
     5
 63
     7
421
 16777215
176
     1
 74
     2
176
     1
 91
        2
176
     1
 64
     7
176
     1
 65
   257
176
     1
 75
     2
176
     1
175
     1
176
     1
 42
40.0
176
     1
 92
        0
176
     1
 66
   257
176
     1
 43
1.0
176
     1
 76
     1
176
     1
 77
     6
176
     1
 78
     2
176
     1
 67
     7
176
     1
 79
     3
176
     1
170
     0
176
     1
171
     0
176
     1
290
     0
176
     1
 93
        1
176
     1
 44
0.0
176
     1
173
     0
176
     1
  0
VISUALSTYLE
  5
30
102
{ACAD_REACTORS
330
2A
102
}
330
2A
100
AcDbVisualStyle
  2
3dWireframe
 70
     5
177
     2
291
     0
 71
     0
176
     1
 72
     2
176
     1
 73
     0
176
     1
 90
        0
176
     1
 40
-0.6
176
     1
 41
-30.0
176
     1
 62
     5
 63
     7
421
 16777215
176
     1
 74
     1
176
     1
 91
        4
176
     1
 64
     7
176
     1
 65
   257
176
     1
 75
     1
176
     1
175
     1
176
     1
 42
1.0
176
     1
 92
        0
176
     1
 66
   257
176
     1
 43
1.0
176
     1
 76
     1
176
     1
 77
     6
176
     1
 78
     2
176
     1
 67
     7
176
     1
 79
     5
176
     1
170
     0
176
     1
171
     0
176
     1
290
     0
176
     1
 93
        1
176
     1
 44
0.0
176
     1
173
     0
176
     1
  0
VISUALSTYLE
  5
32
102
{ACAD_REACTORS
330
2A
102
}
330
2A
100
AcDbVisualStyle
  2
Basic
 70
     7
177
     2
291
     1
 71
     1
176
     1
 72
     0
176
     1
 73
     1
176
     1
 90
        0
176
     1
 40
-0.6
176
     1
 41
-30.0
176
     1
 62
     5
 63
     7
421
 16777215
176
     1
 74
     0
176
     1
 91
        4
176
     1
 64
     7
176
     1
 65
   257
176
     1
 75
     1
176
     1
175
     1
176
     1
 42
1.0
176
     1
 92
        8
176
     1
 66
     7
176
     1
 43
1.0
176
     1
 76
     1
176
     1
 77
     6
176
     1
 78
     2
176
     1
 67
     7
176
     1
 79
     5
176
     1
170
     0
176
     1
171
     0
176
     1
290
     0
176
     1
 93
        1
176
     1
 44
0.0
176
     1
173
     0
176
     1
  0
VISUALSTYLE
  5
36
102
{ACAD_REACTORS
330
2A
102
}
330
2A
100
AcDbVisualStyle
  2
Brighten
 70
    12
177
     2
291
     1
 71
     2
176
     1
 72
     2
176
     1
 73
     0
176
     1
 90
        0
176
     1
 40
-0.6
176
     1
 41
-30.0
176
     1
 62
     5
 63
     7
421
 16777215
176
     1
 74
     1
176
     1
 91
        4
176
     1
 64
     7
176
     1
 65
   257
176
     1
 75
     1
176
     1
175
     1
176
     1
 42
1.0
176
     1
 92
        8
176
     1
 66
     7
176
     1
 43
1.0
176
     1
 76
     1
176
     1
 77
     6
176
     1
 78
     2
176
     1
 67
     7
176
     1
 79
     5
176
     1
170
     0
176
     1
171
     0
176
     1
290
     0
176
     1
 93
        1
176
     1
 44
50.0
176
     1
173
     0
176
     1
  0
VISUALSTYLE
  5
3A
102
{ACAD_REACTORS
330
2A
102
}
330
2A
100
AcDbVisualStyle
  2
ColorChange
 70
    16
177
     2
291
     1
 71
     2
176
     1
 72
     2
176
     1
 73
     3
176
     1
 90
        0
176
     1
 40
-0.6
176
     1
 41
-30.0
176
     1
 62
     5
 63
     8
421
  8421504
176
     1
 74
     1
176
     1
 91
        4
176
     1
 64
     7
176
     1
 65
   257
176
     1
 75
     1
176
     1
175
     1
176
     1
 42
1.0
176
     1
 92
        8
176
     1
 66
     8
424
  8421504
176
     1
 43
1.0
176
     1
 76
     1
176
     1
 77
     6
176
     1
 78
     2
176
     1
 67
     7
176
     1
 79
     5
176
     1
170
     0
176
     1
171
     0
176
     1
290
     0
176
     1
 93
        1
176
     1
 44
0.0
176
     1
173
     0
176
     1
  0
VISUALSTYLE
  5
34
102
{ACAD_REACTORS
330
2A
102
}
330
2A
100
AcDbVisualStyle
  2
Conceptual
 70
     9
177
     2
291
     0
 71
     3
176
     1
 72
     2
176
     1
 73
     0
176
     1
 90
        0
176
     1
 40
-0.6
176
     1
 41
-30.0
176
     1
 62
     5
 63
     7
421
 16777215
176
     1
 74
     2
176
     1
 91
        2
176
     1
 64
     7
176
     1
 65
   257
176
     1
 75
     1
176
     1
175
     1
176
     1
 42
40.0
176
     1
 92
        8
176
     1
 66
     7
176
     1
 43
1.0
176
     1
 76
     1
176
     1
 77
     6
176
     1
 78
     2
176
     1
 67
     7
176
     1
 79
     3
176
     1
170
     0
176
     1
171
     0
176
     1
290
     0
176
     1
 93
        1
176
     1
 44
0.0
176
     1
173
     0
176
     1
  0
VISUALSTYLE
  5
35
102
{ACAD_REACTORS
330
2A
102
}
330
2A
100
AcDbVisualStyle
  2
Dim
 70
    11
177
     2
291
     1
 71
     2
176
     1
 72
     2
176
     1
 73
     0
176
     1
 90
        0
176
     1
 40
-0.6
176
     1
 41
-30.0
176
     1
 62
     5
 63
     7
421
 16777215
176
     1
 74
     1
176
     1
 91
        4
176
     1
 64
     7
176
     1
 65
   257
176
     1
 75
     1
176
     1
175
     1
176
     1
 42
1.0
176
     1
 92
        8
176
     1
 66
     7
176
     1
 43
1.0
176
     1
 76
     1
176
     1
 77
     6
176
     1
 78
     2
176
     1
 67
     7
176
     1
 79
     5
176
     1
170
     0
176
     1
171
     0
176
     1
290
     0
176
     1
 93
        1
176
     1
 44
-50.0
176
     1
173
     0
176
     1
  0
VISUALSTYLE
  5
39
102
{ACAD_REACTORS
330
2A
102
}
330
2A
100
AcDbVisualStyle
  2
Facepattern
 70
    15
177
     2
291
     1
 71
     2
176
     1
 72
     2
176
     1
 73
     0
176
     1
 90
        0
176
     1
 40
-0.6
176
     1
 41
-30.0
176
     1
 62
     5
 63
     7
421
 16777215
176
     1
 74
     1
176
     1
 91
        4
176
     1
 64
     7
176
     1
 65
   257
176
     1
 75
     1
176
     1
175
     1
176
     1
 42
1.0
176
     1
 92
        8
176
     1
 66
     7
176
     1
 43
1.0
176
     1
 76
     1
176
     1
 77
     6
176
     1
 78
     2
176
     1
 67
     7
176
     1
 79
     5
176
     1
170
     0
176
     1
171
     0
176
     1
290
     0
176
     1
 93
        1
176
     1
 44
0.0
176
     1
173
     0
176
     1
  0
VISUALSTYLE
  5
2B
102
{ACAD_REACTORS
330
2A
102
}
330
2A
100
AcDbVisualStyle
  2
Flat
 70
     0
177
     2
291
     1
 71
     2
176
     1
 72
     1
176
     1
 73
     1
176
     1
 90
        2
176
     1
 40
-0.6
176
     1
 41
30.0
176
     1
 62
     5
 63
     7
421
 16777215
176
     1
 74
     0
176
     1
 91
        4
176
     1
 64
     7
176
     1
 65
   257
176
     1
 75
     1
176
     1
175
     1
176
     1
 42
1.0
176
     1
 92
        8
176
     1
 66
     7
176
     1
 43
1.0
176
     1
 76
     1
176
     1
 77
     6
176
     1
 78
     2
176
     1
 67
     7
176
     1
 79
     5
176
     1
170
     0
176
     1
171
     0
176
     1
290
     0
176
     1
 93
       13
176
     1
 44
0.0
176
     1
173
     0
176
     1
  0
VISUALSTYLE
  5
2C
102
{ACAD_REACTORS
330
2A
102
}
330
2A
100
AcDbVisualStyle
  2
FlatWithEdges
 70
     1
177
     2
291
     1
 71
     2
176
     1
 72
     1
176
     1
 73
     1
176
     1
 90
        2
176
     1
 40
-0.6
176
     1
 41
30.0
176
     1
 62
     5
 63
     7
421
 16777215
176
     1
 74
     1
176
     1
 91
        4
176
     1
 64
     7
176
     1
 65
   257
176
     1
 75
     1
176
     1
175
     1
176
     1
 42
1.0
176
     1
 92
        0
176
     1
 66
   257
176
     1
 43
1.0
176
     1
 76
     1
176
     1
 77
     6
176
     1
 78
     2
176
     1
 67
     7
176
     1
 79
     5
176
     1
170
     0
176
     1
171
     0
176
     1
290
     0
176
     1
 93
       13
176
     1
 44
0.0
176
     1
173
     0
176
     1
  0
VISUALSTYLE
  5
2D
102
{ACAD_REACTORS
330
2A
102
}
330
2A
100
AcDbVisualStyle
  2
Gouraud
 70
     2
177
     2
291
     1
 71
     2
176
     1
 72
     2
176
     1
 73
     1
176
     1
 90
        2
176
     1
 40
-0.6
176
     1
 41
30.0
176
     1
 62
     5
 63
     7
421
 16777215
176
     1
 74
     0
176
     1
 91
        4
176
     1
 64
     7
176
     1
 65
   257
176
     1
 75
     1
176
     1
175
     1
176
     1
 42
1.0
176
     1
 92
        0
176
     1
 66
     7
176
     1
 43
1.0
176
     1
 76
     1
176
     1
 77
     6
176
     1
 78
     2
176
     1
 67
     7
176
     1
 79
     5
176
     1
170
     0
176
     1
171
     0
176
     1
290
     0
176
     1
 93
       13
176
     1
 44
0.0
176
     1
173
     0
176
     1
  0
VISUALSTYLE
  5
2E
102
{ACAD_REACTORS
330
2A
102
}
330
2A
100
AcDbVisualStyle
  2
GouraudWithEdges
 70
     3
177
     2
291
     1
 71
     2
176
     1
 72
     2
176
     1
 73
     1
176
     1
 90
        2
176
     1
 40
-0.6
176
     1
 41
30.0
176
     1
 62
     5
 63
     7
421
 16777215
176
     1
 74
     1
176
     1
 91
        4
176
     1
 64
     7
176
     1
 65
   257
176
     1
 75
     1
176
     1
175
     1
176
     1
 42
1.0
176
     1
 92
        0
176
     1
 66
   257
176
     1
 43
1.0
176
     1
 76
     1
176
     1
 77
     6
176
     1
 78
     2
176
     1
 67
     7
176
     1
 79
     5
176
     1
170
     0
176
     1
171
     0
176
     1
290
     0
176
     1
 93
       13
176
     1
 44
0.0
176
     1
173
     0
176
     1
  0
VISUALSTYLE
  5
38
102
{ACAD_REACTORS
330
2A
102
}
330
2A
100
AcDbVisualStyle
  2
Linepattern
 70
    14
177
     2
291
     1
 71
     2
176
     1
 72
     2
176
     1
 73
     0
176
     1
 90
        0
176
     1
 40
-0.6
176
     1
 41
-30.0
176
     1
 62
     5
 63
     7
421
 16777215
176
     1
 74
     1
176
     1
 91
        4
176
     1
 64
     7
176
     1
 65
   257
176
     1
 75
     7
176
     1
175
     7
176
     1
 42
1.0
176
     1
 92
        8
176
     1
 66
     7
176
     1
 43
1.0
176
     1
 76
     1
176
     1
 77
     6
176
     1
 78
     2
176
     1
 67
     7
176
     1
 79
     5
176
     1
170
     0
176
     1
171
     0
176
     1
290
     0
176
     1
 93
        1
176
     1
 44
0.0
176
     1
173
     0
176
     1
  0
VISUALSTYLE
  5
33
102
{ACAD_REACTORS
330
2A
102
}
330
2A
100
AcDbVisualStyle
  2
Realistic
 70
     8
177
     2
291
     0
 71
     2
176
     1
 72
     2
176
     1
 73
     0
176
     1
 90
        0
176
     1
 40
-0.6
176
     1
 41
-30.0
176
     1
 62
     5
 63
     7
421
 16777215
176
     1
 74
     1
176
     1
 91
        0
176
     1
 64
     7
176
     1
 65
   257
176
     1
 75
     1
176
     1
175
     1
176
     1
 42
1.0
176
     1
 92
        8
176
     1
 66
     8
424
  7895160
176
     1
 43
1.0
176
     1
 76
     1
176
     1
 77
     6
176
     1
 78
     2
176
     1
 67
     7
176
     1
 79
     5
176
     1
170
     0
176
     1
171
     0
176
     1
290
     0
176
     1
 93
       13
176
     1
 44
0.0
176
     1
173
     0
176
     1
  0
VISUALSTYLE
  5
37
102
{ACAD_REACTORS
330
2A
102
}
330
2A
100
AcDbVisualStyle
  2
Thicken
 70
    13
177
     2
291
     1
 71
     2
176
     1
 72
     2
176
     1
 73
     0
176
     1
 90
        0
176
     1
 40
-0.6
176
     1
 41
-30.0
176
     1
 62
     5
 63
     7
421
 16777215
176
     1
 74
     1
176
     1
 91
        4
176
     1
 64
     7
176
     1
 65
   257
176
     1
 75
     1
176
     1
175
     1
176
     1
 42
1.0
176
     1
 92
       12
176
     1
 66
     7
176
     1
 43
1.0
176
     1
 76
     1
176
     1
 77
     6
176
     1
 78
     2
176
     1
 67
     7
176
     1
 79
     5
176
     1
170
     0
176
     1
171
     0
176
     1
290
     0
176
     1
 93
        1
176
     1
 44
0.0
176
     1
173
     0
176
     1
  0
ENDSEC
  0
EOF
