  0
SECTION
  2
HEADER
  9
$ACADVER
  1
AC1024
  9
$ACADMAINTVER
 70
     6
  9
$DWGCODEPAGE
  3
UNDEFINED
  9
$INSBASE
 10
0.0
 20
0.0
 30
0.0
  9
$EXTMIN
 10
1.000000000000000E+20
 20
1.000000000000000E+20
 30
1.000000000000000E+20
  9
$EXTMAX
 10
-1.000000000000000E+20
 20
-1.000000000000000E+20
 30
-1.000000000000000E+20
  9
$LIMMIN
 10
0.0
 20
0.0
  9
$LIMMAX
 10
12.0
 20
9.0
  9
$ORTHOMODE
 70
     0
  9
$REGENMODE
 70
     1
  9
$FILLMODE
 70
     1
  9
$QTEXTMODE
 70
     0
  9
$MIRRTEXT
 70
     1
  9
$LTSCALE
 40
1.0
  9
$ATTMODE
 70
     1
  9
$TEXTSIZE
 40
0.2
  9
$TRACEWID
 40
0.05
  9
$TEXTSTYLE
  7
Standard
  9
$CLAYER
  8
0
  9
$CELTYPE
  6
ByLayer
  9
$CECOLOR
 62
   256
  9
$CELTSCALE
 40
1.0
  9
$DISPSILH
 70
     0
  9
$DIMSCALE
 40
1.0
  9
$DIMASZ
 40
0.18
  9
$DIMEXO
 40
0.0625
  9
$DIMDLI
 40
0.38
  9
$DIMRND
 40
0.0
  9
$DIMDLE
 40
0.0
  9
$DIMEXE
 40
0.18
  9
$DIMTP
 40
0.0
  9
$DIMTM
 40
0.0
  9
$DIMTXT
 40
0.18
  9
$DIMCEN
 40
0.09
  9
$DIMTSZ
 40
0.0
  9
$DIMTOL
 70
     0
  9
$DIMLIM
 70
     0
  9
$DIMTIH
 70
     1
  9
$DIMTOH
 70
     1
  9
$DIMSE1
 70
     0
  9
$DIMSE2
 70
     0
  9
$DIMTAD
 70
     0
  9
$DIMZIN
 70
     0
  9
$DIMBLK
  1

  9
$DIMASO
 70
     1
  9
$DIMSHO
 70
     1
  9
$DIMPOST
  1

  9
$DIMAPOST
  1

  9
$DIMALT
 70
     0
  9
$DIMALTD
 70
     2
  9
$DIMALTF
 40
25.4
  9
$DIMLFAC
 40
1.0
  9
$DIMTOFL
 70
     0
  9
$DIMTVP
 40
0.0
  9
$DIMTIX
 70
     0
  9
$DIMSOXD
 70
     0
  9
$DIMSAH
 70
     0
  9
$DIMBLK1
  1

  9
$DIMBLK2
  1

  9
$DIMSTYLE
  2
Standard
  9
$DIMCLRD
 70
     0
  9
$DIMCLRE
 70
     0
  9
$DIMCLRT
 70
     0
  9
$DIMTFAC
 40
1.0
  9
$DIMGAP
 40
0.09
  9
$DIMJUST
 70
     0
  9
$DIMSD1
 70
     0
  9
$DIMSD2
 70
     0
  9
$DIMTOLJ
 70
     1
  9
$DIMTZIN
 70
     0
  9
$DIMALTZ
 70
     0
  9
$DIMALTTZ
 70
     0
  9
$DIMUPT
 70
     0
  9
$DIMDEC
 70
     4
  9
$DIMTDEC
 70
     4
  9
$DIMALTU
 70
     2
  9
$DIMALTTD
 70
     2
  9
$DIMTXSTY
  7
Standard
  9
$DIMAUNIT
 70
     0
  9
$DIMADEC
 70
     0
  9
$DIMALTRND
 40
0.0
  9
$DIMAZIN
 70
     0
  9
$DIMDSEP
 70
    46
  9
$DIMATFIT
 70
     3
  9
$DIMFRAC
 70
     0
  9
$DIMLDRBLK
  1

  9
$DIMLUNIT
 70
     2
  9
$DIMLWD
 70
    -2
  9
$DIMLWE
 70
    -2
  9
$DIMTMOVE
 70
     0
  9
$DIMFXL
 40
1.0
  9
$DIMFXLON
 70
     0
  9
$DIMJOGANG
 40
0.7853981633974483
  9
$DIMTFILL
 70
     0
  9
$DIMTFILLCLR
 70
     0
  9
$DIMARCSYM
 70
     0
  9
$DIMLTYPE
  6

  9
$DIMLTEX1
  6

  9
$DIMLTEX2
  6

  9
$DIMTXTDIRECTION
 70
     0
  9
$LUNITS
 70
     2
  9
$LUPREC
 70
     4
  9
$SKETCHINC
 40
0.1
  9
$FILLETRAD
 40
0.5
  9
$AUNITS
 70
     0
  9
$AUPREC
 70
     0
  9
$MENU
  1
.
  9
$ELEVATION
 40
0.0
  9
$PELEVATION
 40
0.0
  9
$THICKNESS
 40
0.0
  9
$LIMCHECK
 70
     0
  9
$CHAMFERA
 40
0.5
  9
$CHAMFERB
 40
0.5
  9
$CHAMFERC
 40
1.0
  9
$CHAMFERD
 40
0.0
  9
$SKPOLY
 70
     0
  9
$TDCREATE
 40
2457917.617175926
  9
$TDUCREATE
 40
2457917.242175926
  9
$TDUPDATE
 40
2457917.617175926
  9
$TDUUPDATE
 40
2457917.242175926
  9
$TDINDWG
 40
0.0000000116
  9
$TDUSRTIMER
 40
0.0000000116
  9
$USRTIMER
 70
     1
  9
$ANGBASE
 50
0.0
  9
$ANGDIR
 70
     0
  9
$PDMODE
 70
     0
  9
$PDSIZE
 40
0.0
  9
$PLINEWID
 40
0.0
  9
$SPLFRAME
 70
     0
  9
$SPLINETYPE
 70
     6
  9
$SPLINESEGS
 70
     8
  9
$HANDSEED
  5
10C
  9
$SURFTAB1
 70
     6
  9
$SURFTAB2
 70
     6
  9
$SURFTYPE
 70
     6
  9
$SURFU
 70
     6
  9
$SURFV
 70
     6
  9
$UCSBASE
  2

  9
$UCSNAME
  2

  9
$UCSORG
 10
0.0
 20
0.0
 30
0.0
  9
$UCSXDIR
 10
1.0
 20
0.0
 30
0.0
  9
$UCSYDIR
 10
0.0
 20
1.0
 30
0.0
  9
$UCSORTHOREF
  2

  9
$UCSORTHOVIEW
 70
     0
  9
$UCSORGTOP
 10
0.0
 20
0.0
 30
0.0
  9
$UCSORGBOTTOM
 10
0.0
 20
0.0
 30
0.0
  9
$UCSORGLEFT
 10
0.0
 20
0.0
 30
0.0
  9
$UCSORGRIGHT
 10
0.0
 20
0.0
 30
0.0
  9
$UCSORGFRONT
 10
0.0
 20
0.0
 30
0.0
  9
$UCSORGBACK
 10
0.0
 20
0.0
 30
0.0
  9
$PUCSBASE
  2

  9
$PUCSNAME
  2

  9
$PUCSORG
 10
0.0
 20
0.0
 30
0.0
  9
$PUCSXDIR
 10
1.0
 20
0.0
 30
0.0
  9
$PUCSYDIR
 10
0.0
 20
1.0
 30
0.0
  9
$PUCSORTHOREF
  2

  9
$PUCSORTHOVIEW
 70
     0
  9
$PUCSORGTOP
 10
0.0
 20
0.0
 30
0.0
  9
$PUCSORGBOTTOM
 10
0.0
 20
0.0
 30
0.0
  9
$PUCSORGLEFT
 10
0.0
 20
0.0
 30
0.0
  9
$PUCSORGRIGHT
 10
0.0
 20
0.0
 30
0.0
  9
$PUCSORGFRONT
 10
0.0
 20
0.0
 30
0.0
  9
$PUCSORGBACK
 10
0.0
 20
0.0
 30
0.0
  9
$USERI1
 70
     0
  9
$USERI2
 70
     0
  9
$USERI3
 70
     0
  9
$USERI4
 70
     0
  9
$USERI5
 70
     0
  9
$USERR1
 40
0.0
  9
$USERR2
 40
0.0
  9
$USERR3
 40
0.0
  9
$USERR4
 40
0.0
  9
$USERR5
 40
0.0
  9
$WORLDVIEW
 70
     1
  9
$SHADEDGE
 70
     3
  9
$SHADEDIF
 70
    70
  9
$TILEMODE
 70
     1
  9
$MAXACTVP
 70
    64
  9
$PINSBASE
 10
0.0
 20
0.0
 30
0.0
  9
$PLIMCHECK
 70
     0
  9
$PEXTMIN
 10
1.000000000000000E+20
 20
1.000000000000000E+20
 30
1.000000000000000E+20
  9
$PEXTMAX
 10
-1.000000000000000E+20
 20
-1.000000000000000E+20
 30
-1.000000000000000E+20
  9
$PLIMMIN
 10
0.0
 20
0.0
  9
$PLIMMAX
 10
12.0
 20
9.0
  9
$UNITMODE
 70
     0
  9
$VISRETAIN
 70
     1
  9
$PLINEGEN
 70
     0
  9
$PSLTSCALE
 70
     1
  9
$TREEDEPTH
 70
  3020
  9
$CMLSTYLE
  2
Standard
  9
$CMLJUST
 70
     0
  9
$CMLSCALE
 40
1.0
  9
$PROXYGRAPHICS
 70
     1
  9
$MEASUREMENT
 70
     0
  9
$CELWEIGHT
370
    -1
  9
$ENDCAPS
280
     0
  9
$JOINSTYLE
280
     0
  9
$LWDISPLAY
290
     1
  9
$INSUNITS
 70
     1
  9
$HYPERLINKBASE
  1

  9
$STYLESHEET
  1

  9
$XEDIT
290
     1
  9
$CEPSNTYPE
380
     0
  9
$PSTYLEMODE
290
     1
  9
$FINGERPRINTGUID
  2
{441C8B20-3EA3-43C8-3C71-8C413C14C32A}
  9
$VERSIONGUID
  2
{FAEB1C32-E019-11D5-929B-00C0DF256EC4}
  9
$EXTNAMES
290
     1
  9
$PSVPSCALE
 40
0.0
  9
$OLESTARTUP
290
     0
  9
$SORTENTS
280
   127
  9
$INDEXCTL
280
     0
  9
$HIDETEXT
280
     1
  9
$XCLIPFRAME
280
     2
  9
$HALOGAP
280
     0
  9
$OBSCOLOR
 70
   257
  9
$OBSLTYPE
280
     0
  9
$INTERSECTIONDISPLAY
280
     0
  9
$INTERSECTIONCOLOR
 70
   257
  9
$DIMASSOC
280
     2
  9
$PROJECTNAME
  1

  9
$CAMERADISPLAY
290
     0
  9
$LENSLENGTH
 40
50.0
  9
$CAMERAHEIGHT
 40
0.0
  9
$STEPSPERSEC
 40
2.0
  9
$STEPSIZE
 40
6.0
  9
$3DDWFPREC
 40
2.0
  9
$PSOLWIDTH
 40
0.25
  9
$PSOLHEIGHT
 40
4.0
  9
$LOFTANG1
 40
1.570796326794897
  9
$LOFTANG2
 40
1.570796326794897
  9
$LOFTMAG1
 40
0.0
  9
$LOFTMAG2
 40
0.0
  9
$LOFTPARAM
 70
     7
  9
$LOFTNORMALS
280
     1
  9
$LATITUDE
 40
37.795
  9
$LONGITUDE
 40
-122.394
  9
$NORTHDIRECTION
 40
0.0
  9
$TIMEZONE
 70
 -8000
  9
$LIGHTGLYPHDISPLAY
280
     1
  9
$TILEMODELIGHTSYNCH
280
     1
  9
$CMATERIAL
347
3C
  9
$SOLIDHIST
280
     1
  9
$SHOWHIST
280
     1
  9
$DWFFRAME
280
     2
  9
$DGNFRAME
280
     2
  9
$REALWORLDSCALE
290
     1
  9
$INTERFERECOLOR
 62
   256
  9
$CSHADOW
280
     0
  9
$SHADOWPLANELOCATION
 40
0.0
  0
ENDSEC
  0
SECTION
  2
CLASSES
  0
CLASS
  1
ACDBDICTIONARYWDFLT
  2
AcDbDictionaryWithDefault
  3
ObjectDBX Classes
 90
        0
 91
        4
280
     0
281
     0
  0
CLASS
  1
VISUALSTYLE
  2
AcDbVisualStyle
  3
ObjectDBX Classes
 90
     4095
 91
        4
280
     0
281
     0
  0
CLASS
  1
MATERIAL
  2
AcDbMaterial
  3
ObjectDBX Classes
 90
     1153
 91
        4
280
     0
281
     0
  0
CLASS
  1
SUN
  2
AcDbSun
  3
SCENEOE
 90
     1024
 91
        4
280
     0
281
     0
  0
ENDSEC
  0
SECTION
  2
TABLES
  0
TABLE
  2
VPORT
  5
8
330
0
100
AcDbSymbolTable
 70
     1
  0
VPORT
  5
29
330
8
100
AcDbSymbolTableRecord
100
AcDbViewportTableRecord
  2
*Active
 70
     0
 10
0.0
 20
0.0
 11
1.0
 21
1.0
 12
0.0
 22
0.0
 13
0.0
 23
0.0
 14
0.5
 24
0.5
 15
0.5
 25
0.5
 16
0.0
 26
0.0
 36
1.0
 17
91.00082462281999
 27
-128.4993055234307
 37
0.0
 40
256.9986110468615
 41
0.7081814508812795
 42
50.0
 43
0.0
 44
0.0
 50
0.0
 51
0.0
 71
     0
 72
   100
 73
     1
 74
     3
 75
     0
 76
     0
 77
     0
 78
     0
281
     0
 65
     1
110
0.0
120
0.0
130
0.0
111
1.0
121
0.0
131
0.0
112
0.0
122
1.0
132
0.0
 79
     0
146
0.0
 60
     3
 61
     5
292
     1
282
     1
141
0.0
142
0.0
 63
   250
361
3F
  0
ENDTAB
  0
TABLE
  2
LTYPE
  5
5
330
0
100
AcDbSymbolTable
 70
     1
  0
LTYPE
  5
14
330
5
100
AcDbSymbolTableRecord
100
AcDbLinetypeTableRecord
  2
ByBlock
 70
     0
  3

 72
    65
 73
     0
 40
0.0
  0
LTYPE
  5
15
330
5
100
AcDbSymbolTableRecord
100
AcDbLinetypeTableRecord
  2
ByLayer
 70
     0
  3

 72
    65
 73
     0
 40
0.0
  0
LTYPE
  5
16
330
5
100
AcDbSymbolTableRecord
100
AcDbLinetypeTableRecord
  2
Continuous
 70
     0
  3
Solid line
 72
    65
 73
     0
 40
0.0
  0
ENDTAB
  0
TABLE
  2
LAYER
  5
2
330
0
100
AcDbSymbolTable
 70
     2
  0
LAYER
  5
10
330
2
100
AcDbSymbolTableRecord
100
AcDbLayerTableRecord
  2
0
 70
     0
 62
     7
  6
Continuous
370
    -3
390
F
347
3E
  0
LAYER
  5
40
330
2
100
AcDbSymbolTableRecord
100
AcDbLayerTableRecord
  2
_U+30EC_U+30A4_U+30E4_U+30FC 1
 70
     0
 62
     7
  6
Continuous
370
    -3
390
F
347
3E
  0
ENDTAB
  0
TABLE
  2
STYLE
  5
3
330
0
100
AcDbSymbolTable
 70
     1
  0
STYLE
  5
11
330
3
100
AcDbSymbolTableRecord
100
AcDbTextStyleTableRecord
  2
Standard
 70
     0
 40
0.0
 41
1.0
 50
0.0
 71
     0
 42
0.2
  3
txt
  4

  0
ENDTAB
  0
TABLE
  2
VIEW
  5
6
330
0
100
AcDbSymbolTable
 70
     0
  0
ENDTAB
  0
TABLE
  2
UCS
  5
7
330
0
100
AcDbSymbolTable
 70
     0
  0
ENDTAB
  0
TABLE
  2
APPID
  5
9
330
0
100
AcDbSymbolTable
 70
     1
  0
APPID
  5
12
330
9
100
AcDbSymbolTableRecord
100
AcDbRegAppTableRecord
  2
ACAD
 70
     0
  0
ENDTAB
  0
TABLE
  2
DIMSTYLE
  5
A
330
0
100
AcDbSymbolTable
 70
     1
100
AcDbDimStyleTable
  0
DIMSTYLE
105
27
330
A
100
AcDbSymbolTableRecord
100
AcDbDimStyleTableRecord
  2
Standard
 70
     0
178
     0
340
11
  0
ENDTAB
  0
TABLE
  2
BLOCK_RECORD
  5
1
330
0
100
AcDbSymbolTable
 70
     7
  0
BLOCK_RECORD
  5
1F
330
1
100
AcDbSymbolTableRecord
100
AcDbBlockTableRecord
  2
*Model_Space
340
22
 70
     0
280
     1
281
     0
  0
BLOCK_RECORD
  5
1B
330
1
100
AcDbSymbolTableRecord
100
AcDbBlockTableRecord
  2
*Paper_Space
340
1E
 70
     0
280
     1
281
     0
  0
BLOCK_RECORD
  5
23
330
1
100
AcDbSymbolTableRecord
100
AcDbBlockTableRecord
  2
*Paper_Space0
340
26
 70
     0
280
     1
281
     0
  0
BLOCK_RECORD
  5
90
330
1
100
AcDbSymbolTableRecord
100
AcDbBlockTableRecord
  2
block 2
340
0
102
{BLKREFS
331
91
102
}
 70
     0
280
     1
281
     0
  0
BLOCK_RECORD
  5
A9
330
1
100
AcDbSymbolTableRecord
100
AcDbBlockTableRecord
  2
block 3
340
0
102
{BLKREFS
331
AA
102
}
 70
     0
280
     1
281
     0
  0
BLOCK_RECORD
  5
BB
330
1
100
AcDbSymbolTableRecord
100
AcDbBlockTableRecord
  2
block 4
340
0
102
{BLKREFS
331
BC
102
}
 70
     0
280
     1
281
     0
  0
BLOCK_RECORD
  5
D0
330
1
100
AcDbSymbolTableRecord
100
AcDbBlockTableRecord
  2
block 5
340
0
102
{BLKREFS
331
D1
102
}
 70
     0
280
     1
281
     0
  0
BLOCK_RECORD
  5
E5
330
1
100
AcDbSymbolTableRecord
100
AcDbBlockTableRecord
  2
block 6
340
0
102
{BLKREFS
331
E6
102
}
 70
     0
280
     1
281
     0
  0
BLOCK_RECORD
  5
EF
330
1
100
AcDbSymbolTableRecord
100
AcDbBlockTableRecord
  2
block 7
340
0
102
{BLKREFS
331
F0
102
}
 70
     0
280
     1
281
     0
  0
ENDTAB
  0
ENDSEC
  0
SECTION
  2
BLOCKS
  0
BLOCK
  5
20
330
1F
100
AcDbEntity
  8
0
100
AcDbBlockBegin
  2
*Model_Space
 70
     0
 10
0.0
 20
0.0
 30
0.0
  3
*Model_Space
  1

  0
ENDBLK
  5
21
330
1F
100
AcDbEntity
  8
0
100
AcDbBlockEnd
  0
BLOCK
  5
1C
330
1B
100
AcDbEntity
 67
     1
  8
0
100
AcDbBlockBegin
  2
*Paper_Space
 70
     0
 10
0.0
 20
0.0
 30
0.0
  3
*Paper_Space
  1

  0
ENDBLK
  5
1D
330
1B
100
AcDbEntity
 67
     1
  8
0
100
AcDbBlockEnd
  0
BLOCK
  5
24
330
23
100
AcDbEntity
  8
0
100
AcDbBlockBegin
  2
*Paper_Space0
 70
     0
 10
0.0
 20
0.0
 30
0.0
  3
*Paper_Space0
  1

  0
ENDBLK
  5
25
330
23
100
AcDbEntity
  8
0
100
AcDbBlockEnd
  0
BLOCK
  5
92
330
90
100
AcDbEntity
  8
0
100
AcDbBlockBegin
  2
block 2
 70
     0
 10
0.0
 20
0.0
 30
0.0
  3
block 2
  1

  0
SPLINE
  5
94
330
90
100
AcDbEntity
  8
_U+30EC_U+30A4_U+30E4_U+30FC 1
370
     0
100
AcDbSpline
210
0.0
220
0.0
230
1.0
 70
    11
 71
     3
 72
    26
 73
    22
 74
     0
 42
0.0000000001
 43
0.0000000001
 12
1.0
 22
0.0
 32
0.0
 13
1.0
 23
0.0
 33
0.0
 40
0.0
 40
0.0
 40
0.0
 40
0.0
 40
1.0
 40
1.0
 40
1.0
 40
2.0
 40
2.0
 40
2.0
 40
3.0
 40
3.0
 40
3.0
 40
4.0
 40
4.0
 40
4.0
 40
5.0
 40
5.0
 40
5.0
 40
6.0
 40
6.0
 40
6.0
 40
7.0
 40
7.0
 40
7.0
 40
7.0
 10
84.68888751137986
 20
-140.2811875734367
 30
0.0
 10
84.68888751137986
 20
-140.2811875734367
 30
0.0
 10
84.68888751137986
 20
-139.1770344704141
 30
0.0
 10
84.68888751137986
 20
-139.1770344704141
 30
0.0
 10
84.68888751137986
 20
-139.1770344704141
 30
0.0
 10
84.35884736389293
 20
-139.1770344704141
 30
0.0
 10
84.35884736389293
 20
-139.1770344704141
 30
0.0
 10
84.35884736389293
 20
-139.1770344704141
 30
0.0
 10
84.35884736389293
 20
-139.0288953645483
 30
0.0
 10
84.35884736389293
 20
-139.0288953645483
 30
0.0
 10
84.69095456867102
 20
-139.0140814539618
 30
0.0
 10
84.7374633577219
 20
-138.8511284375095
 30
0.0
 10
84.76709117889504
 20
-138.7367512673991
 30
0.0
 10
84.76709117889504
 20
-138.7367512673991
 30
0.0
 10
84.91316322746962
 20
-138.7367512673991
 30
0.0
 10
84.91316322746962
 20
-138.7367512673991
 30
0.0
 10
84.91316322746962
 20
-138.7367512673991
 30
0.0
 10
84.91316322746962
 20
-140.2811875734367
 30
0.0
 10
84.91316322746962
 20
-140.2811875734367
 30
0.0
 10
84.91316322746962
 20
-140.2811875734367
 30
0.0
 10
84.68888751137986
 20
-140.2811875734367
 30
0.0
 10
84.68888751137986
 20
-140.2811875734367
 30
0.0
  0
HATCH
  5
95
330
90
100
AcDbEntity
  8
_U+30EC_U+30A4_U+30E4_U+30FC 1
 62
     7
420
 16777215
100
AcDbHatch
 10
0.0
 20
0.0
 30
0.0
210
0.0
220
0.0
230
1.0
  2
SOLID
 70
     1
 71
     0
 91
        1
 92
        1
 93
        1
 72
     4
 94
        3
 73
     0
 74
     1
 95
       26
 96
       22
 40
0.0
 40
0.0
 40
0.0
 40
0.0
 40
1.0
 40
1.0
 40
1.0
 40
2.0
 40
2.0
 40
2.0
 40
3.0
 40
3.0
 40
3.0
 40
4.0
 40
4.0
 40
4.0
 40
5.0
 40
5.0
 40
5.0
 40
6.0
 40
6.0
 40
6.0
 40
7.0
 40
7.0
 40
7.0
 40
7.0
 10
84.68888751137986
 20
-140.2811875734367
 10
84.68888751137986
 20
-140.2811875734367
 10
84.68888751137986
 20
-139.1770344704141
 10
84.68888751137986
 20
-139.1770344704141
 10
84.68888751137986
 20
-139.1770344704141
 10
84.35884736389293
 20
-139.1770344704141
 10
84.35884736389293
 20
-139.1770344704141
 10
84.35884736389293
 20
-139.1770344704141
 10
84.35884736389293
 20
-139.0288953645483
 10
84.35884736389293
 20
-139.0288953645483
 10
84.69095456867102
 20
-139.0140814539618
 10
84.7374633577219
 20
-138.8511284375095
 10
84.76709117889504
 20
-138.7367512673991
 10
84.76709117889504
 20
-138.7367512673991
 10
84.91316322746962
 20
-138.7367512673991
 10
84.91316322746962
 20
-138.7367512673991
 10
84.91316322746962
 20
-138.7367512673991
 10
84.91316322746962
 20
-140.2811875734367
 10
84.91316322746962
 20
-140.2811875734367
 10
84.91316322746962
 20
-140.2811875734367
 10
84.68888751137986
 20
-140.2811875734367
 10
84.68888751137986
 20
-140.2811875734367
 97
        0
 97
        0
 75
     2
 76
     1
 98
        0
  0
SPLINE
  5
96
330
90
100
AcDbEntity
  8
_U+30EC_U+30A4_U+30E4_U+30FC 1
370
     0
100
AcDbSpline
210
0.0
220
0.0
230
1.0
 70
    11
 71
     3
 72
    29
 73
    25
 74
     0
 42
0.0000000001
 43
0.0000000001
 12
1.0
 22
0.0
 32
0.0
 13
1.0
 23
0.0
 33
0.0
 40
0.0
 40
0.0
 40
0.0
 40
0.0
 40
1.0
 40
1.0
 40
1.0
 40
2.0
 40
2.0
 40
2.0
 40
3.0
 40
3.0
 40
3.0
 40
4.0
 40
4.0
 40
4.0
 40
5.0
 40
5.0
 40
5.0
 40
6.0
 40
6.0
 40
6.0
 40
7.0
 40
7.0
 40
7.0
 40
8.0
 40
8.0
 40
8.0
 40
8.0
 10
86.31221650402959
 20
-140.1034206463978
 30
0.0
 10
86.20404050579275
 20
-140.3128824519009
 30
0.0
 10
86.03075220288467
 20
-140.3318304770698
 30
0.0
 10
85.91430797548323
 20
-140.3318304770698
 30
0.0
 10
85.75342201632206
 20
-140.3318304770698
 30
0.0
 10
85.6118285918783
 20
-140.285321688019
 30
0.0
 10
85.5167439564854
 20
-140.1034206463978
 30
0.0
 10
85.41304658237938
 20
-139.9087727514811
 30
0.0
 10
85.39375404766199
 20
-139.671750182096
 30
0.0
 10
85.39375404766199
 20
-139.5091416751922
 30
0.0
 10
85.39375404766199
 20
-139.3651366839087
 30
0.0
 10
85.41097952508824
 20
-139.113300203937
 30
0.0
 10
85.5167439564854
 20
-138.914518194438
 30
0.0
 10
85.62457544517372
 20
-138.7112575608083
 30
0.0
 10
85.78546140433488
 20
-138.6881754210571
 30
0.0
 10
85.91430797548323
 20
-138.6881754210571
 30
0.0
 10
86.07312687735325
 20
-138.6881754210571
 30
0.0
 10
86.21678735908817
 20
-138.7326171528169
 30
0.0
 10
86.31221650402959
 20
-138.914518194438
 30
0.0
 10
86.41143525400479
 20
-139.1070990320635
 30
0.0
 10
86.43486190330448
 20
-139.3355088627356
 30
0.0
 10
86.43486190330448
 20
-139.5091416751922
 30
0.0
 10
86.43486190330448
 20
-139.6803629208091
 30
0.0
 10
86.41350231129593
 20
-139.9108398087723
 30
0.0
 10
86.31221650402959
 20
-140.1034206463978
 30
0.0
  0
SPLINE
  5
97
330
90
100
AcDbEntity
  8
_U+30EC_U+30A4_U+30E4_U+30FC 1
370
     0
100
AcDbSpline
210
0.0
220
0.0
230
1.0
 70
    11
 71
     3
 72
    17
 73
    13
 74
     0
 42
0.0000000001
 43
0.0000000001
 12
1.0
 22
0.0
 32
0.0
 13
1.0
 23
0.0
 33
0.0
 40
0.0
 40
0.0
 40
0.0
 40
0.0
 40
1.0
 40
1.0
 40
1.0
 40
2.0
 40
2.0
 40
2.0
 40
3.0
 40
3.0
 40
3.0
 40
4.0
 40
4.0
 40
4.0
 40
4.0
 10
85.91430797548323
 20
-138.8807562586826
 30
0.0
 10
85.66453855280263
 20
-138.8807562586826
 30
0.0
 10
85.61802976375175
 20
-139.1642876171186
 30
0.0
 10
85.61802976375175
 20
-139.5091416751922
 30
0.0
 10
85.61802976375175
 20
-139.8285020266748
 30
0.0
 10
85.65420326634687
 20
-140.1371825821532
 30
0.0
 10
85.91430797548323
 20
-140.1371825821532
 30
0.0
 10
86.1620103408727
 20
-140.1371825821532
 30
0.0
 10
86.21058618721472
 20
-139.8560627905568
 30
0.0
 10
86.21058618721472
 20
-139.5091416751922
 30
0.0
 10
86.21058618721472
 20
-139.189436814161
 30
0.0
 10
86.17234562732844
 20
-138.8807562586826
 30
0.0
 10
85.91430797548323
 20
-138.8807562586826
 30
0.0
  0
HATCH
  5
98
330
90
100
AcDbEntity
  8
_U+30EC_U+30A4_U+30E4_U+30FC 1
 62
     7
420
 16777215
100
AcDbHatch
 10
0.0
 20
0.0
 30
0.0
210
0.0
220
0.0
230
1.0
  2
SOLID
 70
     1
 71
     0
 91
        2
 92
        1
 93
        1
 72
     4
 94
        3
 73
     0
 74
     1
 95
       29
 96
       25
 40
0.0
 40
0.0
 40
0.0
 40
0.0
 40
1.0
 40
1.0
 40
1.0
 40
2.0
 40
2.0
 40
2.0
 40
3.0
 40
3.0
 40
3.0
 40
4.0
 40
4.0
 40
4.0
 40
5.0
 40
5.0
 40
5.0
 40
6.0
 40
6.0
 40
6.0
 40
7.0
 40
7.0
 40
7.0
 40
8.0
 40
8.0
 40
8.0
 40
8.0
 10
86.31221650402959
 20
-140.1034206463978
 10
86.20404050579275
 20
-140.3128824519009
 10
86.03075220288467
 20
-140.3318304770698
 10
85.91430797548323
 20
-140.3318304770698
 10
85.75342201632206
 20
-140.3318304770698
 10
85.6118285918783
 20
-140.285321688019
 10
85.5167439564854
 20
-140.1034206463978
 10
85.41304658237938
 20
-139.9087727514811
 10
85.39375404766199
 20
-139.671750182096
 10
85.39375404766199
 20
-139.5091416751922
 10
85.39375404766199
 20
-139.3651366839087
 10
85.41097952508824
 20
-139.113300203937
 10
85.5167439564854
 20
-138.914518194438
 10
85.62457544517372
 20
-138.7112575608083
 10
85.78546140433488
 20
-138.6881754210571
 10
85.91430797548323
 20
-138.6881754210571
 10
86.07312687735325
 20
-138.6881754210571
 10
86.21678735908817
 20
-138.7326171528169
 10
86.31221650402959
 20
-138.914518194438
 10
86.41143525400479
 20
-139.1070990320635
 10
86.43486190330448
 20
-139.3355088627356
 10
86.43486190330448
 20
-139.5091416751922
 10
86.43486190330448
 20
-139.6803629208091
 10
86.41350231129593
 20
-139.9108398087723
 10
86.31221650402959
 20
-140.1034206463978
 97
        0
 97
        0
 92
        1
 93
        1
 72
     4
 94
        3
 73
     0
 74
     1
 95
       17
 96
       13
 40
0.0
 40
0.0
 40
0.0
 40
0.0
 40
1.0
 40
1.0
 40
1.0
 40
2.0
 40
2.0
 40
2.0
 40
3.0
 40
3.0
 40
3.0
 40
4.0
 40
4.0
 40
4.0
 40
4.0
 10
85.91430797548323
 20
-138.8807562586826
 10
85.66453855280263
 20
-138.8807562586826
 10
85.61802976375175
 20
-139.1642876171186
 10
85.61802976375175
 20
-139.5091416751922
 10
85.61802976375175
 20
-139.8285020266748
 10
85.65420326634687
 20
-140.1371825821532
 10
85.91430797548323
 20
-140.1371825821532
 10
86.1620103408727
 20
-140.1371825821532
 10
86.21058618721472
 20
-139.8560627905568
 10
86.21058618721472
 20
-139.5091416751922
 10
86.21058618721472
 20
-139.189436814161
 10
86.17234562732844
 20
-138.8807562586826
 10
85.91430797548323
 20
-138.8807562586826
 97
        0
 97
        0
 75
     2
 76
     1
 98
        0
  0
ENDBLK
  5
93
330
90
100
AcDbEntity
  8
0
100
AcDbBlockEnd
  0
BLOCK
  5
AB
330
A9
100
AcDbEntity
  8
0
100
AcDbBlockBegin
  2
block 3
 70
     0
 10
0.0
 20
0.0
 30
0.0
  3
block 3
  1

  0
SPLINE
  5
AD
330
A9
100
AcDbEntity
  8
_U+30EC_U+30A4_U+30E4_U+30FC 1
370
     0
100
AcDbSpline
210
0.0
220
0.0
230
1.0
 70
    11
 71
     3
 72
    26
 73
    22
 74
     0
 42
0.0000000001
 43
0.0000000001
 12
1.0
 22
0.0
 32
0.0
 13
1.0
 23
0.0
 33
0.0
 40
0.0
 40
0.0
 40
0.0
 40
0.0
 40
1.0
 40
1.0
 40
1.0
 40
2.0
 40
2.0
 40
2.0
 40
3.0
 40
3.0
 40
3.0
 40
4.0
 40
4.0
 40
4.0
 40
5.0
 40
5.0
 40
5.0
 40
6.0
 40
6.0
 40
6.0
 40
7.0
 40
7.0
 40
7.0
 40
7.0
 10
106.0276366922431
 20
-123.7264702381656
 30
0.0
 10
106.0276366922431
 20
-123.7264702381656
 30
0.0
 10
104.9234835892205
 20
-123.7264702381656
 30
0.0
 10
104.9234835892205
 20
-123.7264702381656
 30
0.0
 10
104.9234835892205
 20
-123.7264702381656
 30
0.0
 10
104.9234835892205
 20
-124.0565103856525
 30
0.0
 10
104.9234835892205
 20
-124.0565103856525
 30
0.0
 10
104.9234835892205
 20
-124.0565103856525
 30
0.0
 10
104.7753444833548
 20
-124.0565103856525
 30
0.0
 10
104.7753444833548
 20
-124.0565103856525
 30
0.0
 10
104.7605305727682
 20
-123.7244031808745
 30
0.0
 10
104.5975775563159
 20
-123.6778943918236
 30
0.0
 10
104.4832003862056
 20
-123.6482665706504
 30
0.0
 10
104.4832003862056
 20
-123.6482665706504
 30
0.0
 10
104.4832003862056
 20
-123.5021945220758
 30
0.0
 10
104.4832003862056
 20
-123.5021945220758
 30
0.0
 10
104.4832003862056
 20
-123.5021945220758
 30
0.0
 10
106.0276366922431
 20
-123.5021945220758
 30
0.0
 10
106.0276366922431
 20
-123.5021945220758
 30
0.0
 10
106.0276366922431
 20
-123.5021945220758
 30
0.0
 10
106.0276366922431
 20
-123.7264702381656
 30
0.0
 10
106.0276366922431
 20
-123.7264702381656
 30
0.0
  0
HATCH
  5
AE
330
A9
100
AcDbEntity
  8
_U+30EC_U+30A4_U+30E4_U+30FC 1
 62
     7
420
 16777215
100
AcDbHatch
 10
0.0
 20
0.0
 30
0.0
210
0.0
220
0.0
230
1.0
  2
SOLID
 70
     1
 71
     0
 91
        1
 92
        1
 93
        1
 72
     4
 94
        3
 73
     0
 74
     1
 95
       26
 96
       22
 40
0.0
 40
0.0
 40
0.0
 40
0.0
 40
1.0
 40
1.0
 40
1.0
 40
2.0
 40
2.0
 40
2.0
 40
3.0
 40
3.0
 40
3.0
 40
4.0
 40
4.0
 40
4.0
 40
5.0
 40
5.0
 40
5.0
 40
6.0
 40
6.0
 40
6.0
 40
7.0
 40
7.0
 40
7.0
 40
7.0
 10
106.0276366922431
 20
-123.7264702381656
 10
106.0276366922431
 20
-123.7264702381656
 10
104.9234835892205
 20
-123.7264702381656
 10
104.9234835892205
 20
-123.7264702381656
 10
104.9234835892205
 20
-123.7264702381656
 10
104.9234835892205
 20
-124.0565103856525
 10
104.9234835892205
 20
-124.0565103856525
 10
104.9234835892205
 20
-124.0565103856525
 10
104.7753444833548
 20
-124.0565103856525
 10
104.7753444833548
 20
-124.0565103856525
 10
104.7605305727682
 20
-123.7244031808745
 10
104.5975775563159
 20
-123.6778943918236
 10
104.4832003862056
 20
-123.6482665706504
 10
104.4832003862056
 20
-123.6482665706504
 10
104.4832003862056
 20
-123.5021945220758
 10
104.4832003862056
 20
-123.5021945220758
 10
104.4832003862056
 20
-123.5021945220758
 10
106.0276366922431
 20
-123.5021945220758
 10
106.0276366922431
 20
-123.5021945220758
 10
106.0276366922431
 20
-123.5021945220758
 10
106.0276366922431
 20
-123.7264702381656
 10
106.0276366922431
 20
-123.7264702381656
 97
        0
 97
        0
 75
     2
 76
     1
 98
        0
  0
ENDBLK
  5
AC
330
A9
100
AcDbEntity
  8
0
100
AcDbBlockEnd
  0
BLOCK
  5
BD
330
BB
100
AcDbEntity
  8
0
100
AcDbBlockBegin
  2
block 4
 70
     0
 10
0.0
 20
0.0
 30
0.0
  3
block 4
  1

  0
SPLINE
  5
BF
330
BB
100
AcDbEntity
  8
_U+30EC_U+30A4_U+30E4_U+30FC 1
370
     0
100
AcDbSpline
210
0.0
220
0.0
230
1.0
 70
    11
 71
     3
 72
    44
 73
    40
 74
     0
 42
0.0000000001
 43
0.0000000001
 12
1.0
 22
0.0
 32
0.0
 13
1.0
 23
0.0
 33
0.0
 40
0.0
 40
0.0
 40
0.0
 40
0.0
 40
1.0
 40
1.0
 40
1.0
 40
2.0
 40
2.0
 40
2.0
 40
3.0
 40
3.0
 40
3.0
 40
4.0
 40
4.0
 40
4.0
 40
5.0
 40
5.0
 40
5.0
 40
6.0
 40
6.0
 40
6.0
 40
7.0
 40
7.0
 40
7.0
 40
8.0
 40
8.0
 40
8.0
 40
9.0
 40
9.0
 40
9.0
 40
10.0
 40
10.0
 40
10.0
 40
11.0
 40
11.0
 40
11.0
 40
12.0
 40
12.0
 40
12.0
 40
13.0
 40
13.0
 40
13.0
 40
13.0
 10
87.645296202047
 20
-117.8059013919895
 30
0.0
 10
87.42756616737923
 20
-117.9645480390853
 30
0.0
 10
87.33454858927747
 20
-118.0386175920181
 30
0.0
 10
87.28562823338693
 20
-118.1824503285273
 30
0.0
 10
87.28562823338693
 20
-118.1824503285273
 30
0.0
 10
88.0642198130534
 20
-118.1824503285273
 30
0.0
 10
88.0642198130534
 20
-118.1824503285273
 30
0.0
 10
88.0642198130534
 20
-118.1824503285273
 30
0.0
 10
88.0642198130534
 20
-118.3876057646739
 30
0.0
 10
88.0642198130534
 20
-118.3876057646739
 30
0.0
 10
88.0642198130534
 20
-118.3876057646739
 30
0.0
 10
87.03620332025484
 20
-118.3876057646739
 30
0.0
 10
87.03620332025484
 20
-118.3876057646739
 30
0.0
 10
87.06789819871913
 20
-118.030004853305
 30
0.0
 10
87.13335501293889
 20
-117.9518011857898
 30
0.0
 10
87.51851668818982
 20
-117.6534559167672
 30
0.0
 10
87.77448728274388
 20
-117.4546739072683
 30
0.0
 10
87.83994409696363
 20
-117.3869777809831
 30
0.0
 10
87.83994409696363
 20
-117.2495184711216
 30
0.0
 10
87.83994409696363
 20
-117.1310071864291
 30
0.0
 10
87.76794160132191
 20
-116.9999213032153
 30
0.0
 10
87.57122664911414
 20
-116.9999213032153
 30
0.0
 10
87.31112193997778
 20
-116.9999213032153
 30
0.0
 10
87.30250920126466
 20
-117.2303981911785
 30
0.0
 10
87.29837508668236
 20
-117.34684241858
 30
0.0
 10
87.29837508668236
 20
-117.34684241858
 30
0.0
 10
87.07409937059259
 20
-117.34684241858
 30
0.0
 10
87.07409937059259
 20
-117.34684241858
 30
0.0
 10
87.08271210930572
 20
-117.2198906499485
 30
0.0
 10
87.09339190530999
 20
-117.1077527919036
 30
0.0
 10
87.17366263011631
 20
-116.989241507211
 30
0.0
 10
87.28356117609579
 20
-116.8285278028241
 30
0.0
 10
87.4699408418478
 20
-116.7945936122944
 30
0.0
 10
87.58604055970072
 20
-116.7945936122944
 30
0.0
 10
87.86337074626333
 20
-116.7945936122944
 30
0.0
 10
88.07076549447537
 20
-116.978733965981
 30
0.0
 10
88.07076549447537
 20
-117.2515855284128
 30
0.0
 10
88.07076549447537
 20
-117.4799953590849
 30
0.0
 10
87.95432126707392
 20
-117.5795586186086
 30
0.0
 10
87.645296202047
 20
-117.8059013919895
 30
0.0
  0
HATCH
  5
C0
330
BB
100
AcDbEntity
  8
_U+30EC_U+30A4_U+30E4_U+30FC 1
 62
     7
420
 16777215
100
AcDbHatch
 10
0.0
 20
0.0
 30
0.0
210
0.0
220
0.0
230
1.0
  2
SOLID
 70
     1
 71
     0
 91
        1
 92
        1
 93
        1
 72
     4
 94
        3
 73
     0
 74
     1
 95
       44
 96
       40
 40
0.0
 40
0.0
 40
0.0
 40
0.0
 40
1.0
 40
1.0
 40
1.0
 40
2.0
 40
2.0
 40
2.0
 40
3.0
 40
3.0
 40
3.0
 40
4.0
 40
4.0
 40
4.0
 40
5.0
 40
5.0
 40
5.0
 40
6.0
 40
6.0
 40
6.0
 40
7.0
 40
7.0
 40
7.0
 40
8.0
 40
8.0
 40
8.0
 40
9.0
 40
9.0
 40
9.0
 40
10.0
 40
10.0
 40
10.0
 40
11.0
 40
11.0
 40
11.0
 40
12.0
 40
12.0
 40
12.0
 40
13.0
 40
13.0
 40
13.0
 40
13.0
 10
87.645296202047
 20
-117.8059013919895
 10
87.42756616737923
 20
-117.9645480390853
 10
87.33454858927747
 20
-118.0386175920181
 10
87.28562823338693
 20
-118.1824503285273
 10
87.28562823338693
 20
-118.1824503285273
 10
88.0642198130534
 20
-118.1824503285273
 10
88.0642198130534
 20
-118.1824503285273
 10
88.0642198130534
 20
-118.1824503285273
 10
88.0642198130534
 20
-118.3876057646739
 10
88.0642198130534
 20
-118.3876057646739
 10
88.0642198130534
 20
-118.3876057646739
 10
87.03620332025484
 20
-118.3876057646739
 10
87.03620332025484
 20
-118.3876057646739
 10
87.06789819871913
 20
-118.030004853305
 10
87.13335501293889
 20
-117.9518011857898
 10
87.51851668818982
 20
-117.6534559167672
 10
87.77448728274388
 20
-117.4546739072683
 10
87.83994409696363
 20
-117.3869777809831
 10
87.83994409696363
 20
-117.2495184711216
 10
87.83994409696363
 20
-117.1310071864291
 10
87.76794160132191
 20
-116.9999213032153
 10
87.57122664911414
 20
-116.9999213032153
 10
87.31112193997778
 20
-116.9999213032153
 10
87.30250920126466
 20
-117.2303981911785
 10
87.29837508668236
 20
-117.34684241858
 10
87.29837508668236
 20
-117.34684241858
 10
87.07409937059259
 20
-117.34684241858
 10
87.07409937059259
 20
-117.34684241858
 10
87.08271210930572
 20
-117.2198906499485
 10
87.09339190530999
 20
-117.1077527919036
 10
87.17366263011631
 20
-116.989241507211
 10
87.28356117609579
 20
-116.8285278028241
 10
87.4699408418478
 20
-116.7945936122944
 10
87.58604055970072
 20
-116.7945936122944
 10
87.86337074626333
 20
-116.7945936122944
 10
88.07076549447537
 20
-116.978733965981
 10
88.07076549447537
 20
-117.2515855284128
 10
88.07076549447537
 20
-117.4799953590849
 10
87.95432126707392
 20
-117.5795586186086
 10
87.645296202047
 20
-117.8059013919895
 97
        0
 97
        0
 75
     2
 76
     1
 98
        0
  0
SPLINE
  5
C1
330
BB
100
AcDbEntity
  8
_U+30EC_U+30A4_U+30E4_U+30FC 1
370
     0
100
AcDbSpline
210
0.0
220
0.0
230
1.0
 70
    11
 71
     3
 72
    32
 73
    28
 74
     0
 42
0.0000000001
 43
0.0000000001
 12
1.0
 22
0.0
 32
0.0
 13
1.0
 23
0.0
 33
0.0
 40
0.0
 40
0.0
 40
0.0
 40
0.0
 40
1.0
 40
1.0
 40
1.0
 40
2.0
 40
2.0
 40
2.0
 40
3.0
 40
3.0
 40
3.0
 40
4.0
 40
4.0
 40
4.0
 40
5.0
 40
5.0
 40
5.0
 40
6.0
 40
6.0
 40
6.0
 40
7.0
 40
7.0
 40
7.0
 40
8.0
 40
8.0
 40
8.0
 40
9.0
 40
9.0
 40
9.0
 40
9.0
 10
88.68674856723804
 20
-118.4384209230814
 30
0.0
 10
88.51346026432998
 20
-118.4384209230814
 30
0.0
 10
88.26782495623166
 20
-118.3684854847308
 30
0.0
 10
88.22992890589391
 20
-118.0363782799527
 30
0.0
 10
88.22992890589391
 20
-118.0363782799527
 30
0.0
 10
88.4435248259794
 20
-118.0363782799527
 30
0.0
 10
88.4435248259794
 20
-118.0363782799527
 30
0.0
 10
88.45420462198368
 20
-118.095633922299
 30
0.0
 10
88.48589950044797
 20
-118.2437730281648
 30
0.0
 10
88.68881562452918
 20
-118.2437730281648
 30
0.0
 10
88.98095972167837
 20
-118.2437730281648
 30
0.0
 10
89.01885577201612
 20
-117.9137328806778
 30
0.0
 10
89.03160262531155
 20
-117.7085774445312
 30
0.0
 10
88.94065210450096
 20
-117.7888481693375
 30
0.0
 10
88.87312823299006
 20
-117.8460367543927
 30
0.0
 10
88.69122719136887
 20
-117.8460367543927
 30
0.0
 10
88.51139320703882
 20
-117.8460367543927
 30
0.0
 10
88.20856931388536
 20
-117.7402723229955
 30
0.0
 10
88.20856931388536
 20
-117.3340955652845
 30
0.0
 10
88.20856931388536
 20
-117.0145629590276
 30
0.0
 10
88.4076958329328
 20
-116.7945936122944
 30
0.0
 10
88.72498912712432
 20
-116.7945936122944
 30
0.0
 10
89.23899737352359
 20
-116.7945936122944
 30
0.0
 10
89.24967716952786
 20
-117.3489094758711
 30
0.0
 10
89.24967716952786
 20
-117.5625053959566
 30
0.0
 10
89.24967716952786
 20
-117.7931545386941
 30
0.0
 10
89.23038463481046
 20
-118.4384209230814
 30
0.0
 10
88.68674856723804
 20
-118.4384209230814
 30
0.0
  0
SPLINE
  5
C2
330
BB
100
AcDbEntity
  8
_U+30EC_U+30A4_U+30E4_U+30FC 1
370
     0
100
AcDbSpline
210
0.0
220
0.0
230
1.0
 70
    11
 71
     3
 72
    17
 73
    13
 74
     0
 42
0.0000000001
 43
0.0000000001
 12
1.0
 22
0.0
 32
0.0
 13
1.0
 23
0.0
 33
0.0
 40
0.0
 40
0.0
 40
0.0
 40
0.0
 40
1.0
 40
1.0
 40
1.0
 40
2.0
 40
2.0
 40
2.0
 40
3.0
 40
3.0
 40
3.0
 40
4.0
 40
4.0
 40
4.0
 40
4.0
 10
88.72705618441546
 20
-116.9871744499199
 30
0.0
 10
88.60854489972287
 20
-116.9871744499199
 30
0.0
 10
88.43284502997513
 20
-117.0441907802008
 30
0.0
 10
88.43284502997513
 20
-117.329789195928
 30
0.0
 10
88.43284502997513
 20
-117.5561319693089
 30
0.0
 10
88.57271590667627
 20
-117.651388859476
 30
0.0
 10
88.70810815924659
 20
-117.651388859476
 30
0.0
 10
88.9702799256741
 20
-117.651388859476
 30
0.0
 10
89.00852048556037
 20
-117.4419270539729
 30
0.0
 10
89.00852048556037
 20
-117.3256550813457
 30
0.0
 10
89.00852048556037
 20
-117.1499552115979
 30
0.0
 10
88.91309134061895
 20
-116.9871744499199
 30
0.0
 10
88.72705618441546
 20
-116.9871744499199
 30
0.0
  0
HATCH
  5
C3
330
BB
100
AcDbEntity
  8
_U+30EC_U+30A4_U+30E4_U+30FC 1
 62
     7
420
 16777215
100
AcDbHatch
 10
0.0
 20
0.0
 30
0.0
210
0.0
220
0.0
230
1.0
  2
SOLID
 70
     1
 71
     0
 91
        2
 92
        1
 93
        1
 72
     4
 94
        3
 73
     0
 74
     1
 95
       32
 96
       28
 40
0.0
 40
0.0
 40
0.0
 40
0.0
 40
1.0
 40
1.0
 40
1.0
 40
2.0
 40
2.0
 40
2.0
 40
3.0
 40
3.0
 40
3.0
 40
4.0
 40
4.0
 40
4.0
 40
5.0
 40
5.0
 40
5.0
 40
6.0
 40
6.0
 40
6.0
 40
7.0
 40
7.0
 40
7.0
 40
8.0
 40
8.0
 40
8.0
 40
9.0
 40
9.0
 40
9.0
 40
9.0
 10
88.68674856723804
 20
-118.4384209230814
 10
88.51346026432998
 20
-118.4384209230814
 10
88.26782495623166
 20
-118.3684854847308
 10
88.22992890589391
 20
-118.0363782799527
 10
88.22992890589391
 20
-118.0363782799527
 10
88.4435248259794
 20
-118.0363782799527
 10
88.4435248259794
 20
-118.0363782799527
 10
88.45420462198368
 20
-118.095633922299
 10
88.48589950044797
 20
-118.2437730281648
 10
88.68881562452918
 20
-118.2437730281648
 10
88.98095972167837
 20
-118.2437730281648
 10
89.01885577201612
 20
-117.9137328806778
 10
89.03160262531155
 20
-117.7085774445312
 10
88.94065210450096
 20
-117.7888481693375
 10
88.87312823299006
 20
-117.8460367543927
 10
88.69122719136887
 20
-117.8460367543927
 10
88.51139320703882
 20
-117.8460367543927
 10
88.20856931388536
 20
-117.7402723229955
 10
88.20856931388536
 20
-117.3340955652845
 10
88.20856931388536
 20
-117.0145629590276
 10
88.4076958329328
 20
-116.7945936122944
 10
88.72498912712432
 20
-116.7945936122944
 10
89.23899737352359
 20
-116.7945936122944
 10
89.24967716952786
 20
-117.3489094758711
 10
89.24967716952786
 20
-117.5625053959566
 10
89.24967716952786
 20
-117.7931545386941
 10
89.23038463481046
 20
-118.4384209230814
 10
88.68674856723804
 20
-118.4384209230814
 97
        0
 97
        0
 92
        1
 93
        1
 72
     4
 94
        3
 73
     0
 74
     1
 95
       17
 96
       13
 40
0.0
 40
0.0
 40
0.0
 40
0.0
 40
1.0
 40
1.0
 40
1.0
 40
2.0
 40
2.0
 40
2.0
 40
3.0
 40
3.0
 40
3.0
 40
4.0
 40
4.0
 40
4.0
 40
4.0
 10
88.72705618441546
 20
-116.9871744499199
 10
88.60854489972287
 20
-116.9871744499199
 10
88.43284502997513
 20
-117.0441907802008
 10
88.43284502997513
 20
-117.329789195928
 10
88.43284502997513
 20
-117.5561319693089
 10
88.57271590667627
 20
-117.651388859476
 10
88.70810815924659
 20
-117.651388859476
 10
88.9702799256741
 20
-117.651388859476
 10
89.00852048556037
 20
-117.4419270539729
 10
89.00852048556037
 20
-117.3256550813457
 10
89.00852048556037
 20
-117.1499552115979
 10
88.91309134061895
 20
-116.9871744499199
 10
88.72705618441546
 20
-116.9871744499199
 97
        0
 97
        0
 75
     2
 76
     1
 98
        0
  0
ENDBLK
  5
BE
330
BB
100
AcDbEntity
  8
0
100
AcDbBlockEnd
  0
BLOCK
  5
D2
330
D0
100
AcDbEntity
  8
0
100
AcDbBlockBegin
  2
block 5
 70
     0
 10
0.0
 20
0.0
 30
0.0
  3
block 5
  1

  0
SPLINE
  5
D4
330
D0
100
AcDbEntity
  8
_U+30EC_U+30A4_U+30E4_U+30FC 1
370
     0
100
AcDbSpline
210
0.0
220
0.0
230
1.0
 70
    11
 71
     3
 72
    32
 73
    28
 74
     0
 42
0.0000000001
 43
0.0000000001
 12
1.0
 22
0.0
 32
0.0
 13
1.0
 23
0.0
 33
0.0
 40
0.0
 40
0.0
 40
0.0
 40
0.0
 40
1.0
 40
1.0
 40
1.0
 40
2.0
 40
2.0
 40
2.0
 40
3.0
 40
3.0
 40
3.0
 40
4.0
 40
4.0
 40
4.0
 40
5.0
 40
5.0
 40
5.0
 40
6.0
 40
6.0
 40
6.0
 40
7.0
 40
7.0
 40
7.0
 40
8.0
 40
8.0
 40
8.0
 40
9.0
 40
9.0
 40
9.0
 40
9.0
 10
76.99082164958911
 20
-140.3318304770698
 30
0.0
 10
76.47457409112441
 20
-140.3318304770698
 30
0.0
 10
76.46613360718555
 20
-139.7778591230417
 30
0.0
 10
76.46613360718555
 20
-139.5639186934076
 30
0.0
 10
76.46613360718555
 20
-139.3334418054444
 30
0.0
 10
76.48525388712869
 20
-138.686108363766
 30
0.0
 10
77.02888995470111
 20
-138.686108363766
 30
0.0
 10
77.20235051238345
 20
-138.686108363766
 30
0.0
 10
77.44781356570749
 20
-138.7560438021166
 30
0.0
 10
77.48588187081951
 20
-139.0881510068946
 30
0.0
 10
77.48588187081951
 20
-139.0881510068946
 30
0.0
 10
77.27211369595975
 20
-139.0881510068946
 30
0.0
 10
77.27211369595975
 20
-139.0881510068946
 30
0.0
 10
77.26160615472975
 20
-139.0309624218395
 30
0.0
 10
77.22991127626544
 20
-138.8828233159738
 30
0.0
 10
77.02682289740997
 20
-138.8828233159738
 30
0.0
 10
76.73485105503504
 20
-138.8828233159738
 30
0.0
 10
76.69454343785762
 20
-139.2107964061695
 30
0.0
 10
76.68196883933645
 20
-139.4157795875419
 30
0.0
 10
76.7749864174382
 20
-139.3375759200267
 30
0.0
 10
76.84268254372336
 20
-139.2783202776804
 30
0.0
 10
77.02458358534456
 20
-139.2783202776804
 30
0.0
 10
77.20441756967459
 20
-139.2783202776804
 30
0.0
 10
77.50689695327952
 20
-139.3864962759173
 30
0.0
 10
77.50689695327952
 20
-139.7926730336282
 30
0.0
 10
77.50689695327952
 20
-140.1120333851109
 30
0.0
 10
77.30811494378061
 20
-140.3318304770698
 30
0.0
 10
76.99082164958911
 20
-140.3318304770698
 30
0.0
  0
SPLINE
  5
D5
330
D0
100
AcDbEntity
  8
_U+30EC_U+30A4_U+30E4_U+30FC 1
370
     0
100
AcDbSpline
210
0.0
220
0.0
230
1.0
 70
    11
 71
     3
 72
    17
 73
    13
 74
     0
 42
0.0000000001
 43
0.0000000001
 12
1.0
 22
0.0
 32
0.0
 13
1.0
 23
0.0
 33
0.0
 40
0.0
 40
0.0
 40
0.0
 40
0.0
 40
1.0
 40
1.0
 40
1.0
 40
2.0
 40
2.0
 40
2.0
 40
3.0
 40
3.0
 40
3.0
 40
4.0
 40
4.0
 40
4.0
 40
4.0
 10
77.00770261746683
 20
-139.472968172597
 30
0.0
 10
76.74535859626505
 20
-139.472968172597
 30
0.0
 10
76.70729029115304
 20
-139.6844970353914
 30
0.0
 10
76.70729029115304
 20
-139.8009412627928
 30
0.0
 10
76.70729029115304
 20
-139.9766411325406
 30
0.0
 10
76.8025471813202
 20
-140.1395941489929
 30
0.0
 10
76.98651528023254
 20
-140.1395941489929
 30
0.0
 10
77.10709362221628
 20
-140.1395941489929
 30
0.0
 10
77.28279349196403
 20
-140.0803385066466
 30
0.0
 10
77.28279349196403
 20
-139.7947400909194
 30
0.0
 10
77.28279349196403
 20
-139.5704643748296
 30
0.0
 10
77.14309487003715
 20
-139.472968172597
 30
0.0
 10
77.00770261746683
 20
-139.472968172597
 30
0.0
  0
HATCH
  5
D6
330
D0
100
AcDbEntity
  8
_U+30EC_U+30A4_U+30E4_U+30FC 1
 62
     7
420
 16777215
100
AcDbHatch
 10
0.0
 20
0.0
 30
0.0
210
0.0
220
0.0
230
1.0
  2
SOLID
 70
     1
 71
     0
 91
        2
 92
        1
 93
        1
 72
     4
 94
        3
 73
     0
 74
     1
 95
       32
 96
       28
 40
0.0
 40
0.0
 40
0.0
 40
0.0
 40
1.0
 40
1.0
 40
1.0
 40
2.0
 40
2.0
 40
2.0
 40
3.0
 40
3.0
 40
3.0
 40
4.0
 40
4.0
 40
4.0
 40
5.0
 40
5.0
 40
5.0
 40
6.0
 40
6.0
 40
6.0
 40
7.0
 40
7.0
 40
7.0
 40
8.0
 40
8.0
 40
8.0
 40
9.0
 40
9.0
 40
9.0
 40
9.0
 10
76.99082164958911
 20
-140.3318304770698
 10
76.47457409112441
 20
-140.3318304770698
 10
76.46613360718555
 20
-139.7778591230417
 10
76.46613360718555
 20
-139.5639186934076
 10
76.46613360718555
 20
-139.3334418054444
 10
76.48525388712869
 20
-138.686108363766
 10
77.02888995470111
 20
-138.686108363766
 10
77.20235051238345
 20
-138.686108363766
 10
77.44781356570749
 20
-138.7560438021166
 10
77.48588187081951
 20
-139.0881510068946
 10
77.48588187081951
 20
-139.0881510068946
 10
77.27211369595975
 20
-139.0881510068946
 10
77.27211369595975
 20
-139.0881510068946
 10
77.26160615472975
 20
-139.0309624218395
 10
77.22991127626544
 20
-138.8828233159738
 10
77.02682289740997
 20
-138.8828233159738
 10
76.73485105503504
 20
-138.8828233159738
 10
76.69454343785762
 20
-139.2107964061695
 10
76.68196883933645
 20
-139.4157795875419
 10
76.7749864174382
 20
-139.3375759200267
 10
76.84268254372336
 20
-139.2783202776804
 10
77.02458358534456
 20
-139.2783202776804
 10
77.20441756967459
 20
-139.2783202776804
 10
77.50689695327952
 20
-139.3864962759173
 10
77.50689695327952
 20
-139.7926730336282
 10
77.50689695327952
 20
-140.1120333851109
 10
77.30811494378061
 20
-140.3318304770698
 10
76.99082164958911
 20
-140.3318304770698
 97
        0
 97
        0
 92
        1
 93
        1
 72
     4
 94
        3
 73
     0
 74
     1
 95
       17
 96
       13
 40
0.0
 40
0.0
 40
0.0
 40
0.0
 40
1.0
 40
1.0
 40
1.0
 40
2.0
 40
2.0
 40
2.0
 40
3.0
 40
3.0
 40
3.0
 40
4.0
 40
4.0
 40
4.0
 40
4.0
 10
77.00770261746683
 20
-139.472968172597
 10
76.74535859626505
 20
-139.472968172597
 10
76.70729029115304
 20
-139.6844970353914
 10
76.70729029115304
 20
-139.8009412627928
 10
76.70729029115304
 20
-139.9766411325406
 10
76.8025471813202
 20
-140.1395941489929
 10
76.98651528023254
 20
-140.1395941489929
 10
77.10709362221628
 20
-140.1395941489929
 10
77.28279349196403
 20
-140.0803385066466
 10
77.28279349196403
 20
-139.7947400909194
 10
77.28279349196403
 20
-139.5704643748296
 10
77.14309487003715
 20
-139.472968172597
 10
77.00770261746683
 20
-139.472968172597
 97
        0
 97
        0
 75
     2
 76
     1
 98
        0
  0
ENDBLK
  5
D3
330
D0
100
AcDbEntity
  8
0
100
AcDbBlockEnd
  0
BLOCK
  5
E7
330
E5
100
AcDbEntity
  8
0
100
AcDbBlockBegin
  2
block 6
 70
     0
 10
0.0
 20
0.0
 30
0.0
  3
block 6
  1

  0
SPLINE
  5
E9
330
E5
100
AcDbEntity
  8
_U+30EC_U+30A4_U+30E4_U+30FC 1
370
     0
100
AcDbSpline
210
0.0
220
0.0
230
1.0
 70
    11
 71
     3
 72
    62
 73
    58
 74
     0
 42
0.0000000001
 43
0.0000000001
 12
1.0
 22
0.0
 32
0.0
 13
1.0
 23
0.0
 33
0.0
 40
0.0
 40
0.0
 40
0.0
 40
0.0
 40
1.0
 40
1.0
 40
1.0
 40
2.0
 40
2.0
 40
2.0
 40
3.0
 40
3.0
 40
3.0
 40
4.0
 40
4.0
 40
4.0
 40
5.0
 40
5.0
 40
5.0
 40
6.0
 40
6.0
 40
6.0
 40
7.0
 40
7.0
 40
7.0
 40
8.0
 40
8.0
 40
8.0
 40
9.0
 40
9.0
 40
9.0
 40
10.0
 40
10.0
 40
10.0
 40
11.0
 40
11.0
 40
11.0
 40
12.0
 40
12.0
 40
12.0
 40
13.0
 40
13.0
 40
13.0
 40
14.0
 40
14.0
 40
14.0
 40
15.0
 40
15.0
 40
15.0
 40
16.0
 40
16.0
 40
16.0
 40
17.0
 40
17.0
 40
17.0
 40
18.0
 40
18.0
 40
18.0
 40
19.0
 40
19.0
 40
19.0
 40
19.0
 10
106.0782795958763
 20
-135.080815938452
 30
0.0
 10
106.0782795958763
 20
-135.1762450833934
 30
0.0
 10
106.0572645134162
 20
-135.3939751180612
 30
0.0
 10
105.8712293572128
 20
-135.5190320841758
 30
0.0
 10
105.7589192443936
 20
-135.5927571275602
 30
0.0
 10
105.6597004944184
 20
-135.597235751691
 30
0.0
 10
105.5749511454813
 20
-135.6013698662733
 30
0.0
 10
105.5749511454813
 20
-135.6013698662733
 30
0.0
 10
105.5749511454813
 20
-135.3812282647658
 30
0.0
 10
105.5749511454813
 20
-135.3812282647658
 30
0.0
 10
105.6490206984141
 20
-135.3791612074747
 30
0.0
 10
105.8836317009597
 20
-135.3688259210189
 30
0.0
 10
105.8836317009597
 20
-135.0852945625828
 30
0.0
 10
105.8836317009597
 20
-134.9478352527214
 30
0.0
 10
105.8140407721576
 20
-134.7952175227248
 30
0.0
 10
105.5856309414855
 20
-134.7952175227248
 30
0.0
 10
105.4691867140841
 20
-134.7952175227248
 30
0.0
 10
105.4206108677421
 20
-134.8334580826111
 30
0.0
 10
105.3889159892778
 20
-134.8651529610754
 30
0.0
 10
105.3148464363449
 20
-134.9392225140083
 30
0.0
 10
105.3020995830495
 20
-135.0556667414097
 30
0.0
 10
105.3020995830495
 20
-135.1104437596252
 30
0.0
 10
105.3020995830495
 20
-135.1297362943426
 30
0.0
 10
105.3041666403406
 20
-135.1655652873892
 30
0.0
 10
105.3083007549229
 20
-135.1931260512712
 30
0.0
 10
105.3083007549229
 20
-135.1931260512712
 30
0.0
 10
105.1136528600063
 20
-135.1931260512712
 30
0.0
 10
105.1136528600063
 20
-135.1931260512712
 30
0.0
 10
105.1201985414283
 20
-135.1548854913849
 30
0.0
 10
105.1222655987194
 20
-135.1128553264649
 30
0.0
 10
105.1222655987194
 20
-135.1063096450429
 30
0.0
 10
105.1222655987194
 20
-135.0408528308231
 30
0.0
 10
105.1009060067109
 20
-134.8420708213242
 30
0.0
 10
104.8642279468742
 20
-134.8420708213242
 30
0.0
 10
104.6864610198353
 20
-134.8420708213242
 30
0.0
 10
104.6313394920713
 20
-134.9729844497637
 30
0.0
 10
104.6313394920713
 20
-135.0832275052917
 30
0.0
 10
104.6313394920713
 20
-135.3474663290104
 30
0.0
 10
104.8642279468742
 20
-135.3560790677235
 30
0.0
 10
104.9358859329674
 20
-135.3602131823058
 30
0.0
 10
104.9358859329674
 20
-135.3602131823058
 30
0.0
 10
104.9358859329674
 20
-135.5634738159355
 30
0.0
 10
104.9358859329674
 20
-135.5634738159355
 30
0.0
 10
104.8111734764014
 20
-135.5548610772224
 30
0.0
 10
104.4346245398636
 20
-135.5273003133404
 30
0.0
 10
104.4346245398636
 20
-135.0704806519963
 30
0.0
 10
104.4346245398636
 20
-134.8462049359065
 30
0.0
 10
104.5617485632693
 20
-134.605048251939
 30
0.0
 10
104.8576822654523
 20
-134.605048251939
 30
0.0
 10
105.0440619312043
 20
-134.605048251939
 30
0.0
 10
105.1263997133017
 20
-134.7001328873319
 30
0.0
 10
105.1877224129392
 20
-134.7996961468556
 30
0.0
 10
105.2152831768212
 20
-134.7383734472182
 30
0.0
 10
105.2955539016275
 20
-134.556472405597
 30
0.0
 10
105.5728840881901
 20
-134.556472405597
 30
0.0
 10
105.9111924648416
 20
-134.556472405597
 30
0.0
 10
106.0782795958763
 20
-134.8038302614379
 30
0.0
 10
106.0782795958763
 20
-135.080815938452
 30
0.0
  0
HATCH
  5
EA
330
E5
100
AcDbEntity
  8
_U+30EC_U+30A4_U+30E4_U+30FC 1
 62
     7
420
 16777215
100
AcDbHatch
 10
0.0
 20
0.0
 30
0.0
210
0.0
220
0.0
230
1.0
  2
SOLID
 70
     1
 71
     0
 91
        1
 92
        1
 93
        1
 72
     4
 94
        3
 73
     0
 74
     1
 95
       62
 96
       58
 40
0.0
 40
0.0
 40
0.0
 40
0.0
 40
1.0
 40
1.0
 40
1.0
 40
2.0
 40
2.0
 40
2.0
 40
3.0
 40
3.0
 40
3.0
 40
4.0
 40
4.0
 40
4.0
 40
5.0
 40
5.0
 40
5.0
 40
6.0
 40
6.0
 40
6.0
 40
7.0
 40
7.0
 40
7.0
 40
8.0
 40
8.0
 40
8.0
 40
9.0
 40
9.0
 40
9.0
 40
10.0
 40
10.0
 40
10.0
 40
11.0
 40
11.0
 40
11.0
 40
12.0
 40
12.0
 40
12.0
 40
13.0
 40
13.0
 40
13.0
 40
14.0
 40
14.0
 40
14.0
 40
15.0
 40
15.0
 40
15.0
 40
16.0
 40
16.0
 40
16.0
 40
17.0
 40
17.0
 40
17.0
 40
18.0
 40
18.0
 40
18.0
 40
19.0
 40
19.0
 40
19.0
 40
19.0
 10
106.0782795958763
 20
-135.080815938452
 10
106.0782795958763
 20
-135.1762450833934
 10
106.0572645134162
 20
-135.3939751180612
 10
105.8712293572128
 20
-135.5190320841758
 10
105.7589192443936
 20
-135.5927571275602
 10
105.6597004944184
 20
-135.597235751691
 10
105.5749511454813
 20
-135.6013698662733
 10
105.5749511454813
 20
-135.6013698662733
 10
105.5749511454813
 20
-135.3812282647658
 10
105.5749511454813
 20
-135.3812282647658
 10
105.6490206984141
 20
-135.3791612074747
 10
105.8836317009597
 20
-135.3688259210189
 10
105.8836317009597
 20
-135.0852945625828
 10
105.8836317009597
 20
-134.9478352527214
 10
105.8140407721576
 20
-134.7952175227248
 10
105.5856309414855
 20
-134.7952175227248
 10
105.4691867140841
 20
-134.7952175227248
 10
105.4206108677421
 20
-134.8334580826111
 10
105.3889159892778
 20
-134.8651529610754
 10
105.3148464363449
 20
-134.9392225140083
 10
105.3020995830495
 20
-135.0556667414097
 10
105.3020995830495
 20
-135.1104437596252
 10
105.3020995830495
 20
-135.1297362943426
 10
105.3041666403406
 20
-135.1655652873892
 10
105.3083007549229
 20
-135.1931260512712
 10
105.3083007549229
 20
-135.1931260512712
 10
105.1136528600063
 20
-135.1931260512712
 10
105.1136528600063
 20
-135.1931260512712
 10
105.1201985414283
 20
-135.1548854913849
 10
105.1222655987194
 20
-135.1128553264649
 10
105.1222655987194
 20
-135.1063096450429
 10
105.1222655987194
 20
-135.0408528308231
 10
105.1009060067109
 20
-134.8420708213242
 10
104.8642279468742
 20
-134.8420708213242
 10
104.6864610198353
 20
-134.8420708213242
 10
104.6313394920713
 20
-134.9729844497637
 10
104.6313394920713
 20
-135.0832275052917
 10
104.6313394920713
 20
-135.3474663290104
 10
104.8642279468742
 20
-135.3560790677235
 10
104.9358859329674
 20
-135.3602131823058
 10
104.9358859329674
 20
-135.3602131823058
 10
104.9358859329674
 20
-135.5634738159355
 10
104.9358859329674
 20
-135.5634738159355
 10
104.8111734764014
 20
-135.5548610772224
 10
104.4346245398636
 20
-135.5273003133404
 10
104.4346245398636
 20
-135.0704806519963
 10
104.4346245398636
 20
-134.8462049359065
 10
104.5617485632693
 20
-134.605048251939
 10
104.8576822654523
 20
-134.605048251939
 10
105.0440619312043
 20
-134.605048251939
 10
105.1263997133017
 20
-134.7001328873319
 10
105.1877224129392
 20
-134.7996961468556
 10
105.2152831768212
 20
-134.7383734472182
 10
105.2955539016275
 20
-134.556472405597
 10
105.5728840881901
 20
-134.556472405597
 10
105.9111924648416
 20
-134.556472405597
 10
106.0782795958763
 20
-134.8038302614379
 10
106.0782795958763
 20
-135.080815938452
 97
        0
 97
        0
 75
     2
 76
     1
 98
        0
  0
ENDBLK
  5
E8
330
E5
100
AcDbEntity
  8
0
100
AcDbBlockEnd
  0
BLOCK
  5
F1
330
EF
100
AcDbEntity
  8
0
100
AcDbBlockBegin
  2
block 7
 70
     0
 10
0.0
 20
0.0
 30
0.0
  3
block 7
  1

  0
SPLINE
  5
F3
330
EF
100
AcDbEntity
  8
_U+30EC_U+30A4_U+30E4_U+30FC 1
370
     0
100
AcDbSpline
210
0.0
220
0.0
230
1.0
 70
    11
 71
     3
 72
    32
 73
    28
 74
     0
 42
0.0000000001
 43
0.0000000001
 12
1.0
 22
0.0
 32
0.0
 13
1.0
 23
0.0
 33
0.0
 40
0.0
 40
0.0
 40
0.0
 40
0.0
 40
1.0
 40
1.0
 40
1.0
 40
2.0
 40
2.0
 40
2.0
 40
3.0
 40
3.0
 40
3.0
 40
4.0
 40
4.0
 40
4.0
 40
5.0
 40
5.0
 40
5.0
 40
6.0
 40
6.0
 40
6.0
 40
7.0
 40
7.0
 40
7.0
 40
8.0
 40
8.0
 40
8.0
 40
9.0
 40
9.0
 40
9.0
 40
9.0
 10
106.0782795958763
 20
-129.6875189562934
 30
0.0
 10
106.0782795958763
 20
-129.8608072592015
 30
0.0
 10
106.0086886670742
 20
-130.1064425672998
 30
0.0
 10
105.6765814622961
 20
-130.1443386176375
 30
0.0
 10
105.6765814622961
 20
-130.1443386176375
 30
0.0
 10
105.6765814622961
 20
-129.930742697552
 30
0.0
 10
105.6765814622961
 20
-129.930742697552
 30
0.0
 10
105.7358371046424
 20
-129.9200629015478
 30
0.0
 10
105.8836317009597
 20
-129.8883680230835
 30
0.0
 10
105.8836317009597
 20
-129.6854518990023
 30
0.0
 10
105.8836317009597
 20
-129.3933078018531
 30
0.0
 10
105.5539360630212
 20
-129.3554117515153
 30
0.0
 10
105.3486083721004
 20
-129.3426648982199
 30
0.0
 10
105.4288790969067
 20
-129.4336154190305
 30
0.0
 10
105.4860676819618
 20
-129.5011392905414
 30
0.0
 10
105.4860676819618
 20
-129.6830403321626
 30
0.0
 10
105.4860676819618
 20
-129.8628743164926
 30
0.0
 10
105.3803032505647
 20
-130.1653537000976
 30
0.0
 10
104.9741264928537
 20
-130.1653537000976
 30
0.0
 10
104.654766141371
 20
-130.1653537000976
 30
0.0
 10
104.4346245398636
 20
-129.9665716905986
 30
0.0
 10
104.4346245398636
 20
-129.6492783964071
 30
0.0
 10
104.4346245398636
 20
-129.1352701500078
 30
0.0
 10
104.9889404034403
 20
-129.1245903540036
 30
0.0
 10
105.2025363235258
 20
-129.1245903540036
 30
0.0
 10
105.433013211489
 20
-129.1245903540036
 30
0.0
 10
106.0782795958763
 20
-129.143882888721
 30
0.0
 10
106.0782795958763
 20
-129.6875189562934
 30
0.0
  0
SPLINE
  5
F4
330
EF
100
AcDbEntity
  8
_U+30EC_U+30A4_U+30E4_U+30FC 1
370
     0
100
AcDbSpline
210
0.0
220
0.0
230
1.0
 70
    11
 71
     3
 72
    17
 73
    13
 74
     0
 42
0.0000000001
 43
0.0000000001
 12
1.0
 22
0.0
 32
0.0
 13
1.0
 23
0.0
 33
0.0
 40
0.0
 40
0.0
 40
0.0
 40
0.0
 40
1.0
 40
1.0
 40
1.0
 40
2.0
 40
2.0
 40
2.0
 40
3.0
 40
3.0
 40
3.0
 40
4.0
 40
4.0
 40
4.0
 40
4.0
 10
104.627205377489
 20
-129.647211339116
 30
0.0
 10
104.627205377489
 20
-129.7657226238086
 30
0.0
 10
104.6843939625442
 20
-129.9414224935563
 30
0.0
 10
104.9699923782714
 20
-129.9414224935563
 30
0.0
 10
105.1963351516523
 20
-129.9414224935563
 30
0.0
 10
105.2914197870452
 20
-129.8015516168552
 30
0.0
 10
105.2914197870452
 20
-129.6661593642849
 30
0.0
 10
105.2914197870452
 20
-129.4039875978573
 30
0.0
 10
105.081957981542
 20
-129.3657470379711
 30
0.0
 10
104.9655137541406
 20
-129.3657470379711
 30
0.0
 10
104.7901583939414
 20
-129.3657470379711
 30
0.0
 10
104.627205377489
 20
-129.4611761829125
 30
0.0
 10
104.627205377489
 20
-129.647211339116
 30
0.0
  0
HATCH
  5
F5
330
EF
100
AcDbEntity
  8
_U+30EC_U+30A4_U+30E4_U+30FC 1
 62
     7
420
 16777215
100
AcDbHatch
 10
0.0
 20
0.0
 30
0.0
210
0.0
220
0.0
230
1.0
  2
SOLID
 70
     1
 71
     0
 91
        2
 92
        1
 93
        1
 72
     4
 94
        3
 73
     0
 74
     1
 95
       32
 96
       28
 40
0.0
 40
0.0
 40
0.0
 40
0.0
 40
1.0
 40
1.0
 40
1.0
 40
2.0
 40
2.0
 40
2.0
 40
3.0
 40
3.0
 40
3.0
 40
4.0
 40
4.0
 40
4.0
 40
5.0
 40
5.0
 40
5.0
 40
6.0
 40
6.0
 40
6.0
 40
7.0
 40
7.0
 40
7.0
 40
8.0
 40
8.0
 40
8.0
 40
9.0
 40
9.0
 40
9.0
 40
9.0
 10
106.0782795958763
 20
-129.6875189562934
 10
106.0782795958763
 20
-129.8608072592015
 10
106.0086886670742
 20
-130.1064425672998
 10
105.6765814622961
 20
-130.1443386176375
 10
105.6765814622961
 20
-130.1443386176375
 10
105.6765814622961
 20
-129.930742697552
 10
105.6765814622961
 20
-129.930742697552
 10
105.7358371046424
 20
-129.9200629015478
 10
105.8836317009597
 20
-129.8883680230835
 10
105.8836317009597
 20
-129.6854518990023
 10
105.8836317009597
 20
-129.3933078018531
 10
105.5539360630212
 20
-129.3554117515153
 10
105.3486083721004
 20
-129.3426648982199
 10
105.4288790969067
 20
-129.4336154190305
 10
105.4860676819618
 20
-129.5011392905414
 10
105.4860676819618
 20
-129.6830403321626
 10
105.4860676819618
 20
-129.8628743164926
 10
105.3803032505647
 20
-130.1653537000976
 10
104.9741264928537
 20
-130.1653537000976
 10
104.654766141371
 20
-130.1653537000976
 10
104.4346245398636
 20
-129.9665716905986
 10
104.4346245398636
 20
-129.6492783964071
 10
104.4346245398636
 20
-129.1352701500078
 10
104.9889404034403
 20
-129.1245903540036
 10
105.2025363235258
 20
-129.1245903540036
 10
105.433013211489
 20
-129.1245903540036
 10
106.0782795958763
 20
-129.143882888721
 10
106.0782795958763
 20
-129.6875189562934
 97
        0
 97
        0
 92
        1
 93
        1
 72
     4
 94
        3
 73
     0
 74
     1
 95
       17
 96
       13
 40
0.0
 40
0.0
 40
0.0
 40
0.0
 40
1.0
 40
1.0
 40
1.0
 40
2.0
 40
2.0
 40
2.0
 40
3.0
 40
3.0
 40
3.0
 40
4.0
 40
4.0
 40
4.0
 40
4.0
 10
104.627205377489
 20
-129.647211339116
 10
104.627205377489
 20
-129.7657226238086
 10
104.6843939625442
 20
-129.9414224935563
 10
104.9699923782714
 20
-129.9414224935563
 10
105.1963351516523
 20
-129.9414224935563
 10
105.2914197870452
 20
-129.8015516168552
 10
105.2914197870452
 20
-129.6661593642849
 10
105.2914197870452
 20
-129.4039875978573
 10
105.081957981542
 20
-129.3657470379711
 10
104.9655137541406
 20
-129.3657470379711
 10
104.7901583939414
 20
-129.3657470379711
 10
104.627205377489
 20
-129.4611761829125
 10
104.627205377489
 20
-129.647211339116
 97
        0
 97
        0
 75
     2
 76
     1
 98
        0
  0
POLYLINE
  5
F6
330
EF
100
AcDbEntity
  8
_U+30EC_U+30A4_U+30E4_U+30FC 1
370
     0
100
AcDb2dPolyline
 66
     1
 10
0.0
 20
0.0
 30
0.0
  0
VERTEX
  5
F7
330
F6
100
AcDbEntity
  8
_U+30EC_U+30A4_U+30E4_U+30FC 1
370
     0
100
AcDbVertex
100
AcDb2dVertex
 10
106.0276366922431
 20
-128.9082383575299
 30
0.0
  0
VERTEX
  5
F8
330
F6
100
AcDbEntity
  8
_U+30EC_U+30A4_U+30E4_U+30FC 1
370
     0
100
AcDbVertex
100
AcDb2dVertex
 10
105.7758002122713
 20
-128.9082383575299
 30
0.0
  0
VERTEX
  5
F9
330
F6
100
AcDbEntity
  8
_U+30EC_U+30A4_U+30E4_U+30FC 1
370
     0
100
AcDbVertex
100
AcDb2dVertex
 10
105.7758002122713
 20
-128.6564018775581
 30
0.0
  0
VERTEX
  5
FA
330
F6
100
AcDbEntity
  8
_U+30EC_U+30A4_U+30E4_U+30FC 1
370
     0
100
AcDbVertex
100
AcDb2dVertex
 10
106.0276366922431
 20
-128.6564018775581
 30
0.0
  0
VERTEX
  5
FB
330
F6
100
AcDbEntity
  8
_U+30EC_U+30A4_U+30E4_U+30FC 1
370
     0
100
AcDbVertex
100
AcDb2dVertex
 10
106.0276366922431
 20
-128.9082383575299
 30
0.0
  0
SEQEND
  5
FC
330
F6
100
AcDbEntity
  8
_U+30EC_U+30A4_U+30E4_U+30FC 1
370
     0
  0
HATCH
  5
FD
330
EF
100
AcDbEntity
  8
_U+30EC_U+30A4_U+30E4_U+30FC 1
 62
     7
420
 16777215
100
AcDbHatch
 10
0.0
 20
0.0
 30
0.0
210
0.0
220
0.0
230
1.0
  2
SOLID
 70
     1
 71
     0
 91
        1
 92
        1
 93
        4
 72
     1
 10
106.0276366922431
 20
-128.9082383575299
 11
105.7758002122713
 21
-128.9082383575299
 72
     1
 10
105.7758002122713
 20
-128.9082383575299
 11
105.7758002122713
 21
-128.6564018775581
 72
     1
 10
105.7758002122713
 20
-128.6564018775581
 11
106.0276366922431
 21
-128.6564018775581
 72
     1
 10
106.0276366922431
 20
-128.6564018775581
 11
106.0276366922431
 21
-128.9082383575299
 97
        0
 75
     2
 76
     1
 98
        0
  0
SPLINE
  5
FE
330
EF
100
AcDbEntity
  8
_U+30EC_U+30A4_U+30E4_U+30FC 1
370
     0
100
AcDbSpline
210
0.0
220
0.0
230
1.0
 70
    11
 71
     3
 72
    53
 73
    49
 74
     0
 42
0.0000000001
 43
0.0000000001
 12
1.0
 22
0.0
 32
0.0
 13
1.0
 23
0.0
 33
0.0
 40
0.0
 40
0.0
 40
0.0
 40
0.0
 40
1.0
 40
1.0
 40
1.0
 40
2.0
 40
2.0
 40
2.0
 40
3.0
 40
3.0
 40
3.0
 40
4.0
 40
4.0
 40
4.0
 40
5.0
 40
5.0
 40
5.0
 40
6.0
 40
6.0
 40
6.0
 40
7.0
 40
7.0
 40
7.0
 40
8.0
 40
8.0
 40
8.0
 40
9.0
 40
9.0
 40
9.0
 40
10.0
 40
10.0
 40
10.0
 40
11.0
 40
11.0
 40
11.0
 40
12.0
 40
12.0
 40
12.0
 40
13.0
 40
13.0
 40
13.0
 40
14.0
 40
14.0
 40
14.0
 40
15.0
 40
15.0
 40
15.0
 40
16.0
 40
16.0
 40
16.0
 40
16.0
 10
106.0782795958763
 20
-127.9391329975291
 30
0.0
 10
106.0782795958763
 20
-128.0173366650443
 30
0.0
 10
106.0613986279985
 20
-128.1189669818592
 30
0.0
 10
105.9980088710699
 20
-128.220597298674
 30
0.0
 10
105.8881103250905
 20
-128.3938856015821
 30
0.0
 10
105.7568521871025
 20
-128.4152451935906
 30
0.0
 10
105.6490206984141
 20
-128.4341932187595
 30
0.0
 10
105.6490206984141
 20
-128.4341932187595
 30
0.0
 10
105.6490206984141
 20
-128.2119845599609
 30
0.0
 10
105.6490206984141
 20
-128.2119845599609
 30
0.0
 10
105.8478027079131
 20
-128.1572075417454
 30
0.0
 10
105.8774305290862
 20
-128.0300835183397
 30
0.0
 10
105.8774305290862
 20
-127.937065940238
 30
0.0
 10
105.8774305290862
 20
-127.7975395730853
 30
0.0
 10
105.7778672695625
 20
-127.6452663526373
 30
0.0
 10
105.5453233243081
 20
-127.6452663526373
 30
0.0
 10
105.2893527297541
 20
-127.6452663526373
 30
0.0
 10
105.2194172914035
 20
-127.8251003369673
 30
0.0
 10
105.2194172914035
 20
-127.9456786789511
 30
0.0
 10
105.2194172914035
 20
-127.9773735574154
 30
0.0
 10
105.2194172914035
 20
-128.1189669818592
 30
0.0
 10
105.3486083721004
 20
-128.2078504453786
 30
0.0
 10
105.3486083721004
 20
-128.2078504453786
 30
0.0
 10
105.3296603469315
 20
-128.3835503151263
 30
0.0
 10
105.3296603469315
 20
-128.3835503151263
 30
0.0
 10
105.3296603469315
 20
-128.3835503151263
 30
0.0
 10
104.4832003862056
 20
-128.2629719731426
 30
0.0
 10
104.4832003862056
 20
-128.2629719731426
 30
0.0
 10
104.4832003862056
 20
-128.2629719731426
 30
0.0
 10
104.4832003862056
 20
-127.4843803934761
 30
0.0
 10
104.4832003862056
 20
-127.4843803934761
 30
0.0
 10
104.4832003862056
 20
-127.4843803934761
 30
0.0
 10
104.6778482811222
 20
-127.4843803934761
 30
0.0
 10
104.6778482811222
 20
-127.4843803934761
 30
0.0
 10
104.6778482811222
 20
-127.4843803934761
 30
0.0
 10
104.6778482811222
 20
-128.1000189566903
 30
0.0
 10
104.6778482811222
 20
-128.1000189566903
 30
0.0
 10
104.6778482811222
 20
-128.1000189566903
 30
0.0
 10
105.1009060067109
 20
-128.16547577091
 30
0.0
 10
105.1009060067109
 20
-128.16547577091
 30
0.0
 10
105.0671440709554
 20
-128.1041530712726
 30
0.0
 10
105.026836453778
 20
-128.0218152891751
 30
0.0
 10
105.026836453778
 20
-127.9033040044825
 30
0.0
 10
105.026836453778
 20
-127.6494004672196
 30
0.0
 10
105.21321611953
 20
-127.4123778978344
 30
0.0
 10
105.5263752991392
 20
-127.4123778978344
 30
0.0
 10
105.8436685933307
 20
-127.4123778978344
 30
0.0
 10
106.0782795958763
 20
-127.6366536139242
 30
0.0
 10
106.0782795958763
 20
-127.9391329975291
 30
0.0
  0
HATCH
  5
FF
330
EF
100
AcDbEntity
  8
_U+30EC_U+30A4_U+30E4_U+30FC 1
 62
     7
420
 16777215
100
AcDbHatch
 10
0.0
 20
0.0
 30
0.0
210
0.0
220
0.0
230
1.0
  2
SOLID
 70
     1
 71
     0
 91
        1
 92
        1
 93
        1
 72
     4
 94
        3
 73
     0
 74
     1
 95
       53
 96
       49
 40
0.0
 40
0.0
 40
0.0
 40
0.0
 40
1.0
 40
1.0
 40
1.0
 40
2.0
 40
2.0
 40
2.0
 40
3.0
 40
3.0
 40
3.0
 40
4.0
 40
4.0
 40
4.0
 40
5.0
 40
5.0
 40
5.0
 40
6.0
 40
6.0
 40
6.0
 40
7.0
 40
7.0
 40
7.0
 40
8.0
 40
8.0
 40
8.0
 40
9.0
 40
9.0
 40
9.0
 40
10.0
 40
10.0
 40
10.0
 40
11.0
 40
11.0
 40
11.0
 40
12.0
 40
12.0
 40
12.0
 40
13.0
 40
13.0
 40
13.0
 40
14.0
 40
14.0
 40
14.0
 40
15.0
 40
15.0
 40
15.0
 40
16.0
 40
16.0
 40
16.0
 40
16.0
 10
106.0782795958763
 20
-127.9391329975291
 10
106.0782795958763
 20
-128.0173366650443
 10
106.0613986279985
 20
-128.1189669818592
 10
105.9980088710699
 20
-128.220597298674
 10
105.8881103250905
 20
-128.3938856015821
 10
105.7568521871025
 20
-128.4152451935906
 10
105.6490206984141
 20
-128.4341932187595
 10
105.6490206984141
 20
-128.4341932187595
 10
105.6490206984141
 20
-128.2119845599609
 10
105.6490206984141
 20
-128.2119845599609
 10
105.8478027079131
 20
-128.1572075417454
 10
105.8774305290862
 20
-128.0300835183397
 10
105.8774305290862
 20
-127.937065940238
 10
105.8774305290862
 20
-127.7975395730853
 10
105.7778672695625
 20
-127.6452663526373
 10
105.5453233243081
 20
-127.6452663526373
 10
105.2893527297541
 20
-127.6452663526373
 10
105.2194172914035
 20
-127.8251003369673
 10
105.2194172914035
 20
-127.9456786789511
 10
105.2194172914035
 20
-127.9773735574154
 10
105.2194172914035
 20
-128.1189669818592
 10
105.3486083721004
 20
-128.2078504453786
 10
105.3486083721004
 20
-128.2078504453786
 10
105.3296603469315
 20
-128.3835503151263
 10
105.3296603469315
 20
-128.3835503151263
 10
105.3296603469315
 20
-128.3835503151263
 10
104.4832003862056
 20
-128.2629719731426
 10
104.4832003862056
 20
-128.2629719731426
 10
104.4832003862056
 20
-128.2629719731426
 10
104.4832003862056
 20
-127.4843803934761
 10
104.4832003862056
 20
-127.4843803934761
 10
104.4832003862056
 20
-127.4843803934761
 10
104.6778482811222
 20
-127.4843803934761
 10
104.6778482811222
 20
-127.4843803934761
 10
104.6778482811222
 20
-127.4843803934761
 10
104.6778482811222
 20
-128.1000189566903
 10
104.6778482811222
 20
-128.1000189566903
 10
104.6778482811222
 20
-128.1000189566903
 10
105.1009060067109
 20
-128.16547577091
 10
105.1009060067109
 20
-128.16547577091
 10
105.0671440709554
 20
-128.1041530712726
 10
105.026836453778
 20
-128.0218152891751
 10
105.026836453778
 20
-127.9033040044825
 10
105.026836453778
 20
-127.6494004672196
 10
105.21321611953
 20
-127.4123778978344
 10
105.5263752991392
 20
-127.4123778978344
 10
105.8436685933307
 20
-127.4123778978344
 10
106.0782795958763
 20
-127.6366536139242
 10
106.0782795958763
 20
-127.9391329975291
 97
        0
 97
        0
 75
     2
 76
     1
 98
        0
  0
ENDBLK
  5
F2
330
EF
100
AcDbEntity
  8
0
100
AcDbBlockEnd
  0
ENDSEC
  0
SECTION
  2
ENTITIES
  0
POLYLINE
  5
41
330
1F
100
AcDbEntity
  8
_U+30EC_U+30A4_U+30E4_U+30FC 1
 62
   253
420
 11711154
370
     9
100
AcDb2dPolyline
 66
     1
 10
0.0
 20
0.0
 30
0.0
  0
VERTEX
  5
42
330
41
100
AcDbEntity
  8
_U+30EC_U+30A4_U+30E4_U+30FC 1
 62
   253
420
 11711154
370
     9
100
AcDbVertex
100
AcDb2dVertex
 10
74.06336422159727
 20
-123.0643405247894
 30
0.0
  0
VERTEX
  5
43
330
41
100
AcDbEntity
  8
_U+30EC_U+30A4_U+30E4_U+30FC 1
 62
   253
420
 11711154
370
     9
100
AcDbVertex
100
AcDb2dVertex
 10
74.06336422159727
 20
-123.979340246783
 30
0.0
  0
VERTEX
  5
44
330
41
100
AcDbEntity
  8
_U+30EC_U+30A4_U+30E4_U+30FC 1
 62
   253
420
 11711154
370
     9
100
AcDbVertex
100
AcDb2dVertex
 10
79.958598237864
 20
-123.979340246783
 30
0.0
  0
VERTEX
  5
45
330
41
100
AcDbEntity
  8
_U+30EC_U+30A4_U+30E4_U+30FC 1
 62
   253
420
 11711154
370
     9
100
AcDbVertex
100
AcDb2dVertex
 10
79.958598237864
 20
-136.6090669102925
 30
0.0
  0
VERTEX
  5
46
330
41
100
AcDbEntity
  8
_U+30EC_U+30A4_U+30E4_U+30FC 1
 62
   253
420
 11711154
370
     9
100
AcDbVertex
100
AcDb2dVertex
 10
90.17020936623298
 20
-136.6090669102925
 30
0.0
  0
VERTEX
  5
47
330
41
100
AcDbEntity
  8
_U+30EC_U+30A4_U+30E4_U+30FC 1
 62
   253
420
 11711154
370
     9
100
AcDbVertex
100
AcDb2dVertex
 10
90.17020936623298
 20
-133.6442166332559
 30
0.0
  0
VERTEX
  5
48
330
41
100
AcDbEntity
  8
_U+30EC_U+30A4_U+30E4_U+30FC 1
 62
   253
420
 11711154
370
     9
100
AcDbVertex
100
AcDb2dVertex
 10
89.14528411460321
 20
-133.6442166332559
 30
0.0
  0
VERTEX
  5
49
330
41
100
AcDbEntity
  8
_U+30EC_U+30A4_U+30E4_U+30FC 1
 62
   253
420
 11711154
370
     9
100
AcDbVertex
100
AcDb2dVertex
 10
89.14528411460321
 20
-135.6575194105298
 30
0.0
  0
VERTEX
  5
4A
330
41
100
AcDbEntity
  8
_U+30EC_U+30A4_U+30E4_U+30FC 1
 62
   253
420
 11711154
370
     9
100
AcDbVertex
100
AcDb2dVertex
 10
80.98352348949375
 20
-135.6575194105298
 30
0.0
  0
VERTEX
  5
4B
330
41
100
AcDbEntity
  8
_U+30EC_U+30A4_U+30E4_U+30FC 1
 62
   253
420
 11711154
370
     9
100
AcDbVertex
100
AcDb2dVertex
 10
80.98352348949375
 20
-124.0165583023291
 30
0.0
  0
VERTEX
  5
4C
330
41
100
AcDbEntity
  8
_U+30EC_U+30A4_U+30E4_U+30FC 1
 62
   253
420
 11711154
370
     9
100
AcDbVertex
100
AcDb2dVertex
 10
103.1633673680832
 20
-124.0165583023291
 30
0.0
  0
VERTEX
  5
4D
330
41
100
AcDbEntity
  8
_U+30EC_U+30A4_U+30E4_U+30FC 1
 62
   253
420
 11711154
370
     9
100
AcDbVertex
100
AcDb2dVertex
 10
103.1633673680832
 20
-123.0277927470209
 30
0.0
  0
VERTEX
  5
4E
330
41
100
AcDbEntity
  8
_U+30EC_U+30A4_U+30E4_U+30FC 1
 62
   253
420
 11711154
370
     9
100
AcDbVertex
100
AcDb2dVertex
 10
74.06336422159727
 20
-123.0643405247894
 30
0.0
  0
SEQEND
  5
50
330
41
100
AcDbEntity
  8
_U+30EC_U+30A4_U+30E4_U+30FC 1
 62
   253
420
 11711154
370
     9
  0
HATCH
  5
4F
330
1F
100
AcDbEntity
  8
_U+30EC_U+30A4_U+30E4_U+30FC 1
 62
   253
420
 11711154
100
AcDbHatch
 10
0.0
 20
0.0
 30
0.0
210
0.0
220
0.0
230
1.0
  2
SOLID
 70
     1
 71
     0
 91
        1
 92
        1
 93
       12
 72
     1
 10
74.06336422159727
 20
-123.0643405247894
 11
74.06336422159727
 21
-123.979340246783
 72
     1
 10
74.06336422159727
 20
-123.979340246783
 11
79.958598237864
 21
-123.979340246783
 72
     1
 10
79.958598237864
 20
-123.979340246783
 11
79.958598237864
 21
-136.6090669102925
 72
     1
 10
79.958598237864
 20
-136.6090669102925
 11
90.17020936623298
 21
-136.6090669102925
 72
     1
 10
90.17020936623298
 20
-136.6090669102925
 11
90.17020936623298
 21
-133.6442166332559
 72
     1
 10
90.17020936623298
 20
-133.6442166332559
 11
89.14528411460321
 21
-133.6442166332559
 72
     1
 10
89.14528411460321
 20
-133.6442166332559
 11
89.14528411460321
 21
-135.6575194105298
 72
     1
 10
89.14528411460321
 20
-135.6575194105298
 11
80.98352348949375
 21
-135.6575194105298
 72
     1
 10
80.98352348949375
 20
-135.6575194105298
 11
80.98352348949375
 21
-124.0165583023291
 72
     1
 10
80.98352348949375
 20
-124.0165583023291
 11
103.1633673680832
 21
-124.0165583023291
 72
     1
 10
103.1633673680832
 20
-124.0165583023291
 11
103.1633673680832
 21
-123.0277927470209
 72
     1
 10
103.1633673680832
 20
-123.0277927470209
 11
74.06336422159727
 21
-123.0643405247894
 97
        0
 75
     2
 76
     1
 98
        0
  0
POLYLINE
  5
51
330
1F
100
AcDbEntity
  8
_U+30EC_U+30A4_U+30E4_U+30FC 1
 62
     7
420
 16777215
370
    25
100
AcDb2dPolyline
 66
     1
 10
0.0
 20
0.0
 30
0.0
  0
VERTEX
  5
52
330
51
100
AcDbEntity
  8
_U+30EC_U+30A4_U+30E4_U+30FC 1
 62
     7
420
 16777215
370
    25
100
AcDbVertex
100
AcDb2dVertex
 10
74.0753939435126
 20
-123.0333313581306
 30
0.0
  0
VERTEX
  5
53
330
51
100
AcDbEntity
  8
_U+30EC_U+30A4_U+30E4_U+30FC 1
 62
     7
420
 16777215
370
    25
100
AcDbVertex
100
AcDb2dVertex
 10
103.0758784814264
 20
-123.0333313581306
 30
0.0
  0
SEQEND
  5
54
330
51
100
AcDbEntity
  8
_U+30EC_U+30A4_U+30E4_U+30FC 1
 62
     7
420
 16777215
370
    25
  0
POLYLINE
  5
55
330
1F
100
AcDbEntity
  8
_U+30EC_U+30A4_U+30E4_U+30FC 1
 62
     7
420
 16777215
370
    25
100
AcDb2dPolyline
 66
     1
 10
0.0
 20
0.0
 30
0.0
  0
VERTEX
  5
56
330
55
100
AcDbEntity
  8
_U+30EC_U+30A4_U+30E4_U+30FC 1
 62
     7
420
 16777215
370
    25
100
AcDbVertex
100
AcDb2dVertex
 10
74.0753939435126
 20
-124.033068302325
 30
0.0
  0
VERTEX
  5
57
330
55
100
AcDbEntity
  8
_U+30EC_U+30A4_U+30E4_U+30FC 1
 62
     7
420
 16777215
370
    25
100
AcDbVertex
100
AcDb2dVertex
 10
80.07572045709817
 20
-124.033068302325
 30
0.0
  0
SEQEND
  5
58
330
55
100
AcDbEntity
  8
_U+30EC_U+30A4_U+30E4_U+30FC 1
 62
     7
420
 16777215
370
    25
  0
POLYLINE
  5
59
330
1F
100
AcDbEntity
  8
_U+30EC_U+30A4_U+30E4_U+30FC 1
 62
     7
420
 16777215
370
    25
100
AcDb2dPolyline
 66
     1
 10
0.0
 20
0.0
 30
0.0
  0
VERTEX
  5
5A
330
59
100
AcDbEntity
  8
_U+30EC_U+30A4_U+30E4_U+30FC 1
 62
     7
420
 16777215
370
    25
100
AcDbVertex
100
AcDb2dVertex
 10
103.1272076467835
 20
-124.033068302325
 30
0.0
  0
VERTEX
  5
5B
330
59
100
AcDbEntity
  8
_U+30EC_U+30A4_U+30E4_U+30FC 1
 62
     7
420
 16777215
370
    25
100
AcDbVertex
100
AcDb2dVertex
 10
103.1272076467835
 20
-123.0333313581306
 30
0.0
  0
SEQEND
  5
5C
330
59
100
AcDbEntity
  8
_U+30EC_U+30A4_U+30E4_U+30FC 1
 62
     7
420
 16777215
370
    25
  0
POLYLINE
  5
5D
330
1F
100
AcDbEntity
  8
_U+30EC_U+30A4_U+30E4_U+30FC 1
 62
     7
420
 16777215
370
    25
100
AcDb2dPolyline
 66
     1
 10
0.0
 20
0.0
 30
0.0
  0
VERTEX
  5
5E
330
5D
100
AcDbEntity
  8
_U+30EC_U+30A4_U+30E4_U+30FC 1
 62
     7
420
 16777215
370
    25
100
AcDbVertex
100
AcDb2dVertex
 10
80.97593876746502
 20
-124.033068302325
 30
0.0
  0
VERTEX
  5
5F
330
5D
100
AcDbEntity
  8
_U+30EC_U+30A4_U+30E4_U+30FC 1
 62
     7
420
 16777215
370
    25
100
AcDbVertex
100
AcDb2dVertex
 10
103.1272076467835
 20
-124.033068302325
 30
0.0
  0
SEQEND
  5
60
330
5D
100
AcDbEntity
  8
_U+30EC_U+30A4_U+30E4_U+30FC 1
 62
     7
420
 16777215
370
    25
  0
POLYLINE
  5
61
330
1F
100
AcDbEntity
  8
_U+30EC_U+30A4_U+30E4_U+30FC 1
 62
     7
420
 16777215
370
    25
100
AcDb2dPolyline
 66
     1
 10
0.0
 20
0.0
 30
0.0
  0
VERTEX
  5
62
330
61
100
AcDbEntity
  8
_U+30EC_U+30A4_U+30E4_U+30FC 1
 62
     7
420
 16777215
370
    25
100
AcDbVertex
100
AcDb2dVertex
 10
74.11606922025265
 20
-124.033068302325
 30
0.0
  0
VERTEX
  5
63
330
61
100
AcDbEntity
  8
_U+30EC_U+30A4_U+30E4_U+30FC 1
 62
     7
420
 16777215
370
    25
100
AcDbVertex
100
AcDb2dVertex
 10
74.11606922025265
 20
-123.0333313581306
 30
0.0
  0
SEQEND
  5
64
330
61
100
AcDbEntity
  8
_U+30EC_U+30A4_U+30E4_U+30FC 1
 62
     7
420
 16777215
370
    25
  0
POLYLINE
  5
65
330
1F
100
AcDbEntity
  8
_U+30EC_U+30A4_U+30E4_U+30FC 1
 62
     7
420
 16777215
370
    25
100
AcDb2dPolyline
 66
     1
 10
0.0
 20
0.0
 30
0.0
  0
VERTEX
  5
66
330
65
100
AcDbEntity
  8
_U+30EC_U+30A4_U+30E4_U+30FC 1
 62
     7
420
 16777215
370
    25
100
AcDbVertex
100
AcDb2dVertex
 10
80.07572045709817
 20
-136.7013888547135
 30
0.0
  0
VERTEX
  5
67
330
65
100
AcDbEntity
  8
_U+30EC_U+30A4_U+30E4_U+30FC 1
 62
     7
420
 16777215
370
    25
100
AcDbVertex
100
AcDb2dVertex
 10
80.07572045709817
 20
-124.033068302325
 30
0.0
  0
SEQEND
  5
68
330
65
100
AcDbEntity
  8
_U+30EC_U+30A4_U+30E4_U+30FC 1
 62
     7
420
 16777215
370
    25
  0
POLYLINE
  5
69
330
1F
100
AcDbEntity
  8
_U+30EC_U+30A4_U+30E4_U+30FC 1
 62
     7
420
 16777215
370
    25
100
AcDb2dPolyline
 66
     1
 10
0.0
 20
0.0
 30
0.0
  0
VERTEX
  5
6A
330
69
100
AcDbEntity
  8
_U+30EC_U+30A4_U+30E4_U+30FC 1
 62
     7
420
 16777215
370
    25
100
AcDbVertex
100
AcDb2dVertex
 10
80.07572045709817
 20
-136.7013888547135
 30
0.0
  0
VERTEX
  5
6B
330
69
100
AcDbEntity
  8
_U+30EC_U+30A4_U+30E4_U+30FC 1
 62
     7
420
 16777215
370
    25
100
AcDbVertex
100
AcDb2dVertex
 10
90.07580831081425
 20
-136.7013888547135
 30
0.0
  0
SEQEND
  5
6C
330
69
100
AcDbEntity
  8
_U+30EC_U+30A4_U+30E4_U+30FC 1
 62
     7
420
 16777215
370
    25
  0
POLYLINE
  5
6D
330
1F
100
AcDbEntity
  8
_U+30EC_U+30A4_U+30E4_U+30FC 1
 62
     7
420
 16777215
370
    25
100
AcDb2dPolyline
 66
     1
 10
0.0
 20
0.0
 30
0.0
  0
VERTEX
  5
6E
330
6D
100
AcDbEntity
  8
_U+30EC_U+30A4_U+30E4_U+30FC 1
 62
     7
420
 16777215
370
    25
100
AcDbVertex
100
AcDb2dVertex
 10
80.97593876746502
 20
-135.701616632741
 30
0.0
  0
VERTEX
  5
6F
330
6D
100
AcDbEntity
  8
_U+30EC_U+30A4_U+30E4_U+30FC 1
 62
     7
420
 16777215
370
    25
100
AcDbVertex
100
AcDb2dVertex
 10
89.1659568918536
 20
-135.701616632741
 30
0.0
  0
SEQEND
  5
70
330
6D
100
AcDbEntity
  8
_U+30EC_U+30A4_U+30E4_U+30FC 1
 62
     7
420
 16777215
370
    25
  0
POLYLINE
  5
71
330
1F
100
AcDbEntity
  8
_U+30EC_U+30A4_U+30E4_U+30FC 1
 62
     7
420
 16777215
370
    25
100
AcDb2dPolyline
 66
     1
 10
0.0
 20
0.0
 30
0.0
  0
VERTEX
  5
72
330
71
100
AcDbEntity
  8
_U+30EC_U+30A4_U+30E4_U+30FC 1
 62
     7
420
 16777215
370
    25
100
AcDbVertex
100
AcDb2dVertex
 10
89.14115661470852
 20
-133.7014019110192
 30
0.0
  0
VERTEX
  5
73
330
71
100
AcDbEntity
  8
_U+30EC_U+30A4_U+30E4_U+30FC 1
 62
     7
420
 16777215
370
    25
100
AcDbVertex
100
AcDb2dVertex
 10
90.1415990891851
 20
-133.7014019110192
 30
0.0
  0
SEQEND
  5
74
330
71
100
AcDbEntity
  8
_U+30EC_U+30A4_U+30E4_U+30FC 1
 62
     7
420
 16777215
370
    25
  0
POLYLINE
  5
75
330
1F
100
AcDbEntity
  8
_U+30EC_U+30A4_U+30E4_U+30FC 1
 62
     7
420
 16777215
370
    25
100
AcDb2dPolyline
 66
     1
 10
0.0
 20
0.0
 30
0.0
  0
VERTEX
  5
76
330
75
100
AcDbEntity
  8
_U+30EC_U+30A4_U+30E4_U+30FC 1
 62
     7
420
 16777215
370
    25
100
AcDbVertex
100
AcDb2dVertex
 10
90.1415990891851
 20
-136.7013888547135
 30
0.0
  0
VERTEX
  5
77
330
75
100
AcDbEntity
  8
_U+30EC_U+30A4_U+30E4_U+30FC 1
 62
     7
420
 16777215
370
    25
100
AcDbVertex
100
AcDb2dVertex
 10
90.1415990891851
 20
-133.7014019110192
 30
0.0
  0
SEQEND
  5
78
330
75
100
AcDbEntity
  8
_U+30EC_U+30A4_U+30E4_U+30FC 1
 62
     7
420
 16777215
370
    25
  0
POLYLINE
  5
79
330
1F
100
AcDbEntity
  8
_U+30EC_U+30A4_U+30E4_U+30FC 1
 62
     7
420
 16777215
370
    25
100
AcDb2dPolyline
 66
     1
 10
0.0
 20
0.0
 30
0.0
  0
VERTEX
  5
7A
330
79
100
AcDbEntity
  8
_U+30EC_U+30A4_U+30E4_U+30FC 1
 62
     7
420
 16777215
370
    25
100
AcDbVertex
100
AcDb2dVertex
 10
89.14115661470852
 20
-135.701616632741
 30
0.0
  0
VERTEX
  5
7B
330
79
100
AcDbEntity
  8
_U+30EC_U+30A4_U+30E4_U+30FC 1
 62
     7
420
 16777215
370
    25
100
AcDbVertex
100
AcDb2dVertex
 10
89.14115661470852
 20
-133.7014019110192
 30
0.0
  0
SEQEND
  5
7C
330
79
100
AcDbEntity
  8
_U+30EC_U+30A4_U+30E4_U+30FC 1
 62
     7
420
 16777215
370
    25
  0
POLYLINE
  5
7D
330
1F
100
AcDbEntity
  8
_U+30EC_U+30A4_U+30E4_U+30FC 1
 62
     7
420
 16777215
370
    25
100
AcDb2dPolyline
 66
     1
 10
0.0
 20
0.0
 30
0.0
  0
VERTEX
  5
7E
330
7D
100
AcDbEntity
  8
_U+30EC_U+30A4_U+30E4_U+30FC 1
 62
     7
420
 16777215
370
    25
100
AcDbVertex
100
AcDb2dVertex
 10
80.97593876746502
 20
-128.4100880234532
 30
0.0
  0
VERTEX
  5
7F
330
7D
100
AcDbEntity
  8
_U+30EC_U+30A4_U+30E4_U+30FC 1
 62
     7
420
 16777215
370
    25
100
AcDbVertex
100
AcDb2dVertex
 10
80.97593876746502
 20
-124.033068302325
 30
0.0
  0
SEQEND
  5
80
330
7D
100
AcDbEntity
  8
_U+30EC_U+30A4_U+30E4_U+30FC 1
 62
     7
420
 16777215
370
    25
  0
SPLINE
  5
81
330
1F
100
AcDbEntity
  8
_U+30EC_U+30A4_U+30E4_U+30FC 1
 62
     7
420
 16777215
370
     9
100
AcDbSpline
210
0.0
220
0.0
230
1.0
 70
    11
 71
     3
 72
    17
 73
    13
 74
     0
 42
0.0000000001
 43
0.0000000001
 12
1.0
 22
0.0
 32
0.0
 13
1.0
 23
0.0
 33
0.0
 40
0.0
 40
0.0
 40
0.0
 40
0.0
 40
1.0
 40
1.0
 40
1.0
 40
2.0
 40
2.0
 40
2.0
 40
3.0
 40
3.0
 40
3.0
 40
4.0
 40
4.0
 40
4.0
 40
4.0
 10
74.1436211639942
 20
-119.0328666369085
 30
0.0
 10
74.1436211639942
 20
-118.9777627480333
 30
0.0
 10
74.09881838735943
 20
-118.9329599702669
 30
0.0
 10
74.04371449987636
 20
-118.9329599702669
 30
0.0
 10
73.98857533461641
 20
-118.9329599702669
 30
0.0
 10
73.94380783575852
 20
-118.9777627480333
 30
0.0
 10
73.94380783575852
 20
-119.0328666369085
 30
0.0
 10
73.94380783575852
 20
-119.088676081339
 30
0.0
 10
73.98857533461641
 20
-119.1334788591057
 30
0.0
 10
74.04371449987636
 20
-119.1334788591057
 30
0.0
 10
74.09881838735943
 20
-119.1334788591057
 30
0.0
 10
74.1436211639942
 20
-119.088676081339
 30
0.0
 10
74.1436211639942
 20
-119.0328666369085
 30
0.0
  0
SPLINE
  5
82
330
1F
100
AcDbEntity
  8
_U+30EC_U+30A4_U+30E4_U+30FC 1
 62
     7
420
 16777215
370
     9
100
AcDbSpline
210
0.0
220
0.0
230
1.0
 70
    11
 71
     3
 72
    17
 73
    13
 74
     0
 42
0.0000000001
 43
0.0000000001
 12
1.0
 22
0.0
 32
0.0
 13
1.0
 23
0.0
 33
0.0
 40
0.0
 40
0.0
 40
0.0
 40
0.0
 40
1.0
 40
1.0
 40
1.0
 40
2.0
 40
2.0
 40
2.0
 40
3.0
 40
3.0
 40
3.0
 40
4.0
 40
4.0
 40
4.0
 40
4.0
 10
103.0441990377901
 20
-119.0328666369085
 30
0.0
 10
103.0441990377901
 20
-118.9777627480333
 30
0.0
 10
102.9993962611554
 20
-118.9329599702669
 30
0.0
 10
102.9442570958954
 20
-118.9329599702669
 30
0.0
 10
102.8891532084124
 20
-118.9329599702669
 30
0.0
 10
102.8443504317776
 20
-118.9777627480333
 30
0.0
 10
102.8443504317776
 20
-119.0328666369085
 30
0.0
 10
102.8443504317776
 20
-119.088676081339
 30
0.0
 10
102.8891532084124
 20
-119.1334788591057
 30
0.0
 10
102.9442570958954
 20
-119.1334788591057
 30
0.0
 10
102.9993962611554
 20
-119.1334788591057
 30
0.0
 10
103.0441990377901
 20
-119.088676081339
 30
0.0
 10
103.0441990377901
 20
-119.0328666369085
 30
0.0
  0
SPLINE
  5
83
330
1F
100
AcDbEntity
  8
_U+30EC_U+30A4_U+30E4_U+30FC 1
 62
     7
420
 16777215
370
     9
100
AcDbSpline
210
0.0
220
0.0
230
1.0
 70
    11
 71
     3
 72
    17
 73
    13
 74
     0
 42
0.0000000001
 43
0.0000000001
 12
1.0
 22
0.0
 32
0.0
 13
1.0
 23
0.0
 33
0.0
 40
0.0
 40
0.0
 40
0.0
 40
0.0
 40
1.0
 40
1.0
 40
1.0
 40
2.0
 40
2.0
 40
2.0
 40
3.0
 40
3.0
 40
3.0
 40
4.0
 40
4.0
 40
4.0
 40
4.0
 10
107.2437388620778
 20
-123.0333313581306
 30
0.0
 10
107.2437388620778
 20
-122.9781921914775
 30
0.0
 10
107.1989686540154
 20
-122.933424691489
 30
0.0
 10
107.1438294887554
 20
-122.933424691489
 30
0.0
 10
107.0887256012723
 20
-122.933424691489
 30
0.0
 10
107.0439228246376
 20
-122.9781921914775
 30
0.0
 10
107.0439228246376
 20
-123.0333313581306
 30
0.0
 10
107.0439228246376
 20
-123.0884352470055
 30
0.0
 10
107.0887256012723
 20
-123.1332380247722
 30
0.0
 10
107.1438294887554
 20
-123.1332380247722
 30
0.0
 10
107.1989686540154
 20
-123.1332380247722
 30
0.0
 10
107.2437388620778
 20
-123.0884352470055
 30
0.0
 10
107.2437388620778
 20
-123.0333313581306
 30
0.0
  0
SPLINE
  5
84
330
1F
100
AcDbEntity
  8
_U+30EC_U+30A4_U+30E4_U+30FC 1
 62
     7
420
 16777215
370
     9
100
AcDbSpline
210
0.0
220
0.0
230
1.0
 70
    11
 71
     3
 72
    17
 73
    13
 74
     0
 42
0.0000000001
 43
0.0000000001
 12
1.0
 22
0.0
 32
0.0
 13
1.0
 23
0.0
 33
0.0
 40
0.0
 40
0.0
 40
0.0
 40
0.0
 40
1.0
 40
1.0
 40
1.0
 40
2.0
 40
2.0
 40
2.0
 40
3.0
 40
3.0
 40
3.0
 40
4.0
 40
4.0
 40
4.0
 40
4.0
 10
107.2437388620778
 20
-124.033068302325
 30
0.0
 10
107.2437388620778
 20
-123.9779644134501
 30
0.0
 10
107.1989686540154
 20
-123.9331616356833
 30
0.0
 10
107.1438294887554
 20
-123.9331616356833
 30
0.0
 10
107.0887256012723
 20
-123.9331616356833
 30
0.0
 10
107.0439228246376
 20
-123.9779644134501
 30
0.0
 10
107.0439228246376
 20
-124.033068302325
 30
0.0
 10
107.0439228246376
 20
-124.0882074689781
 30
0.0
 10
107.0887256012723
 20
-124.1329749689666
 30
0.0
 10
107.1438294887554
 20
-124.1329749689666
 30
0.0
 10
107.1989686540154
 20
-124.1329749689666
 30
0.0
 10
107.2437388620778
 20
-124.0882074689781
 30
0.0
 10
107.2437388620778
 20
-124.033068302325
 30
0.0
  0
SPLINE
  5
85
330
1F
100
AcDbEntity
  8
_U+30EC_U+30A4_U+30E4_U+30FC 1
 62
     7
420
 16777215
370
     9
100
AcDbSpline
210
0.0
220
0.0
230
1.0
 70
    11
 71
     3
 72
    17
 73
    13
 74
     0
 42
0.0000000001
 43
0.0000000001
 12
1.0
 22
0.0
 32
0.0
 13
1.0
 23
0.0
 33
0.0
 40
0.0
 40
0.0
 40
0.0
 40
0.0
 40
1.0
 40
1.0
 40
1.0
 40
2.0
 40
2.0
 40
2.0
 40
3.0
 40
3.0
 40
3.0
 40
4.0
 40
4.0
 40
4.0
 40
4.0
 10
80.17597989898479
 20
-140.927137464768
 30
0.0
 10
80.17597989898479
 20
-140.8720335758931
 30
0.0
 10
80.1312124001269
 20
-140.8272307981263
 30
0.0
 10
80.07572045709817
 20
-140.8272307981263
 30
0.0
 10
80.0206165696151
 20
-140.8272307981263
 30
0.0
 10
79.97581379298035
 20
-140.8720335758931
 30
0.0
 10
79.97581379298035
 20
-140.927137464768
 30
0.0
 10
79.97581379298035
 20
-140.982276631421
 30
0.0
 10
80.0206165696151
 20
-141.0270441314096
 30
0.0
 10
80.07572045709817
 20
-141.0270441314096
 30
0.0
 10
80.1312124001269
 20
-141.0270441314096
 30
0.0
 10
80.17597989898479
 20
-140.982276631421
 30
0.0
 10
80.17597989898479
 20
-140.927137464768
 30
0.0
  0
SPLINE
  5
86
330
1F
100
AcDbEntity
  8
_U+30EC_U+30A4_U+30E4_U+30FC 1
 62
     7
420
 16777215
370
     9
100
AcDbSpline
210
0.0
220
0.0
230
1.0
 70
    11
 71
     3
 72
    17
 73
    13
 74
     0
 42
0.0000000001
 43
0.0000000001
 12
1.0
 22
0.0
 32
0.0
 13
1.0
 23
0.0
 33
0.0
 40
0.0
 40
0.0
 40
0.0
 40
0.0
 40
1.0
 40
1.0
 40
1.0
 40
2.0
 40
2.0
 40
2.0
 40
3.0
 40
3.0
 40
3.0
 40
4.0
 40
4.0
 40
4.0
 40
4.0
 10
90.32694852890089
 20
-140.927137464768
 30
0.0
 10
90.32694852890089
 20
-140.8720335758931
 30
0.0
 10
90.28218331076268
 20
-140.8272307981263
 30
0.0
 10
90.22704186478306
 20
-140.8272307981263
 30
0.0
 10
90.17193797729999
 20
-140.8272307981263
 30
0.0
 10
90.12713520066522
 20
-140.8720335758931
 30
0.0
 10
90.12713520066522
 20
-140.927137464768
 30
0.0
 10
90.12713520066522
 20
-140.982276631421
 30
0.0
 10
90.17193797729999
 20
-141.0270441314096
 30
0.0
 10
90.22704186478306
 20
-141.0270441314096
 30
0.0
 10
90.28218331076268
 20
-141.0270441314096
 30
0.0
 10
90.32694852890089
 20
-140.982276631421
 30
0.0
 10
90.32694852890089
 20
-140.927137464768
 30
0.0
  0
SPLINE
  5
87
330
1F
100
AcDbEntity
  8
_U+30EC_U+30A4_U+30E4_U+30FC 1
 62
     7
420
 16777215
370
     9
100
AcDbSpline
210
0.0
220
0.0
230
1.0
 70
    11
 71
     3
 72
    17
 73
    13
 74
     0
 42
0.0000000001
 43
0.0000000001
 12
1.0
 22
0.0
 32
0.0
 13
1.0
 23
0.0
 33
0.0
 40
0.0
 40
0.0
 40
0.0
 40
0.0
 40
1.0
 40
1.0
 40
1.0
 40
2.0
 40
2.0
 40
2.0
 40
3.0
 40
3.0
 40
3.0
 40
4.0
 40
4.0
 40
4.0
 40
4.0
 10
74.28864998142797
 20
-140.927137464768
 30
0.0
 10
74.28864998142797
 20
-140.8720335758931
 30
0.0
 10
74.2438806058808
 20
-140.8272307981263
 30
0.0
 10
74.18874144062086
 20
-140.8272307981263
 30
0.0
 10
74.133284775369
 20
-140.8272307981263
 30
0.0
 10
74.08848199873424
 20
-140.8720335758931
 30
0.0
 10
74.08848199873424
 20
-140.927137464768
 30
0.0
 10
74.08848199873424
 20
-140.982276631421
 30
0.0
 10
74.133284775369
 20
-141.0270441314096
 30
0.0
 10
74.18874144062086
 20
-141.0270441314096
 30
0.0
 10
74.2438806058808
 20
-141.0270441314096
 30
0.0
 10
74.28864998142797
 20
-140.982276631421
 30
0.0
 10
74.28864998142797
 20
-140.927137464768
 30
0.0
  0
POLYLINE
  5
88
330
1F
100
AcDbEntity
  8
_U+30EC_U+30A4_U+30E4_U+30FC 1
 62
     7
420
 16777215
370
     9
100
AcDb2dPolyline
 66
     1
 10
0.0
 20
0.0
 30
0.0
  0
VERTEX
  5
89
330
88
100
AcDbEntity
  8
_U+30EC_U+30A4_U+30E4_U+30FC 1
 62
     7
420
 16777215
370
     9
100
AcDbVertex
100
AcDb2dVertex
 10
80.07572045709817
 20
-140.927137464768
 30
0.0
  0
VERTEX
  5
8A
330
88
100
AcDbEntity
  8
_U+30EC_U+30A4_U+30E4_U+30FC 1
 62
     7
420
 16777215
370
     9
100
AcDbVertex
100
AcDb2dVertex
 10
90.07580831081425
 20
-140.927137464768
 30
0.0
  0
SEQEND
  5
8B
330
88
100
AcDbEntity
  8
_U+30EC_U+30A4_U+30E4_U+30FC 1
 62
     7
420
 16777215
370
     9
  0
POLYLINE
  5
8C
330
1F
100
AcDbEntity
  8
_U+30EC_U+30A4_U+30E4_U+30FC 1
 62
     7
420
 16777215
370
     9
100
AcDb2dPolyline
 66
     1
 10
0.0
 20
0.0
 30
0.0
  0
VERTEX
  5
8D
330
8C
100
AcDbEntity
  8
_U+30EC_U+30A4_U+30E4_U+30FC 1
 62
     7
420
 16777215
370
     9
100
AcDbVertex
100
AcDb2dVertex
 10
90.22704186478306
 20
-139.4670960762442
 30
0.0
  0
VERTEX
  5
8E
330
8C
100
AcDbEntity
  8
_U+30EC_U+30A4_U+30E4_U+30FC 1
 62
     7
420
 16777215
370
     9
100
AcDbVertex
100
AcDb2dVertex
 10
90.22704186478306
 20
-141.9269096867405
 30
0.0
  0
SEQEND
  5
8F
330
8C
100
AcDbEntity
  8
_U+30EC_U+30A4_U+30E4_U+30FC 1
 62
     7
420
 16777215
370
     9
  0
INSERT
  5
91
330
1F
100
AcDbEntity
  8
_U+30EC_U+30A4_U+30E4_U+30FC 1
100
AcDbBlockReference
  2
block 2
 10
0.0
 20
0.0
 30
0.0
  0
POLYLINE
  5
99
330
1F
100
AcDbEntity
  8
_U+30EC_U+30A4_U+30E4_U+30FC 1
 62
     7
420
 16777215
370
     9
100
AcDb2dPolyline
 66
     1
 10
0.0
 20
0.0
 30
0.0
  0
VERTEX
  5
9A
330
99
100
AcDbEntity
  8
_U+30EC_U+30A4_U+30E4_U+30FC 1
 62
     7
420
 16777215
370
     9
100
AcDbVertex
100
AcDb2dVertex
 10
107.1438294887554
 20
-123.0333313581306
 30
0.0
  0
VERTEX
  5
9B
330
99
100
AcDbEntity
  8
_U+30EC_U+30A4_U+30E4_U+30FC 1
 62
     7
420
 16777215
370
     9
100
AcDbVertex
100
AcDb2dVertex
 10
107.1438294887554
 20
-119.2630188590732
 30
0.0
  0
SEQEND
  5
9C
330
99
100
AcDbEntity
  8
_U+30EC_U+30A4_U+30E4_U+30FC 1
 62
     7
420
 16777215
370
     9
  0
POLYLINE
  5
9D
330
1F
100
AcDbEntity
  8
_U+30EC_U+30A4_U+30E4_U+30FC 1
 62
     7
420
 16777215
370
     9
100
AcDb2dPolyline
 66
     1
 10
0.0
 20
0.0
 30
0.0
  0
VERTEX
  5
9E
330
9D
100
AcDbEntity
  8
_U+30EC_U+30A4_U+30E4_U+30FC 1
 62
     7
420
 16777215
370
     9
100
AcDbVertex
100
AcDb2dVertex
 10
107.1438294887554
 20
-123.0333313581306
 30
0.0
  0
VERTEX
  5
9F
330
9D
100
AcDbEntity
  8
_U+30EC_U+30A4_U+30E4_U+30FC 1
 62
     7
420
 16777215
370
     9
100
AcDbVertex
100
AcDb2dVertex
 10
107.1438294887554
 20
-124.033068302325
 30
0.0
  0
SEQEND
  5
A0
330
9D
100
AcDbEntity
  8
_U+30EC_U+30A4_U+30E4_U+30FC 1
 62
     7
420
 16777215
370
     9
  0
POLYLINE
  5
A1
330
1F
100
AcDbEntity
  8
_U+30EC_U+30A4_U+30E4_U+30FC 1
 62
     7
420
 16777215
370
     9
100
AcDb2dPolyline
 66
     1
 10
0.0
 20
0.0
 30
0.0
  0
VERTEX
  5
A2
330
A1
100
AcDbEntity
  8
_U+30EC_U+30A4_U+30E4_U+30FC 1
 62
     7
420
 16777215
370
     9
100
AcDbVertex
100
AcDb2dVertex
 10
105.6838234148921
 20
-123.0333313581306
 30
0.0
  0
VERTEX
  5
A3
330
A1
100
AcDbEntity
  8
_U+30EC_U+30A4_U+30E4_U+30FC 1
 62
     7
420
 16777215
370
     9
100
AcDbVertex
100
AcDb2dVertex
 10
108.1436016854713
 20
-123.0333313581306
 30
0.0
  0
SEQEND
  5
A4
330
A1
100
AcDbEntity
  8
_U+30EC_U+30A4_U+30E4_U+30FC 1
 62
     7
420
 16777215
370
     9
  0
POLYLINE
  5
A5
330
1F
100
AcDbEntity
  8
_U+30EC_U+30A4_U+30E4_U+30FC 1
 62
     7
420
 16777215
370
     9
100
AcDb2dPolyline
 66
     1
 10
0.0
 20
0.0
 30
0.0
  0
VERTEX
  5
A6
330
A5
100
AcDbEntity
  8
_U+30EC_U+30A4_U+30E4_U+30FC 1
 62
     7
420
 16777215
370
     9
100
AcDbVertex
100
AcDb2dVertex
 10
105.6838234148921
 20
-124.033068302325
 30
0.0
  0
VERTEX
  5
A7
330
A5
100
AcDbEntity
  8
_U+30EC_U+30A4_U+30E4_U+30FC 1
 62
     7
420
 16777215
370
     9
100
AcDbVertex
100
AcDb2dVertex
 10
108.1436016854713
 20
-124.033068302325
 30
0.0
  0
SEQEND
  5
A8
330
A5
100
AcDbEntity
  8
_U+30EC_U+30A4_U+30E4_U+30FC 1
 62
     7
420
 16777215
370
     9
  0
INSERT
  5
AA
330
1F
100
AcDbEntity
  8
_U+30EC_U+30A4_U+30E4_U+30FC 1
100
AcDbBlockReference
  2
block 3
 10
0.0
 20
0.0
 30
0.0
  0
POLYLINE
  5
AF
330
1F
100
AcDbEntity
  8
_U+30EC_U+30A4_U+30E4_U+30FC 1
 62
     7
420
 16777215
370
     9
100
AcDb2dPolyline
 66
     1
 10
0.0
 20
0.0
 30
0.0
  0
VERTEX
  5
B0
330
AF
100
AcDbEntity
  8
_U+30EC_U+30A4_U+30E4_U+30FC 1
 62
     7
420
 16777215
370
     9
100
AcDbVertex
100
AcDb2dVertex
 10
74.04371449987636
 20
-119.0328666369085
 30
0.0
  0
VERTEX
  5
B1
330
AF
100
AcDbEntity
  8
_U+30EC_U+30A4_U+30E4_U+30FC 1
 62
     7
420
 16777215
370
     9
100
AcDbVertex
100
AcDb2dVertex
 10
103.0441990377901
 20
-119.0328666369085
 30
0.0
  0
SEQEND
  5
B2
330
AF
100
AcDbEntity
  8
_U+30EC_U+30A4_U+30E4_U+30FC 1
 62
     7
420
 16777215
370
     9
  0
POLYLINE
  5
B3
330
1F
100
AcDbEntity
  8
_U+30EC_U+30A4_U+30E4_U+30FC 1
 62
     7
420
 16777215
370
     9
100
AcDb2dPolyline
 66
     1
 10
0.0
 20
0.0
 30
0.0
  0
VERTEX
  5
B4
330
B3
100
AcDbEntity
  8
_U+30EC_U+30A4_U+30E4_U+30FC 1
 62
     7
420
 16777215
370
     9
100
AcDbVertex
100
AcDb2dVertex
 10
74.04371449987636
 20
-120.4929080254322
 30
0.0
  0
VERTEX
  5
B5
330
B3
100
AcDbEntity
  8
_U+30EC_U+30A4_U+30E4_U+30FC 1
 62
     7
420
 16777215
370
     9
100
AcDbVertex
100
AcDb2dVertex
 10
74.04371449987636
 20
-118.0330944149363
 30
0.0
  0
SEQEND
  5
B6
330
B3
100
AcDbEntity
  8
_U+30EC_U+30A4_U+30E4_U+30FC 1
 62
     7
420
 16777215
370
     9
  0
POLYLINE
  5
B7
330
1F
100
AcDbEntity
  8
_U+30EC_U+30A4_U+30E4_U+30FC 1
 62
     7
420
 16777215
370
     9
100
AcDb2dPolyline
 66
     1
 10
0.0
 20
0.0
 30
0.0
  0
VERTEX
  5
B8
330
B7
100
AcDbEntity
  8
_U+30EC_U+30A4_U+30E4_U+30FC 1
 62
     7
420
 16777215
370
     9
100
AcDbVertex
100
AcDb2dVertex
 10
102.9442570958954
 20
-120.4929080254322
 30
0.0
  0
VERTEX
  5
B9
330
B7
100
AcDbEntity
  8
_U+30EC_U+30A4_U+30E4_U+30FC 1
 62
     7
420
 16777215
370
     9
100
AcDbVertex
100
AcDb2dVertex
 10
102.9442570958954
 20
-118.0330944149363
 30
0.0
  0
SEQEND
  5
BA
330
B7
100
AcDbEntity
  8
_U+30EC_U+30A4_U+30E4_U+30FC 1
 62
     7
420
 16777215
370
     9
  0
INSERT
  5
BC
330
1F
100
AcDbEntity
  8
_U+30EC_U+30A4_U+30E4_U+30FC 1
100
AcDbBlockReference
  2
block 4
 10
0.0
 20
0.0
 30
0.0
  0
POLYLINE
  5
C4
330
1F
100
AcDbEntity
  8
_U+30EC_U+30A4_U+30E4_U+30FC 1
 62
     7
420
 16777215
370
     9
100
AcDb2dPolyline
 66
     1
 10
0.0
 20
0.0
 30
0.0
  0
VERTEX
  5
C5
330
C4
100
AcDbEntity
  8
_U+30EC_U+30A4_U+30E4_U+30FC 1
 62
     7
420
 16777215
370
     9
100
AcDbVertex
100
AcDb2dVertex
 10
74.0753939435126
 20
-140.927137464768
 30
0.0
  0
VERTEX
  5
C6
330
C4
100
AcDbEntity
  8
_U+30EC_U+30A4_U+30E4_U+30FC 1
 62
     7
420
 16777215
370
     9
100
AcDbVertex
100
AcDb2dVertex
 10
80.07572045709817
 20
-140.927137464768
 30
0.0
  0
SEQEND
  5
C7
330
C4
100
AcDbEntity
  8
_U+30EC_U+30A4_U+30E4_U+30FC 1
 62
     7
420
 16777215
370
     9
  0
POLYLINE
  5
C8
330
1F
100
AcDbEntity
  8
_U+30EC_U+30A4_U+30E4_U+30FC 1
 62
     7
420
 16777215
370
     9
100
AcDb2dPolyline
 66
     1
 10
0.0
 20
0.0
 30
0.0
  0
VERTEX
  5
C9
330
C8
100
AcDbEntity
  8
_U+30EC_U+30A4_U+30E4_U+30FC 1
 62
     7
420
 16777215
370
     9
100
AcDbVertex
100
AcDb2dVertex
 10
74.18874144062086
 20
-126.5734916350234
 30
0.0
  0
VERTEX
  5
CA
330
C8
100
AcDbEntity
  8
_U+30EC_U+30A4_U+30E4_U+30FC 1
 62
     7
420
 16777215
370
     9
100
AcDbVertex
100
AcDb2dVertex
 10
74.18874144062086
 20
-141.9269096867405
 30
0.0
  0
SEQEND
  5
CB
330
C8
100
AcDbEntity
  8
_U+30EC_U+30A4_U+30E4_U+30FC 1
 62
     7
420
 16777215
370
     9
  0
POLYLINE
  5
CC
330
1F
100
AcDbEntity
  8
_U+30EC_U+30A4_U+30E4_U+30FC 1
 62
     7
420
 16777215
370
     9
100
AcDb2dPolyline
 66
     1
 10
0.0
 20
0.0
 30
0.0
  0
VERTEX
  5
CD
330
CC
100
AcDbEntity
  8
_U+30EC_U+30A4_U+30E4_U+30FC 1
 62
     7
420
 16777215
370
     9
100
AcDbVertex
100
AcDb2dVertex
 10
80.07572045709817
 20
-139.4670960762442
 30
0.0
  0
VERTEX
  5
CE
330
CC
100
AcDbEntity
  8
_U+30EC_U+30A4_U+30E4_U+30FC 1
 62
     7
420
 16777215
370
     9
100
AcDbVertex
100
AcDb2dVertex
 10
80.07572045709817
 20
-141.9269096867405
 30
0.0
  0
SEQEND
  5
CF
330
CC
100
AcDbEntity
  8
_U+30EC_U+30A4_U+30E4_U+30FC 1
 62
     7
420
 16777215
370
     9
  0
INSERT
  5
D1
330
1F
100
AcDbEntity
  8
_U+30EC_U+30A4_U+30E4_U+30FC 1
100
AcDbBlockReference
  2
block 5
 10
0.0
 20
0.0
 30
0.0
  0
POLYLINE
  5
D7
330
1F
100
AcDbEntity
  8
_U+30EC_U+30A4_U+30E4_U+30FC 1
 62
     7
420
 16777215
370
     9
100
AcDb2dPolyline
 66
     1
 10
0.0
 20
0.0
 30
0.0
  0
VERTEX
  5
D8
330
D7
100
AcDbEntity
  8
_U+30EC_U+30A4_U+30E4_U+30FC 1
 62
     7
420
 16777215
370
     9
100
AcDbVertex
100
AcDb2dVertex
 10
107.1438294887554
 20
-133.5332680221724
 30
0.0
  0
VERTEX
  5
D9
330
D7
100
AcDbEntity
  8
_U+30EC_U+30A4_U+30E4_U+30FC 1
 62
     7
420
 16777215
370
     9
100
AcDbVertex
100
AcDb2dVertex
 10
107.1438294887554
 20
-124.033068302325
 30
0.0
  0
SEQEND
  5
DA
330
D7
100
AcDbEntity
  8
_U+30EC_U+30A4_U+30E4_U+30FC 1
 62
     7
420
 16777215
370
     9
  0
SPLINE
  5
DB
330
1F
100
AcDbEntity
  8
_U+30EC_U+30A4_U+30E4_U+30FC 1
 62
     7
420
 16777215
370
     9
100
AcDbSpline
210
0.0
220
0.0
230
1.0
 70
    11
 71
     3
 72
    17
 73
    13
 74
     0
 42
0.0000000001
 43
0.0000000001
 12
1.0
 22
0.0
 32
0.0
 13
1.0
 23
0.0
 33
0.0
 40
0.0
 40
0.0
 40
0.0
 40
0.0
 40
1.0
 40
1.0
 40
1.0
 40
2.0
 40
2.0
 40
2.0
 40
3.0
 40
3.0
 40
3.0
 40
4.0
 40
4.0
 40
4.0
 40
4.0
 10
107.2437388620778
 20
-133.5732377443843
 30
0.0
 10
107.2437388620778
 20
-133.5174282999538
 30
0.0
 10
107.1989686540154
 20
-133.4726607999653
 30
0.0
 10
107.1438294887554
 20
-133.4726607999653
 30
0.0
 10
107.0887256012723
 20
-133.4726607999653
 30
0.0
 10
107.0439228246376
 20
-133.5174282999538
 30
0.0
 10
107.0439228246376
 20
-133.5732377443843
 30
0.0
 10
107.0439228246376
 20
-133.6283769110373
 30
0.0
 10
107.0887256012723
 20
-133.6731444110259
 30
0.0
 10
107.1438294887554
 20
-133.6731444110259
 30
0.0
 10
107.1989686540154
 20
-133.6731444110259
 30
0.0
 10
107.2437388620778
 20
-133.6283769110373
 30
0.0
 10
107.2437388620778
 20
-133.5732377443843
 30
0.0
  0
SPLINE
  5
DC
330
1F
100
AcDbEntity
  8
_U+30EC_U+30A4_U+30E4_U+30FC 1
 62
     7
420
 16777215
370
     9
100
AcDbSpline
210
0.0
220
0.0
230
1.0
 70
    11
 71
     3
 72
    17
 73
    13
 74
     0
 42
0.0000000001
 43
0.0000000001
 12
1.0
 22
0.0
 32
0.0
 13
1.0
 23
0.0
 33
0.0
 40
0.0
 40
0.0
 40
0.0
 40
0.0
 40
1.0
 40
1.0
 40
1.0
 40
2.0
 40
2.0
 40
2.0
 40
3.0
 40
3.0
 40
3.0
 40
4.0
 40
4.0
 40
4.0
 40
4.0
 10
107.2437388620778
 20
-136.5732246880786
 30
0.0
 10
107.2437388620778
 20
-136.5174152436482
 30
0.0
 10
107.1989686540154
 20
-136.4726477436596
 30
0.0
 10
107.1438294887554
 20
-136.4726477436596
 30
0.0
 10
107.0887256012723
 20
-136.4726477436596
 30
0.0
 10
107.0439228246376
 20
-136.5174152436482
 30
0.0
 10
107.0439228246376
 20
-136.5732246880786
 30
0.0
 10
107.0439228246376
 20
-136.6283638547317
 30
0.0
 10
107.0887256012723
 20
-136.6731313547209
 30
0.0
 10
107.1438294887554
 20
-136.6731313547209
 30
0.0
 10
107.1989686540154
 20
-136.6731313547209
 30
0.0
 10
107.2437388620778
 20
-136.6283638547317
 30
0.0
 10
107.2437388620778
 20
-136.5732246880786
 30
0.0
  0
POLYLINE
  5
DD
330
1F
100
AcDbEntity
  8
_U+30EC_U+30A4_U+30E4_U+30FC 1
 62
     7
420
 16777215
370
     9
100
AcDb2dPolyline
 66
     1
 10
0.0
 20
0.0
 30
0.0
  0
VERTEX
  5
DE
330
DD
100
AcDbEntity
  8
_U+30EC_U+30A4_U+30E4_U+30FC 1
 62
     7
420
 16777215
370
     9
100
AcDbVertex
100
AcDb2dVertex
 10
107.1438294887554
 20
-136.5732246880786
 30
0.0
  0
VERTEX
  5
DF
330
DD
100
AcDbEntity
  8
_U+30EC_U+30A4_U+30E4_U+30FC 1
 62
     7
420
 16777215
370
     9
100
AcDbVertex
100
AcDb2dVertex
 10
107.1438294887554
 20
-133.5732377443843
 30
0.0
  0
SEQEND
  5
E0
330
DD
100
AcDbEntity
  8
_U+30EC_U+30A4_U+30E4_U+30FC 1
 62
     7
420
 16777215
370
     9
  0
POLYLINE
  5
E1
330
1F
100
AcDbEntity
  8
_U+30EC_U+30A4_U+30E4_U+30FC 1
 62
     7
420
 16777215
370
     9
100
AcDb2dPolyline
 66
     1
 10
0.0
 20
0.0
 30
0.0
  0
VERTEX
  5
E2
330
E1
100
AcDbEntity
  8
_U+30EC_U+30A4_U+30E4_U+30FC 1
 62
     7
420
 16777215
370
     9
100
AcDbVertex
100
AcDb2dVertex
 10
92.70544680155368
 20
-136.5732246880786
 30
0.0
  0
VERTEX
  5
E3
330
E1
100
AcDbEntity
  8
_U+30EC_U+30A4_U+30E4_U+30FC 1
 62
     7
420
 16777215
370
     9
100
AcDbVertex
100
AcDb2dVertex
 10
108.1436016854713
 20
-136.5732246880786
 30
0.0
  0
SEQEND
  5
E4
330
E1
100
AcDbEntity
  8
_U+30EC_U+30A4_U+30E4_U+30FC 1
 62
     7
420
 16777215
370
     9
  0
INSERT
  5
E6
330
1F
100
AcDbEntity
  8
_U+30EC_U+30A4_U+30E4_U+30FC 1
100
AcDbBlockReference
  2
block 6
 10
0.0
 20
0.0
 30
0.0
  0
POLYLINE
  5
EB
330
1F
100
AcDbEntity
  8
_U+30EC_U+30A4_U+30E4_U+30FC 1
 62
     7
420
 16777215
370
     9
100
AcDb2dPolyline
 66
     1
 10
0.0
 20
0.0
 30
0.0
  0
VERTEX
  5
EC
330
EB
100
AcDbEntity
  8
_U+30EC_U+30A4_U+30E4_U+30FC 1
 62
     7
420
 16777215
370
     9
100
AcDbVertex
100
AcDb2dVertex
 10
92.70544680155368
 20
-133.5732377443843
 30
0.0
  0
VERTEX
  5
ED
330
EB
100
AcDbEntity
  8
_U+30EC_U+30A4_U+30E4_U+30FC 1
 62
     7
420
 16777215
370
     9
100
AcDbVertex
100
AcDb2dVertex
 10
108.1436016854713
 20
-133.5732377443843
 30
0.0
  0
SEQEND
  5
EE
330
EB
100
AcDbEntity
  8
_U+30EC_U+30A4_U+30E4_U+30FC 1
 62
     7
420
 16777215
370
     9
  0
INSERT
  5
F0
330
1F
100
AcDbEntity
  8
_U+30EC_U+30A4_U+30E4_U+30FC 1
100
AcDbBlockReference
  2
block 7
 10
0.0
 20
0.0
 30
0.0
  0
POLYLINE
  5
100
330
1F
100
AcDbEntity
  8
_U+30EC_U+30A4_U+30E4_U+30FC 1
 62
     7
420
 16777215
370
    25
100
AcDb2dPolyline
 66
     1
 10
0.0
 20
0.0
 30
0.0
  0
VERTEX
  5
101
330
100
100
AcDbEntity
  8
_U+30EC_U+30A4_U+30E4_U+30FC 1
 62
     7
420
 16777215
370
    25
100
AcDbVertex
100
AcDb2dVertex
 10
80.97593876746502
 20
-135.701616632741
 30
0.0
  0
VERTEX
  5
102
330
100
100
AcDbEntity
  8
_U+30EC_U+30A4_U+30E4_U+30FC 1
 62
     7
420
 16777215
370
    25
100
AcDbVertex
100
AcDb2dVertex
 10
80.97593876746502
 20
-129.1562835788223
 30
0.0
  0
SEQEND
  5
103
330
100
100
AcDbEntity
  8
_U+30EC_U+30A4_U+30E4_U+30FC 1
 62
     7
420
 16777215
370
    25
  0
POLYLINE
  5
104
330
1F
100
AcDbEntity
  8
_U+30EC_U+30A4_U+30E4_U+30FC 1
 62
   179
420
  2234388
370
    25
100
AcDb2dPolyline
 66
     1
 10
0.0
 20
0.0
 30
0.0
  0
VERTEX
  5
105
330
104
100
AcDbEntity
  8
_U+30EC_U+30A4_U+30E4_U+30FC 1
 62
   179
420
  2234388
370
    25
100
AcDbVertex
100
AcDb2dVertex
 10
80.97593876746502
 20
-129.1562835788223
 30
0.0
  0
VERTEX
  5
106
330
104
100
AcDbEntity
  8
_U+30EC_U+30A4_U+30E4_U+30FC 1
 62
   179
420
  2234388
370
    25
100
AcDbVertex
100
AcDb2dVertex
 10
81.27601153758731
 20
-128.7835385789155
 30
0.0
  0
VERTEX
  5
107
330
104
100
AcDbEntity
  8
_U+30EC_U+30A4_U+30E4_U+30FC 1
 62
   179
420
  2234388
370
    25
100
AcDbVertex
100
AcDb2dVertex
 10
80.97593876746502
 20
-128.4100880234532
 30
0.0
  0
SEQEND
  5
109
330
104
100
AcDbEntity
  8
_U+30EC_U+30A4_U+30E4_U+30FC 1
 62
   179
420
  2234388
370
    25
  0
HATCH
  5
108
330
1F
100
AcDbEntity
  8
_U+30EC_U+30A4_U+30E4_U+30FC 1
 62
   253
420
 11711154
100
AcDbHatch
 10
0.0
 20
0.0
 30
0.0
210
0.0
220
0.0
230
1.0
  2
SOLID
 70
     1
 71
     0
 91
        1
 92
        1
 93
        3
 72
     1
 10
80.97593876746502
 20
-129.1562835788223
 11
81.27601153758731
 21
-128.7835385789155
 72
     1
 10
81.27601153758731
 20
-128.7835385789155
 11
80.97593876746502
 21
-128.4100880234532
 72
     1
 10
80.97593876746502
 20
-128.4100880234532
 11
80.97593876746502
 21
-129.1562835788223
 97
        0
 75
     2
 76
     1
 98
        0
  0
ENDSEC
  0
SECTION
  2
OBJECTS
  0
DICTIONARY
  5
C
330
0
100
AcDbDictionary
281
     1
  3
ACAD_GROUP
350
D
  3
ACAD_LAYOUT
350
1A
  3
ACAD_MATERIAL
350
3B
  3
ACAD_MLEADERSTYLE
350
10B
  3
ACAD_MLINESTYLE
350
17
  3
ACAD_PLOTSETTINGS
350
19
  3
ACAD_PLOTSTYLENAME
350
E
  3
ACAD_TABLESTYLE
350
10A
  3
ACAD_VISUALSTYLE
350
2A
  0
SUN
  5
3F
330
29
100
AcDbSun
 90
        1
290
     0
 63
     7
421
 16777215
 40
1.0
291
     1
 91
  2455826
 92
 54000000
292
     0
 70
     2
 71
   256
280
     1
  0
DICTIONARY
  5
D
102
{ACAD_REACTORS
330
C
102
}
330
C
100
AcDbDictionary
281
     1
  0
DICTIONARY
  5
1A
102
{ACAD_REACTORS
330
C
102
}
330
C
100
AcDbDictionary
281
     1
  3
Layout1
350
1E
  3
Layout2
350
26
  3
Model
350
22
  0
DICTIONARY
  5
3B
102
{ACAD_REACTORS
330
C
102
}
330
C
100
AcDbDictionary
281
     1
  3
ByBlock
350
3D
  3
ByLayer
350
3C
  3
Global
350
3E
  0
DICTIONARY
  5
10B
102
{ACAD_REACTORS
330
C
102
}
330
C
100
AcDbDictionary
281
     1
  0
DICTIONARY
  5
17
102
{ACAD_REACTORS
330
C
102
}
330
C
100
AcDbDictionary
281
     1
  3
Standard
350
18
  0
DICTIONARY
  5
19
102
{ACAD_REACTORS
330
C
102
}
330
C
100
AcDbDictionary
281
     1
  0
ACDBDICTIONARYWDFLT
  5
E
102
{ACAD_REACTORS
330
C
102
}
330
C
100
AcDbDictionary
281
     1
  3
Normal
350
F
100
AcDbDictionaryWithDefault
340
F
  0
DICTIONARY
  5
10A
102
{ACAD_REACTORS
330
C
102
}
330
C
100
AcDbDictionary
281
     1
  0
DICTIONARY
  5
2A
102
{ACAD_REACTORS
330
C
102
}
330
C
100
AcDbDictionary
281
     1
  3
2dWireframe
350
2F
  3
3D Hidden
350
31
  3
3dWireframe
350
30
  3
Basic
350
32
  3
Brighten
350
36
  3
ColorChange
350
3A
  3
Conceptual
350
34
  3
Dim
350
35
  3
Facepattern
350
39
  3
Flat
350
2B
  3
FlatWithEdges
350
2C
  3
Gouraud
350
2D
  3
GouraudWithEdges
350
2E
  3
Linepattern
350
38
  3
Realistic
350
33
  3
Thicken
350
37
  0
LAYOUT
  5
1E
102
{ACAD_REACTORS
330
1A
102
}
330
1A
100
AcDbPlotSettings
  1

  2
none_device
  4

  6

 40
0.0
 41
0.0
 42
0.0
 43
0.0
 44
0.0
 45
0.0
 46
0.0
 47
0.0
 48
0.0
 49
0.0
140
0.0
141
0.0
142
1.0
143
1.0
 70
   688
 72
     0
 73
     0
 74
     5
  7

 75
    16
 76
     0
 77
     2
 78
   300
147
1.0
148
0.0
149
0.0
100
AcDbLayout
  1
Layout1
 70
     1
 71
     1
 10
0.0
 20
0.0
 11
12.0
 21
9.0
 12
0.0
 22
0.0
 32
0.0
 14
1.000000000000000E+20
 24
1.000000000000000E+20
 34
1.000000000000000E+20
 15
-1.000000000000000E+20
 25
-1.000000000000000E+20
 35
-1.000000000000000E+20
146
0.0
 13
0.0
 23
0.0
 33
0.0
 16
1.0
 26
0.0
 36
0.0
 17
0.0
 27
1.0
 37
0.0
 76
     0
330
1B
  0
LAYOUT
  5
26
102
{ACAD_REACTORS
330
1A
102
}
330
1A
100
AcDbPlotSettings
  1

  2
none_device
  4

  6

 40
0.0
 41
0.0
 42
0.0
 43
0.0
 44
0.0
 45
0.0
 46
0.0
 47
0.0
 48
0.0
 49
0.0
140
0.0
141
0.0
142
1.0
143
1.0
 70
   688
 72
     0
 73
     0
 74
     5
  7

 75
    16
 76
     0
 77
     2
 78
   300
147
1.0
148
0.0
149
0.0
100
AcDbLayout
  1
Layout2
 70
     1
 71
     2
 10
0.0
 20
0.0
 11
0.0
 21
0.0
 12
0.0
 22
0.0
 32
0.0
 14
0.0
 24
0.0
 34
0.0
 15
0.0
 25
0.0
 35
0.0
146
0.0
 13
0.0
 23
0.0
 33
0.0
 16
1.0
 26
0.0
 36
0.0
 17
0.0
 27
1.0
 37
0.0
 76
     0
330
23
  0
LAYOUT
  5
22
102
{ACAD_REACTORS
330
1A
102
}
330
1A
100
AcDbPlotSettings
  1

  2
none_device
  4

  6

 40
0.0
 41
0.0
 42
0.0
 43
0.0
 44
0.0
 45
0.0
 46
0.0
 47
0.0
 48
0.0
 49
0.0
140
0.0
141
0.0
142
1.0
143
1.0
 70
  1712
 72
     0
 73
     0
 74
     0
  7

 75
     0
 76
     0
 77
     2
 78
   300
147
1.0
148
0.0
149
0.0
100
AcDbLayout
  1
Model
 70
     1
 71
     0
 10
0.0
 20
0.0
 11
12.0
 21
9.0
 12
0.0
 22
0.0
 32
0.0
 14
1.000000000000000E+20
 24
1.000000000000000E+20
 34
1.000000000000000E+20
 15
-1.000000000000000E+20
 25
-1.000000000000000E+20
 35
-1.000000000000000E+20
146
0.0
 13
0.0
 23
0.0
 33
0.0
 16
1.0
 26
0.0
 36
0.0
 17
0.0
 27
1.0
 37
0.0
 76
     0
330
1F
331
29
  0
MATERIAL
  5
3D
102
{ACAD_REACTORS
330
3B
102
}
330
3B
100
AcDbMaterial
  1
ByBlock
 72
     1
 94
      127
  0
MATERIAL
  5
3C
102
{ACAD_REACTORS
330
3B
102
}
330
3B
100
AcDbMaterial
  1
ByLayer
 72
     1
 94
      127
  0
MATERIAL
  5
3E
102
{ACAD_REACTORS
330
3B
102
}
330
3B
100
AcDbMaterial
  1
Global
 72
     1
 94
      127
  0
MLINESTYLE
  5
18
102
{ACAD_REACTORS
330
17
102
}
330
17
100
AcDbMlineStyle
  2
Standard
 70
     0
  3

 62
   256
 51
90.0
 52
90.0
 71
     2
 49
0.5
 62
   256
  6
BYLAYER
 49
-0.5
 62
   256
  6
BYLAYER
  0
ACDBPLACEHOLDER
  5
F
102
{ACAD_REACTORS
330
E
102
}
330
E
  0
VISUALSTYLE
  5
2F
102
{ACAD_REACTORS
330
2A
102
}
330
2A
100
AcDbVisualStyle
  2
2dWireframe
 70
     4
177
     2
291
     0
 71
     0
176
     1
 72
     2
176
     1
 73
     0
176
     1
 90
        0
176
     1
 40
-0.6
176
     1
 41
-30.0
176
     1
 62
     5
 63
     7
421
 16777215
176
     1
 74
     1
176
     1
 91
        4
176
     1
 64
     7
176
     1
 65
   257
176
     1
 75
     1
176
     1
175
     1
176
     1
 42
1.0
176
     1
 92
        0
176
     1
 66
   257
176
     1
 43
1.0
176
     1
 76
     1
176
     1
 77
     6
176
     1
 78
     2
176
     1
 67
     7
176
     1
 79
     5
176
     1
170
     0
176
     1
171
     0
176
     1
290
     0
176
     1
 93
        1
176
     1
 44
0.0
176
     1
173
     0
176
     1
  0
VISUALSTYLE
  5
31
102
{ACAD_REACTORS
330
2A
102
}
330
2A
100
AcDbVisualStyle
  2
3D Hidden
 70
     6
177
     2
291
     0
 71
     1
176
     1
 72
     2
176
     1
 73
     2
176
     1
 90
        0
176
     1
 40
-0.6
176
     1
 41
-30.0
176
     1
 62
     5
 63
     7
421
 16777215
176
     1
 74
     2
176
     1
 91
        2
176
     1
 64
     7
176
     1
 65
   257
176
     1
 75
     2
176
     1
175
     1
176
     1
 42
40.0
176
     1
 92
        0
176
     1
 66
   257
176
     1
 43
1.0
176
     1
 76
     1
176
     1
 77
     6
176
     1
 78
     2
176
     1
 67
     7
176
     1
 79
     3
176
     1
170
     0
176
     1
171
     0
176
     1
290
     0
176
     1
 93
        1
176
     1
 44
0.0
176
     1
173
     0
176
     1
  0
VISUALSTYLE
  5
30
102
{ACAD_REACTORS
330
2A
102
}
330
2A
100
AcDbVisualStyle
  2
3dWireframe
 70
     5
177
     2
291
     0
 71
     0
176
     1
 72
     2
176
     1
 73
     0
176
     1
 90
        0
176
     1
 40
-0.6
176
     1
 41
-30.0
176
     1
 62
     5
 63
     7
421
 16777215
176
     1
 74
     1
176
     1
 91
        4
176
     1
 64
     7
176
     1
 65
   257
176
     1
 75
     1
176
     1
175
     1
176
     1
 42
1.0
176
     1
 92
        0
176
     1
 66
   257
176
     1
 43
1.0
176
     1
 76
     1
176
     1
 77
     6
176
     1
 78
     2
176
     1
 67
     7
176
     1
 79
     5
176
     1
170
     0
176
     1
171
     0
176
     1
290
     0
176
     1
 93
        1
176
     1
 44
0.0
176
     1
173
     0
176
     1
  0
VISUALSTYLE
  5
32
102
{ACAD_REACTORS
330
2A
102
}
330
2A
100
AcDbVisualStyle
  2
Basic
 70
     7
177
     2
291
     1
 71
     1
176
     1
 72
     0
176
     1
 73
     1
176
     1
 90
        0
176
     1
 40
-0.6
176
     1
 41
-30.0
176
     1
 62
     5
 63
     7
421
 16777215
176
     1
 74
     0
176
     1
 91
        4
176
     1
 64
     7
176
     1
 65
   257
176
     1
 75
     1
176
     1
175
     1
176
     1
 42
1.0
176
     1
 92
        8
176
     1
 66
     7
176
     1
 43
1.0
176
     1
 76
     1
176
     1
 77
     6
176
     1
 78
     2
176
     1
 67
     7
176
     1
 79
     5
176
     1
170
     0
176
     1
171
     0
176
     1
290
     0
176
     1
 93
        1
176
     1
 44
0.0
176
     1
173
     0
176
     1
  0
VISUALSTYLE
  5
36
102
{ACAD_REACTORS
330
2A
102
}
330
2A
100
AcDbVisualStyle
  2
Brighten
 70
    12
177
     2
291
     1
 71
     2
176
     1
 72
     2
176
     1
 73
     0
176
     1
 90
        0
176
     1
 40
-0.6
176
     1
 41
-30.0
176
     1
 62
     5
 63
     7
421
 16777215
176
     1
 74
     1
176
     1
 91
        4
176
     1
 64
     7
176
     1
 65
   257
176
     1
 75
     1
176
     1
175
     1
176
     1
 42
1.0
176
     1
 92
        8
176
     1
 66
     7
176
     1
 43
1.0
176
     1
 76
     1
176
     1
 77
     6
176
     1
 78
     2
176
     1
 67
     7
176
     1
 79
     5
176
     1
170
     0
176
     1
171
     0
176
     1
290
     0
176
     1
 93
        1
176
     1
 44
50.0
176
     1
173
     0
176
     1
  0
VISUALSTYLE
  5
3A
102
{ACAD_REACTORS
330
2A
102
}
330
2A
100
AcDbVisualStyle
  2
ColorChange
 70
    16
177
     2
291
     1
 71
     2
176
     1
 72
     2
176
     1
 73
     3
176
     1
 90
        0
176
     1
 40
-0.6
176
     1
 41
-30.0
176
     1
 62
     5
 63
     8
421
  8421504
176
     1
 74
     1
176
     1
 91
        4
176
     1
 64
     7
176
     1
 65
   257
176
     1
 75
     1
176
     1
175
     1
176
     1
 42
1.0
176
     1
 92
        8
176
     1
 66
     8
424
  8421504
176
     1
 43
1.0
176
     1
 76
     1
176
     1
 77
     6
176
     1
 78
     2
176
     1
 67
     7
176
     1
 79
     5
176
     1
170
     0
176
     1
171
     0
176
     1
290
     0
176
     1
 93
        1
176
     1
 44
0.0
176
     1
173
     0
176
     1
  0
VISUALSTYLE
  5
34
102
{ACAD_REACTORS
330
2A
102
}
330
2A
100
AcDbVisualStyle
  2
Conceptual
 70
     9
177
     2
291
     0
 71
     3
176
     1
 72
     2
176
     1
 73
     0
176
     1
 90
        0
176
     1
 40
-0.6
176
     1
 41
-30.0
176
     1
 62
     5
 63
     7
421
 16777215
176
     1
 74
     2
176
     1
 91
        2
176
     1
 64
     7
176
     1
 65
   257
176
     1
 75
     1
176
     1
175
     1
176
     1
 42
40.0
176
     1
 92
        8
176
     1
 66
     7
176
     1
 43
1.0
176
     1
 76
     1
176
     1
 77
     6
176
     1
 78
     2
176
     1
 67
     7
176
     1
 79
     3
176
     1
170
     0
176
     1
171
     0
176
     1
290
     0
176
     1
 93
        1
176
     1
 44
0.0
176
     1
173
     0
176
     1
  0
VISUALSTYLE
  5
35
102
{ACAD_REACTORS
330
2A
102
}
330
2A
100
AcDbVisualStyle
  2
Dim
 70
    11
177
     2
291
     1
 71
     2
176
     1
 72
     2
176
     1
 73
     0
176
     1
 90
        0
176
     1
 40
-0.6
176
     1
 41
-30.0
176
     1
 62
     5
 63
     7
421
 16777215
176
     1
 74
     1
176
     1
 91
        4
176
     1
 64
     7
176
     1
 65
   257
176
     1
 75
     1
176
     1
175
     1
176
     1
 42
1.0
176
     1
 92
        8
176
     1
 66
     7
176
     1
 43
1.0
176
     1
 76
     1
176
     1
 77
     6
176
     1
 78
     2
176
     1
 67
     7
176
     1
 79
     5
176
     1
170
     0
176
     1
171
     0
176
     1
290
     0
176
     1
 93
        1
176
     1
 44
-50.0
176
     1
173
     0
176
     1
  0
VISUALSTYLE
  5
39
102
{ACAD_REACTORS
330
2A
102
}
330
2A
100
AcDbVisualStyle
  2
Facepattern
 70
    15
177
     2
291
     1
 71
     2
176
     1
 72
     2
176
     1
 73
     0
176
     1
 90
        0
176
     1
 40
-0.6
176
     1
 41
-30.0
176
     1
 62
     5
 63
     7
421
 16777215
176
     1
 74
     1
176
     1
 91
        4
176
     1
 64
     7
176
     1
 65
   257
176
     1
 75
     1
176
     1
175
     1
176
     1
 42
1.0
176
     1
 92
        8
176
     1
 66
     7
176
     1
 43
1.0
176
     1
 76
     1
176
     1
 77
     6
176
     1
 78
     2
176
     1
 67
     7
176
     1
 79
     5
176
     1
170
     0
176
     1
171
     0
176
     1
290
     0
176
     1
 93
        1
176
     1
 44
0.0
176
     1
173
     0
176
     1
  0
VISUALSTYLE
  5
2B
102
{ACAD_REACTORS
330
2A
102
}
330
2A
100
AcDbVisualStyle
  2
Flat
 70
     0
177
     2
291
     1
 71
     2
176
     1
 72
     1
176
     1
 73
     1
176
     1
 90
        2
176
     1
 40
-0.6
176
     1
 41
30.0
176
     1
 62
     5
 63
     7
421
 16777215
176
     1
 74
     0
176
     1
 91
        4
176
     1
 64
     7
176
     1
 65
   257
176
     1
 75
     1
176
     1
175
     1
176
     1
 42
1.0
176
     1
 92
        8
176
     1
 66
     7
176
     1
 43
1.0
176
     1
 76
     1
176
     1
 77
     6
176
     1
 78
     2
176
     1
 67
     7
176
     1
 79
     5
176
     1
170
     0
176
     1
171
     0
176
     1
290
     0
176
     1
 93
       13
176
     1
 44
0.0
176
     1
173
     0
176
     1
  0
VISUALSTYLE
  5
2C
102
{ACAD_REACTORS
330
2A
102
}
330
2A
100
AcDbVisualStyle
  2
FlatWithEdges
 70
     1
177
     2
291
     1
 71
     2
176
     1
 72
     1
176
     1
 73
     1
176
     1
 90
        2
176
     1
 40
-0.6
176
     1
 41
30.0
176
     1
 62
     5
 63
     7
421
 16777215
176
     1
 74
     1
176
     1
 91
        4
176
     1
 64
     7
176
     1
 65
   257
176
     1
 75
     1
176
     1
175
     1
176
     1
 42
1.0
176
     1
 92
        0
176
     1
 66
   257
176
     1
 43
1.0
176
     1
 76
     1
176
     1
 77
     6
176
     1
 78
     2
176
     1
 67
     7
176
     1
 79
     5
176
     1
170
     0
176
     1
171
     0
176
     1
290
     0
176
     1
 93
       13
176
     1
 44
0.0
176
     1
173
     0
176
     1
  0
VISUALSTYLE
  5
2D
102
{ACAD_REACTORS
330
2A
102
}
330
2A
100
AcDbVisualStyle
  2
Gouraud
 70
     2
177
     2
291
     1
 71
     2
176
     1
 72
     2
176
     1
 73
     1
176
     1
 90
        2
176
     1
 40
-0.6
176
     1
 41
30.0
176
     1
 62
     5
 63
     7
421
 16777215
176
     1
 74
     0
176
     1
 91
        4
176
     1
 64
     7
176
     1
 65
   257
176
     1
 75
     1
176
     1
175
     1
176
     1
 42
1.0
176
     1
 92
        0
176
     1
 66
     7
176
     1
 43
1.0
176
     1
 76
     1
176
     1
 77
     6
176
     1
 78
     2
176
     1
 67
     7
176
     1
 79
     5
176
     1
170
     0
176
     1
171
     0
176
     1
290
     0
176
     1
 93
       13
176
     1
 44
0.0
176
     1
173
     0
176
     1
  0
VISUALSTYLE
  5
2E
102
{ACAD_REACTORS
330
2A
102
}
330
2A
100
AcDbVisualStyle
  2
GouraudWithEdges
 70
     3
177
     2
291
     1
 71
     2
176
     1
 72
     2
176
     1
 73
     1
176
     1
 90
        2
176
     1
 40
-0.6
176
     1
 41
30.0
176
     1
 62
     5
 63
     7
421
 16777215
176
     1
 74
     1
176
     1
 91
        4
176
     1
 64
     7
176
     1
 65
   257
176
     1
 75
     1
176
     1
175
     1
176
     1
 42
1.0
176
     1
 92
        0
176
     1
 66
   257
176
     1
 43
1.0
176
     1
 76
     1
176
     1
 77
     6
176
     1
 78
     2
176
     1
 67
     7
176
     1
 79
     5
176
     1
170
     0
176
     1
171
     0
176
     1
290
     0
176
     1
 93
       13
176
     1
 44
0.0
176
     1
173
     0
176
     1
  0
VISUALSTYLE
  5
38
102
{ACAD_REACTORS
330
2A
102
}
330
2A
100
AcDbVisualStyle
  2
Linepattern
 70
    14
177
     2
291
     1
 71
     2
176
     1
 72
     2
176
     1
 73
     0
176
     1
 90
        0
176
     1
 40
-0.6
176
     1
 41
-30.0
176
     1
 62
     5
 63
     7
421
 16777215
176
     1
 74
     1
176
     1
 91
        4
176
     1
 64
     7
176
     1
 65
   257
176
     1
 75
     7
176
     1
175
     7
176
     1
 42
1.0
176
     1
 92
        8
176
     1
 66
     7
176
     1
 43
1.0
176
     1
 76
     1
176
     1
 77
     6
176
     1
 78
     2
176
     1
 67
     7
176
     1
 79
     5
176
     1
170
     0
176
     1
171
     0
176
     1
290
     0
176
     1
 93
        1
176
     1
 44
0.0
176
     1
173
     0
176
     1
  0
VISUALSTYLE
  5
33
102
{ACAD_REACTORS
330
2A
102
}
330
2A
100
AcDbVisualStyle
  2
Realistic
 70
     8
177
     2
291
     0
 71
     2
176
     1
 72
     2
176
     1
 73
     0
176
     1
 90
        0
176
     1
 40
-0.6
176
     1
 41
-30.0
176
     1
 62
     5
 63
     7
421
 16777215
176
     1
 74
     1
176
     1
 91
        0
176
     1
 64
     7
176
     1
 65
   257
176
     1
 75
     1
176
     1
175
     1
176
     1
 42
1.0
176
     1
 92
        8
176
     1
 66
     8
424
  7895160
176
     1
 43
1.0
176
     1
 76
     1
176
     1
 77
     6
176
     1
 78
     2
176
     1
 67
     7
176
     1
 79
     5
176
     1
170
     0
176
     1
171
     0
176
     1
290
     0
176
     1
 93
       13
176
     1
 44
0.0
176
     1
173
     0
176
     1
  0
VISUALSTYLE
  5
37
102
{ACAD_REACTORS
330
2A
102
}
330
2A
100
AcDbVisualStyle
  2
Thicken
 70
    13
177
     2
291
     1
 71
     2
176
     1
 72
     2
176
     1
 73
     0
176
     1
 90
        0
176
     1
 40
-0.6
176
     1
 41
-30.0
176
     1
 62
     5
 63
     7
421
 16777215
176
     1
 74
     1
176
     1
 91
        4
176
     1
 64
     7
176
     1
 65
   257
176
     1
 75
     1
176
     1
175
     1
176
     1
 42
1.0
176
     1
 92
       12
176
     1
 66
     7
176
     1
 43
1.0
176
     1
 76
     1
176
     1
 77
     6
176
     1
 78
     2
176
     1
 67
     7
176
     1
 79
     5
176
     1
170
     0
176
     1
171
     0
176
     1
290
     0
176
     1
 93
        1
176
     1
 44
0.0
176
     1
173
     0
176
     1
  0
ENDSEC
  0
EOF
