  0
SECTION
  2
HEADER
  9
$ACADVER
  1
AC1024
  9
$ACADMAINTVER
 70
     6
  9
$DWGCODEPAGE
  3
UNDEFINED
  9
$INSBASE
 10
0.0
 20
0.0
 30
0.0
  9
$EXTMIN
 10
1.000000000000000E+20
 20
1.000000000000000E+20
 30
1.000000000000000E+20
  9
$EXTMAX
 10
-1.000000000000000E+20
 20
-1.000000000000000E+20
 30
-1.000000000000000E+20
  9
$LIMMIN
 10
0.0
 20
0.0
  9
$LIMMAX
 10
12.0
 20
9.0
  9
$ORTHOMODE
 70
     0
  9
$REGENMODE
 70
     1
  9
$FILLMODE
 70
     1
  9
$QTEXTMODE
 70
     0
  9
$MIRRTEXT
 70
     1
  9
$LTSCALE
 40
1.0
  9
$ATTMODE
 70
     1
  9
$TEXTSIZE
 40
0.2
  9
$TRACEWID
 40
0.05
  9
$TEXTSTYLE
  7
Standard
  9
$CLAYER
  8
0
  9
$CELTYPE
  6
ByLayer
  9
$CECOLOR
 62
   256
  9
$CELTSCALE
 40
1.0
  9
$DISPSILH
 70
     0
  9
$DIMSCALE
 40
1.0
  9
$DIMASZ
 40
0.18
  9
$DIMEXO
 40
0.0625
  9
$DIMDLI
 40
0.38
  9
$DIMRND
 40
0.0
  9
$DIMDLE
 40
0.0
  9
$DIMEXE
 40
0.18
  9
$DIMTP
 40
0.0
  9
$DIMTM
 40
0.0
  9
$DIMTXT
 40
0.18
  9
$DIMCEN
 40
0.09
  9
$DIMTSZ
 40
0.0
  9
$DIMTOL
 70
     0
  9
$DIMLIM
 70
     0
  9
$DIMTIH
 70
     1
  9
$DIMTOH
 70
     1
  9
$DIMSE1
 70
     0
  9
$DIMSE2
 70
     0
  9
$DIMTAD
 70
     0
  9
$DIMZIN
 70
     0
  9
$DIMBLK
  1

  9
$DIMASO
 70
     1
  9
$DIMSHO
 70
     1
  9
$DIMPOST
  1

  9
$DIMAPOST
  1

  9
$DIMALT
 70
     0
  9
$DIMALTD
 70
     2
  9
$DIMALTF
 40
25.4
  9
$DIMLFAC
 40
1.0
  9
$DIMTOFL
 70
     0
  9
$DIMTVP
 40
0.0
  9
$DIMTIX
 70
     0
  9
$DIMSOXD
 70
     0
  9
$DIMSAH
 70
     0
  9
$DIMBLK1
  1

  9
$DIMBLK2
  1

  9
$DIMSTYLE
  2
Standard
  9
$DIMCLRD
 70
     0
  9
$DIMCLRE
 70
     0
  9
$DIMCLRT
 70
     0
  9
$DIMTFAC
 40
1.0
  9
$DIMGAP
 40
0.09
  9
$DIMJUST
 70
     0
  9
$DIMSD1
 70
     0
  9
$DIMSD2
 70
     0
  9
$DIMTOLJ
 70
     1
  9
$DIMTZIN
 70
     0
  9
$DIMALTZ
 70
     0
  9
$DIMALTTZ
 70
     0
  9
$DIMUPT
 70
     0
  9
$DIMDEC
 70
     4
  9
$DIMTDEC
 70
     4
  9
$DIMALTU
 70
     2
  9
$DIMALTTD
 70
     2
  9
$DIMTXSTY
  7
Standard
  9
$DIMAUNIT
 70
     0
  9
$DIMADEC
 70
     0
  9
$DIMALTRND
 40
0.0
  9
$DIMAZIN
 70
     0
  9
$DIMDSEP
 70
    46
  9
$DIMATFIT
 70
     3
  9
$DIMFRAC
 70
     0
  9
$DIMLDRBLK
  1

  9
$DIMLUNIT
 70
     2
  9
$DIMLWD
 70
    -2
  9
$DIMLWE
 70
    -2
  9
$DIMTMOVE
 70
     0
  9
$DIMFXL
 40
1.0
  9
$DIMFXLON
 70
     0
  9
$DIMJOGANG
 40
0.7853981633974483
  9
$DIMTFILL
 70
     0
  9
$DIMTFILLCLR
 70
     0
  9
$DIMARCSYM
 70
     0
  9
$DIMLTYPE
  6

  9
$DIMLTEX1
  6

  9
$DIMLTEX2
  6

  9
$DIMTXTDIRECTION
 70
     0
  9
$LUNITS
 70
     2
  9
$LUPREC
 70
     4
  9
$SKETCHINC
 40
0.1
  9
$FILLETRAD
 40
0.5
  9
$AUNITS
 70
     0
  9
$AUPREC
 70
     0
  9
$MENU
  1
.
  9
$ELEVATION
 40
0.0
  9
$PELEVATION
 40
0.0
  9
$THICKNESS
 40
0.0
  9
$LIMCHECK
 70
     0
  9
$CHAMFERA
 40
0.5
  9
$CHAMFERB
 40
0.5
  9
$CHAMFERC
 40
1.0
  9
$CHAMFERD
 40
0.0
  9
$SKPOLY
 70
     0
  9
$TDCREATE
 40
2457917.617164352
  9
$TDUCREATE
 40
2457917.242164352
  9
$TDUPDATE
 40
2457917.617164352
  9
$TDUUPDATE
 40
2457917.242164352
  9
$TDINDWG
 40
0.0000000116
  9
$TDUSRTIMER
 40
0.0000000116
  9
$USRTIMER
 70
     1
  9
$ANGBASE
 50
0.0
  9
$ANGDIR
 70
     0
  9
$PDMODE
 70
     0
  9
$PDSIZE
 40
0.0
  9
$PLINEWID
 40
0.0
  9
$SPLFRAME
 70
     0
  9
$SPLINETYPE
 70
     6
  9
$SPLINESEGS
 70
     8
  9
$HANDSEED
  5
10D
  9
$SURFTAB1
 70
     6
  9
$SURFTAB2
 70
     6
  9
$SURFTYPE
 70
     6
  9
$SURFU
 70
     6
  9
$SURFV
 70
     6
  9
$UCSBASE
  2

  9
$UCSNAME
  2

  9
$UCSORG
 10
0.0
 20
0.0
 30
0.0
  9
$UCSXDIR
 10
1.0
 20
0.0
 30
0.0
  9
$UCSYDIR
 10
0.0
 20
1.0
 30
0.0
  9
$UCSORTHOREF
  2

  9
$UCSORTHOVIEW
 70
     0
  9
$UCSORGTOP
 10
0.0
 20
0.0
 30
0.0
  9
$UCSORGBOTTOM
 10
0.0
 20
0.0
 30
0.0
  9
$UCSORGLEFT
 10
0.0
 20
0.0
 30
0.0
  9
$UCSORGRIGHT
 10
0.0
 20
0.0
 30
0.0
  9
$UCSORGFRONT
 10
0.0
 20
0.0
 30
0.0
  9
$UCSORGBACK
 10
0.0
 20
0.0
 30
0.0
  9
$PUCSBASE
  2

  9
$PUCSNAME
  2

  9
$PUCSORG
 10
0.0
 20
0.0
 30
0.0
  9
$PUCSXDIR
 10
1.0
 20
0.0
 30
0.0
  9
$PUCSYDIR
 10
0.0
 20
1.0
 30
0.0
  9
$PUCSORTHOREF
  2

  9
$PUCSORTHOVIEW
 70
     0
  9
$PUCSORGTOP
 10
0.0
 20
0.0
 30
0.0
  9
$PUCSORGBOTTOM
 10
0.0
 20
0.0
 30
0.0
  9
$PUCSORGLEFT
 10
0.0
 20
0.0
 30
0.0
  9
$PUCSORGRIGHT
 10
0.0
 20
0.0
 30
0.0
  9
$PUCSORGFRONT
 10
0.0
 20
0.0
 30
0.0
  9
$PUCSORGBACK
 10
0.0
 20
0.0
 30
0.0
  9
$USERI1
 70
     0
  9
$USERI2
 70
     0
  9
$USERI3
 70
     0
  9
$USERI4
 70
     0
  9
$USERI5
 70
     0
  9
$USERR1
 40
0.0
  9
$USERR2
 40
0.0
  9
$USERR3
 40
0.0
  9
$USERR4
 40
0.0
  9
$USERR5
 40
0.0
  9
$WORLDVIEW
 70
     1
  9
$SHADEDGE
 70
     3
  9
$SHADEDIF
 70
    70
  9
$TILEMODE
 70
     1
  9
$MAXACTVP
 70
    64
  9
$PINSBASE
 10
0.0
 20
0.0
 30
0.0
  9
$PLIMCHECK
 70
     0
  9
$PEXTMIN
 10
1.000000000000000E+20
 20
1.000000000000000E+20
 30
1.000000000000000E+20
  9
$PEXTMAX
 10
-1.000000000000000E+20
 20
-1.000000000000000E+20
 30
-1.000000000000000E+20
  9
$PLIMMIN
 10
0.0
 20
0.0
  9
$PLIMMAX
 10
12.0
 20
9.0
  9
$UNITMODE
 70
     0
  9
$VISRETAIN
 70
     1
  9
$PLINEGEN
 70
     0
  9
$PSLTSCALE
 70
     1
  9
$TREEDEPTH
 70
  3020
  9
$CMLSTYLE
  2
Standard
  9
$CMLJUST
 70
     0
  9
$CMLSCALE
 40
1.0
  9
$PROXYGRAPHICS
 70
     1
  9
$MEASUREMENT
 70
     0
  9
$CELWEIGHT
370
    -1
  9
$ENDCAPS
280
     0
  9
$JOINSTYLE
280
     0
  9
$LWDISPLAY
290
     1
  9
$INSUNITS
 70
     1
  9
$HYPERLINKBASE
  1

  9
$STYLESHEET
  1

  9
$XEDIT
290
     1
  9
$CEPSNTYPE
380
     0
  9
$PSTYLEMODE
290
     1
  9
$FINGERPRINTGUID
  2
{DAE6DB12-4A38-8AB7-C9A8-65A68F61BED0}
  9
$VERSIONGUID
  2
{FAEB1C32-E019-11D5-929B-00C0DF256EC4}
  9
$EXTNAMES
290
     1
  9
$PSVPSCALE
 40
0.0
  9
$OLESTARTUP
290
     0
  9
$SORTENTS
280
   127
  9
$INDEXCTL
280
     0
  9
$HIDETEXT
280
     1
  9
$XCLIPFRAME
280
     2
  9
$HALOGAP
280
     0
  9
$OBSCOLOR
 70
   257
  9
$OBSLTYPE
280
     0
  9
$INTERSECTIONDISPLAY
280
     0
  9
$INTERSECTIONCOLOR
 70
   257
  9
$DIMASSOC
280
     2
  9
$PROJECTNAME
  1

  9
$CAMERADISPLAY
290
     0
  9
$LENSLENGTH
 40
50.0
  9
$CAMERAHEIGHT
 40
0.0
  9
$STEPSPERSEC
 40
2.0
  9
$STEPSIZE
 40
6.0
  9
$3DDWFPREC
 40
2.0
  9
$PSOLWIDTH
 40
0.25
  9
$PSOLHEIGHT
 40
4.0
  9
$LOFTANG1
 40
1.570796326794897
  9
$LOFTANG2
 40
1.570796326794897
  9
$LOFTMAG1
 40
0.0
  9
$LOFTMAG2
 40
0.0
  9
$LOFTPARAM
 70
     7
  9
$LOFTNORMALS
280
     1
  9
$LATITUDE
 40
37.795
  9
$LONGITUDE
 40
-122.394
  9
$NORTHDIRECTION
 40
0.0
  9
$TIMEZONE
 70
 -8000
  9
$LIGHTGLYPHDISPLAY
280
     1
  9
$TILEMODELIGHTSYNCH
280
     1
  9
$CMATERIAL
347
3C
  9
$SOLIDHIST
280
     1
  9
$SHOWHIST
280
     1
  9
$DWFFRAME
280
     2
  9
$DGNFRAME
280
     2
  9
$REALWORLDSCALE
290
     1
  9
$INTERFERECOLOR
 62
   256
  9
$CSHADOW
280
     0
  9
$SHADOWPLANELOCATION
 40
0.0
  0
ENDSEC
  0
SECTION
  2
CLASSES
  0
CLASS
  1
ACDBDICTIONARYWDFLT
  2
AcDbDictionaryWithDefault
  3
ObjectDBX Classes
 90
        0
 91
        4
280
     0
281
     0
  0
CLASS
  1
VISUALSTYLE
  2
AcDbVisualStyle
  3
ObjectDBX Classes
 90
     4095
 91
        4
280
     0
281
     0
  0
CLASS
  1
MATERIAL
  2
AcDbMaterial
  3
ObjectDBX Classes
 90
     1153
 91
        4
280
     0
281
     0
  0
CLASS
  1
SUN
  2
AcDbSun
  3
SCENEOE
 90
     1024
 91
        4
280
     0
281
     0
  0
ENDSEC
  0
SECTION
  2
TABLES
  0
TABLE
  2
VPORT
  5
8
330
0
100
AcDbSymbolTable
 70
     1
  0
VPORT
  5
29
330
8
100
AcDbSymbolTableRecord
100
AcDbViewportTableRecord
  2
*Active
 70
     0
 10
0.0
 20
0.0
 11
1.0
 21
1.0
 12
0.0
 22
0.0
 13
0.0
 23
0.0
 14
0.5
 24
0.5
 15
0.5
 25
0.5
 16
0.0
 26
0.0
 36
1.0
 17
91.00082462281999
 27
-128.4993055234307
 37
0.0
 40
256.9986110468615
 41
0.7081814508812795
 42
50.0
 43
0.0
 44
0.0
 50
0.0
 51
0.0
 71
     0
 72
   100
 73
     1
 74
     3
 75
     0
 76
     0
 77
     0
 78
     0
281
     0
 65
     1
110
0.0
120
0.0
130
0.0
111
1.0
121
0.0
131
0.0
112
0.0
122
1.0
132
0.0
 79
     0
146
0.0
 60
     3
 61
     5
292
     1
282
     1
141
0.0
142
0.0
 63
   250
361
3F
  0
ENDTAB
  0
TABLE
  2
LTYPE
  5
5
330
0
100
AcDbSymbolTable
 70
     1
  0
LTYPE
  5
14
330
5
100
AcDbSymbolTableRecord
100
AcDbLinetypeTableRecord
  2
ByBlock
 70
     0
  3

 72
    65
 73
     0
 40
0.0
  0
LTYPE
  5
15
330
5
100
AcDbSymbolTableRecord
100
AcDbLinetypeTableRecord
  2
ByLayer
 70
     0
  3

 72
    65
 73
     0
 40
0.0
  0
LTYPE
  5
16
330
5
100
AcDbSymbolTableRecord
100
AcDbLinetypeTableRecord
  2
Continuous
 70
     0
  3
Solid line
 72
    65
 73
     0
 40
0.0
  0
ENDTAB
  0
TABLE
  2
LAYER
  5
2
330
0
100
AcDbSymbolTable
 70
     2
  0
LAYER
  5
10
330
2
100
AcDbSymbolTableRecord
100
AcDbLayerTableRecord
  2
0
 70
     0
 62
     7
  6
Continuous
370
    -3
390
F
347
3E
  0
LAYER
  5
40
330
2
100
AcDbSymbolTableRecord
100
AcDbLayerTableRecord
  2
_U+30EC_U+30A4_U+30E4_U+30FC 1
 70
     0
 62
     7
  6
Continuous
370
    -3
390
F
347
3E
  0
ENDTAB
  0
TABLE
  2
STYLE
  5
3
330
0
100
AcDbSymbolTable
 70
     1
  0
STYLE
  5
11
330
3
100
AcDbSymbolTableRecord
100
AcDbTextStyleTableRecord
  2
Standard
 70
     0
 40
0.0
 41
1.0
 50
0.0
 71
     0
 42
0.2
  3
txt
  4

  0
ENDTAB
  0
TABLE
  2
VIEW
  5
6
330
0
100
AcDbSymbolTable
 70
     0
  0
ENDTAB
  0
TABLE
  2
UCS
  5
7
330
0
100
AcDbSymbolTable
 70
     0
  0
ENDTAB
  0
TABLE
  2
APPID
  5
9
330
0
100
AcDbSymbolTable
 70
     1
  0
APPID
  5
12
330
9
100
AcDbSymbolTableRecord
100
AcDbRegAppTableRecord
  2
ACAD
 70
     0
  0
ENDTAB
  0
TABLE
  2
DIMSTYLE
  5
A
330
0
100
AcDbSymbolTable
 70
     1
100
AcDbDimStyleTable
  0
DIMSTYLE
105
27
330
A
100
AcDbSymbolTableRecord
100
AcDbDimStyleTableRecord
  2
Standard
 70
     0
178
     0
340
11
  0
ENDTAB
  0
TABLE
  2
BLOCK_RECORD
  5
1
330
0
100
AcDbSymbolTable
 70
     7
  0
BLOCK_RECORD
  5
1F
330
1
100
AcDbSymbolTableRecord
100
AcDbBlockTableRecord
  2
*Model_Space
340
22
 70
     0
280
     1
281
     0
  0
BLOCK_RECORD
  5
1B
330
1
100
AcDbSymbolTableRecord
100
AcDbBlockTableRecord
  2
*Paper_Space
340
1E
 70
     0
280
     1
281
     0
  0
BLOCK_RECORD
  5
23
330
1
100
AcDbSymbolTableRecord
100
AcDbBlockTableRecord
  2
*Paper_Space0
340
26
 70
     0
280
     1
281
     0
  0
BLOCK_RECORD
  5
90
330
1
100
AcDbSymbolTableRecord
100
AcDbBlockTableRecord
  2
block 2
340
0
102
{BLKREFS
331
91
102
}
 70
     0
280
     1
281
     0
  0
BLOCK_RECORD
  5
A9
330
1
100
AcDbSymbolTableRecord
100
AcDbBlockTableRecord
  2
block 3
340
0
102
{BLKREFS
331
AA
102
}
 70
     0
280
     1
281
     0
  0
BLOCK_RECORD
  5
BB
330
1
100
AcDbSymbolTableRecord
100
AcDbBlockTableRecord
  2
block 4
340
0
102
{BLKREFS
331
BC
102
}
 70
     0
280
     1
281
     0
  0
BLOCK_RECORD
  5
CF
330
1
100
AcDbSymbolTableRecord
100
AcDbBlockTableRecord
  2
block 5
340
0
102
{BLKREFS
331
D0
102
}
 70
     0
280
     1
281
     0
  0
BLOCK_RECORD
  5
E5
330
1
100
AcDbSymbolTableRecord
100
AcDbBlockTableRecord
  2
block 6
340
0
102
{BLKREFS
331
E6
102
}
 70
     0
280
     1
281
     0
  0
BLOCK_RECORD
  5
EF
330
1
100
AcDbSymbolTableRecord
100
AcDbBlockTableRecord
  2
block 7
340
0
102
{BLKREFS
331
F0
102
}
 70
     0
280
     1
281
     0
  0
ENDTAB
  0
ENDSEC
  0
SECTION
  2
BLOCKS
  0
BLOCK
  5
20
330
1F
100
AcDbEntity
  8
0
100
AcDbBlockBegin
  2
*Model_Space
 70
     0
 10
0.0
 20
0.0
 30
0.0
  3
*Model_Space
  1

  0
ENDBLK
  5
21
330
1F
100
AcDbEntity
  8
0
100
AcDbBlockEnd
  0
BLOCK
  5
1C
330
1B
100
AcDbEntity
 67
     1
  8
0
100
AcDbBlockBegin
  2
*Paper_Space
 70
     0
 10
0.0
 20
0.0
 30
0.0
  3
*Paper_Space
  1

  0
ENDBLK
  5
1D
330
1B
100
AcDbEntity
 67
     1
  8
0
100
AcDbBlockEnd
  0
BLOCK
  5
24
330
23
100
AcDbEntity
  8
0
100
AcDbBlockBegin
  2
*Paper_Space0
 70
     0
 10
0.0
 20
0.0
 30
0.0
  3
*Paper_Space0
  1

  0
ENDBLK
  5
25
330
23
100
AcDbEntity
  8
0
100
AcDbBlockEnd
  0
BLOCK
  5
92
330
90
100
AcDbEntity
  8
0
100
AcDbBlockBegin
  2
block 2
 70
     0
 10
0.0
 20
0.0
 30
0.0
  3
block 2
  1

  0
SPLINE
  5
94
330
90
100
AcDbEntity
  8
_U+30EC_U+30A4_U+30E4_U+30FC 1
370
     0
100
AcDbSpline
210
0.0
220
0.0
230
1.0
 70
    11
 71
     3
 72
    26
 73
    22
 74
     0
 42
0.0000000001
 43
0.0000000001
 12
1.0
 22
0.0
 32
0.0
 13
1.0
 23
0.0
 33
0.0
 40
0.0
 40
0.0
 40
0.0
 40
0.0
 40
1.0
 40
1.0
 40
1.0
 40
2.0
 40
2.0
 40
2.0
 40
3.0
 40
3.0
 40
3.0
 40
4.0
 40
4.0
 40
4.0
 40
5.0
 40
5.0
 40
5.0
 40
6.0
 40
6.0
 40
6.0
 40
7.0
 40
7.0
 40
7.0
 40
7.0
 10
85.63043210749865
 20
-141.5558729029791
 30
0.0
 10
85.63043210749865
 20
-141.5558729029791
 30
0.0
 10
85.63043210749865
 20
-140.4517197999565
 30
0.0
 10
85.63043210749865
 20
-140.4517197999565
 30
0.0
 10
85.63043210749865
 20
-140.4517197999565
 30
0.0
 10
85.30039196001171
 20
-140.4517197999565
 30
0.0
 10
85.30039196001171
 20
-140.4517197999565
 30
0.0
 10
85.30039196001171
 20
-140.4517197999565
 30
0.0
 10
85.30039196001171
 20
-140.3035806940908
 30
0.0
 10
85.30039196001171
 20
-140.3035806940908
 30
0.0
 10
85.63249916478979
 20
-140.2887667835042
 30
0.0
 10
85.67900795384067
 20
-140.1258137670519
 30
0.0
 10
85.70863577501382
 20
-140.0114365969416
 30
0.0
 10
85.70863577501382
 20
-140.0114365969416
 30
0.0
 10
85.85470782358841
 20
-140.0114365969416
 30
0.0
 10
85.85470782358841
 20
-140.0114365969416
 30
0.0
 10
85.85470782358841
 20
-140.0114365969416
 30
0.0
 10
85.85470782358841
 20
-141.5558729029791
 30
0.0
 10
85.85470782358841
 20
-141.5558729029791
 30
0.0
 10
85.85470782358841
 20
-141.5558729029791
 30
0.0
 10
85.63043210749865
 20
-141.5558729029791
 30
0.0
 10
85.63043210749865
 20
-141.5558729029791
 30
0.0
  0
HATCH
  5
95
330
90
100
AcDbEntity
  8
_U+30EC_U+30A4_U+30E4_U+30FC 1
 62
     7
420
 16777215
100
AcDbHatch
 10
0.0
 20
0.0
 30
0.0
210
0.0
220
0.0
230
1.0
  2
SOLID
 70
     1
 71
     0
 91
        1
 92
        1
 93
        1
 72
     4
 94
        3
 73
     0
 74
     1
 95
       26
 96
       22
 40
0.0
 40
0.0
 40
0.0
 40
0.0
 40
1.0
 40
1.0
 40
1.0
 40
2.0
 40
2.0
 40
2.0
 40
3.0
 40
3.0
 40
3.0
 40
4.0
 40
4.0
 40
4.0
 40
5.0
 40
5.0
 40
5.0
 40
6.0
 40
6.0
 40
6.0
 40
7.0
 40
7.0
 40
7.0
 40
7.0
 10
85.63043210749865
 20
-141.5558729029791
 10
85.63043210749865
 20
-141.5558729029791
 10
85.63043210749865
 20
-140.4517197999565
 10
85.63043210749865
 20
-140.4517197999565
 10
85.63043210749865
 20
-140.4517197999565
 10
85.30039196001171
 20
-140.4517197999565
 10
85.30039196001171
 20
-140.4517197999565
 10
85.30039196001171
 20
-140.4517197999565
 10
85.30039196001171
 20
-140.3035806940908
 10
85.30039196001171
 20
-140.3035806940908
 10
85.63249916478979
 20
-140.2887667835042
 10
85.67900795384067
 20
-140.1258137670519
 10
85.70863577501382
 20
-140.0114365969416
 10
85.70863577501382
 20
-140.0114365969416
 10
85.85470782358841
 20
-140.0114365969416
 10
85.85470782358841
 20
-140.0114365969416
 10
85.85470782358841
 20
-140.0114365969416
 10
85.85470782358841
 20
-141.5558729029791
 10
85.85470782358841
 20
-141.5558729029791
 10
85.85470782358841
 20
-141.5558729029791
 10
85.63043210749865
 20
-141.5558729029791
 10
85.63043210749865
 20
-141.5558729029791
 97
        0
 97
        0
 75
     2
 76
     1
 98
        0
  0
SPLINE
  5
96
330
90
100
AcDbEntity
  8
_U+30EC_U+30A4_U+30E4_U+30FC 1
370
     0
100
AcDbSpline
210
0.0
220
0.0
230
1.0
 70
    11
 71
     3
 72
    29
 73
    25
 74
     0
 42
0.0000000001
 43
0.0000000001
 12
1.0
 22
0.0
 32
0.0
 13
1.0
 23
0.0
 33
0.0
 40
0.0
 40
0.0
 40
0.0
 40
0.0
 40
1.0
 40
1.0
 40
1.0
 40
2.0
 40
2.0
 40
2.0
 40
3.0
 40
3.0
 40
3.0
 40
4.0
 40
4.0
 40
4.0
 40
5.0
 40
5.0
 40
5.0
 40
6.0
 40
6.0
 40
6.0
 40
7.0
 40
7.0
 40
7.0
 40
8.0
 40
8.0
 40
8.0
 40
8.0
 10
87.25376110014837
 20
-141.3781059759402
 30
0.0
 10
87.14558510191152
 20
-141.5875677814434
 30
0.0
 10
86.97229679900346
 20
-141.6065158066123
 30
0.0
 10
86.85585257160201
 20
-141.6065158066123
 30
0.0
 10
86.69496661244085
 20
-141.6065158066123
 30
0.0
 10
86.55337318799708
 20
-141.5600070175614
 30
0.0
 10
86.45828855260419
 20
-141.3781059759402
 30
0.0
 10
86.35459117849817
 20
-141.1834580810236
 30
0.0
 10
86.33529864378076
 20
-140.9464355116384
 30
0.0
 10
86.33529864378076
 20
-140.7838270047346
 30
0.0
 10
86.33529864378076
 20
-140.6398220134512
 30
0.0
 10
86.35252412120701
 20
-140.3879855334794
 30
0.0
 10
86.45828855260419
 20
-140.1892035239805
 30
0.0
 10
86.5661200412925
 20
-139.9859428903507
 30
0.0
 10
86.72700600045367
 20
-139.9628607505996
 30
0.0
 10
86.85585257160201
 20
-139.9628607505996
 30
0.0
 10
87.01467147347203
 20
-139.9628607505996
 30
0.0
 10
87.15833195520695
 20
-140.0073024823593
 30
0.0
 10
87.25376110014837
 20
-140.1892035239805
 30
0.0
 10
87.35297985012356
 20
-140.381784361606
 30
0.0
 10
87.37640649942327
 20
-140.610194192278
 30
0.0
 10
87.37640649942327
 20
-140.7838270047346
 30
0.0
 10
87.37640649942327
 20
-140.9550482503515
 30
0.0
 10
87.35504690741472
 20
-141.1855251383147
 30
0.0
 10
87.25376110014837
 20
-141.3781059759402
 30
0.0
  0
SPLINE
  5
97
330
90
100
AcDbEntity
  8
_U+30EC_U+30A4_U+30E4_U+30FC 1
370
     0
100
AcDbSpline
210
0.0
220
0.0
230
1.0
 70
    11
 71
     3
 72
    17
 73
    13
 74
     0
 42
0.0000000001
 43
0.0000000001
 12
1.0
 22
0.0
 32
0.0
 13
1.0
 23
0.0
 33
0.0
 40
0.0
 40
0.0
 40
0.0
 40
0.0
 40
1.0
 40
1.0
 40
1.0
 40
2.0
 40
2.0
 40
2.0
 40
3.0
 40
3.0
 40
3.0
 40
4.0
 40
4.0
 40
4.0
 40
4.0
 10
86.85585257160201
 20
-140.155441588225
 30
0.0
 10
86.6060831489214
 20
-140.155441588225
 30
0.0
 10
86.55957435987052
 20
-140.4389729466611
 30
0.0
 10
86.55957435987052
 20
-140.7838270047346
 30
0.0
 10
86.55957435987052
 20
-141.1031873562173
 30
0.0
 10
86.59574786246566
 20
-141.4118679116957
 30
0.0
 10
86.85585257160201
 20
-141.4118679116957
 30
0.0
 10
87.10355493699147
 20
-141.4118679116957
 30
0.0
 10
87.1521307833335
 20
-141.1307481200993
 30
0.0
 10
87.1521307833335
 20
-140.7838270047346
 30
0.0
 10
87.1521307833335
 20
-140.4641221437034
 30
0.0
 10
87.11389022344723
 20
-140.155441588225
 30
0.0
 10
86.85585257160201
 20
-140.155441588225
 30
0.0
  0
HATCH
  5
98
330
90
100
AcDbEntity
  8
_U+30EC_U+30A4_U+30E4_U+30FC 1
 62
     7
420
 16777215
100
AcDbHatch
 10
0.0
 20
0.0
 30
0.0
210
0.0
220
0.0
230
1.0
  2
SOLID
 70
     1
 71
     0
 91
        2
 92
        1
 93
        1
 72
     4
 94
        3
 73
     0
 74
     1
 95
       29
 96
       25
 40
0.0
 40
0.0
 40
0.0
 40
0.0
 40
1.0
 40
1.0
 40
1.0
 40
2.0
 40
2.0
 40
2.0
 40
3.0
 40
3.0
 40
3.0
 40
4.0
 40
4.0
 40
4.0
 40
5.0
 40
5.0
 40
5.0
 40
6.0
 40
6.0
 40
6.0
 40
7.0
 40
7.0
 40
7.0
 40
8.0
 40
8.0
 40
8.0
 40
8.0
 10
87.25376110014837
 20
-141.3781059759402
 10
87.14558510191152
 20
-141.5875677814434
 10
86.97229679900346
 20
-141.6065158066123
 10
86.85585257160201
 20
-141.6065158066123
 10
86.69496661244085
 20
-141.6065158066123
 10
86.55337318799708
 20
-141.5600070175614
 10
86.45828855260419
 20
-141.3781059759402
 10
86.35459117849817
 20
-141.1834580810236
 10
86.33529864378076
 20
-140.9464355116384
 10
86.33529864378076
 20
-140.7838270047346
 10
86.33529864378076
 20
-140.6398220134512
 10
86.35252412120701
 20
-140.3879855334794
 10
86.45828855260419
 20
-140.1892035239805
 10
86.5661200412925
 20
-139.9859428903507
 10
86.72700600045367
 20
-139.9628607505996
 10
86.85585257160201
 20
-139.9628607505996
 10
87.01467147347203
 20
-139.9628607505996
 10
87.15833195520695
 20
-140.0073024823593
 10
87.25376110014837
 20
-140.1892035239805
 10
87.35297985012356
 20
-140.381784361606
 10
87.37640649942327
 20
-140.610194192278
 10
87.37640649942327
 20
-140.7838270047346
 10
87.37640649942327
 20
-140.9550482503515
 10
87.35504690741472
 20
-141.1855251383147
 10
87.25376110014837
 20
-141.3781059759402
 97
        0
 97
        0
 92
        1
 93
        1
 72
     4
 94
        3
 73
     0
 74
     1
 95
       17
 96
       13
 40
0.0
 40
0.0
 40
0.0
 40
0.0
 40
1.0
 40
1.0
 40
1.0
 40
2.0
 40
2.0
 40
2.0
 40
3.0
 40
3.0
 40
3.0
 40
4.0
 40
4.0
 40
4.0
 40
4.0
 10
86.85585257160201
 20
-140.155441588225
 10
86.6060831489214
 20
-140.155441588225
 10
86.55957435987052
 20
-140.4389729466611
 10
86.55957435987052
 20
-140.7838270047346
 10
86.55957435987052
 20
-141.1031873562173
 10
86.59574786246566
 20
-141.4118679116957
 10
86.85585257160201
 20
-141.4118679116957
 10
87.10355493699147
 20
-141.4118679116957
 10
87.1521307833335
 20
-141.1307481200993
 10
87.1521307833335
 20
-140.7838270047346
 10
87.1521307833335
 20
-140.4641221437034
 10
87.11389022344723
 20
-140.155441588225
 10
86.85585257160201
 20
-140.155441588225
 97
        0
 97
        0
 75
     2
 76
     1
 98
        0
  0
ENDBLK
  5
93
330
90
100
AcDbEntity
  8
0
100
AcDbBlockEnd
  0
BLOCK
  5
AB
330
A9
100
AcDbEntity
  8
0
100
AcDbBlockBegin
  2
block 3
 70
     0
 10
0.0
 20
0.0
 30
0.0
  3
block 3
  1

  0
SPLINE
  5
AD
330
A9
100
AcDbEntity
  8
_U+30EC_U+30A4_U+30E4_U+30FC 1
370
     0
100
AcDbSpline
210
0.0
220
0.0
230
1.0
 70
    11
 71
     3
 72
    26
 73
    22
 74
     0
 42
0.0000000001
 43
0.0000000001
 12
1.0
 22
0.0
 32
0.0
 13
1.0
 23
0.0
 33
0.0
 40
0.0
 40
0.0
 40
0.0
 40
0.0
 40
1.0
 40
1.0
 40
1.0
 40
2.0
 40
2.0
 40
2.0
 40
3.0
 40
3.0
 40
3.0
 40
4.0
 40
4.0
 40
4.0
 40
5.0
 40
5.0
 40
5.0
 40
6.0
 40
6.0
 40
6.0
 40
7.0
 40
7.0
 40
7.0
 40
7.0
 10
106.9691812883619
 20
-122.0018554382495
 30
0.0
 10
106.9691812883619
 20
-122.0018554382495
 30
0.0
 10
105.8650281853393
 20
-122.0018554382495
 30
0.0
 10
105.8650281853393
 20
-122.0018554382495
 30
0.0
 10
105.8650281853393
 20
-122.0018554382495
 30
0.0
 10
105.8650281853393
 20
-122.3318955857365
 30
0.0
 10
105.8650281853393
 20
-122.3318955857365
 30
0.0
 10
105.8650281853393
 20
-122.3318955857365
 30
0.0
 10
105.7168890794736
 20
-122.3318955857365
 30
0.0
 10
105.7168890794736
 20
-122.3318955857365
 30
0.0
 10
105.702075168887
 20
-121.9997883809584
 30
0.0
 10
105.5391221524347
 20
-121.9532795919075
 30
0.0
 10
105.4247449823244
 20
-121.9236517707344
 30
0.0
 10
105.4247449823244
 20
-121.9236517707344
 30
0.0
 10
105.4247449823244
 20
-121.7775797221598
 30
0.0
 10
105.4247449823244
 20
-121.7775797221598
 30
0.0
 10
105.4247449823244
 20
-121.7775797221598
 30
0.0
 10
106.9691812883619
 20
-121.7775797221598
 30
0.0
 10
106.9691812883619
 20
-121.7775797221598
 30
0.0
 10
106.9691812883619
 20
-121.7775797221598
 30
0.0
 10
106.9691812883619
 20
-122.0018554382495
 30
0.0
 10
106.9691812883619
 20
-122.0018554382495
 30
0.0
  0
HATCH
  5
AE
330
A9
100
AcDbEntity
  8
_U+30EC_U+30A4_U+30E4_U+30FC 1
 62
     7
420
 16777215
100
AcDbHatch
 10
0.0
 20
0.0
 30
0.0
210
0.0
220
0.0
230
1.0
  2
SOLID
 70
     1
 71
     0
 91
        1
 92
        1
 93
        1
 72
     4
 94
        3
 73
     0
 74
     1
 95
       26
 96
       22
 40
0.0
 40
0.0
 40
0.0
 40
0.0
 40
1.0
 40
1.0
 40
1.0
 40
2.0
 40
2.0
 40
2.0
 40
3.0
 40
3.0
 40
3.0
 40
4.0
 40
4.0
 40
4.0
 40
5.0
 40
5.0
 40
5.0
 40
6.0
 40
6.0
 40
6.0
 40
7.0
 40
7.0
 40
7.0
 40
7.0
 10
106.9691812883619
 20
-122.0018554382495
 10
106.9691812883619
 20
-122.0018554382495
 10
105.8650281853393
 20
-122.0018554382495
 10
105.8650281853393
 20
-122.0018554382495
 10
105.8650281853393
 20
-122.0018554382495
 10
105.8650281853393
 20
-122.3318955857365
 10
105.8650281853393
 20
-122.3318955857365
 10
105.8650281853393
 20
-122.3318955857365
 10
105.7168890794736
 20
-122.3318955857365
 10
105.7168890794736
 20
-122.3318955857365
 10
105.702075168887
 20
-121.9997883809584
 10
105.5391221524347
 20
-121.9532795919075
 10
105.4247449823244
 20
-121.9236517707344
 10
105.4247449823244
 20
-121.9236517707344
 10
105.4247449823244
 20
-121.7775797221598
 10
105.4247449823244
 20
-121.7775797221598
 10
105.4247449823244
 20
-121.7775797221598
 10
106.9691812883619
 20
-121.7775797221598
 10
106.9691812883619
 20
-121.7775797221598
 10
106.9691812883619
 20
-121.7775797221598
 10
106.9691812883619
 20
-122.0018554382495
 10
106.9691812883619
 20
-122.0018554382495
 97
        0
 97
        0
 75
     2
 76
     1
 98
        0
  0
ENDBLK
  5
AC
330
A9
100
AcDbEntity
  8
0
100
AcDbBlockEnd
  0
BLOCK
  5
BD
330
BB
100
AcDbEntity
  8
0
100
AcDbBlockBegin
  2
block 4
 70
     0
 10
0.0
 20
0.0
 30
0.0
  3
block 4
  1

  0
SPLINE
  5
BF
330
BB
100
AcDbEntity
  8
_U+30EC_U+30A4_U+30E4_U+30FC 1
370
     0
100
AcDbSpline
210
0.0
220
0.0
230
1.0
 70
    11
 71
     3
 72
    62
 73
    58
 74
     0
 42
0.0000000001
 43
0.0000000001
 12
1.0
 22
0.0
 32
0.0
 13
1.0
 23
0.0
 33
0.0
 40
0.0
 40
0.0
 40
0.0
 40
0.0
 40
1.0
 40
1.0
 40
1.0
 40
2.0
 40
2.0
 40
2.0
 40
3.0
 40
3.0
 40
3.0
 40
4.0
 40
4.0
 40
4.0
 40
5.0
 40
5.0
 40
5.0
 40
6.0
 40
6.0
 40
6.0
 40
7.0
 40
7.0
 40
7.0
 40
8.0
 40
8.0
 40
8.0
 40
9.0
 40
9.0
 40
9.0
 40
10.0
 40
10.0
 40
10.0
 40
11.0
 40
11.0
 40
11.0
 40
12.0
 40
12.0
 40
12.0
 40
13.0
 40
13.0
 40
13.0
 40
14.0
 40
14.0
 40
14.0
 40
15.0
 40
15.0
 40
15.0
 40
16.0
 40
16.0
 40
16.0
 40
17.0
 40
17.0
 40
17.0
 40
18.0
 40
18.0
 40
18.0
 40
19.0
 40
19.0
 40
19.0
 40
19.0
 10
87.48561602630568
 20
-116.7131171040683
 30
0.0
 10
87.39018688136426
 20
-116.7131171040683
 30
0.0
 10
87.17245684669648
 20
-116.691929766834
 30
0.0
 10
87.0473998805819
 20
-116.5057223558562
 30
0.0
 10
86.97333032764904
 20
-116.3935844978113
 30
0.0
 10
86.96919621306674
 20
-116.2941934930619
 30
0.0
 10
86.96506209848444
 20
-116.209616398899
 30
0.0
 10
86.96506209848444
 20
-116.209616398899
 30
0.0
 10
87.1852036999919
 20
-116.209616398899
 30
0.0
 10
87.1852036999919
 20
-116.209616398899
 30
0.0
 10
87.18727075728304
 20
-116.2836859518319
 30
0.0
 10
87.1976060437388
 20
-116.5184692091516
 30
0.0
 10
87.48113740217485
 20
-116.5184692091516
 30
0.0
 10
87.61859671203632
 20
-116.5184692091516
 30
0.0
 10
87.7712144420329
 20
-116.4487060255753
 30
0.0
 10
87.7712144420329
 20
-116.220123940129
 30
0.0
 10
87.7712144420329
 20
-116.1038519675018
 30
0.0
 10
87.73297388214662
 20
-116.0551038663855
 30
0.0
 10
87.70127900368232
 20
-116.0234089879212
 30
0.0
 10
87.62720945074945
 20
-115.9493394349884
 30
0.0
 10
87.510765223348
 20
-115.9367648364672
 30
0.0
 10
87.45598820513254
 20
-115.9367648364672
 30
0.0
 10
87.43669567041513
 20
-115.9367648364672
 30
0.0
 10
87.40086667736854
 20
-115.9388318937583
 30
0.0
 10
87.37330591348653
 20
-115.9429660083406
 30
0.0
 10
87.37330591348653
 20
-115.9429660083406
 30
0.0
 10
87.37330591348653
 20
-115.748318113424
 30
0.0
 10
87.37330591348653
 20
-115.748318113424
 30
0.0
 10
87.41154647337281
 20
-115.7546915400717
 30
0.0
 10
87.45357663829286
 20
-115.7569308521372
 30
0.0
 10
87.46012231971484
 20
-115.7569308521372
 30
0.0
 10
87.52557913393458
 20
-115.7569308521372
 30
0.0
 10
87.7243611434335
 20
-115.7357435149029
 30
0.0
 10
87.7243611434335
 20
-115.4987209455177
 30
0.0
 10
87.7243611434335
 20
-115.3211262732531
 30
0.0
 10
87.593447514994
 20
-115.2660047454891
 30
0.0
 10
87.48320445946601
 20
-115.2660047454891
 30
0.0
 10
87.21896563574735
 20
-115.2660047454891
 30
0.0
 10
87.21035289703423
 20
-115.4987209455177
 30
0.0
 10
87.20621878245193
 20
-115.5707234411594
 30
0.0
 10
87.20621878245193
 20
-115.5707234411594
 30
0.0
 10
87.00295814882219
 20
-115.5707234411594
 30
0.0
 10
87.00295814882219
 20
-115.5707234411594
 30
0.0
 10
87.0115708875353
 20
-115.4458387298191
 30
0.0
 10
87.0391316514173
 20
-115.0692897932813
 30
0.0
 10
87.49595131276143
 20
-115.0692897932813
 30
0.0
 10
87.7202270288512
 20
-115.0692897932813
 30
0.0
 10
87.96138371281869
 20
-115.1962415619128
 30
0.0
 10
87.96138371281869
 20
-115.49234751887
 30
0.0
 10
87.96138371281869
 20
-115.6785549298477
 30
0.0
 10
87.8662990774258
 20
-115.7610649667195
 30
0.0
 10
87.76673581790207
 20
-115.8223876663569
 30
0.0
 10
87.82805851753952
 20
-115.8499484302389
 30
0.0
 10
88.0099595591607
 20
-115.9303914098195
 30
0.0
 10
88.0099595591607
 20
-116.2075493416078
 30
0.0
 10
88.0099595591607
 20
-116.5460299730336
 30
0.0
 10
87.76260170331977
 20
-116.7131171040683
 30
0.0
 10
87.48561602630568
 20
-116.7131171040683
 30
0.0
  0
HATCH
  5
C0
330
BB
100
AcDbEntity
  8
_U+30EC_U+30A4_U+30E4_U+30FC 1
 62
     7
420
 16777215
100
AcDbHatch
 10
0.0
 20
0.0
 30
0.0
210
0.0
220
0.0
230
1.0
  2
SOLID
 70
     1
 71
     0
 91
        1
 92
        1
 93
        1
 72
     4
 94
        3
 73
     0
 74
     1
 95
       62
 96
       58
 40
0.0
 40
0.0
 40
0.0
 40
0.0
 40
1.0
 40
1.0
 40
1.0
 40
2.0
 40
2.0
 40
2.0
 40
3.0
 40
3.0
 40
3.0
 40
4.0
 40
4.0
 40
4.0
 40
5.0
 40
5.0
 40
5.0
 40
6.0
 40
6.0
 40
6.0
 40
7.0
 40
7.0
 40
7.0
 40
8.0
 40
8.0
 40
8.0
 40
9.0
 40
9.0
 40
9.0
 40
10.0
 40
10.0
 40
10.0
 40
11.0
 40
11.0
 40
11.0
 40
12.0
 40
12.0
 40
12.0
 40
13.0
 40
13.0
 40
13.0
 40
14.0
 40
14.0
 40
14.0
 40
15.0
 40
15.0
 40
15.0
 40
16.0
 40
16.0
 40
16.0
 40
17.0
 40
17.0
 40
17.0
 40
18.0
 40
18.0
 40
18.0
 40
19.0
 40
19.0
 40
19.0
 40
19.0
 10
87.48561602630568
 20
-116.7131171040683
 10
87.39018688136426
 20
-116.7131171040683
 10
87.17245684669648
 20
-116.691929766834
 10
87.0473998805819
 20
-116.5057223558562
 10
86.97333032764904
 20
-116.3935844978113
 10
86.96919621306674
 20
-116.2941934930619
 10
86.96506209848444
 20
-116.209616398899
 10
86.96506209848444
 20
-116.209616398899
 10
87.1852036999919
 20
-116.209616398899
 10
87.1852036999919
 20
-116.209616398899
 10
87.18727075728304
 20
-116.2836859518319
 10
87.1976060437388
 20
-116.5184692091516
 10
87.48113740217485
 20
-116.5184692091516
 10
87.61859671203632
 20
-116.5184692091516
 10
87.7712144420329
 20
-116.4487060255753
 10
87.7712144420329
 20
-116.220123940129
 10
87.7712144420329
 20
-116.1038519675018
 10
87.73297388214662
 20
-116.0551038663855
 10
87.70127900368232
 20
-116.0234089879212
 10
87.62720945074945
 20
-115.9493394349884
 10
87.510765223348
 20
-115.9367648364672
 10
87.45598820513254
 20
-115.9367648364672
 10
87.43669567041513
 20
-115.9367648364672
 10
87.40086667736854
 20
-115.9388318937583
 10
87.37330591348653
 20
-115.9429660083406
 10
87.37330591348653
 20
-115.9429660083406
 10
87.37330591348653
 20
-115.748318113424
 10
87.37330591348653
 20
-115.748318113424
 10
87.41154647337281
 20
-115.7546915400717
 10
87.45357663829286
 20
-115.7569308521372
 10
87.46012231971484
 20
-115.7569308521372
 10
87.52557913393458
 20
-115.7569308521372
 10
87.7243611434335
 20
-115.7357435149029
 10
87.7243611434335
 20
-115.4987209455177
 10
87.7243611434335
 20
-115.3211262732531
 10
87.593447514994
 20
-115.2660047454891
 10
87.48320445946601
 20
-115.2660047454891
 10
87.21896563574735
 20
-115.2660047454891
 10
87.21035289703423
 20
-115.4987209455177
 10
87.20621878245193
 20
-115.5707234411594
 10
87.20621878245193
 20
-115.5707234411594
 10
87.00295814882219
 20
-115.5707234411594
 10
87.00295814882219
 20
-115.5707234411594
 10
87.0115708875353
 20
-115.4458387298191
 10
87.0391316514173
 20
-115.0692897932813
 10
87.49595131276143
 20
-115.0692897932813
 10
87.7202270288512
 20
-115.0692897932813
 10
87.96138371281869
 20
-115.1962415619128
 10
87.96138371281869
 20
-115.49234751887
 10
87.96138371281869
 20
-115.6785549298477
 10
87.8662990774258
 20
-115.7610649667195
 10
87.76673581790207
 20
-115.8223876663569
 10
87.82805851753952
 20
-115.8499484302389
 10
88.0099595591607
 20
-115.9303914098195
 10
88.0099595591607
 20
-116.2075493416078
 10
88.0099595591607
 20
-116.5460299730336
 10
87.76260170331977
 20
-116.7131171040683
 10
87.48561602630568
 20
-116.7131171040683
 97
        0
 97
        0
 75
     2
 76
     1
 98
        0
  0
SPLINE
  5
C1
330
BB
100
AcDbEntity
  8
_U+30EC_U+30A4_U+30E4_U+30FC 1
370
     0
100
AcDbSpline
210
0.0
220
0.0
230
1.0
 70
    11
 71
     3
 72
    26
 73
    22
 74
     0
 42
0.0000000001
 43
0.0000000001
 12
1.0
 22
0.0
 32
0.0
 13
1.0
 23
0.0
 33
0.0
 40
0.0
 40
0.0
 40
0.0
 40
0.0
 40
1.0
 40
1.0
 40
1.0
 40
2.0
 40
2.0
 40
2.0
 40
3.0
 40
3.0
 40
3.0
 40
4.0
 40
4.0
 40
4.0
 40
5.0
 40
5.0
 40
5.0
 40
6.0
 40
6.0
 40
6.0
 40
7.0
 40
7.0
 40
7.0
 40
7.0
 10
88.6221530268896
 20
-116.6623019456608
 30
0.0
 10
88.6221530268896
 20
-116.6623019456608
 30
0.0
 10
88.6221530268896
 20
-115.557976587864
 30
0.0
 10
88.6221530268896
 20
-115.557976587864
 30
0.0
 10
88.6221530268896
 20
-115.557976587864
 30
0.0
 10
88.29211287940267
 20
-115.557976587864
 30
0.0
 10
88.29211287940267
 20
-115.557976587864
 30
0.0
 10
88.29211287940267
 20
-115.557976587864
 30
0.0
 10
88.29211287940267
 20
-115.4100097367725
 30
0.0
 10
88.29211287940267
 20
-115.4100097367725
 30
0.0
 10
88.62422008418075
 20
-115.3951958261859
 30
0.0
 10
88.67072887323162
 20
-115.2322428097336
 30
0.0
 10
88.70035669440477
 20
-115.1180378943976
 30
0.0
 10
88.70035669440477
 20
-115.1180378943976
 30
0.0
 10
88.84642874297937
 20
-115.1180378943976
 30
0.0
 10
88.84642874297937
 20
-115.1180378943976
 30
0.0
 10
88.84642874297937
 20
-115.1180378943976
 30
0.0
 10
88.84642874297937
 20
-116.6623019456608
 30
0.0
 10
88.84642874297937
 20
-116.6623019456608
 30
0.0
 10
88.84642874297937
 20
-116.6623019456608
 30
0.0
 10
88.6221530268896
 20
-116.6623019456608
 30
0.0
 10
88.6221530268896
 20
-116.6623019456608
 30
0.0
  0
HATCH
  5
C2
330
BB
100
AcDbEntity
  8
_U+30EC_U+30A4_U+30E4_U+30FC 1
 62
     7
420
 16777215
100
AcDbHatch
 10
0.0
 20
0.0
 30
0.0
210
0.0
220
0.0
230
1.0
  2
SOLID
 70
     1
 71
     0
 91
        1
 92
        1
 93
        1
 72
     4
 94
        3
 73
     0
 74
     1
 95
       26
 96
       22
 40
0.0
 40
0.0
 40
0.0
 40
0.0
 40
1.0
 40
1.0
 40
1.0
 40
2.0
 40
2.0
 40
2.0
 40
3.0
 40
3.0
 40
3.0
 40
4.0
 40
4.0
 40
4.0
 40
5.0
 40
5.0
 40
5.0
 40
6.0
 40
6.0
 40
6.0
 40
7.0
 40
7.0
 40
7.0
 40
7.0
 10
88.6221530268896
 20
-116.6623019456608
 10
88.6221530268896
 20
-116.6623019456608
 10
88.6221530268896
 20
-115.557976587864
 10
88.6221530268896
 20
-115.557976587864
 10
88.6221530268896
 20
-115.557976587864
 10
88.29211287940267
 20
-115.557976587864
 10
88.29211287940267
 20
-115.557976587864
 10
88.29211287940267
 20
-115.557976587864
 10
88.29211287940267
 20
-115.4100097367725
 10
88.29211287940267
 20
-115.4100097367725
 10
88.62422008418075
 20
-115.3951958261859
 10
88.67072887323162
 20
-115.2322428097336
 10
88.70035669440477
 20
-115.1180378943976
 10
88.70035669440477
 20
-115.1180378943976
 10
88.84642874297937
 20
-115.1180378943976
 10
88.84642874297937
 20
-115.1180378943976
 10
88.84642874297937
 20
-115.1180378943976
 10
88.84642874297937
 20
-116.6623019456608
 10
88.84642874297937
 20
-116.6623019456608
 10
88.84642874297937
 20
-116.6623019456608
 10
88.6221530268896
 20
-116.6623019456608
 10
88.6221530268896
 20
-116.6623019456608
 97
        0
 97
        0
 75
     2
 76
     1
 98
        0
  0
ENDBLK
  5
BE
330
BB
100
AcDbEntity
  8
0
100
AcDbBlockEnd
  0
BLOCK
  5
D1
330
CF
100
AcDbEntity
  8
0
100
AcDbBlockBegin
  2
block 5
 70
     0
 10
0.0
 20
0.0
 30
0.0
  3
block 5
  1

  0
SPLINE
  5
D3
330
CF
100
AcDbEntity
  8
_U+30EC_U+30A4_U+30E4_U+30FC 1
370
     0
100
AcDbSpline
210
0.0
220
0.0
230
1.0
 70
    11
 71
     3
 72
    29
 73
    25
 74
     0
 42
0.0000000001
 43
0.0000000001
 12
1.0
 22
0.0
 32
0.0
 13
1.0
 23
0.0
 33
0.0
 40
0.0
 40
0.0
 40
0.0
 40
0.0
 40
1.0
 40
1.0
 40
1.0
 40
2.0
 40
2.0
 40
2.0
 40
3.0
 40
3.0
 40
3.0
 40
4.0
 40
4.0
 40
4.0
 40
5.0
 40
5.0
 40
5.0
 40
6.0
 40
6.0
 40
6.0
 40
7.0
 40
7.0
 40
7.0
 40
8.0
 40
8.0
 40
8.0
 40
8.0
 10
76.92812091175756
 20
-141.6065158066123
 30
0.0
 10
76.66164277597348
 20
-141.6065158066123
 30
0.0
 10
76.40773923871056
 20
-141.4690564967508
 30
0.0
 10
76.40773923871056
 20
-141.120068324095
 30
0.0
 10
76.40773923871056
 20
-140.8640977295409
 30
0.0
 10
76.5495049179286
 20
-140.769013094148
 30
0.0
 10
76.65526934932576
 20
-140.7076903945106
 30
0.0
 10
76.53038463798546
 20
-140.6484347521643
 30
0.0
 10
76.45424802776144
 20
-140.534057582054
 30
0.0
 10
76.45424802776144
 20
-140.3731716228928
 30
0.0
 10
76.45424802776144
 20
-140.0982530031699
 30
0.0
 10
76.65320229203462
 20
-139.9628607505996
 30
0.0
 10
76.92812091175756
 20
-139.9628607505996
 30
0.0
 10
77.21165227019362
 20
-139.9628607505996
 30
0.0
 10
77.40199379575367
 20
-140.106865741883
 30
0.0
 10
77.40199379575367
 20
-140.3731716228928
 30
0.0
 10
77.40199379575367
 20
-140.534057582054
 30
0.0
 10
77.3237901282385
 20
-140.6484347521643
 30
0.0
 10
77.1989054168982
 20
-140.7076903945106
 30
0.0
 10
77.28778888041764
 20
-140.7583332981438
 30
0.0
 10
77.4464355275134
 20
-140.8534179335367
 30
0.0
 10
77.4464355275134
 20
-141.1159342095127
 30
0.0
 10
77.4464355275134
 20
-141.4904160887594
 30
0.0
 10
77.16721053843389
 20
-141.6065158066123
 30
0.0
 10
76.92812091175756
 20
-141.6065158066123
 30
0.0
  0
SPLINE
  5
D4
330
CF
100
AcDbEntity
  8
_U+30EC_U+30A4_U+30E4_U+30FC 1
370
     0
100
AcDbSpline
210
0.0
220
0.0
230
1.0
 70
    11
 71
     3
 72
    17
 73
    13
 74
     0
 42
0.0000000001
 43
0.0000000001
 12
1.0
 22
0.0
 32
0.0
 13
1.0
 23
0.0
 33
0.0
 40
0.0
 40
0.0
 40
0.0
 40
0.0
 40
1.0
 40
1.0
 40
1.0
 40
2.0
 40
2.0
 40
2.0
 40
3.0
 40
3.0
 40
3.0
 40
4.0
 40
4.0
 40
4.0
 40
4.0
 10
76.92812091175756
 20
-140.8155218831989
 30
0.0
 10
76.78428817524838
 20
-140.8155218831989
 30
0.0
 10
76.63201495480034
 20
-140.9023382894272
 30
0.0
 10
76.63201495480034
 20
-141.1052544135084
 30
0.0
 10
76.63201495480034
 20
-141.3105821044293
 30
0.0
 10
76.75896672343178
 20
-141.4118679116957
 30
0.0
 10
76.92812091175756
 20
-141.4118679116957
 30
0.0
 10
77.1143283227353
 20
-141.4118679116957
 30
0.0
 10
77.22439912348904
 20
-141.2892225124208
 30
0.0
 10
77.22439912348904
 20
-141.1114555853819
 30
0.0
 10
77.22439912348904
 20
-140.8895914361318
 30
0.0
 10
77.06144610703673
 20
-140.8155218831989
 30
0.0
 10
76.92812091175756
 20
-140.8155218831989
 30
0.0
  0
SPLINE
  5
D5
330
CF
100
AcDbEntity
  8
_U+30EC_U+30A4_U+30E4_U+30FC 1
370
     0
100
AcDbSpline
210
0.0
220
0.0
230
1.0
 70
    11
 71
     3
 72
    17
 73
    13
 74
     0
 42
0.0000000001
 43
0.0000000001
 12
1.0
 22
0.0
 32
0.0
 13
1.0
 23
0.0
 33
0.0
 40
0.0
 40
0.0
 40
0.0
 40
0.0
 40
1.0
 40
1.0
 40
1.0
 40
2.0
 40
2.0
 40
2.0
 40
3.0
 40
3.0
 40
3.0
 40
4.0
 40
4.0
 40
4.0
 40
4.0
 10
76.92812091175756
 20
-140.155441588225
 30
0.0
 10
76.76310083801408
 20
-140.155441588225
 30
0.0
 10
76.6785237438512
 20
-140.2505262236179
 30
0.0
 10
76.6785237438512
 20
-140.3859184761882
 30
0.0
 10
76.6785237438512
 20
-140.5085638754632
 30
0.0
 10
76.75052623949293
 20
-140.6270751601557
 30
0.0
 10
76.92812091175756
 20
-140.6270751601557
 30
0.0
 10
77.10588783879645
 20
-140.6270751601557
 30
0.0
 10
77.1777180796639
 20
-140.5085638754632
 30
0.0
 10
77.1777180796639
 20
-140.3859184761882
 30
0.0
 10
77.1777180796639
 20
-140.2505262236179
 30
0.0
 10
77.09107392820988
 20
-140.155441588225
 30
0.0
 10
76.92812091175756
 20
-140.155441588225
 30
0.0
  0
HATCH
  5
D6
330
CF
100
AcDbEntity
  8
_U+30EC_U+30A4_U+30E4_U+30FC 1
 62
     7
420
 16777215
100
AcDbHatch
 10
0.0
 20
0.0
 30
0.0
210
0.0
220
0.0
230
1.0
  2
SOLID
 70
     1
 71
     0
 91
        3
 92
        1
 93
        1
 72
     4
 94
        3
 73
     0
 74
     1
 95
       29
 96
       25
 40
0.0
 40
0.0
 40
0.0
 40
0.0
 40
1.0
 40
1.0
 40
1.0
 40
2.0
 40
2.0
 40
2.0
 40
3.0
 40
3.0
 40
3.0
 40
4.0
 40
4.0
 40
4.0
 40
5.0
 40
5.0
 40
5.0
 40
6.0
 40
6.0
 40
6.0
 40
7.0
 40
7.0
 40
7.0
 40
8.0
 40
8.0
 40
8.0
 40
8.0
 10
76.92812091175756
 20
-141.6065158066123
 10
76.66164277597348
 20
-141.6065158066123
 10
76.40773923871056
 20
-141.4690564967508
 10
76.40773923871056
 20
-141.120068324095
 10
76.40773923871056
 20
-140.8640977295409
 10
76.5495049179286
 20
-140.769013094148
 10
76.65526934932576
 20
-140.7076903945106
 10
76.53038463798546
 20
-140.6484347521643
 10
76.45424802776144
 20
-140.534057582054
 10
76.45424802776144
 20
-140.3731716228928
 10
76.45424802776144
 20
-140.0982530031699
 10
76.65320229203462
 20
-139.9628607505996
 10
76.92812091175756
 20
-139.9628607505996
 10
77.21165227019362
 20
-139.9628607505996
 10
77.40199379575367
 20
-140.106865741883
 10
77.40199379575367
 20
-140.3731716228928
 10
77.40199379575367
 20
-140.534057582054
 10
77.3237901282385
 20
-140.6484347521643
 10
77.1989054168982
 20
-140.7076903945106
 10
77.28778888041764
 20
-140.7583332981438
 10
77.4464355275134
 20
-140.8534179335367
 10
77.4464355275134
 20
-141.1159342095127
 10
77.4464355275134
 20
-141.4904160887594
 10
77.16721053843389
 20
-141.6065158066123
 10
76.92812091175756
 20
-141.6065158066123
 97
        0
 97
        0
 92
        1
 93
        1
 72
     4
 94
        3
 73
     0
 74
     1
 95
       17
 96
       13
 40
0.0
 40
0.0
 40
0.0
 40
0.0
 40
1.0
 40
1.0
 40
1.0
 40
2.0
 40
2.0
 40
2.0
 40
3.0
 40
3.0
 40
3.0
 40
4.0
 40
4.0
 40
4.0
 40
4.0
 10
76.92812091175756
 20
-140.8155218831989
 10
76.78428817524838
 20
-140.8155218831989
 10
76.63201495480034
 20
-140.9023382894272
 10
76.63201495480034
 20
-141.1052544135084
 10
76.63201495480034
 20
-141.3105821044293
 10
76.75896672343178
 20
-141.4118679116957
 10
76.92812091175756
 20
-141.4118679116957
 10
77.1143283227353
 20
-141.4118679116957
 10
77.22439912348904
 20
-141.2892225124208
 10
77.22439912348904
 20
-141.1114555853819
 10
77.22439912348904
 20
-140.8895914361318
 10
77.06144610703673
 20
-140.8155218831989
 10
76.92812091175756
 20
-140.8155218831989
 97
        0
 97
        0
 92
        1
 93
        1
 72
     4
 94
        3
 73
     0
 74
     1
 95
       17
 96
       13
 40
0.0
 40
0.0
 40
0.0
 40
0.0
 40
1.0
 40
1.0
 40
1.0
 40
2.0
 40
2.0
 40
2.0
 40
3.0
 40
3.0
 40
3.0
 40
4.0
 40
4.0
 40
4.0
 40
4.0
 10
76.92812091175756
 20
-140.155441588225
 10
76.76310083801408
 20
-140.155441588225
 10
76.6785237438512
 20
-140.2505262236179
 10
76.6785237438512
 20
-140.3859184761882
 10
76.6785237438512
 20
-140.5085638754632
 10
76.75052623949293
 20
-140.6270751601557
 10
76.92812091175756
 20
-140.6270751601557
 10
77.10588783879645
 20
-140.6270751601557
 10
77.1777180796639
 20
-140.5085638754632
 10
77.1777180796639
 20
-140.3859184761882
 10
77.1777180796639
 20
-140.2505262236179
 10
77.09107392820988
 20
-140.155441588225
 10
76.92812091175756
 20
-140.155441588225
 97
        0
 97
        0
 75
     2
 76
     1
 98
        0
  0
ENDBLK
  5
D2
330
CF
100
AcDbEntity
  8
0
100
AcDbBlockEnd
  0
BLOCK
  5
E7
330
E5
100
AcDbEntity
  8
0
100
AcDbBlockBegin
  2
block 6
 70
     0
 10
0.0
 20
0.0
 30
0.0
  3
block 6
  1

  0
SPLINE
  5
E9
330
E5
100
AcDbEntity
  8
_U+30EC_U+30A4_U+30E4_U+30FC 1
370
     0
100
AcDbSpline
210
0.0
220
0.0
230
1.0
 70
    11
 71
     3
 72
    62
 73
    58
 74
     0
 42
0.0000000001
 43
0.0000000001
 12
1.0
 22
0.0
 32
0.0
 13
1.0
 23
0.0
 33
0.0
 40
0.0
 40
0.0
 40
0.0
 40
0.0
 40
1.0
 40
1.0
 40
1.0
 40
2.0
 40
2.0
 40
2.0
 40
3.0
 40
3.0
 40
3.0
 40
4.0
 40
4.0
 40
4.0
 40
5.0
 40
5.0
 40
5.0
 40
6.0
 40
6.0
 40
6.0
 40
7.0
 40
7.0
 40
7.0
 40
8.0
 40
8.0
 40
8.0
 40
9.0
 40
9.0
 40
9.0
 40
10.0
 40
10.0
 40
10.0
 40
11.0
 40
11.0
 40
11.0
 40
12.0
 40
12.0
 40
12.0
 40
13.0
 40
13.0
 40
13.0
 40
14.0
 40
14.0
 40
14.0
 40
15.0
 40
15.0
 40
15.0
 40
16.0
 40
16.0
 40
16.0
 40
17.0
 40
17.0
 40
17.0
 40
18.0
 40
18.0
 40
18.0
 40
19.0
 40
19.0
 40
19.0
 40
19.0
 10
107.019824191995
 20
-136.3561902870915
 30
0.0
 10
107.019824191995
 20
-136.4516194320329
 30
0.0
 10
106.998809109535
 20
-136.6693494667007
 30
0.0
 10
106.8127739533315
 20
-136.7944064328153
 30
0.0
 10
106.7004638405124
 20
-136.8681314761996
 30
0.0
 10
106.6012450905372
 20
-136.8726101003305
 30
0.0
 10
106.5164957416001
 20
-136.8767442149128
 30
0.0
 10
106.5164957416001
 20
-136.8767442149128
 30
0.0
 10
106.5164957416001
 20
-136.6566026134053
 30
0.0
 10
106.5164957416001
 20
-136.6566026134053
 30
0.0
 10
106.5905652945329
 20
-136.6545355561142
 30
0.0
 10
106.8251762970784
 20
-136.6442002696584
 30
0.0
 10
106.8251762970784
 20
-136.3606689112223
 30
0.0
 10
106.8251762970784
 20
-136.2232096013609
 30
0.0
 10
106.7555853682764
 20
-136.0705918713643
 30
0.0
 10
106.5271755376043
 20
-136.0705918713643
 30
0.0
 10
106.4107313102029
 20
-136.0705918713643
 30
0.0
 10
106.3621554638609
 20
-136.1088324312506
 30
0.0
 10
106.3304605853966
 20
-136.1405273097149
 30
0.0
 10
106.2563910324637
 20
-136.2145968626477
 30
0.0
 10
106.2436441791683
 20
-136.3310410900492
 30
0.0
 10
106.2436441791683
 20
-136.3858181082647
 30
0.0
 10
106.2436441791683
 20
-136.4051106429821
 30
0.0
 10
106.2457112364594
 20
-136.4409396360287
 30
0.0
 10
106.2498453510417
 20
-136.4685003999107
 30
0.0
 10
106.2498453510417
 20
-136.4685003999107
 30
0.0
 10
106.0551974561251
 20
-136.4685003999107
 30
0.0
 10
106.0551974561251
 20
-136.4685003999107
 30
0.0
 10
106.0617431375471
 20
-136.4302598400244
 30
0.0
 10
106.0638101948382
 20
-136.3882296751043
 30
0.0
 10
106.0638101948382
 20
-136.3816839936824
 30
0.0
 10
106.0638101948382
 20
-136.3162271794626
 30
0.0
 10
106.0424506028297
 20
-136.1174451699637
 30
0.0
 10
105.805772542993
 20
-136.1174451699637
 30
0.0
 10
105.6280056159541
 20
-136.1174451699637
 30
0.0
 10
105.5728840881901
 20
-136.2483587984032
 30
0.0
 10
105.5728840881901
 20
-136.3586018539312
 30
0.0
 10
105.5728840881901
 20
-136.6228406776499
 30
0.0
 10
105.805772542993
 20
-136.631453416363
 30
0.0
 10
105.8774305290862
 20
-136.6355875309453
 30
0.0
 10
105.8774305290862
 20
-136.6355875309453
 30
0.0
 10
105.8774305290862
 20
-136.838848164575
 30
0.0
 10
105.8774305290862
 20
-136.838848164575
 30
0.0
 10
105.7527180725202
 20
-136.8302354258619
 30
0.0
 10
105.3761691359824
 20
-136.8026746619799
 30
0.0
 10
105.3761691359824
 20
-136.3458550006358
 30
0.0
 10
105.3761691359824
 20
-136.121579284546
 30
0.0
 10
105.5032931593881
 20
-135.8804226005785
 30
0.0
 10
105.799226861571
 20
-135.8804226005785
 30
0.0
 10
105.985606527323
 20
-135.8804226005785
 30
0.0
 10
106.0679443094205
 20
-135.9755072359714
 30
0.0
 10
106.129267009058
 20
-136.0750704954951
 30
0.0
 10
106.15682777294
 20
-136.0137477958577
 30
0.0
 10
106.2370984977463
 20
-135.8318467542365
 30
0.0
 10
106.5144286843089
 20
-135.8318467542365
 30
0.0
 10
106.8527370609604
 20
-135.8318467542365
 30
0.0
 10
107.019824191995
 20
-136.0792046100774
 30
0.0
 10
107.019824191995
 20
-136.3561902870915
 30
0.0
  0
HATCH
  5
EA
330
E5
100
AcDbEntity
  8
_U+30EC_U+30A4_U+30E4_U+30FC 1
 62
     7
420
 16777215
100
AcDbHatch
 10
0.0
 20
0.0
 30
0.0
210
0.0
220
0.0
230
1.0
  2
SOLID
 70
     1
 71
     0
 91
        1
 92
        1
 93
        1
 72
     4
 94
        3
 73
     0
 74
     1
 95
       62
 96
       58
 40
0.0
 40
0.0
 40
0.0
 40
0.0
 40
1.0
 40
1.0
 40
1.0
 40
2.0
 40
2.0
 40
2.0
 40
3.0
 40
3.0
 40
3.0
 40
4.0
 40
4.0
 40
4.0
 40
5.0
 40
5.0
 40
5.0
 40
6.0
 40
6.0
 40
6.0
 40
7.0
 40
7.0
 40
7.0
 40
8.0
 40
8.0
 40
8.0
 40
9.0
 40
9.0
 40
9.0
 40
10.0
 40
10.0
 40
10.0
 40
11.0
 40
11.0
 40
11.0
 40
12.0
 40
12.0
 40
12.0
 40
13.0
 40
13.0
 40
13.0
 40
14.0
 40
14.0
 40
14.0
 40
15.0
 40
15.0
 40
15.0
 40
16.0
 40
16.0
 40
16.0
 40
17.0
 40
17.0
 40
17.0
 40
18.0
 40
18.0
 40
18.0
 40
19.0
 40
19.0
 40
19.0
 40
19.0
 10
107.019824191995
 20
-136.3561902870915
 10
107.019824191995
 20
-136.4516194320329
 10
106.998809109535
 20
-136.6693494667007
 10
106.8127739533315
 20
-136.7944064328153
 10
106.7004638405124
 20
-136.8681314761996
 10
106.6012450905372
 20
-136.8726101003305
 10
106.5164957416001
 20
-136.8767442149128
 10
106.5164957416001
 20
-136.8767442149128
 10
106.5164957416001
 20
-136.6566026134053
 10
106.5164957416001
 20
-136.6566026134053
 10
106.5905652945329
 20
-136.6545355561142
 10
106.8251762970784
 20
-136.6442002696584
 10
106.8251762970784
 20
-136.3606689112223
 10
106.8251762970784
 20
-136.2232096013609
 10
106.7555853682764
 20
-136.0705918713643
 10
106.5271755376043
 20
-136.0705918713643
 10
106.4107313102029
 20
-136.0705918713643
 10
106.3621554638609
 20
-136.1088324312506
 10
106.3304605853966
 20
-136.1405273097149
 10
106.2563910324637
 20
-136.2145968626477
 10
106.2436441791683
 20
-136.3310410900492
 10
106.2436441791683
 20
-136.3858181082647
 10
106.2436441791683
 20
-136.4051106429821
 10
106.2457112364594
 20
-136.4409396360287
 10
106.2498453510417
 20
-136.4685003999107
 10
106.2498453510417
 20
-136.4685003999107
 10
106.0551974561251
 20
-136.4685003999107
 10
106.0551974561251
 20
-136.4685003999107
 10
106.0617431375471
 20
-136.4302598400244
 10
106.0638101948382
 20
-136.3882296751043
 10
106.0638101948382
 20
-136.3816839936824
 10
106.0638101948382
 20
-136.3162271794626
 10
106.0424506028297
 20
-136.1174451699637
 10
105.805772542993
 20
-136.1174451699637
 10
105.6280056159541
 20
-136.1174451699637
 10
105.5728840881901
 20
-136.2483587984032
 10
105.5728840881901
 20
-136.3586018539312
 10
105.5728840881901
 20
-136.6228406776499
 10
105.805772542993
 20
-136.631453416363
 10
105.8774305290862
 20
-136.6355875309453
 10
105.8774305290862
 20
-136.6355875309453
 10
105.8774305290862
 20
-136.838848164575
 10
105.8774305290862
 20
-136.838848164575
 10
105.7527180725202
 20
-136.8302354258619
 10
105.3761691359824
 20
-136.8026746619799
 10
105.3761691359824
 20
-136.3458550006358
 10
105.3761691359824
 20
-136.121579284546
 10
105.5032931593881
 20
-135.8804226005785
 10
105.799226861571
 20
-135.8804226005785
 10
105.985606527323
 20
-135.8804226005785
 10
106.0679443094205
 20
-135.9755072359714
 10
106.129267009058
 20
-136.0750704954951
 10
106.15682777294
 20
-136.0137477958577
 10
106.2370984977463
 20
-135.8318467542365
 10
106.5144286843089
 20
-135.8318467542365
 10
106.8527370609604
 20
-135.8318467542365
 10
107.019824191995
 20
-136.0792046100774
 10
107.019824191995
 20
-136.3561902870915
 97
        0
 97
        0
 75
     2
 76
     1
 98
        0
  0
ENDBLK
  5
E8
330
E5
100
AcDbEntity
  8
0
100
AcDbBlockEnd
  0
BLOCK
  5
F1
330
EF
100
AcDbEntity
  8
0
100
AcDbBlockBegin
  2
block 7
 70
     0
 10
0.0
 20
0.0
 30
0.0
  3
block 7
  1

  0
SPLINE
  5
F3
330
EF
100
AcDbEntity
  8
_U+30EC_U+30A4_U+30E4_U+30FC 1
370
     0
100
AcDbSpline
210
0.0
220
0.0
230
1.0
 70
    11
 71
     3
 72
    26
 73
    22
 74
     0
 42
0.0000000001
 43
0.0000000001
 12
1.0
 22
0.0
 32
0.0
 13
1.0
 23
0.0
 33
0.0
 40
0.0
 40
0.0
 40
0.0
 40
0.0
 40
1.0
 40
1.0
 40
1.0
 40
2.0
 40
2.0
 40
2.0
 40
3.0
 40
3.0
 40
3.0
 40
4.0
 40
4.0
 40
4.0
 40
5.0
 40
5.0
 40
5.0
 40
6.0
 40
6.0
 40
6.0
 40
7.0
 40
7.0
 40
7.0
 40
7.0
 10
106.9691812883619
 20
-131.130324945516
 30
0.0
 10
106.9691812883619
 20
-131.130324945516
 30
0.0
 10
105.8650281853393
 20
-131.130324945516
 30
0.0
 10
105.8650281853393
 20
-131.130324945516
 30
0.0
 10
105.8650281853393
 20
-131.130324945516
 30
0.0
 10
105.8650281853393
 20
-131.460365093003
 30
0.0
 10
105.8650281853393
 20
-131.460365093003
 30
0.0
 10
105.8650281853393
 20
-131.460365093003
 30
0.0
 10
105.7168890794736
 20
-131.460365093003
 30
0.0
 10
105.7168890794736
 20
-131.460365093003
 30
0.0
 10
105.702075168887
 20
-131.1282578882249
 30
0.0
 10
105.5391221524347
 20
-131.081749099174
 30
0.0
 10
105.4247449823244
 20
-131.0521212780009
 30
0.0
 10
105.4247449823244
 20
-131.0521212780009
 30
0.0
 10
105.4247449823244
 20
-130.9060492294263
 30
0.0
 10
105.4247449823244
 20
-130.9060492294263
 30
0.0
 10
105.4247449823244
 20
-130.9060492294263
 30
0.0
 10
106.9691812883619
 20
-130.9060492294263
 30
0.0
 10
106.9691812883619
 20
-130.9060492294263
 30
0.0
 10
106.9691812883619
 20
-130.9060492294263
 30
0.0
 10
106.9691812883619
 20
-131.130324945516
 30
0.0
 10
106.9691812883619
 20
-131.130324945516
 30
0.0
  0
HATCH
  5
F4
330
EF
100
AcDbEntity
  8
_U+30EC_U+30A4_U+30E4_U+30FC 1
 62
     7
420
 16777215
100
AcDbHatch
 10
0.0
 20
0.0
 30
0.0
210
0.0
220
0.0
230
1.0
  2
SOLID
 70
     1
 71
     0
 91
        1
 92
        1
 93
        1
 72
     4
 94
        3
 73
     0
 74
     1
 95
       26
 96
       22
 40
0.0
 40
0.0
 40
0.0
 40
0.0
 40
1.0
 40
1.0
 40
1.0
 40
2.0
 40
2.0
 40
2.0
 40
3.0
 40
3.0
 40
3.0
 40
4.0
 40
4.0
 40
4.0
 40
5.0
 40
5.0
 40
5.0
 40
6.0
 40
6.0
 40
6.0
 40
7.0
 40
7.0
 40
7.0
 40
7.0
 10
106.9691812883619
 20
-131.130324945516
 10
106.9691812883619
 20
-131.130324945516
 10
105.8650281853393
 20
-131.130324945516
 10
105.8650281853393
 20
-131.130324945516
 10
105.8650281853393
 20
-131.130324945516
 10
105.8650281853393
 20
-131.460365093003
 10
105.8650281853393
 20
-131.460365093003
 10
105.8650281853393
 20
-131.460365093003
 10
105.7168890794736
 20
-131.460365093003
 10
105.7168890794736
 20
-131.460365093003
 10
105.702075168887
 20
-131.1282578882249
 10
105.5391221524347
 20
-131.081749099174
 10
105.4247449823244
 20
-131.0521212780009
 10
105.4247449823244
 20
-131.0521212780009
 10
105.4247449823244
 20
-130.9060492294263
 10
105.4247449823244
 20
-130.9060492294263
 10
105.4247449823244
 20
-130.9060492294263
 10
106.9691812883619
 20
-130.9060492294263
 10
106.9691812883619
 20
-130.9060492294263
 10
106.9691812883619
 20
-130.9060492294263
 10
106.9691812883619
 20
-131.130324945516
 10
106.9691812883619
 20
-131.130324945516
 97
        0
 97
        0
 75
     2
 76
     1
 98
        0
  0
SPLINE
  5
F5
330
EF
100
AcDbEntity
  8
_U+30EC_U+30A4_U+30E4_U+30FC 1
370
     0
100
AcDbSpline
210
0.0
220
0.0
230
1.0
 70
    11
 71
     3
 72
    44
 73
    40
 74
     0
 42
0.0000000001
 43
0.0000000001
 12
1.0
 22
0.0
 32
0.0
 13
1.0
 23
0.0
 33
0.0
 40
0.0
 40
0.0
 40
0.0
 40
0.0
 40
1.0
 40
1.0
 40
1.0
 40
2.0
 40
2.0
 40
2.0
 40
3.0
 40
3.0
 40
3.0
 40
4.0
 40
4.0
 40
4.0
 40
5.0
 40
5.0
 40
5.0
 40
6.0
 40
6.0
 40
6.0
 40
7.0
 40
7.0
 40
7.0
 40
8.0
 40
8.0
 40
8.0
 40
9.0
 40
9.0
 40
9.0
 40
10.0
 40
10.0
 40
10.0
 40
11.0
 40
11.0
 40
11.0
 40
12.0
 40
12.0
 40
12.0
 40
13.0
 40
13.0
 40
13.0
 40
13.0
 10
106.3873046609032
 20
-129.8118869033109
 30
0.0
 10
106.5461235627732
 20
-130.0296169379787
 30
0.0
 10
106.6201931157061
 20
-130.1226345160805
 30
0.0
 10
106.763853597441
 20
-130.171554871971
 30
0.0
 10
106.763853597441
 20
-130.171554871971
 30
0.0
 10
106.763853597441
 20
-129.3929632923045
 30
0.0
 10
106.763853597441
 20
-129.3929632923045
 30
0.0
 10
106.763853597441
 20
-129.3929632923045
 30
0.0
 10
106.9691812883619
 20
-129.3929632923045
 30
0.0
 10
106.9691812883619
 20
-129.3929632923045
 30
0.0
 10
106.9691812883619
 20
-129.3929632923045
 30
0.0
 10
106.9691812883619
 20
-130.4209797851031
 30
0.0
 10
106.9691812883619
 20
-130.4209797851031
 30
0.0
 10
106.6115803769929
 20
-130.3892849066388
 30
0.0
 10
106.5333767094778
 20
-130.323828092419
 30
0.0
 10
106.2350314404551
 20
-129.9386664171681
 30
0.0
 10
106.0362494309562
 20
-129.6826958226141
 30
0.0
 10
105.9683810498968
 20
-129.6172390083943
 30
0.0
 10
105.8309217400353
 20
-129.6172390083943
 30
0.0
 10
105.7124104553427
 20
-129.6172390083943
 30
0.0
 10
105.5814968269032
 20
-129.689241504036
 30
0.0
 10
105.5814968269032
 20
-129.8859564562438
 30
0.0
 10
105.5814968269032
 20
-130.1460611653802
 30
0.0
 10
105.8119737148665
 20
-130.1543293945448
 30
0.0
 10
105.9284179422679
 20
-130.1588080186756
 30
0.0
 10
105.9284179422679
 20
-130.1588080186756
 30
0.0
 10
105.9284179422679
 20
-130.3830837347653
 30
0.0
 10
105.9284179422679
 20
-130.3830837347653
 30
0.0
 10
105.8012939188622
 20
-130.3744709960522
 30
0.0
 10
105.6893283155916
 20
-130.363791200048
 30
0.0
 10
105.570817030899
 20
-130.2835204752416
 30
0.0
 10
105.4099310717378
 20
-130.1736219292622
 30
0.0
 10
105.3761691359824
 20
-129.9872422635101
 30
0.0
 10
105.3761691359824
 20
-129.8711425456572
 30
0.0
 10
105.3761691359824
 20
-129.5938123590946
 30
0.0
 10
105.5601372348947
 20
-129.3864176108826
 30
0.0
 10
105.8329887973265
 20
-129.3864176108826
 30
0.0
 10
106.0617431375471
 20
-129.3864176108826
 30
0.0
 10
106.1609618875223
 20
-129.502861838284
 30
0.0
 10
106.3873046609032
 20
-129.8118869033109
 30
0.0
  0
HATCH
  5
F6
330
EF
100
AcDbEntity
  8
_U+30EC_U+30A4_U+30E4_U+30FC 1
 62
     7
420
 16777215
100
AcDbHatch
 10
0.0
 20
0.0
 30
0.0
210
0.0
220
0.0
230
1.0
  2
SOLID
 70
     1
 71
     0
 91
        1
 92
        1
 93
        1
 72
     4
 94
        3
 73
     0
 74
     1
 95
       44
 96
       40
 40
0.0
 40
0.0
 40
0.0
 40
0.0
 40
1.0
 40
1.0
 40
1.0
 40
2.0
 40
2.0
 40
2.0
 40
3.0
 40
3.0
 40
3.0
 40
4.0
 40
4.0
 40
4.0
 40
5.0
 40
5.0
 40
5.0
 40
6.0
 40
6.0
 40
6.0
 40
7.0
 40
7.0
 40
7.0
 40
8.0
 40
8.0
 40
8.0
 40
9.0
 40
9.0
 40
9.0
 40
10.0
 40
10.0
 40
10.0
 40
11.0
 40
11.0
 40
11.0
 40
12.0
 40
12.0
 40
12.0
 40
13.0
 40
13.0
 40
13.0
 40
13.0
 10
106.3873046609032
 20
-129.8118869033109
 10
106.5461235627732
 20
-130.0296169379787
 10
106.6201931157061
 20
-130.1226345160805
 10
106.763853597441
 20
-130.171554871971
 10
106.763853597441
 20
-130.171554871971
 10
106.763853597441
 20
-129.3929632923045
 10
106.763853597441
 20
-129.3929632923045
 10
106.763853597441
 20
-129.3929632923045
 10
106.9691812883619
 20
-129.3929632923045
 10
106.9691812883619
 20
-129.3929632923045
 10
106.9691812883619
 20
-129.3929632923045
 10
106.9691812883619
 20
-130.4209797851031
 10
106.9691812883619
 20
-130.4209797851031
 10
106.6115803769929
 20
-130.3892849066388
 10
106.5333767094778
 20
-130.323828092419
 10
106.2350314404551
 20
-129.9386664171681
 10
106.0362494309562
 20
-129.6826958226141
 10
105.9683810498968
 20
-129.6172390083943
 10
105.8309217400353
 20
-129.6172390083943
 10
105.7124104553427
 20
-129.6172390083943
 10
105.5814968269032
 20
-129.689241504036
 10
105.5814968269032
 20
-129.8859564562438
 10
105.5814968269032
 20
-130.1460611653802
 10
105.8119737148665
 20
-130.1543293945448
 10
105.9284179422679
 20
-130.1588080186756
 10
105.9284179422679
 20
-130.1588080186756
 10
105.9284179422679
 20
-130.3830837347653
 10
105.9284179422679
 20
-130.3830837347653
 10
105.8012939188622
 20
-130.3744709960522
 10
105.6893283155916
 20
-130.363791200048
 10
105.570817030899
 20
-130.2835204752416
 10
105.4099310717378
 20
-130.1736219292622
 10
105.3761691359824
 20
-129.9872422635101
 10
105.3761691359824
 20
-129.8711425456572
 10
105.3761691359824
 20
-129.5938123590946
 10
105.5601372348947
 20
-129.3864176108826
 10
105.8329887973265
 20
-129.3864176108826
 10
106.0617431375471
 20
-129.3864176108826
 10
106.1609618875223
 20
-129.502861838284
 10
106.3873046609032
 20
-129.8118869033109
 97
        0
 97
        0
 75
     2
 76
     1
 98
        0
  0
POLYLINE
  5
F7
330
EF
100
AcDbEntity
  8
_U+30EC_U+30A4_U+30E4_U+30FC 1
370
     0
100
AcDb2dPolyline
 66
     1
 10
0.0
 20
0.0
 30
0.0
  0
VERTEX
  5
F8
330
F7
100
AcDbEntity
  8
_U+30EC_U+30A4_U+30E4_U+30FC 1
370
     0
100
AcDbVertex
100
AcDb2dVertex
 10
106.9691812883619
 20
-129.1679985571177
 30
0.0
  0
VERTEX
  5
F9
330
F7
100
AcDbEntity
  8
_U+30EC_U+30A4_U+30E4_U+30FC 1
370
     0
100
AcDbVertex
100
AcDb2dVertex
 10
106.7173448083901
 20
-129.1679985571177
 30
0.0
  0
VERTEX
  5
FA
330
F7
100
AcDbEntity
  8
_U+30EC_U+30A4_U+30E4_U+30FC 1
370
     0
100
AcDbVertex
100
AcDb2dVertex
 10
106.7173448083901
 20
-128.916162077146
 30
0.0
  0
VERTEX
  5
FB
330
F7
100
AcDbEntity
  8
_U+30EC_U+30A4_U+30E4_U+30FC 1
370
     0
100
AcDbVertex
100
AcDb2dVertex
 10
106.9691812883619
 20
-128.916162077146
 30
0.0
  0
VERTEX
  5
FC
330
F7
100
AcDbEntity
  8
_U+30EC_U+30A4_U+30E4_U+30FC 1
370
     0
100
AcDbVertex
100
AcDb2dVertex
 10
106.9691812883619
 20
-129.1679985571177
 30
0.0
  0
SEQEND
  5
FD
330
F7
100
AcDbEntity
  8
_U+30EC_U+30A4_U+30E4_U+30FC 1
370
     0
  0
HATCH
  5
FE
330
EF
100
AcDbEntity
  8
_U+30EC_U+30A4_U+30E4_U+30FC 1
 62
     7
420
 16777215
100
AcDbHatch
 10
0.0
 20
0.0
 30
0.0
210
0.0
220
0.0
230
1.0
  2
SOLID
 70
     1
 71
     0
 91
        1
 92
        1
 93
        4
 72
     1
 10
106.9691812883619
 20
-129.1679985571177
 11
106.7173448083901
 21
-129.1679985571177
 72
     1
 10
106.7173448083901
 20
-129.1679985571177
 11
106.7173448083901
 21
-128.916162077146
 72
     1
 10
106.7173448083901
 20
-128.916162077146
 11
106.9691812883619
 21
-128.916162077146
 72
     1
 10
106.9691812883619
 20
-128.916162077146
 11
106.9691812883619
 21
-129.1679985571177
 97
        0
 75
     2
 76
     1
 98
        0
  0
SPLINE
  5
FF
330
EF
100
AcDbEntity
  8
_U+30EC_U+30A4_U+30E4_U+30FC 1
370
     0
100
AcDbSpline
210
0.0
220
0.0
230
1.0
 70
    11
 71
     3
 72
    53
 73
    49
 74
     0
 42
0.0000000001
 43
0.0000000001
 12
1.0
 22
0.0
 32
0.0
 13
1.0
 23
0.0
 33
0.0
 40
0.0
 40
0.0
 40
0.0
 40
0.0
 40
1.0
 40
1.0
 40
1.0
 40
2.0
 40
2.0
 40
2.0
 40
3.0
 40
3.0
 40
3.0
 40
4.0
 40
4.0
 40
4.0
 40
5.0
 40
5.0
 40
5.0
 40
6.0
 40
6.0
 40
6.0
 40
7.0
 40
7.0
 40
7.0
 40
8.0
 40
8.0
 40
8.0
 40
9.0
 40
9.0
 40
9.0
 40
10.0
 40
10.0
 40
10.0
 40
11.0
 40
11.0
 40
11.0
 40
12.0
 40
12.0
 40
12.0
 40
13.0
 40
13.0
 40
13.0
 40
14.0
 40
14.0
 40
14.0
 40
15.0
 40
15.0
 40
15.0
 40
16.0
 40
16.0
 40
16.0
 40
16.0
 10
107.019824191995
 20
-128.1988931971169
 30
0.0
 10
107.019824191995
 20
-128.2770968646321
 30
0.0
 10
107.0029432241173
 20
-128.378727181447
 30
0.0
 10
106.9395534671887
 20
-128.4803574982619
 30
0.0
 10
106.8296549212093
 20
-128.6536458011699
 30
0.0
 10
106.6983967832212
 20
-128.6750053931785
 30
0.0
 10
106.5905652945329
 20
-128.6939534183473
 30
0.0
 10
106.5905652945329
 20
-128.6939534183473
 30
0.0
 10
106.5905652945329
 20
-128.4717447595487
 30
0.0
 10
106.5905652945329
 20
-128.4717447595487
 30
0.0
 10
106.7893473040318
 20
-128.4169677413333
 30
0.0
 10
106.818975125205
 20
-128.2898437179275
 30
0.0
 10
106.818975125205
 20
-128.1968261398258
 30
0.0
 10
106.818975125205
 20
-128.0572997726732
 30
0.0
 10
106.7194118656813
 20
-127.9050265522251
 30
0.0
 10
106.4868679204269
 20
-127.9050265522251
 30
0.0
 10
106.2308973258728
 20
-127.9050265522251
 30
0.0
 10
106.1609618875223
 20
-128.0848605365552
 30
0.0
 10
106.1609618875223
 20
-128.2054388785389
 30
0.0
 10
106.1609618875223
 20
-128.2371337570032
 30
0.0
 10
106.1609618875223
 20
-128.378727181447
 30
0.0
 10
106.2901529682191
 20
-128.4676106449664
 30
0.0
 10
106.2901529682191
 20
-128.4676106449664
 30
0.0
 10
106.2712049430503
 20
-128.6433105147142
 30
0.0
 10
106.2712049430503
 20
-128.6433105147142
 30
0.0
 10
106.2712049430503
 20
-128.6433105147142
 30
0.0
 10
105.4247449823244
 20
-128.5227321727304
 30
0.0
 10
105.4247449823244
 20
-128.5227321727304
 30
0.0
 10
105.4247449823244
 20
-128.5227321727304
 30
0.0
 10
105.4247449823244
 20
-127.744140593064
 30
0.0
 10
105.4247449823244
 20
-127.744140593064
 30
0.0
 10
105.4247449823244
 20
-127.744140593064
 30
0.0
 10
105.619392877241
 20
-127.744140593064
 30
0.0
 10
105.619392877241
 20
-127.744140593064
 30
0.0
 10
105.619392877241
 20
-127.744140593064
 30
0.0
 10
105.619392877241
 20
-128.3597791562781
 30
0.0
 10
105.619392877241
 20
-128.3597791562781
 30
0.0
 10
105.619392877241
 20
-128.3597791562781
 30
0.0
 10
106.0424506028297
 20
-128.4252359704979
 30
0.0
 10
106.0424506028297
 20
-128.4252359704979
 30
0.0
 10
106.0086886670742
 20
-128.3639132708604
 30
0.0
 10
105.9683810498968
 20
-128.2815754887629
 30
0.0
 10
105.9683810498968
 20
-128.1630642040703
 30
0.0
 10
105.9683810498968
 20
-127.9091606668074
 30
0.0
 10
106.1547607156488
 20
-127.6721380974222
 30
0.0
 10
106.467919895258
 20
-127.6721380974222
 30
0.0
 10
106.7852131894495
 20
-127.6721380974222
 30
0.0
 10
107.019824191995
 20
-127.896413813512
 30
0.0
 10
107.019824191995
 20
-128.1988931971169
 30
0.0
  0
HATCH
  5
100
330
EF
100
AcDbEntity
  8
_U+30EC_U+30A4_U+30E4_U+30FC 1
 62
     7
420
 16777215
100
AcDbHatch
 10
0.0
 20
0.0
 30
0.0
210
0.0
220
0.0
230
1.0
  2
SOLID
 70
     1
 71
     0
 91
        1
 92
        1
 93
        1
 72
     4
 94
        3
 73
     0
 74
     1
 95
       53
 96
       49
 40
0.0
 40
0.0
 40
0.0
 40
0.0
 40
1.0
 40
1.0
 40
1.0
 40
2.0
 40
2.0
 40
2.0
 40
3.0
 40
3.0
 40
3.0
 40
4.0
 40
4.0
 40
4.0
 40
5.0
 40
5.0
 40
5.0
 40
6.0
 40
6.0
 40
6.0
 40
7.0
 40
7.0
 40
7.0
 40
8.0
 40
8.0
 40
8.0
 40
9.0
 40
9.0
 40
9.0
 40
10.0
 40
10.0
 40
10.0
 40
11.0
 40
11.0
 40
11.0
 40
12.0
 40
12.0
 40
12.0
 40
13.0
 40
13.0
 40
13.0
 40
14.0
 40
14.0
 40
14.0
 40
15.0
 40
15.0
 40
15.0
 40
16.0
 40
16.0
 40
16.0
 40
16.0
 10
107.019824191995
 20
-128.1988931971169
 10
107.019824191995
 20
-128.2770968646321
 10
107.0029432241173
 20
-128.378727181447
 10
106.9395534671887
 20
-128.4803574982619
 10
106.8296549212093
 20
-128.6536458011699
 10
106.6983967832212
 20
-128.6750053931785
 10
106.5905652945329
 20
-128.6939534183473
 10
106.5905652945329
 20
-128.6939534183473
 10
106.5905652945329
 20
-128.4717447595487
 10
106.5905652945329
 20
-128.4717447595487
 10
106.7893473040318
 20
-128.4169677413333
 10
106.818975125205
 20
-128.2898437179275
 10
106.818975125205
 20
-128.1968261398258
 10
106.818975125205
 20
-128.0572997726732
 10
106.7194118656813
 20
-127.9050265522251
 10
106.4868679204269
 20
-127.9050265522251
 10
106.2308973258728
 20
-127.9050265522251
 10
106.1609618875223
 20
-128.0848605365552
 10
106.1609618875223
 20
-128.2054388785389
 10
106.1609618875223
 20
-128.2371337570032
 10
106.1609618875223
 20
-128.378727181447
 10
106.2901529682191
 20
-128.4676106449664
 10
106.2901529682191
 20
-128.4676106449664
 10
106.2712049430503
 20
-128.6433105147142
 10
106.2712049430503
 20
-128.6433105147142
 10
106.2712049430503
 20
-128.6433105147142
 10
105.4247449823244
 20
-128.5227321727304
 10
105.4247449823244
 20
-128.5227321727304
 10
105.4247449823244
 20
-128.5227321727304
 10
105.4247449823244
 20
-127.744140593064
 10
105.4247449823244
 20
-127.744140593064
 10
105.4247449823244
 20
-127.744140593064
 10
105.619392877241
 20
-127.744140593064
 10
105.619392877241
 20
-127.744140593064
 10
105.619392877241
 20
-127.744140593064
 10
105.619392877241
 20
-128.3597791562781
 10
105.619392877241
 20
-128.3597791562781
 10
105.619392877241
 20
-128.3597791562781
 10
106.0424506028297
 20
-128.4252359704979
 10
106.0424506028297
 20
-128.4252359704979
 10
106.0086886670742
 20
-128.3639132708604
 10
105.9683810498968
 20
-128.2815754887629
 10
105.9683810498968
 20
-128.1630642040703
 10
105.9683810498968
 20
-127.9091606668074
 10
106.1547607156488
 20
-127.6721380974222
 10
106.467919895258
 20
-127.6721380974222
 10
106.7852131894495
 20
-127.6721380974222
 10
107.019824191995
 20
-127.896413813512
 10
107.019824191995
 20
-128.1988931971169
 97
        0
 97
        0
 75
     2
 76
     1
 98
        0
  0
ENDBLK
  5
F2
330
EF
100
AcDbEntity
  8
0
100
AcDbBlockEnd
  0
ENDSEC
  0
SECTION
  2
ENTITIES
  0
POLYLINE
  5
41
330
1F
100
AcDbEntity
  8
_U+30EC_U+30A4_U+30E4_U+30FC 1
 62
   253
420
 11711154
370
     9
100
AcDb2dPolyline
 66
     1
 10
0.0
 20
0.0
 30
0.0
  0
VERTEX
  5
42
330
41
100
AcDbEntity
  8
_U+30EC_U+30A4_U+30E4_U+30FC 1
 62
   253
420
 11711154
370
     9
100
AcDbVertex
100
AcDb2dVertex
 10
73.00485452637989
 20
-121.3390102474429
 30
0.0
  0
VERTEX
  5
43
330
41
100
AcDbEntity
  8
_U+30EC_U+30A4_U+30E4_U+30FC 1
 62
   253
420
 11711154
370
     9
100
AcDbVertex
100
AcDb2dVertex
 10
73.00485452637989
 20
-122.2540452472144
 30
0.0
  0
VERTEX
  5
44
330
41
100
AcDbEntity
  8
_U+30EC_U+30A4_U+30E4_U+30FC 1
 62
   253
420
 11711154
370
     9
100
AcDbVertex
100
AcDb2dVertex
 10
80.8999857138472
 20
-122.2540452472144
 30
0.0
  0
VERTEX
  5
45
330
41
100
AcDbEntity
  8
_U+30EC_U+30A4_U+30E4_U+30FC 1
 62
   253
420
 11711154
370
     9
100
AcDbVertex
100
AcDb2dVertex
 10
80.8999857138472
 20
-137.8837588544179
 30
0.0
  0
VERTEX
  5
46
330
41
100
AcDbEntity
  8
_U+30EC_U+30A4_U+30E4_U+30FC 1
 62
   253
420
 11711154
370
     9
100
AcDbVertex
100
AcDb2dVertex
 10
91.11156386611108
 20
-137.8837588544179
 30
0.0
  0
VERTEX
  5
47
330
41
100
AcDbEntity
  8
_U+30EC_U+30A4_U+30E4_U+30FC 1
 62
   253
420
 11711154
370
     9
100
AcDbVertex
100
AcDb2dVertex
 10
91.11156386611108
 20
-134.9189085773813
 30
0.0
  0
VERTEX
  5
48
330
41
100
AcDbEntity
  8
_U+30EC_U+30A4_U+30E4_U+30FC 1
 62
   253
420
 11711154
370
     9
100
AcDbVertex
100
AcDb2dVertex
 10
90.08667159058642
 20
-134.9189085773813
 30
0.0
  0
VERTEX
  5
49
330
41
100
AcDbEntity
  8
_U+30EC_U+30A4_U+30E4_U+30FC 1
 62
   253
420
 11711154
370
     9
100
AcDbVertex
100
AcDb2dVertex
 10
90.08667159058642
 20
-136.9322113546559
 30
0.0
  0
VERTEX
  5
4A
330
41
100
AcDbEntity
  8
_U+30EC_U+30A4_U+30E4_U+30FC 1
 62
   253
420
 11711154
370
     9
100
AcDbVertex
100
AcDb2dVertex
 10
81.92487775729658
 20
-136.9322113546559
 30
0.0
  0
VERTEX
  5
4B
330
41
100
AcDbEntity
  8
_U+30EC_U+30A4_U+30E4_U+30FC 1
 62
   253
420
 11711154
370
     9
100
AcDbVertex
100
AcDb2dVertex
 10
81.92487775729658
 20
-122.2912280249827
 30
0.0
  0
VERTEX
  5
4C
330
41
100
AcDbEntity
  8
_U+30EC_U+30A4_U+30E4_U+30FC 1
 62
   253
420
 11711154
370
     9
100
AcDbVertex
100
AcDb2dVertex
 10
104.1045784551821
 20
-122.2912280249827
 30
0.0
  0
VERTEX
  5
4D
330
41
100
AcDbEntity
  8
_U+30EC_U+30A4_U+30E4_U+30FC 1
 62
   253
420
 11711154
370
     9
100
AcDbVertex
100
AcDb2dVertex
 10
104.1045784551821
 20
-121.302497747452
 30
0.0
  0
VERTEX
  5
4E
330
41
100
AcDbEntity
  8
_U+30EC_U+30A4_U+30E4_U+30FC 1
 62
   253
420
 11711154
370
     9
100
AcDbVertex
100
AcDb2dVertex
 10
73.00485452637989
 20
-121.3390102474429
 30
0.0
  0
SEQEND
  5
50
330
41
100
AcDbEntity
  8
_U+30EC_U+30A4_U+30E4_U+30FC 1
 62
   253
420
 11711154
370
     9
  0
HATCH
  5
4F
330
1F
100
AcDbEntity
  8
_U+30EC_U+30A4_U+30E4_U+30FC 1
 62
   253
420
 11711154
100
AcDbHatch
 10
0.0
 20
0.0
 30
0.0
210
0.0
220
0.0
230
1.0
  2
SOLID
 70
     1
 71
     0
 91
        1
 92
        1
 93
       12
 72
     1
 10
73.00485452637989
 20
-121.3390102474429
 11
73.00485452637989
 21
-122.2540452472144
 72
     1
 10
73.00485452637989
 20
-122.2540452472144
 11
80.8999857138472
 21
-122.2540452472144
 72
     1
 10
80.8999857138472
 20
-122.2540452472144
 11
80.8999857138472
 21
-137.8837588544179
 72
     1
 10
80.8999857138472
 20
-137.8837588544179
 11
91.11156386611108
 21
-137.8837588544179
 72
     1
 10
91.11156386611108
 20
-137.8837588544179
 11
91.11156386611108
 21
-134.9189085773813
 72
     1
 10
91.11156386611108
 20
-134.9189085773813
 11
90.08667159058642
 21
-134.9189085773813
 72
     1
 10
90.08667159058642
 20
-134.9189085773813
 11
90.08667159058642
 21
-136.9322113546559
 72
     1
 10
90.08667159058642
 20
-136.9322113546559
 11
81.92487775729658
 21
-136.9322113546559
 72
     1
 10
81.92487775729658
 20
-136.9322113546559
 11
81.92487775729658
 21
-122.2912280249827
 72
     1
 10
81.92487775729658
 20
-122.2912280249827
 11
104.1045784551821
 21
-122.2912280249827
 72
     1
 10
104.1045784551821
 20
-122.2912280249827
 11
104.1045784551821
 21
-121.302497747452
 72
     1
 10
104.1045784551821
 20
-121.302497747452
 11
73.00485452637989
 21
-121.3390102474429
 97
        0
 75
     2
 76
     1
 98
        0
  0
POLYLINE
  5
51
330
1F
100
AcDbEntity
  8
_U+30EC_U+30A4_U+30E4_U+30FC 1
 62
     7
420
 16777215
370
    25
100
AcDb2dPolyline
 66
     1
 10
0.0
 20
0.0
 30
0.0
  0
VERTEX
  5
52
330
51
100
AcDbEntity
  8
_U+30EC_U+30A4_U+30E4_U+30FC 1
 62
     7
420
 16777215
370
    25
100
AcDbVertex
100
AcDb2dVertex
 10
73.01691952607207
 20
-121.3080010807842
 30
0.0
  0
VERTEX
  5
53
330
51
100
AcDbEntity
  8
_U+30EC_U+30A4_U+30E4_U+30FC 1
 62
     7
420
 16777215
370
    25
100
AcDbVertex
100
AcDb2dVertex
 10
104.0170895685252
 20
-121.3080010807842
 30
0.0
  0
SEQEND
  5
54
330
51
100
AcDbEntity
  8
_U+30EC_U+30A4_U+30E4_U+30FC 1
 62
     7
420
 16777215
370
    25
  0
POLYLINE
  5
55
330
1F
100
AcDbEntity
  8
_U+30EC_U+30A4_U+30E4_U+30FC 1
 62
     7
420
 16777215
370
    25
100
AcDb2dPolyline
 66
     1
 10
0.0
 20
0.0
 30
0.0
  0
VERTEX
  5
56
330
55
100
AcDbEntity
  8
_U+30EC_U+30A4_U+30E4_U+30FC 1
 62
     7
420
 16777215
370
    25
100
AcDbVertex
100
AcDb2dVertex
 10
73.01691952607207
 20
-122.3077733027564
 30
0.0
  0
VERTEX
  5
57
330
55
100
AcDbEntity
  8
_U+30EC_U+30A4_U+30E4_U+30FC 1
 62
     7
420
 16777215
370
    25
100
AcDbVertex
100
AcDb2dVertex
 10
81.01710793308138
 20
-122.3077733027564
 30
0.0
  0
SEQEND
  5
58
330
55
100
AcDbEntity
  8
_U+30EC_U+30A4_U+30E4_U+30FC 1
 62
     7
420
 16777215
370
    25
  0
POLYLINE
  5
59
330
1F
100
AcDbEntity
  8
_U+30EC_U+30A4_U+30E4_U+30FC 1
 62
     7
420
 16777215
370
    25
100
AcDb2dPolyline
 66
     1
 10
0.0
 20
0.0
 30
0.0
  0
VERTEX
  5
5A
330
59
100
AcDbEntity
  8
_U+30EC_U+30A4_U+30E4_U+30FC 1
 62
     7
420
 16777215
370
    25
100
AcDbVertex
100
AcDb2dVertex
 10
104.0687388628716
 20
-122.3077733027564
 30
0.0
  0
VERTEX
  5
5B
330
59
100
AcDbEntity
  8
_U+30EC_U+30A4_U+30E4_U+30FC 1
 62
     7
420
 16777215
370
    25
100
AcDbVertex
100
AcDb2dVertex
 10
104.0687388628716
 20
-121.3080010807842
 30
0.0
  0
SEQEND
  5
5C
330
59
100
AcDbEntity
  8
_U+30EC_U+30A4_U+30E4_U+30FC 1
 62
     7
420
 16777215
370
    25
  0
POLYLINE
  5
5D
330
1F
100
AcDbEntity
  8
_U+30EC_U+30A4_U+30E4_U+30FC 1
 62
     7
420
 16777215
370
    25
100
AcDb2dPolyline
 66
     1
 10
0.0
 20
0.0
 30
0.0
  0
VERTEX
  5
5E
330
5D
100
AcDbEntity
  8
_U+30EC_U+30A4_U+30E4_U+30FC 1
 62
     7
420
 16777215
370
    25
100
AcDbVertex
100
AcDb2dVertex
 10
81.91729096567136
 20
-122.3077733027564
 30
0.0
  0
VERTEX
  5
5F
330
5D
100
AcDbEntity
  8
_U+30EC_U+30A4_U+30E4_U+30FC 1
 62
     7
420
 16777215
370
    25
100
AcDbVertex
100
AcDb2dVertex
 10
104.0687388628716
 20
-122.3077733027564
 30
0.0
  0
SEQEND
  5
60
330
5D
100
AcDbEntity
  8
_U+30EC_U+30A4_U+30E4_U+30FC 1
 62
     7
420
 16777215
370
    25
  0
POLYLINE
  5
61
330
1F
100
AcDbEntity
  8
_U+30EC_U+30A4_U+30E4_U+30FC 1
 62
     7
420
 16777215
370
    25
100
AcDb2dPolyline
 66
     1
 10
0.0
 20
0.0
 30
0.0
  0
VERTEX
  5
62
330
61
100
AcDbEntity
  8
_U+30EC_U+30A4_U+30E4_U+30FC 1
 62
     7
420
 16777215
370
    25
100
AcDbVertex
100
AcDb2dVertex
 10
73.05755952503527
 20
-122.3077733027564
 30
0.0
  0
VERTEX
  5
63
330
61
100
AcDbEntity
  8
_U+30EC_U+30A4_U+30E4_U+30FC 1
 62
     7
420
 16777215
370
    25
100
AcDbVertex
100
AcDb2dVertex
 10
73.05755952503527
 20
-121.3080010807842
 30
0.0
  0
SEQEND
  5
64
330
61
100
AcDbEntity
  8
_U+30EC_U+30A4_U+30E4_U+30FC 1
 62
     7
420
 16777215
370
    25
  0
POLYLINE
  5
65
330
1F
100
AcDbEntity
  8
_U+30EC_U+30A4_U+30E4_U+30FC 1
 62
     7
420
 16777215
370
    25
100
AcDb2dPolyline
 66
     1
 10
0.0
 20
0.0
 30
0.0
  0
VERTEX
  5
66
330
65
100
AcDbEntity
  8
_U+30EC_U+30A4_U+30E4_U+30FC 1
 62
     7
420
 16777215
370
    25
100
AcDbVertex
100
AcDb2dVertex
 10
81.01710793308138
 20
-137.9760807988396
 30
0.0
  0
VERTEX
  5
67
330
65
100
AcDbEntity
  8
_U+30EC_U+30A4_U+30E4_U+30FC 1
 62
     7
420
 16777215
370
    25
100
AcDbVertex
100
AcDb2dVertex
 10
81.01710793308138
 20
-122.3077733027564
 30
0.0
  0
SEQEND
  5
68
330
65
100
AcDbEntity
  8
_U+30EC_U+30A4_U+30E4_U+30FC 1
 62
     7
420
 16777215
370
    25
  0
POLYLINE
  5
69
330
1F
100
AcDbEntity
  8
_U+30EC_U+30A4_U+30E4_U+30FC 1
 62
     7
420
 16777215
370
    25
100
AcDb2dPolyline
 66
     1
 10
0.0
 20
0.0
 30
0.0
  0
VERTEX
  5
6A
330
69
100
AcDbEntity
  8
_U+30EC_U+30A4_U+30E4_U+30FC 1
 62
     7
420
 16777215
370
    25
100
AcDbVertex
100
AcDb2dVertex
 10
81.01710793308138
 20
-137.9760807988396
 30
0.0
  0
VERTEX
  5
6B
330
69
100
AcDbEntity
  8
_U+30EC_U+30A4_U+30E4_U+30FC 1
 62
     7
420
 16777215
370
    25
100
AcDbVertex
100
AcDb2dVertex
 10
91.01719351129128
 20
-137.9760807988396
 30
0.0
  0
SEQEND
  5
6C
330
69
100
AcDbEntity
  8
_U+30EC_U+30A4_U+30E4_U+30FC 1
 62
     7
420
 16777215
370
    25
  0
POLYLINE
  5
6D
330
1F
100
AcDbEntity
  8
_U+30EC_U+30A4_U+30E4_U+30FC 1
 62
     7
420
 16777215
370
    25
100
AcDb2dPolyline
 66
     1
 10
0.0
 20
0.0
 30
0.0
  0
VERTEX
  5
6E
330
6D
100
AcDbEntity
  8
_U+30EC_U+30A4_U+30E4_U+30FC 1
 62
     7
420
 16777215
370
    25
100
AcDbVertex
100
AcDb2dVertex
 10
81.91729096567136
 20
-136.9763085768671
 30
0.0
  0
VERTEX
  5
6F
330
6D
100
AcDbEntity
  8
_U+30EC_U+30A4_U+30E4_U+30FC 1
 62
     7
420
 16777215
370
    25
100
AcDbVertex
100
AcDb2dVertex
 10
90.10734436783679
 20
-136.9763085768671
 30
0.0
  0
SEQEND
  5
70
330
6D
100
AcDbEntity
  8
_U+30EC_U+30A4_U+30E4_U+30FC 1
 62
     7
420
 16777215
370
    25
  0
POLYLINE
  5
71
330
1F
100
AcDbEntity
  8
_U+30EC_U+30A4_U+30E4_U+30FC 1
 62
     7
420
 16777215
370
    25
100
AcDb2dPolyline
 66
     1
 10
0.0
 20
0.0
 30
0.0
  0
VERTEX
  5
72
330
71
100
AcDbEntity
  8
_U+30EC_U+30A4_U+30E4_U+30FC 1
 62
     7
420
 16777215
370
    25
100
AcDbVertex
100
AcDb2dVertex
 10
90.08254409069173
 20
-134.9760938551447
 30
0.0
  0
VERTEX
  5
73
330
71
100
AcDbEntity
  8
_U+30EC_U+30A4_U+30E4_U+30FC 1
 62
     7
420
 16777215
370
    25
100
AcDbVertex
100
AcDb2dVertex
 10
91.08298886611819
 20
-134.9760938551447
 30
0.0
  0
SEQEND
  5
74
330
71
100
AcDbEntity
  8
_U+30EC_U+30A4_U+30E4_U+30FC 1
 62
     7
420
 16777215
370
    25
  0
POLYLINE
  5
75
330
1F
100
AcDbEntity
  8
_U+30EC_U+30A4_U+30E4_U+30FC 1
 62
     7
420
 16777215
370
    25
100
AcDb2dPolyline
 66
     1
 10
0.0
 20
0.0
 30
0.0
  0
VERTEX
  5
76
330
75
100
AcDbEntity
  8
_U+30EC_U+30A4_U+30E4_U+30FC 1
 62
     7
420
 16777215
370
    25
100
AcDbVertex
100
AcDb2dVertex
 10
91.08298886611819
 20
-137.9760807988396
 30
0.0
  0
VERTEX
  5
77
330
75
100
AcDbEntity
  8
_U+30EC_U+30A4_U+30E4_U+30FC 1
 62
     7
420
 16777215
370
    25
100
AcDbVertex
100
AcDb2dVertex
 10
91.08298886611819
 20
-134.9760938551447
 30
0.0
  0
SEQEND
  5
78
330
75
100
AcDbEntity
  8
_U+30EC_U+30A4_U+30E4_U+30FC 1
 62
     7
420
 16777215
370
    25
  0
POLYLINE
  5
79
330
1F
100
AcDbEntity
  8
_U+30EC_U+30A4_U+30E4_U+30FC 1
 62
     7
420
 16777215
370
    25
100
AcDb2dPolyline
 66
     1
 10
0.0
 20
0.0
 30
0.0
  0
VERTEX
  5
7A
330
79
100
AcDbEntity
  8
_U+30EC_U+30A4_U+30E4_U+30FC 1
 62
     7
420
 16777215
370
    25
100
AcDbVertex
100
AcDb2dVertex
 10
90.08254409069173
 20
-136.9763085768671
 30
0.0
  0
VERTEX
  5
7B
330
79
100
AcDbEntity
  8
_U+30EC_U+30A4_U+30E4_U+30FC 1
 62
     7
420
 16777215
370
    25
100
AcDbVertex
100
AcDb2dVertex
 10
90.08254409069173
 20
-134.9760938551447
 30
0.0
  0
SEQEND
  5
7C
330
79
100
AcDbEntity
  8
_U+30EC_U+30A4_U+30E4_U+30FC 1
 62
     7
420
 16777215
370
    25
  0
POLYLINE
  5
7D
330
1F
100
AcDbEntity
  8
_U+30EC_U+30A4_U+30E4_U+30FC 1
 62
     7
420
 16777215
370
    25
100
AcDb2dPolyline
 66
     1
 10
0.0
 20
0.0
 30
0.0
  0
VERTEX
  5
7E
330
7D
100
AcDbEntity
  8
_U+30EC_U+30A4_U+30E4_U+30FC 1
 62
     7
420
 16777215
370
    25
100
AcDbVertex
100
AcDb2dVertex
 10
81.91729096567136
 20
-128.1847688568427
 30
0.0
  0
VERTEX
  5
7F
330
7D
100
AcDbEntity
  8
_U+30EC_U+30A4_U+30E4_U+30FC 1
 62
     7
420
 16777215
370
    25
100
AcDbVertex
100
AcDb2dVertex
 10
81.91729096567136
 20
-122.3077733027564
 30
0.0
  0
SEQEND
  5
80
330
7D
100
AcDbEntity
  8
_U+30EC_U+30A4_U+30E4_U+30FC 1
 62
     7
420
 16777215
370
    25
  0
SPLINE
  5
81
330
1F
100
AcDbEntity
  8
_U+30EC_U+30A4_U+30E4_U+30FC 1
 62
     7
420
 16777215
370
     9
100
AcDbSpline
210
0.0
220
0.0
230
1.0
 70
    11
 71
     3
 72
    17
 73
    13
 74
     0
 42
0.0000000001
 43
0.0000000001
 12
1.0
 22
0.0
 32
0.0
 13
1.0
 23
0.0
 33
0.0
 40
0.0
 40
0.0
 40
0.0
 40
0.0
 40
1.0
 40
1.0
 40
1.0
 40
2.0
 40
2.0
 40
2.0
 40
3.0
 40
3.0
 40
3.0
 40
4.0
 40
4.0
 40
4.0
 40
4.0
 10
73.0851114687768
 20
-117.3075716373399
 30
0.0
 10
73.0851114687768
 20
-117.2524324706869
 30
0.0
 10
73.04034396991892
 20
-117.207664970698
 30
0.0
 10
72.98520480465896
 20
-117.207664970698
 30
0.0
 10
72.93010275954518
 20
-117.207664970698
 30
0.0
 10
72.88529998177877
 20
-117.2524324706869
 30
0.0
 10
72.88529998177877
 20
-117.3075716373399
 30
0.0
 10
72.88529998177877
 20
-117.3633810817704
 30
0.0
 10
72.93010275954518
 20
-117.4081485817589
 30
0.0
 10
72.98520480465896
 20
-117.4081485817589
 30
0.0
 10
73.04034396991892
 20
-117.4081485817589
 30
0.0
 10
73.0851114687768
 20
-117.3633810817704
 30
0.0
 10
73.0851114687768
 20
-117.3075716373399
 30
0.0
  0
SPLINE
  5
82
330
1F
100
AcDbEntity
  8
_U+30EC_U+30A4_U+30E4_U+30FC 1
 62
     7
420
 16777215
370
     9
100
AcDbSpline
210
0.0
220
0.0
230
1.0
 70
    11
 71
     3
 72
    17
 73
    13
 74
     0
 42
0.0000000001
 43
0.0000000001
 12
1.0
 22
0.0
 32
0.0
 13
1.0
 23
0.0
 33
0.0
 40
0.0
 40
0.0
 40
0.0
 40
0.0
 40
1.0
 40
1.0
 40
1.0
 40
2.0
 40
2.0
 40
2.0
 40
3.0
 40
3.0
 40
3.0
 40
4.0
 40
4.0
 40
4.0
 40
4.0
 10
103.9853748471121
 20
-117.3075716373399
 30
0.0
 10
103.9853748471121
 20
-117.2524324706869
 30
0.0
 10
103.9406073482542
 20
-117.207664970698
 30
0.0
 10
103.8854681829942
 20
-117.207664970698
 30
0.0
 10
103.8303642955112
 20
-117.207664970698
 30
0.0
 10
103.7855615188764
 20
-117.2524324706869
 30
0.0
 10
103.7855615188764
 20
-117.3075716373399
 30
0.0
 10
103.7855615188764
 20
-117.3633810817704
 30
0.0
 10
103.8303642955112
 20
-117.4081485817589
 30
0.0
 10
103.8854681829942
 20
-117.4081485817589
 30
0.0
 10
103.9406073482542
 20
-117.4081485817589
 30
0.0
 10
103.9853748471121
 20
-117.3633810817704
 30
0.0
 10
103.9853748471121
 20
-117.3075716373399
 30
0.0
  0
SPLINE
  5
83
330
1F
100
AcDbEntity
  8
_U+30EC_U+30A4_U+30E4_U+30FC 1
 62
     7
420
 16777215
370
     9
100
AcDbSpline
210
0.0
220
0.0
230
1.0
 70
    11
 71
     3
 72
    17
 73
    13
 74
     0
 42
0.0000000001
 43
0.0000000001
 12
1.0
 22
0.0
 32
0.0
 13
1.0
 23
0.0
 33
0.0
 40
0.0
 40
0.0
 40
0.0
 40
0.0
 40
1.0
 40
1.0
 40
1.0
 40
2.0
 40
2.0
 40
2.0
 40
3.0
 40
3.0
 40
3.0
 40
4.0
 40
4.0
 40
4.0
 40
4.0
 10
108.1853027507313
 20
-121.3080010807842
 30
0.0
 10
108.1853027507313
 20
-121.2528971919089
 30
0.0
 10
108.1404999729652
 20
-121.2080944141426
 30
0.0
 10
108.085393353623
 20
-121.2080944141426
 30
0.0
 10
108.030254188363
 20
-121.2080944141426
 30
0.0
 10
107.9854866895052
 20
-121.2528971919089
 30
0.0
 10
107.9854866895052
 20
-121.3080010807842
 30
0.0
 10
107.9854866895052
 20
-121.3631402474369
 30
0.0
 10
108.030254188363
 20
-121.4079077474258
 30
0.0
 10
108.085393353623
 20
-121.4079077474258
 30
0.0
 10
108.1404999729652
 20
-121.4079077474258
 30
0.0
 10
108.1853027507313
 20
-121.3631402474369
 30
0.0
 10
108.1853027507313
 20
-121.3080010807842
 30
0.0
  0
SPLINE
  5
84
330
1F
100
AcDbEntity
  8
_U+30EC_U+30A4_U+30E4_U+30FC 1
 62
     7
420
 16777215
370
     9
100
AcDbSpline
210
0.0
220
0.0
230
1.0
 70
    11
 71
     3
 72
    17
 73
    13
 74
     0
 42
0.0000000001
 43
0.0000000001
 12
1.0
 22
0.0
 32
0.0
 13
1.0
 23
0.0
 33
0.0
 40
0.0
 40
0.0
 40
0.0
 40
0.0
 40
1.0
 40
1.0
 40
1.0
 40
2.0
 40
2.0
 40
2.0
 40
3.0
 40
3.0
 40
3.0
 40
4.0
 40
4.0
 40
4.0
 40
4.0
 10
108.1853027507313
 20
-122.3077733027564
 30
0.0
 10
108.1853027507313
 20
-122.2526694138812
 30
0.0
 10
108.1404999729652
 20
-122.2078666361148
 30
0.0
 10
108.085393353623
 20
-122.2078666361148
 30
0.0
 10
108.030254188363
 20
-122.2078666361148
 30
0.0
 10
107.9854866895052
 20
-122.2526694138812
 30
0.0
 10
107.9854866895052
 20
-122.3077733027564
 30
0.0
 10
107.9854866895052
 20
-122.3629124694092
 30
0.0
 10
108.030254188363
 20
-122.407679969398
 30
0.0
 10
108.085393353623
 20
-122.407679969398
 30
0.0
 10
108.1404999729652
 20
-122.407679969398
 30
0.0
 10
108.1853027507313
 20
-122.3629124694092
 30
0.0
 10
108.1853027507313
 20
-122.3077733027564
 30
0.0
  0
SPLINE
  5
85
330
1F
100
AcDbEntity
  8
_U+30EC_U+30A4_U+30E4_U+30FC 1
 62
     7
420
 16777215
370
     9
100
AcDbSpline
210
0.0
220
0.0
230
1.0
 70
    11
 71
     3
 72
    17
 73
    13
 74
     0
 42
0.0000000001
 43
0.0000000001
 12
1.0
 22
0.0
 32
0.0
 13
1.0
 23
0.0
 33
0.0
 40
0.0
 40
0.0
 40
0.0
 40
0.0
 40
1.0
 40
1.0
 40
1.0
 40
2.0
 40
2.0
 40
2.0
 40
3.0
 40
3.0
 40
3.0
 40
4.0
 40
4.0
 40
4.0
 40
4.0
 10
81.11736942416522
 20
-142.201829408894
 30
0.0
 10
81.11736942416522
 20
-142.146690242241
 30
0.0
 10
81.0725666463985
 20
-142.1019227422524
 30
0.0
 10
81.01710793308138
 20
-142.1019227422524
 30
0.0
 10
80.96196876782143
 20
-142.1019227422524
 30
0.0
 10
80.91720126896354
 20
-142.146690242241
 30
0.0
 10
80.91720126896354
 20
-142.201829408894
 30
0.0
 10
80.91720126896354
 20
-142.256933297769
 30
0.0
 10
80.96196876782143
 20
-142.3017360755357
 30
0.0
 10
81.01710793308138
 20
-142.3017360755357
 30
0.0
 10
81.0725666463985
 20
-142.3017360755357
 30
0.0
 10
81.11736942416522
 20
-142.256933297769
 30
0.0
 10
81.11736942416522
 20
-142.201829408894
 30
0.0
  0
SPLINE
  5
86
330
1F
100
AcDbEntity
  8
_U+30EC_U+30A4_U+30E4_U+30FC 1
 62
     7
420
 16777215
370
     9
100
AcDbSpline
210
0.0
220
0.0
230
1.0
 70
    11
 71
     3
 72
    17
 73
    13
 74
     0
 42
0.0000000001
 43
0.0000000001
 12
1.0
 22
0.0
 32
0.0
 13
1.0
 23
0.0
 33
0.0
 40
0.0
 40
0.0
 40
0.0
 40
0.0
 40
1.0
 40
1.0
 40
1.0
 40
2.0
 40
2.0
 40
2.0
 40
3.0
 40
3.0
 40
3.0
 40
4.0
 40
4.0
 40
4.0
 40
4.0
 10
91.26833600488409
 20
-142.201829408894
 30
0.0
 10
91.26833600488409
 20
-142.146690242241
 30
0.0
 10
91.22353322824934
 20
-142.1019227422524
 30
0.0
 10
91.16842934076627
 20
-142.1019227422524
 30
0.0
 10
91.11329017550631
 20
-142.1019227422524
 30
0.0
 10
91.06852497723285
 20
-142.146690242241
 30
0.0
 10
91.06852497723285
 20
-142.201829408894
 30
0.0
 10
91.06852497723285
 20
-142.256933297769
 30
0.0
 10
91.11329017550631
 20
-142.3017360755357
 30
0.0
 10
91.16842934076627
 20
-142.3017360755357
 30
0.0
 10
91.22353322824934
 20
-142.3017360755357
 30
0.0
 10
91.26833600488409
 20
-142.256933297769
 30
0.0
 10
91.26833600488409
 20
-142.201829408894
 30
0.0
  0
SPLINE
  5
87
330
1F
100
AcDbEntity
  8
_U+30EC_U+30A4_U+30E4_U+30FC 1
 62
     7
420
 16777215
370
     9
100
AcDbSpline
210
0.0
220
0.0
230
1.0
 70
    11
 71
     3
 72
    17
 73
    13
 74
     0
 42
0.0000000001
 43
0.0000000001
 12
1.0
 22
0.0
 32
0.0
 13
1.0
 23
0.0
 33
0.0
 40
0.0
 40
0.0
 40
0.0
 40
0.0
 40
1.0
 40
1.0
 40
1.0
 40
2.0
 40
2.0
 40
2.0
 40
3.0
 40
3.0
 40
3.0
 40
4.0
 40
4.0
 40
4.0
 40
4.0
 10
73.2301384095213
 20
-142.201829408894
 30
0.0
 10
73.2301384095213
 20
-142.146690242241
 30
0.0
 10
73.18537091066341
 20
-142.1019227422524
 30
0.0
 10
73.13023174540346
 20
-142.1019227422524
 30
0.0
 10
73.07477508015161
 20
-142.1019227422524
 30
0.0
 10
73.03000758129373
 20
-142.146690242241
 30
0.0
 10
73.03000758129373
 20
-142.201829408894
 30
0.0
 10
73.03000758129373
 20
-142.256933297769
 30
0.0
 10
73.07477508015161
 20
-142.3017360755357
 30
0.0
 10
73.13023174540346
 20
-142.3017360755357
 30
0.0
 10
73.18537091066341
 20
-142.3017360755357
 30
0.0
 10
73.2301384095213
 20
-142.256933297769
 30
0.0
 10
73.2301384095213
 20
-142.201829408894
 30
0.0
  0
POLYLINE
  5
88
330
1F
100
AcDbEntity
  8
_U+30EC_U+30A4_U+30E4_U+30FC 1
 62
     7
420
 16777215
370
     9
100
AcDb2dPolyline
 66
     1
 10
0.0
 20
0.0
 30
0.0
  0
VERTEX
  5
89
330
88
100
AcDbEntity
  8
_U+30EC_U+30A4_U+30E4_U+30FC 1
 62
     7
420
 16777215
370
     9
100
AcDbVertex
100
AcDb2dVertex
 10
81.01710793308138
 20
-142.201829408894
 30
0.0
  0
VERTEX
  5
8A
330
88
100
AcDbEntity
  8
_U+30EC_U+30A4_U+30E4_U+30FC 1
 62
     7
420
 16777215
370
     9
100
AcDbVertex
100
AcDb2dVertex
 10
91.01719351129128
 20
-142.201829408894
 30
0.0
  0
SEQEND
  5
8B
330
88
100
AcDbEntity
  8
_U+30EC_U+30A4_U+30E4_U+30FC 1
 62
     7
420
 16777215
370
     9
  0
POLYLINE
  5
8C
330
1F
100
AcDbEntity
  8
_U+30EC_U+30A4_U+30E4_U+30FC 1
 62
     7
420
 16777215
370
     9
100
AcDb2dPolyline
 66
     1
 10
0.0
 20
0.0
 30
0.0
  0
VERTEX
  5
8D
330
8C
100
AcDbEntity
  8
_U+30EC_U+30A4_U+30E4_U+30FC 1
 62
     7
420
 16777215
370
     9
100
AcDbVertex
100
AcDb2dVertex
 10
91.16842934076627
 20
-140.7417880203703
 30
0.0
  0
VERTEX
  5
8E
330
8C
100
AcDbEntity
  8
_U+30EC_U+30A4_U+30E4_U+30FC 1
 62
     7
420
 16777215
370
     9
100
AcDbVertex
100
AcDb2dVertex
 10
91.16842934076627
 20
-143.2016016308666
 30
0.0
  0
SEQEND
  5
8F
330
8C
100
AcDbEntity
  8
_U+30EC_U+30A4_U+30E4_U+30FC 1
 62
     7
420
 16777215
370
     9
  0
INSERT
  5
91
330
1F
100
AcDbEntity
  8
_U+30EC_U+30A4_U+30E4_U+30FC 1
100
AcDbBlockReference
  2
block 2
 10
0.0
 20
0.0
 30
0.0
  0
POLYLINE
  5
99
330
1F
100
AcDbEntity
  8
_U+30EC_U+30A4_U+30E4_U+30FC 1
 62
     7
420
 16777215
370
     9
100
AcDb2dPolyline
 66
     1
 10
0.0
 20
0.0
 30
0.0
  0
VERTEX
  5
9A
330
99
100
AcDbEntity
  8
_U+30EC_U+30A4_U+30E4_U+30FC 1
 62
     7
420
 16777215
370
     9
100
AcDbVertex
100
AcDb2dVertex
 10
108.085393353623
 20
-121.3080010807842
 30
0.0
  0
VERTEX
  5
9B
330
99
100
AcDbEntity
  8
_U+30EC_U+30A4_U+30E4_U+30FC 1
 62
     7
420
 16777215
370
     9
100
AcDbVertex
100
AcDb2dVertex
 10
108.085393353623
 20
-117.5376885817268
 30
0.0
  0
SEQEND
  5
9C
330
99
100
AcDbEntity
  8
_U+30EC_U+30A4_U+30E4_U+30FC 1
 62
     7
420
 16777215
370
     9
  0
POLYLINE
  5
9D
330
1F
100
AcDbEntity
  8
_U+30EC_U+30A4_U+30E4_U+30FC 1
 62
     7
420
 16777215
370
     9
100
AcDb2dPolyline
 66
     1
 10
0.0
 20
0.0
 30
0.0
  0
VERTEX
  5
9E
330
9D
100
AcDbEntity
  8
_U+30EC_U+30A4_U+30E4_U+30FC 1
 62
     7
420
 16777215
370
     9
100
AcDbVertex
100
AcDb2dVertex
 10
108.085393353623
 20
-121.3080010807842
 30
0.0
  0
VERTEX
  5
9F
330
9D
100
AcDbEntity
  8
_U+30EC_U+30A4_U+30E4_U+30FC 1
 62
     7
420
 16777215
370
     9
100
AcDbVertex
100
AcDb2dVertex
 10
108.085393353623
 20
-122.3077733027564
 30
0.0
  0
SEQEND
  5
A0
330
9D
100
AcDbEntity
  8
_U+30EC_U+30A4_U+30E4_U+30FC 1
 62
     7
420
 16777215
370
     9
  0
POLYLINE
  5
A1
330
1F
100
AcDbEntity
  8
_U+30EC_U+30A4_U+30E4_U+30FC 1
 62
     7
420
 16777215
370
     9
100
AcDb2dPolyline
 66
     1
 10
0.0
 20
0.0
 30
0.0
  0
VERTEX
  5
A2
330
A1
100
AcDbEntity
  8
_U+30EC_U+30A4_U+30E4_U+30FC 1
 62
     7
420
 16777215
370
     9
100
AcDbVertex
100
AcDb2dVertex
 10
106.6253520019829
 20
-121.3080010807842
 30
0.0
  0
VERTEX
  5
A3
330
A1
100
AcDbEntity
  8
_U+30EC_U+30A4_U+30E4_U+30FC 1
 62
     7
420
 16777215
370
     9
100
AcDbVertex
100
AcDb2dVertex
 10
109.0851655503389
 20
-121.3080010807842
 30
0.0
  0
SEQEND
  5
A4
330
A1
100
AcDbEntity
  8
_U+30EC_U+30A4_U+30E4_U+30FC 1
 62
     7
420
 16777215
370
     9
  0
POLYLINE
  5
A5
330
1F
100
AcDbEntity
  8
_U+30EC_U+30A4_U+30E4_U+30FC 1
 62
     7
420
 16777215
370
     9
100
AcDb2dPolyline
 66
     1
 10
0.0
 20
0.0
 30
0.0
  0
VERTEX
  5
A6
330
A5
100
AcDbEntity
  8
_U+30EC_U+30A4_U+30E4_U+30FC 1
 62
     7
420
 16777215
370
     9
100
AcDbVertex
100
AcDb2dVertex
 10
106.6253520019829
 20
-122.3077733027564
 30
0.0
  0
VERTEX
  5
A7
330
A5
100
AcDbEntity
  8
_U+30EC_U+30A4_U+30E4_U+30FC 1
 62
     7
420
 16777215
370
     9
100
AcDbVertex
100
AcDb2dVertex
 10
109.0851655503389
 20
-122.3077733027564
 30
0.0
  0
SEQEND
  5
A8
330
A5
100
AcDbEntity
  8
_U+30EC_U+30A4_U+30E4_U+30FC 1
 62
     7
420
 16777215
370
     9
  0
INSERT
  5
AA
330
1F
100
AcDbEntity
  8
_U+30EC_U+30A4_U+30E4_U+30FC 1
100
AcDbBlockReference
  2
block 3
 10
0.0
 20
0.0
 30
0.0
  0
POLYLINE
  5
AF
330
1F
100
AcDbEntity
  8
_U+30EC_U+30A4_U+30E4_U+30FC 1
 62
     7
420
 16777215
370
     9
100
AcDb2dPolyline
 66
     1
 10
0.0
 20
0.0
 30
0.0
  0
VERTEX
  5
B0
330
AF
100
AcDbEntity
  8
_U+30EC_U+30A4_U+30E4_U+30FC 1
 62
     7
420
 16777215
370
     9
100
AcDbVertex
100
AcDb2dVertex
 10
72.98520480465896
 20
-117.3075716373399
 30
0.0
  0
VERTEX
  5
B1
330
AF
100
AcDbEntity
  8
_U+30EC_U+30A4_U+30E4_U+30FC 1
 62
     7
420
 16777215
370
     9
100
AcDbVertex
100
AcDb2dVertex
 10
103.9853748471121
 20
-117.3075716373399
 30
0.0
  0
SEQEND
  5
B2
330
AF
100
AcDbEntity
  8
_U+30EC_U+30A4_U+30E4_U+30FC 1
 62
     7
420
 16777215
370
     9
  0
POLYLINE
  5
B3
330
1F
100
AcDbEntity
  8
_U+30EC_U+30A4_U+30E4_U+30FC 1
 62
     7
420
 16777215
370
     9
100
AcDb2dPolyline
 66
     1
 10
0.0
 20
0.0
 30
0.0
  0
VERTEX
  5
B4
330
B3
100
AcDbEntity
  8
_U+30EC_U+30A4_U+30E4_U+30FC 1
 62
     7
420
 16777215
370
     9
100
AcDbVertex
100
AcDb2dVertex
 10
72.98520480465896
 20
-118.7676130258636
 30
0.0
  0
VERTEX
  5
B5
330
B3
100
AcDbEntity
  8
_U+30EC_U+30A4_U+30E4_U+30FC 1
 62
     7
420
 16777215
370
     9
100
AcDbVertex
100
AcDb2dVertex
 10
72.98520480465896
 20
-116.3077994153674
 30
0.0
  0
SEQEND
  5
B6
330
B3
100
AcDbEntity
  8
_U+30EC_U+30A4_U+30E4_U+30FC 1
 62
     7
420
 16777215
370
     9
  0
POLYLINE
  5
B7
330
1F
100
AcDbEntity
  8
_U+30EC_U+30A4_U+30E4_U+30FC 1
 62
     7
420
 16777215
370
     9
100
AcDb2dPolyline
 66
     1
 10
0.0
 20
0.0
 30
0.0
  0
VERTEX
  5
B8
330
B7
100
AcDbEntity
  8
_U+30EC_U+30A4_U+30E4_U+30FC 1
 62
     7
420
 16777215
370
     9
100
AcDbVertex
100
AcDb2dVertex
 10
103.8854681829942
 20
-118.7676130258636
 30
0.0
  0
VERTEX
  5
B9
330
B7
100
AcDbEntity
  8
_U+30EC_U+30A4_U+30E4_U+30FC 1
 62
     7
420
 16777215
370
     9
100
AcDbVertex
100
AcDb2dVertex
 10
103.8854681829942
 20
-116.3077994153674
 30
0.0
  0
SEQEND
  5
BA
330
B7
100
AcDbEntity
  8
_U+30EC_U+30A4_U+30E4_U+30FC 1
 62
     7
420
 16777215
370
     9
  0
INSERT
  5
BC
330
1F
100
AcDbEntity
  8
_U+30EC_U+30A4_U+30E4_U+30FC 1
100
AcDbBlockReference
  2
block 4
 10
0.0
 20
0.0
 30
0.0
  0
POLYLINE
  5
C3
330
1F
100
AcDbEntity
  8
_U+30EC_U+30A4_U+30E4_U+30FC 1
 62
     7
420
 16777215
370
     9
100
AcDb2dPolyline
 66
     1
 10
0.0
 20
0.0
 30
0.0
  0
VERTEX
  5
C4
330
C3
100
AcDbEntity
  8
_U+30EC_U+30A4_U+30E4_U+30FC 1
 62
     7
420
 16777215
370
     9
100
AcDbVertex
100
AcDb2dVertex
 10
73.01691952607207
 20
-142.201829408894
 30
0.0
  0
VERTEX
  5
C5
330
C3
100
AcDbEntity
  8
_U+30EC_U+30A4_U+30E4_U+30FC 1
 62
     7
420
 16777215
370
     9
100
AcDbVertex
100
AcDb2dVertex
 10
81.01710793308138
 20
-142.201829408894
 30
0.0
  0
SEQEND
  5
C6
330
C3
100
AcDbEntity
  8
_U+30EC_U+30A4_U+30E4_U+30FC 1
 62
     7
420
 16777215
370
     9
  0
POLYLINE
  5
C7
330
1F
100
AcDbEntity
  8
_U+30EC_U+30A4_U+30E4_U+30FC 1
 62
     7
420
 16777215
370
     9
100
AcDb2dPolyline
 66
     1
 10
0.0
 20
0.0
 30
0.0
  0
VERTEX
  5
C8
330
C7
100
AcDbEntity
  8
_U+30EC_U+30A4_U+30E4_U+30FC 1
 62
     7
420
 16777215
370
     9
100
AcDbVertex
100
AcDb2dVertex
 10
73.13023174540346
 20
-124.8481966354548
 30
0.0
  0
VERTEX
  5
C9
330
C7
100
AcDbEntity
  8
_U+30EC_U+30A4_U+30E4_U+30FC 1
 62
     7
420
 16777215
370
     9
100
AcDbVertex
100
AcDb2dVertex
 10
73.13023174540346
 20
-143.2016016308666
 30
0.0
  0
SEQEND
  5
CA
330
C7
100
AcDbEntity
  8
_U+30EC_U+30A4_U+30E4_U+30FC 1
 62
     7
420
 16777215
370
     9
  0
POLYLINE
  5
CB
330
1F
100
AcDbEntity
  8
_U+30EC_U+30A4_U+30E4_U+30FC 1
 62
     7
420
 16777215
370
     9
100
AcDb2dPolyline
 66
     1
 10
0.0
 20
0.0
 30
0.0
  0
VERTEX
  5
CC
330
CB
100
AcDbEntity
  8
_U+30EC_U+30A4_U+30E4_U+30FC 1
 62
     7
420
 16777215
370
     9
100
AcDbVertex
100
AcDb2dVertex
 10
81.01710793308138
 20
-140.7417880203703
 30
0.0
  0
VERTEX
  5
CD
330
CB
100
AcDbEntity
  8
_U+30EC_U+30A4_U+30E4_U+30FC 1
 62
     7
420
 16777215
370
     9
100
AcDbVertex
100
AcDb2dVertex
 10
81.01710793308138
 20
-143.2016016308666
 30
0.0
  0
SEQEND
  5
CE
330
CB
100
AcDbEntity
  8
_U+30EC_U+30A4_U+30E4_U+30FC 1
 62
     7
420
 16777215
370
     9
  0
INSERT
  5
D0
330
1F
100
AcDbEntity
  8
_U+30EC_U+30A4_U+30E4_U+30FC 1
100
AcDbBlockReference
  2
block 5
 10
0.0
 20
0.0
 30
0.0
  0
POLYLINE
  5
D7
330
1F
100
AcDbEntity
  8
_U+30EC_U+30A4_U+30E4_U+30FC 1
 62
     7
420
 16777215
370
     9
100
AcDb2dPolyline
 66
     1
 10
0.0
 20
0.0
 30
0.0
  0
VERTEX
  5
D8
330
D7
100
AcDbEntity
  8
_U+30EC_U+30A4_U+30E4_U+30FC 1
 62
     7
420
 16777215
370
     9
100
AcDbVertex
100
AcDb2dVertex
 10
108.085393353623
 20
-134.8079599662978
 30
0.0
  0
VERTEX
  5
D9
330
D7
100
AcDbEntity
  8
_U+30EC_U+30A4_U+30E4_U+30FC 1
 62
     7
420
 16777215
370
     9
100
AcDbVertex
100
AcDb2dVertex
 10
108.085393353623
 20
-122.3077733027564
 30
0.0
  0
SEQEND
  5
DA
330
D7
100
AcDbEntity
  8
_U+30EC_U+30A4_U+30E4_U+30FC 1
 62
     7
420
 16777215
370
     9
  0
SPLINE
  5
DB
330
1F
100
AcDbEntity
  8
_U+30EC_U+30A4_U+30E4_U+30FC 1
 62
     7
420
 16777215
370
     9
100
AcDbSpline
210
0.0
220
0.0
230
1.0
 70
    11
 71
     3
 72
    17
 73
    13
 74
     0
 42
0.0000000001
 43
0.0000000001
 12
1.0
 22
0.0
 32
0.0
 13
1.0
 23
0.0
 33
0.0
 40
0.0
 40
0.0
 40
0.0
 40
0.0
 40
1.0
 40
1.0
 40
1.0
 40
2.0
 40
2.0
 40
2.0
 40
3.0
 40
3.0
 40
3.0
 40
4.0
 40
4.0
 40
4.0
 40
4.0
 10
108.1853027507313
 20
-134.8479296885104
 30
0.0
 10
108.1853027507313
 20
-134.7921202440799
 30
0.0
 10
108.1404999729652
 20
-134.7473174663132
 30
0.0
 10
108.085393353623
 20
-134.7473174663132
 30
0.0
 10
108.030254188363
 20
-134.7473174663132
 30
0.0
 10
107.9854866895052
 20
-134.7921202440799
 30
0.0
 10
107.9854866895052
 20
-134.8479296885104
 30
0.0
 10
107.9854866895052
 20
-134.9030335773853
 30
0.0
 10
108.030254188363
 20
-134.947836355152
 30
0.0
 10
108.085393353623
 20
-134.947836355152
 30
0.0
 10
108.1404999729652
 20
-134.947836355152
 30
0.0
 10
108.1853027507313
 20
-134.9030335773853
 30
0.0
 10
108.1853027507313
 20
-134.8479296885104
 30
0.0
  0
SPLINE
  5
DC
330
1F
100
AcDbEntity
  8
_U+30EC_U+30A4_U+30E4_U+30FC 1
 62
     7
420
 16777215
370
     9
100
AcDbSpline
210
0.0
220
0.0
230
1.0
 70
    11
 71
     3
 72
    17
 73
    13
 74
     0
 42
0.0000000001
 43
0.0000000001
 12
1.0
 22
0.0
 32
0.0
 13
1.0
 23
0.0
 33
0.0
 40
0.0
 40
0.0
 40
0.0
 40
0.0
 40
1.0
 40
1.0
 40
1.0
 40
2.0
 40
2.0
 40
2.0
 40
3.0
 40
3.0
 40
3.0
 40
4.0
 40
4.0
 40
4.0
 40
4.0
 10
108.1853027507313
 20
-137.8479166322047
 30
0.0
 10
108.1853027507313
 20
-137.7921071877743
 30
0.0
 10
108.1404999729652
 20
-137.7473044100075
 30
0.0
 10
108.085393353623
 20
-137.7473044100075
 30
0.0
 10
108.030254188363
 20
-137.7473044100075
 30
0.0
 10
107.9854866895052
 20
-137.7921071877743
 30
0.0
 10
107.9854866895052
 20
-137.8479166322047
 30
0.0
 10
107.9854866895052
 20
-137.9030557988578
 30
0.0
 10
108.030254188363
 20
-137.9478232988463
 30
0.0
 10
108.085393353623
 20
-137.9478232988463
 30
0.0
 10
108.1404999729652
 20
-137.9478232988463
 30
0.0
 10
108.1853027507313
 20
-137.9030557988578
 30
0.0
 10
108.1853027507313
 20
-137.8479166322047
 30
0.0
  0
POLYLINE
  5
DD
330
1F
100
AcDbEntity
  8
_U+30EC_U+30A4_U+30E4_U+30FC 1
 62
     7
420
 16777215
370
     9
100
AcDb2dPolyline
 66
     1
 10
0.0
 20
0.0
 30
0.0
  0
VERTEX
  5
DE
330
DD
100
AcDbEntity
  8
_U+30EC_U+30A4_U+30E4_U+30FC 1
 62
     7
420
 16777215
370
     9
100
AcDbVertex
100
AcDb2dVertex
 10
108.085393353623
 20
-137.8479166322047
 30
0.0
  0
VERTEX
  5
DF
330
DD
100
AcDbEntity
  8
_U+30EC_U+30A4_U+30E4_U+30FC 1
 62
     7
420
 16777215
370
     9
100
AcDbVertex
100
AcDb2dVertex
 10
108.085393353623
 20
-134.8479296885104
 30
0.0
  0
SEQEND
  5
E0
330
DD
100
AcDbEntity
  8
_U+30EC_U+30A4_U+30E4_U+30FC 1
 62
     7
420
 16777215
370
     9
  0
POLYLINE
  5
E1
330
1F
100
AcDbEntity
  8
_U+30EC_U+30A4_U+30E4_U+30FC 1
 62
     7
420
 16777215
370
     9
100
AcDb2dPolyline
 66
     1
 10
0.0
 20
0.0
 30
0.0
  0
VERTEX
  5
E2
330
E1
100
AcDbEntity
  8
_U+30EC_U+30A4_U+30E4_U+30FC 1
 62
     7
420
 16777215
370
     9
100
AcDbVertex
100
AcDb2dVertex
 10
93.6466578886525
 20
-137.8479166322047
 30
0.0
  0
VERTEX
  5
E3
330
E1
100
AcDbEntity
  8
_U+30EC_U+30A4_U+30E4_U+30FC 1
 62
     7
420
 16777215
370
     9
100
AcDbVertex
100
AcDb2dVertex
 10
109.0851655503389
 20
-137.8479166322047
 30
0.0
  0
SEQEND
  5
E4
330
E1
100
AcDbEntity
  8
_U+30EC_U+30A4_U+30E4_U+30FC 1
 62
     7
420
 16777215
370
     9
  0
INSERT
  5
E6
330
1F
100
AcDbEntity
  8
_U+30EC_U+30A4_U+30E4_U+30FC 1
100
AcDbBlockReference
  2
block 6
 10
0.0
 20
0.0
 30
0.0
  0
POLYLINE
  5
EB
330
1F
100
AcDbEntity
  8
_U+30EC_U+30A4_U+30E4_U+30FC 1
 62
     7
420
 16777215
370
     9
100
AcDb2dPolyline
 66
     1
 10
0.0
 20
0.0
 30
0.0
  0
VERTEX
  5
EC
330
EB
100
AcDbEntity
  8
_U+30EC_U+30A4_U+30E4_U+30FC 1
 62
     7
420
 16777215
370
     9
100
AcDbVertex
100
AcDb2dVertex
 10
93.6466578886525
 20
-134.8479296885104
 30
0.0
  0
VERTEX
  5
ED
330
EB
100
AcDbEntity
  8
_U+30EC_U+30A4_U+30E4_U+30FC 1
 62
     7
420
 16777215
370
     9
100
AcDbVertex
100
AcDb2dVertex
 10
109.0851655503389
 20
-134.8479296885104
 30
0.0
  0
SEQEND
  5
EE
330
EB
100
AcDbEntity
  8
_U+30EC_U+30A4_U+30E4_U+30FC 1
 62
     7
420
 16777215
370
     9
  0
INSERT
  5
F0
330
1F
100
AcDbEntity
  8
_U+30EC_U+30A4_U+30E4_U+30FC 1
100
AcDbBlockReference
  2
block 7
 10
0.0
 20
0.0
 30
0.0
  0
POLYLINE
  5
101
330
1F
100
AcDbEntity
  8
_U+30EC_U+30A4_U+30E4_U+30FC 1
 62
     7
420
 16777215
370
    25
100
AcDb2dPolyline
 66
     1
 10
0.0
 20
0.0
 30
0.0
  0
VERTEX
  5
102
330
101
100
AcDbEntity
  8
_U+30EC_U+30A4_U+30E4_U+30FC 1
 62
     7
420
 16777215
370
    25
100
AcDbVertex
100
AcDb2dVertex
 10
81.91729096567136
 20
-136.9763085768671
 30
0.0
  0
VERTEX
  5
103
330
101
100
AcDbEntity
  8
_U+30EC_U+30A4_U+30E4_U+30FC 1
 62
     7
420
 16777215
370
    25
100
AcDbVertex
100
AcDb2dVertex
 10
81.91729096567136
 20
-128.9309644122115
 30
0.0
  0
SEQEND
  5
104
330
101
100
AcDbEntity
  8
_U+30EC_U+30A4_U+30E4_U+30FC 1
 62
     7
420
 16777215
370
    25
  0
POLYLINE
  5
105
330
1F
100
AcDbEntity
  8
_U+30EC_U+30A4_U+30E4_U+30FC 1
 62
   179
420
  2234388
370
    25
100
AcDb2dPolyline
 66
     1
 10
0.0
 20
0.0
 30
0.0
  0
VERTEX
  5
106
330
105
100
AcDbEntity
  8
_U+30EC_U+30A4_U+30E4_U+30FC 1
 62
   179
420
  2234388
370
    25
100
AcDbVertex
100
AcDb2dVertex
 10
81.91729096567136
 20
-128.9309644122115
 30
0.0
  0
VERTEX
  5
107
330
105
100
AcDbEntity
  8
_U+30EC_U+30A4_U+30E4_U+30FC 1
 62
   179
420
  2234388
370
    25
100
AcDbVertex
100
AcDb2dVertex
 10
82.21736373579364
 20
-128.558219412305
 30
0.0
  0
VERTEX
  5
108
330
105
100
AcDbEntity
  8
_U+30EC_U+30A4_U+30E4_U+30FC 1
 62
   179
420
  2234388
370
    25
100
AcDbVertex
100
AcDb2dVertex
 10
81.91729096567136
 20
-128.1847688568427
 30
0.0
  0
SEQEND
  5
10A
330
105
100
AcDbEntity
  8
_U+30EC_U+30A4_U+30E4_U+30FC 1
 62
   179
420
  2234388
370
    25
  0
HATCH
  5
109
330
1F
100
AcDbEntity
  8
_U+30EC_U+30A4_U+30E4_U+30FC 1
 62
   253
420
 11711154
100
AcDbHatch
 10
0.0
 20
0.0
 30
0.0
210
0.0
220
0.0
230
1.0
  2
SOLID
 70
     1
 71
     0
 91
        1
 92
        1
 93
        3
 72
     1
 10
81.91729096567136
 20
-128.9309644122115
 11
82.21736373579364
 21
-128.558219412305
 72
     1
 10
82.21736373579364
 20
-128.558219412305
 11
81.91729096567136
 21
-128.1847688568427
 72
     1
 10
81.91729096567136
 20
-128.1847688568427
 11
81.91729096567136
 21
-128.9309644122115
 97
        0
 75
     2
 76
     1
 98
        0
  0
ENDSEC
  0
SECTION
  2
OBJECTS
  0
DICTIONARY
  5
C
330
0
100
AcDbDictionary
281
     1
  3
ACAD_GROUP
350
D
  3
ACAD_LAYOUT
350
1A
  3
ACAD_MATERIAL
350
3B
  3
ACAD_MLEADERSTYLE
350
10C
  3
ACAD_MLINESTYLE
350
17
  3
ACAD_PLOTSETTINGS
350
19
  3
ACAD_PLOTSTYLENAME
350
E
  3
ACAD_TABLESTYLE
350
10B
  3
ACAD_VISUALSTYLE
350
2A
  0
SUN
  5
3F
330
29
100
AcDbSun
 90
        1
290
     0
 63
     7
421
 16777215
 40
1.0
291
     1
 91
  2455826
 92
 54000000
292
     0
 70
     2
 71
   256
280
     1
  0
DICTIONARY
  5
D
102
{ACAD_REACTORS
330
C
102
}
330
C
100
AcDbDictionary
281
     1
  0
DICTIONARY
  5
1A
102
{ACAD_REACTORS
330
C
102
}
330
C
100
AcDbDictionary
281
     1
  3
Layout1
350
1E
  3
Layout2
350
26
  3
Model
350
22
  0
DICTIONARY
  5
3B
102
{ACAD_REACTORS
330
C
102
}
330
C
100
AcDbDictionary
281
     1
  3
ByBlock
350
3D
  3
ByLayer
350
3C
  3
Global
350
3E
  0
DICTIONARY
  5
10C
102
{ACAD_REACTORS
330
C
102
}
330
C
100
AcDbDictionary
281
     1
  0
DICTIONARY
  5
17
102
{ACAD_REACTORS
330
C
102
}
330
C
100
AcDbDictionary
281
     1
  3
Standard
350
18
  0
DICTIONARY
  5
19
102
{ACAD_REACTORS
330
C
102
}
330
C
100
AcDbDictionary
281
     1
  0
ACDBDICTIONARYWDFLT
  5
E
102
{ACAD_REACTORS
330
C
102
}
330
C
100
AcDbDictionary
281
     1
  3
Normal
350
F
100
AcDbDictionaryWithDefault
340
F
  0
DICTIONARY
  5
10B
102
{ACAD_REACTORS
330
C
102
}
330
C
100
AcDbDictionary
281
     1
  0
DICTIONARY
  5
2A
102
{ACAD_REACTORS
330
C
102
}
330
C
100
AcDbDictionary
281
     1
  3
2dWireframe
350
2F
  3
3D Hidden
350
31
  3
3dWireframe
350
30
  3
Basic
350
32
  3
Brighten
350
36
  3
ColorChange
350
3A
  3
Conceptual
350
34
  3
Dim
350
35
  3
Facepattern
350
39
  3
Flat
350
2B
  3
FlatWithEdges
350
2C
  3
Gouraud
350
2D
  3
GouraudWithEdges
350
2E
  3
Linepattern
350
38
  3
Realistic
350
33
  3
Thicken
350
37
  0
LAYOUT
  5
1E
102
{ACAD_REACTORS
330
1A
102
}
330
1A
100
AcDbPlotSettings
  1

  2
none_device
  4

  6

 40
0.0
 41
0.0
 42
0.0
 43
0.0
 44
0.0
 45
0.0
 46
0.0
 47
0.0
 48
0.0
 49
0.0
140
0.0
141
0.0
142
1.0
143
1.0
 70
   688
 72
     0
 73
     0
 74
     5
  7

 75
    16
 76
     0
 77
     2
 78
   300
147
1.0
148
0.0
149
0.0
100
AcDbLayout
  1
Layout1
 70
     1
 71
     1
 10
0.0
 20
0.0
 11
12.0
 21
9.0
 12
0.0
 22
0.0
 32
0.0
 14
1.000000000000000E+20
 24
1.000000000000000E+20
 34
1.000000000000000E+20
 15
-1.000000000000000E+20
 25
-1.000000000000000E+20
 35
-1.000000000000000E+20
146
0.0
 13
0.0
 23
0.0
 33
0.0
 16
1.0
 26
0.0
 36
0.0
 17
0.0
 27
1.0
 37
0.0
 76
     0
330
1B
  0
LAYOUT
  5
26
102
{ACAD_REACTORS
330
1A
102
}
330
1A
100
AcDbPlotSettings
  1

  2
none_device
  4

  6

 40
0.0
 41
0.0
 42
0.0
 43
0.0
 44
0.0
 45
0.0
 46
0.0
 47
0.0
 48
0.0
 49
0.0
140
0.0
141
0.0
142
1.0
143
1.0
 70
   688
 72
     0
 73
     0
 74
     5
  7

 75
    16
 76
     0
 77
     2
 78
   300
147
1.0
148
0.0
149
0.0
100
AcDbLayout
  1
Layout2
 70
     1
 71
     2
 10
0.0
 20
0.0
 11
0.0
 21
0.0
 12
0.0
 22
0.0
 32
0.0
 14
0.0
 24
0.0
 34
0.0
 15
0.0
 25
0.0
 35
0.0
146
0.0
 13
0.0
 23
0.0
 33
0.0
 16
1.0
 26
0.0
 36
0.0
 17
0.0
 27
1.0
 37
0.0
 76
     0
330
23
  0
LAYOUT
  5
22
102
{ACAD_REACTORS
330
1A
102
}
330
1A
100
AcDbPlotSettings
  1

  2
none_device
  4

  6

 40
0.0
 41
0.0
 42
0.0
 43
0.0
 44
0.0
 45
0.0
 46
0.0
 47
0.0
 48
0.0
 49
0.0
140
0.0
141
0.0
142
1.0
143
1.0
 70
  1712
 72
     0
 73
     0
 74
     0
  7

 75
     0
 76
     0
 77
     2
 78
   300
147
1.0
148
0.0
149
0.0
100
AcDbLayout
  1
Model
 70
     1
 71
     0
 10
0.0
 20
0.0
 11
12.0
 21
9.0
 12
0.0
 22
0.0
 32
0.0
 14
1.000000000000000E+20
 24
1.000000000000000E+20
 34
1.000000000000000E+20
 15
-1.000000000000000E+20
 25
-1.000000000000000E+20
 35
-1.000000000000000E+20
146
0.0
 13
0.0
 23
0.0
 33
0.0
 16
1.0
 26
0.0
 36
0.0
 17
0.0
 27
1.0
 37
0.0
 76
     0
330
1F
331
29
  0
MATERIAL
  5
3D
102
{ACAD_REACTORS
330
3B
102
}
330
3B
100
AcDbMaterial
  1
ByBlock
 72
     1
 94
      127
  0
MATERIAL
  5
3C
102
{ACAD_REACTORS
330
3B
102
}
330
3B
100
AcDbMaterial
  1
ByLayer
 72
     1
 94
      127
  0
MATERIAL
  5
3E
102
{ACAD_REACTORS
330
3B
102
}
330
3B
100
AcDbMaterial
  1
Global
 72
     1
 94
      127
  0
MLINESTYLE
  5
18
102
{ACAD_REACTORS
330
17
102
}
330
17
100
AcDbMlineStyle
  2
Standard
 70
     0
  3

 62
   256
 51
90.0
 52
90.0
 71
     2
 49
0.5
 62
   256
  6
BYLAYER
 49
-0.5
 62
   256
  6
BYLAYER
  0
ACDBPLACEHOLDER
  5
F
102
{ACAD_REACTORS
330
E
102
}
330
E
  0
VISUALSTYLE
  5
2F
102
{ACAD_REACTORS
330
2A
102
}
330
2A
100
AcDbVisualStyle
  2
2dWireframe
 70
     4
177
     2
291
     0
 71
     0
176
     1
 72
     2
176
     1
 73
     0
176
     1
 90
        0
176
     1
 40
-0.6
176
     1
 41
-30.0
176
     1
 62
     5
 63
     7
421
 16777215
176
     1
 74
     1
176
     1
 91
        4
176
     1
 64
     7
176
     1
 65
   257
176
     1
 75
     1
176
     1
175
     1
176
     1
 42
1.0
176
     1
 92
        0
176
     1
 66
   257
176
     1
 43
1.0
176
     1
 76
     1
176
     1
 77
     6
176
     1
 78
     2
176
     1
 67
     7
176
     1
 79
     5
176
     1
170
     0
176
     1
171
     0
176
     1
290
     0
176
     1
 93
        1
176
     1
 44
0.0
176
     1
173
     0
176
     1
  0
VISUALSTYLE
  5
31
102
{ACAD_REACTORS
330
2A
102
}
330
2A
100
AcDbVisualStyle
  2
3D Hidden
 70
     6
177
     2
291
     0
 71
     1
176
     1
 72
     2
176
     1
 73
     2
176
     1
 90
        0
176
     1
 40
-0.6
176
     1
 41
-30.0
176
     1
 62
     5
 63
     7
421
 16777215
176
     1
 74
     2
176
     1
 91
        2
176
     1
 64
     7
176
     1
 65
   257
176
     1
 75
     2
176
     1
175
     1
176
     1
 42
40.0
176
     1
 92
        0
176
     1
 66
   257
176
     1
 43
1.0
176
     1
 76
     1
176
     1
 77
     6
176
     1
 78
     2
176
     1
 67
     7
176
     1
 79
     3
176
     1
170
     0
176
     1
171
     0
176
     1
290
     0
176
     1
 93
        1
176
     1
 44
0.0
176
     1
173
     0
176
     1
  0
VISUALSTYLE
  5
30
102
{ACAD_REACTORS
330
2A
102
}
330
2A
100
AcDbVisualStyle
  2
3dWireframe
 70
     5
177
     2
291
     0
 71
     0
176
     1
 72
     2
176
     1
 73
     0
176
     1
 90
        0
176
     1
 40
-0.6
176
     1
 41
-30.0
176
     1
 62
     5
 63
     7
421
 16777215
176
     1
 74
     1
176
     1
 91
        4
176
     1
 64
     7
176
     1
 65
   257
176
     1
 75
     1
176
     1
175
     1
176
     1
 42
1.0
176
     1
 92
        0
176
     1
 66
   257
176
     1
 43
1.0
176
     1
 76
     1
176
     1
 77
     6
176
     1
 78
     2
176
     1
 67
     7
176
     1
 79
     5
176
     1
170
     0
176
     1
171
     0
176
     1
290
     0
176
     1
 93
        1
176
     1
 44
0.0
176
     1
173
     0
176
     1
  0
VISUALSTYLE
  5
32
102
{ACAD_REACTORS
330
2A
102
}
330
2A
100
AcDbVisualStyle
  2
Basic
 70
     7
177
     2
291
     1
 71
     1
176
     1
 72
     0
176
     1
 73
     1
176
     1
 90
        0
176
     1
 40
-0.6
176
     1
 41
-30.0
176
     1
 62
     5
 63
     7
421
 16777215
176
     1
 74
     0
176
     1
 91
        4
176
     1
 64
     7
176
     1
 65
   257
176
     1
 75
     1
176
     1
175
     1
176
     1
 42
1.0
176
     1
 92
        8
176
     1
 66
     7
176
     1
 43
1.0
176
     1
 76
     1
176
     1
 77
     6
176
     1
 78
     2
176
     1
 67
     7
176
     1
 79
     5
176
     1
170
     0
176
     1
171
     0
176
     1
290
     0
176
     1
 93
        1
176
     1
 44
0.0
176
     1
173
     0
176
     1
  0
VISUALSTYLE
  5
36
102
{ACAD_REACTORS
330
2A
102
}
330
2A
100
AcDbVisualStyle
  2
Brighten
 70
    12
177
     2
291
     1
 71
     2
176
     1
 72
     2
176
     1
 73
     0
176
     1
 90
        0
176
     1
 40
-0.6
176
     1
 41
-30.0
176
     1
 62
     5
 63
     7
421
 16777215
176
     1
 74
     1
176
     1
 91
        4
176
     1
 64
     7
176
     1
 65
   257
176
     1
 75
     1
176
     1
175
     1
176
     1
 42
1.0
176
     1
 92
        8
176
     1
 66
     7
176
     1
 43
1.0
176
     1
 76
     1
176
     1
 77
     6
176
     1
 78
     2
176
     1
 67
     7
176
     1
 79
     5
176
     1
170
     0
176
     1
171
     0
176
     1
290
     0
176
     1
 93
        1
176
     1
 44
50.0
176
     1
173
     0
176
     1
  0
VISUALSTYLE
  5
3A
102
{ACAD_REACTORS
330
2A
102
}
330
2A
100
AcDbVisualStyle
  2
ColorChange
 70
    16
177
     2
291
     1
 71
     2
176
     1
 72
     2
176
     1
 73
     3
176
     1
 90
        0
176
     1
 40
-0.6
176
     1
 41
-30.0
176
     1
 62
     5
 63
     8
421
  8421504
176
     1
 74
     1
176
     1
 91
        4
176
     1
 64
     7
176
     1
 65
   257
176
     1
 75
     1
176
     1
175
     1
176
     1
 42
1.0
176
     1
 92
        8
176
     1
 66
     8
424
  8421504
176
     1
 43
1.0
176
     1
 76
     1
176
     1
 77
     6
176
     1
 78
     2
176
     1
 67
     7
176
     1
 79
     5
176
     1
170
     0
176
     1
171
     0
176
     1
290
     0
176
     1
 93
        1
176
     1
 44
0.0
176
     1
173
     0
176
     1
  0
VISUALSTYLE
  5
34
102
{ACAD_REACTORS
330
2A
102
}
330
2A
100
AcDbVisualStyle
  2
Conceptual
 70
     9
177
     2
291
     0
 71
     3
176
     1
 72
     2
176
     1
 73
     0
176
     1
 90
        0
176
     1
 40
-0.6
176
     1
 41
-30.0
176
     1
 62
     5
 63
     7
421
 16777215
176
     1
 74
     2
176
     1
 91
        2
176
     1
 64
     7
176
     1
 65
   257
176
     1
 75
     1
176
     1
175
     1
176
     1
 42
40.0
176
     1
 92
        8
176
     1
 66
     7
176
     1
 43
1.0
176
     1
 76
     1
176
     1
 77
     6
176
     1
 78
     2
176
     1
 67
     7
176
     1
 79
     3
176
     1
170
     0
176
     1
171
     0
176
     1
290
     0
176
     1
 93
        1
176
     1
 44
0.0
176
     1
173
     0
176
     1
  0
VISUALSTYLE
  5
35
102
{ACAD_REACTORS
330
2A
102
}
330
2A
100
AcDbVisualStyle
  2
Dim
 70
    11
177
     2
291
     1
 71
     2
176
     1
 72
     2
176
     1
 73
     0
176
     1
 90
        0
176
     1
 40
-0.6
176
     1
 41
-30.0
176
     1
 62
     5
 63
     7
421
 16777215
176
     1
 74
     1
176
     1
 91
        4
176
     1
 64
     7
176
     1
 65
   257
176
     1
 75
     1
176
     1
175
     1
176
     1
 42
1.0
176
     1
 92
        8
176
     1
 66
     7
176
     1
 43
1.0
176
     1
 76
     1
176
     1
 77
     6
176
     1
 78
     2
176
     1
 67
     7
176
     1
 79
     5
176
     1
170
     0
176
     1
171
     0
176
     1
290
     0
176
     1
 93
        1
176
     1
 44
-50.0
176
     1
173
     0
176
     1
  0
VISUALSTYLE
  5
39
102
{ACAD_REACTORS
330
2A
102
}
330
2A
100
AcDbVisualStyle
  2
Facepattern
 70
    15
177
     2
291
     1
 71
     2
176
     1
 72
     2
176
     1
 73
     0
176
     1
 90
        0
176
     1
 40
-0.6
176
     1
 41
-30.0
176
     1
 62
     5
 63
     7
421
 16777215
176
     1
 74
     1
176
     1
 91
        4
176
     1
 64
     7
176
     1
 65
   257
176
     1
 75
     1
176
     1
175
     1
176
     1
 42
1.0
176
     1
 92
        8
176
     1
 66
     7
176
     1
 43
1.0
176
     1
 76
     1
176
     1
 77
     6
176
     1
 78
     2
176
     1
 67
     7
176
     1
 79
     5
176
     1
170
     0
176
     1
171
     0
176
     1
290
     0
176
     1
 93
        1
176
     1
 44
0.0
176
     1
173
     0
176
     1
  0
VISUALSTYLE
  5
2B
102
{ACAD_REACTORS
330
2A
102
}
330
2A
100
AcDbVisualStyle
  2
Flat
 70
     0
177
     2
291
     1
 71
     2
176
     1
 72
     1
176
     1
 73
     1
176
     1
 90
        2
176
     1
 40
-0.6
176
     1
 41
30.0
176
     1
 62
     5
 63
     7
421
 16777215
176
     1
 74
     0
176
     1
 91
        4
176
     1
 64
     7
176
     1
 65
   257
176
     1
 75
     1
176
     1
175
     1
176
     1
 42
1.0
176
     1
 92
        8
176
     1
 66
     7
176
     1
 43
1.0
176
     1
 76
     1
176
     1
 77
     6
176
     1
 78
     2
176
     1
 67
     7
176
     1
 79
     5
176
     1
170
     0
176
     1
171
     0
176
     1
290
     0
176
     1
 93
       13
176
     1
 44
0.0
176
     1
173
     0
176
     1
  0
VISUALSTYLE
  5
2C
102
{ACAD_REACTORS
330
2A
102
}
330
2A
100
AcDbVisualStyle
  2
FlatWithEdges
 70
     1
177
     2
291
     1
 71
     2
176
     1
 72
     1
176
     1
 73
     1
176
     1
 90
        2
176
     1
 40
-0.6
176
     1
 41
30.0
176
     1
 62
     5
 63
     7
421
 16777215
176
     1
 74
     1
176
     1
 91
        4
176
     1
 64
     7
176
     1
 65
   257
176
     1
 75
     1
176
     1
175
     1
176
     1
 42
1.0
176
     1
 92
        0
176
     1
 66
   257
176
     1
 43
1.0
176
     1
 76
     1
176
     1
 77
     6
176
     1
 78
     2
176
     1
 67
     7
176
     1
 79
     5
176
     1
170
     0
176
     1
171
     0
176
     1
290
     0
176
     1
 93
       13
176
     1
 44
0.0
176
     1
173
     0
176
     1
  0
VISUALSTYLE
  5
2D
102
{ACAD_REACTORS
330
2A
102
}
330
2A
100
AcDbVisualStyle
  2
Gouraud
 70
     2
177
     2
291
     1
 71
     2
176
     1
 72
     2
176
     1
 73
     1
176
     1
 90
        2
176
     1
 40
-0.6
176
     1
 41
30.0
176
     1
 62
     5
 63
     7
421
 16777215
176
     1
 74
     0
176
     1
 91
        4
176
     1
 64
     7
176
     1
 65
   257
176
     1
 75
     1
176
     1
175
     1
176
     1
 42
1.0
176
     1
 92
        0
176
     1
 66
     7
176
     1
 43
1.0
176
     1
 76
     1
176
     1
 77
     6
176
     1
 78
     2
176
     1
 67
     7
176
     1
 79
     5
176
     1
170
     0
176
     1
171
     0
176
     1
290
     0
176
     1
 93
       13
176
     1
 44
0.0
176
     1
173
     0
176
     1
  0
VISUALSTYLE
  5
2E
102
{ACAD_REACTORS
330
2A
102
}
330
2A
100
AcDbVisualStyle
  2
GouraudWithEdges
 70
     3
177
     2
291
     1
 71
     2
176
     1
 72
     2
176
     1
 73
     1
176
     1
 90
        2
176
     1
 40
-0.6
176
     1
 41
30.0
176
     1
 62
     5
 63
     7
421
 16777215
176
     1
 74
     1
176
     1
 91
        4
176
     1
 64
     7
176
     1
 65
   257
176
     1
 75
     1
176
     1
175
     1
176
     1
 42
1.0
176
     1
 92
        0
176
     1
 66
   257
176
     1
 43
1.0
176
     1
 76
     1
176
     1
 77
     6
176
     1
 78
     2
176
     1
 67
     7
176
     1
 79
     5
176
     1
170
     0
176
     1
171
     0
176
     1
290
     0
176
     1
 93
       13
176
     1
 44
0.0
176
     1
173
     0
176
     1
  0
VISUALSTYLE
  5
38
102
{ACAD_REACTORS
330
2A
102
}
330
2A
100
AcDbVisualStyle
  2
Linepattern
 70
    14
177
     2
291
     1
 71
     2
176
     1
 72
     2
176
     1
 73
     0
176
     1
 90
        0
176
     1
 40
-0.6
176
     1
 41
-30.0
176
     1
 62
     5
 63
     7
421
 16777215
176
     1
 74
     1
176
     1
 91
        4
176
     1
 64
     7
176
     1
 65
   257
176
     1
 75
     7
176
     1
175
     7
176
     1
 42
1.0
176
     1
 92
        8
176
     1
 66
     7
176
     1
 43
1.0
176
     1
 76
     1
176
     1
 77
     6
176
     1
 78
     2
176
     1
 67
     7
176
     1
 79
     5
176
     1
170
     0
176
     1
171
     0
176
     1
290
     0
176
     1
 93
        1
176
     1
 44
0.0
176
     1
173
     0
176
     1
  0
VISUALSTYLE
  5
33
102
{ACAD_REACTORS
330
2A
102
}
330
2A
100
AcDbVisualStyle
  2
Realistic
 70
     8
177
     2
291
     0
 71
     2
176
     1
 72
     2
176
     1
 73
     0
176
     1
 90
        0
176
     1
 40
-0.6
176
     1
 41
-30.0
176
     1
 62
     5
 63
     7
421
 16777215
176
     1
 74
     1
176
     1
 91
        0
176
     1
 64
     7
176
     1
 65
   257
176
     1
 75
     1
176
     1
175
     1
176
     1
 42
1.0
176
     1
 92
        8
176
     1
 66
     8
424
  7895160
176
     1
 43
1.0
176
     1
 76
     1
176
     1
 77
     6
176
     1
 78
     2
176
     1
 67
     7
176
     1
 79
     5
176
     1
170
     0
176
     1
171
     0
176
     1
290
     0
176
     1
 93
       13
176
     1
 44
0.0
176
     1
173
     0
176
     1
  0
VISUALSTYLE
  5
37
102
{ACAD_REACTORS
330
2A
102
}
330
2A
100
AcDbVisualStyle
  2
Thicken
 70
    13
177
     2
291
     1
 71
     2
176
     1
 72
     2
176
     1
 73
     0
176
     1
 90
        0
176
     1
 40
-0.6
176
     1
 41
-30.0
176
     1
 62
     5
 63
     7
421
 16777215
176
     1
 74
     1
176
     1
 91
        4
176
     1
 64
     7
176
     1
 65
   257
176
     1
 75
     1
176
     1
175
     1
176
     1
 42
1.0
176
     1
 92
       12
176
     1
 66
     7
176
     1
 43
1.0
176
     1
 76
     1
176
     1
 77
     6
176
     1
 78
     2
176
     1
 67
     7
176
     1
 79
     5
176
     1
170
     0
176
     1
171
     0
176
     1
290
     0
176
     1
 93
        1
176
     1
 44
0.0
176
     1
173
     0
176
     1
  0
ENDSEC
  0
EOF
