  0
SECTION
  2
HEADER
  9
$ACADVER
  1
AC1024
  9
$ACADMAINTVER
 70
     6
  9
$DWGCODEPAGE
  3
UNDEFINED
  9
$INSBASE
 10
0.0
 20
0.0
 30
0.0
  9
$EXTMIN
 10
1.000000000000000E+20
 20
1.000000000000000E+20
 30
1.000000000000000E+20
  9
$EXTMAX
 10
-1.000000000000000E+20
 20
-1.000000000000000E+20
 30
-1.000000000000000E+20
  9
$LIMMIN
 10
0.0
 20
0.0
  9
$LIMMAX
 10
12.0
 20
9.0
  9
$ORTHOMODE
 70
     0
  9
$REGENMODE
 70
     1
  9
$FILLMODE
 70
     1
  9
$QTEXTMODE
 70
     0
  9
$MIRRTEXT
 70
     1
  9
$LTSCALE
 40
1.0
  9
$ATTMODE
 70
     1
  9
$TEXTSIZE
 40
0.2
  9
$TRACEWID
 40
0.05
  9
$TEXTSTYLE
  7
Standard
  9
$CLAYER
  8
0
  9
$CELTYPE
  6
ByLayer
  9
$CECOLOR
 62
   256
  9
$CELTSCALE
 40
1.0
  9
$DISPSILH
 70
     0
  9
$DIMSCALE
 40
1.0
  9
$DIMASZ
 40
0.18
  9
$DIMEXO
 40
0.0625
  9
$DIMDLI
 40
0.38
  9
$DIMRND
 40
0.0
  9
$DIMDLE
 40
0.0
  9
$DIMEXE
 40
0.18
  9
$DIMTP
 40
0.0
  9
$DIMTM
 40
0.0
  9
$DIMTXT
 40
0.18
  9
$DIMCEN
 40
0.09
  9
$DIMTSZ
 40
0.0
  9
$DIMTOL
 70
     0
  9
$DIMLIM
 70
     0
  9
$DIMTIH
 70
     1
  9
$DIMTOH
 70
     1
  9
$DIMSE1
 70
     0
  9
$DIMSE2
 70
     0
  9
$DIMTAD
 70
     0
  9
$DIMZIN
 70
     0
  9
$DIMBLK
  1

  9
$DIMASO
 70
     1
  9
$DIMSHO
 70
     1
  9
$DIMPOST
  1

  9
$DIMAPOST
  1

  9
$DIMALT
 70
     0
  9
$DIMALTD
 70
     2
  9
$DIMALTF
 40
25.4
  9
$DIMLFAC
 40
1.0
  9
$DIMTOFL
 70
     0
  9
$DIMTVP
 40
0.0
  9
$DIMTIX
 70
     0
  9
$DIMSOXD
 70
     0
  9
$DIMSAH
 70
     0
  9
$DIMBLK1
  1

  9
$DIMBLK2
  1

  9
$DIMSTYLE
  2
Standard
  9
$DIMCLRD
 70
     0
  9
$DIMCLRE
 70
     0
  9
$DIMCLRT
 70
     0
  9
$DIMTFAC
 40
1.0
  9
$DIMGAP
 40
0.09
  9
$DIMJUST
 70
     0
  9
$DIMSD1
 70
     0
  9
$DIMSD2
 70
     0
  9
$DIMTOLJ
 70
     1
  9
$DIMTZIN
 70
     0
  9
$DIMALTZ
 70
     0
  9
$DIMALTTZ
 70
     0
  9
$DIMUPT
 70
     0
  9
$DIMDEC
 70
     4
  9
$DIMTDEC
 70
     4
  9
$DIMALTU
 70
     2
  9
$DIMALTTD
 70
     2
  9
$DIMTXSTY
  7
Standard
  9
$DIMAUNIT
 70
     0
  9
$DIMADEC
 70
     0
  9
$DIMALTRND
 40
0.0
  9
$DIMAZIN
 70
     0
  9
$DIMDSEP
 70
    46
  9
$DIMATFIT
 70
     3
  9
$DIMFRAC
 70
     0
  9
$DIMLDRBLK
  1

  9
$DIMLUNIT
 70
     2
  9
$DIMLWD
 70
    -2
  9
$DIMLWE
 70
    -2
  9
$DIMTMOVE
 70
     0
  9
$DIMFXL
 40
1.0
  9
$DIMFXLON
 70
     0
  9
$DIMJOGANG
 40
0.7853981633974483
  9
$DIMTFILL
 70
     0
  9
$DIMTFILLCLR
 70
     0
  9
$DIMARCSYM
 70
     0
  9
$DIMLTYPE
  6

  9
$DIMLTEX1
  6

  9
$DIMLTEX2
  6

  9
$DIMTXTDIRECTION
 70
     0
  9
$LUNITS
 70
     2
  9
$LUPREC
 70
     4
  9
$SKETCHINC
 40
0.1
  9
$FILLETRAD
 40
0.5
  9
$AUNITS
 70
     0
  9
$AUPREC
 70
     0
  9
$MENU
  1
.
  9
$ELEVATION
 40
0.0
  9
$PELEVATION
 40
0.0
  9
$THICKNESS
 40
0.0
  9
$LIMCHECK
 70
     0
  9
$CHAMFERA
 40
0.5
  9
$CHAMFERB
 40
0.5
  9
$CHAMFERC
 40
1.0
  9
$CHAMFERD
 40
0.0
  9
$SKPOLY
 70
     0
  9
$TDCREATE
 40
2457917.617094907
  9
$TDUCREATE
 40
2457917.242094907
  9
$TDUPDATE
 40
2457917.617094907
  9
$TDUUPDATE
 40
2457917.242094907
  9
$TDINDWG
 40
0.0000000116
  9
$TDUSRTIMER
 40
0.0000000116
  9
$USRTIMER
 70
     1
  9
$ANGBASE
 50
0.0
  9
$ANGDIR
 70
     0
  9
$PDMODE
 70
     0
  9
$PDSIZE
 40
0.0
  9
$PLINEWID
 40
0.0
  9
$SPLFRAME
 70
     0
  9
$SPLINETYPE
 70
     6
  9
$SPLINESEGS
 70
     8
  9
$HANDSEED
  5
10D
  9
$SURFTAB1
 70
     6
  9
$SURFTAB2
 70
     6
  9
$SURFTYPE
 70
     6
  9
$SURFU
 70
     6
  9
$SURFV
 70
     6
  9
$UCSBASE
  2

  9
$UCSNAME
  2

  9
$UCSORG
 10
0.0
 20
0.0
 30
0.0
  9
$UCSXDIR
 10
1.0
 20
0.0
 30
0.0
  9
$UCSYDIR
 10
0.0
 20
1.0
 30
0.0
  9
$UCSORTHOREF
  2

  9
$UCSORTHOVIEW
 70
     0
  9
$UCSORGTOP
 10
0.0
 20
0.0
 30
0.0
  9
$UCSORGBOTTOM
 10
0.0
 20
0.0
 30
0.0
  9
$UCSORGLEFT
 10
0.0
 20
0.0
 30
0.0
  9
$UCSORGRIGHT
 10
0.0
 20
0.0
 30
0.0
  9
$UCSORGFRONT
 10
0.0
 20
0.0
 30
0.0
  9
$UCSORGBACK
 10
0.0
 20
0.0
 30
0.0
  9
$PUCSBASE
  2

  9
$PUCSNAME
  2

  9
$PUCSORG
 10
0.0
 20
0.0
 30
0.0
  9
$PUCSXDIR
 10
1.0
 20
0.0
 30
0.0
  9
$PUCSYDIR
 10
0.0
 20
1.0
 30
0.0
  9
$PUCSORTHOREF
  2

  9
$PUCSORTHOVIEW
 70
     0
  9
$PUCSORGTOP
 10
0.0
 20
0.0
 30
0.0
  9
$PUCSORGBOTTOM
 10
0.0
 20
0.0
 30
0.0
  9
$PUCSORGLEFT
 10
0.0
 20
0.0
 30
0.0
  9
$PUCSORGRIGHT
 10
0.0
 20
0.0
 30
0.0
  9
$PUCSORGFRONT
 10
0.0
 20
0.0
 30
0.0
  9
$PUCSORGBACK
 10
0.0
 20
0.0
 30
0.0
  9
$USERI1
 70
     0
  9
$USERI2
 70
     0
  9
$USERI3
 70
     0
  9
$USERI4
 70
     0
  9
$USERI5
 70
     0
  9
$USERR1
 40
0.0
  9
$USERR2
 40
0.0
  9
$USERR3
 40
0.0
  9
$USERR4
 40
0.0
  9
$USERR5
 40
0.0
  9
$WORLDVIEW
 70
     1
  9
$SHADEDGE
 70
     3
  9
$SHADEDIF
 70
    70
  9
$TILEMODE
 70
     1
  9
$MAXACTVP
 70
    64
  9
$PINSBASE
 10
0.0
 20
0.0
 30
0.0
  9
$PLIMCHECK
 70
     0
  9
$PEXTMIN
 10
1.000000000000000E+20
 20
1.000000000000000E+20
 30
1.000000000000000E+20
  9
$PEXTMAX
 10
-1.000000000000000E+20
 20
-1.000000000000000E+20
 30
-1.000000000000000E+20
  9
$PLIMMIN
 10
0.0
 20
0.0
  9
$PLIMMAX
 10
12.0
 20
9.0
  9
$UNITMODE
 70
     0
  9
$VISRETAIN
 70
     1
  9
$PLINEGEN
 70
     0
  9
$PSLTSCALE
 70
     1
  9
$TREEDEPTH
 70
  3020
  9
$CMLSTYLE
  2
Standard
  9
$CMLJUST
 70
     0
  9
$CMLSCALE
 40
1.0
  9
$PROXYGRAPHICS
 70
     1
  9
$MEASUREMENT
 70
     0
  9
$CELWEIGHT
370
    -1
  9
$ENDCAPS
280
     0
  9
$JOINSTYLE
280
     0
  9
$LWDISPLAY
290
     1
  9
$INSUNITS
 70
     1
  9
$HYPERLINKBASE
  1

  9
$STYLESHEET
  1

  9
$XEDIT
290
     1
  9
$CEPSNTYPE
380
     0
  9
$PSTYLEMODE
290
     1
  9
$FINGERPRINTGUID
  2
{389617B8-8FEC-6A05-09DC-83E3E1BD436D}
  9
$VERSIONGUID
  2
{FAEB1C32-E019-11D5-929B-00C0DF256EC4}
  9
$EXTNAMES
290
     1
  9
$PSVPSCALE
 40
0.0
  9
$OLESTARTUP
290
     0
  9
$SORTENTS
280
   127
  9
$INDEXCTL
280
     0
  9
$HIDETEXT
280
     1
  9
$XCLIPFRAME
280
     2
  9
$HALOGAP
280
     0
  9
$OBSCOLOR
 70
   257
  9
$OBSLTYPE
280
     0
  9
$INTERSECTIONDISPLAY
280
     0
  9
$INTERSECTIONCOLOR
 70
   257
  9
$DIMASSOC
280
     2
  9
$PROJECTNAME
  1

  9
$CAMERADISPLAY
290
     0
  9
$LENSLENGTH
 40
50.0
  9
$CAMERAHEIGHT
 40
0.0
  9
$STEPSPERSEC
 40
2.0
  9
$STEPSIZE
 40
6.0
  9
$3DDWFPREC
 40
2.0
  9
$PSOLWIDTH
 40
0.25
  9
$PSOLHEIGHT
 40
4.0
  9
$LOFTANG1
 40
1.570796326794897
  9
$LOFTANG2
 40
1.570796326794897
  9
$LOFTMAG1
 40
0.0
  9
$LOFTMAG2
 40
0.0
  9
$LOFTPARAM
 70
     7
  9
$LOFTNORMALS
280
     1
  9
$LATITUDE
 40
37.795
  9
$LONGITUDE
 40
-122.394
  9
$NORTHDIRECTION
 40
0.0
  9
$TIMEZONE
 70
 -8000
  9
$LIGHTGLYPHDISPLAY
280
     1
  9
$TILEMODELIGHTSYNCH
280
     1
  9
$CMATERIAL
347
3C
  9
$SOLIDHIST
280
     1
  9
$SHOWHIST
280
     1
  9
$DWFFRAME
280
     2
  9
$DGNFRAME
280
     2
  9
$REALWORLDSCALE
290
     1
  9
$INTERFERECOLOR
 62
   256
  9
$CSHADOW
280
     0
  9
$SHADOWPLANELOCATION
 40
0.0
  0
ENDSEC
  0
SECTION
  2
CLASSES
  0
CLASS
  1
ACDBDICTIONARYWDFLT
  2
AcDbDictionaryWithDefault
  3
ObjectDBX Classes
 90
        0
 91
        4
280
     0
281
     0
  0
CLASS
  1
VISUALSTYLE
  2
AcDbVisualStyle
  3
ObjectDBX Classes
 90
     4095
 91
        4
280
     0
281
     0
  0
CLASS
  1
MATERIAL
  2
AcDbMaterial
  3
ObjectDBX Classes
 90
     1153
 91
        4
280
     0
281
     0
  0
CLASS
  1
SUN
  2
AcDbSun
  3
SCENEOE
 90
     1024
 91
        4
280
     0
281
     0
  0
ENDSEC
  0
SECTION
  2
TABLES
  0
TABLE
  2
VPORT
  5
8
330
0
100
AcDbSymbolTable
 70
     1
  0
VPORT
  5
29
330
8
100
AcDbSymbolTableRecord
100
AcDbViewportTableRecord
  2
*Active
 70
     0
 10
0.0
 20
0.0
 11
1.0
 21
1.0
 12
0.0
 22
0.0
 13
0.0
 23
0.0
 14
0.5
 24
0.5
 15
0.5
 25
0.5
 16
0.0
 26
0.0
 36
1.0
 17
91.00082462281999
 27
-128.4993055234307
 37
0.0
 40
256.9986110468615
 41
0.7081814508812795
 42
50.0
 43
0.0
 44
0.0
 50
0.0
 51
0.0
 71
     0
 72
   100
 73
     1
 74
     3
 75
     0
 76
     0
 77
     0
 78
     0
281
     0
 65
     1
110
0.0
120
0.0
130
0.0
111
1.0
121
0.0
131
0.0
112
0.0
122
1.0
132
0.0
 79
     0
146
0.0
 60
     3
 61
     5
292
     1
282
     1
141
0.0
142
0.0
 63
   250
361
3F
  0
ENDTAB
  0
TABLE
  2
LTYPE
  5
5
330
0
100
AcDbSymbolTable
 70
     1
  0
LTYPE
  5
14
330
5
100
AcDbSymbolTableRecord
100
AcDbLinetypeTableRecord
  2
ByBlock
 70
     0
  3

 72
    65
 73
     0
 40
0.0
  0
LTYPE
  5
15
330
5
100
AcDbSymbolTableRecord
100
AcDbLinetypeTableRecord
  2
ByLayer
 70
     0
  3

 72
    65
 73
     0
 40
0.0
  0
LTYPE
  5
16
330
5
100
AcDbSymbolTableRecord
100
AcDbLinetypeTableRecord
  2
Continuous
 70
     0
  3
Solid line
 72
    65
 73
     0
 40
0.0
  0
ENDTAB
  0
TABLE
  2
LAYER
  5
2
330
0
100
AcDbSymbolTable
 70
     2
  0
LAYER
  5
10
330
2
100
AcDbSymbolTableRecord
100
AcDbLayerTableRecord
  2
0
 70
     0
 62
     7
  6
Continuous
370
    -3
390
F
347
3E
  0
LAYER
  5
40
330
2
100
AcDbSymbolTableRecord
100
AcDbLayerTableRecord
  2
_U+30EC_U+30A4_U+30E4_U+30FC 1
 70
     0
 62
     7
  6
Continuous
370
    -3
390
F
347
3E
  0
ENDTAB
  0
TABLE
  2
STYLE
  5
3
330
0
100
AcDbSymbolTable
 70
     1
  0
STYLE
  5
11
330
3
100
AcDbSymbolTableRecord
100
AcDbTextStyleTableRecord
  2
Standard
 70
     0
 40
0.0
 41
1.0
 50
0.0
 71
     0
 42
0.2
  3
txt
  4

  0
ENDTAB
  0
TABLE
  2
VIEW
  5
6
330
0
100
AcDbSymbolTable
 70
     0
  0
ENDTAB
  0
TABLE
  2
UCS
  5
7
330
0
100
AcDbSymbolTable
 70
     0
  0
ENDTAB
  0
TABLE
  2
APPID
  5
9
330
0
100
AcDbSymbolTable
 70
     1
  0
APPID
  5
12
330
9
100
AcDbSymbolTableRecord
100
AcDbRegAppTableRecord
  2
ACAD
 70
     0
  0
ENDTAB
  0
TABLE
  2
DIMSTYLE
  5
A
330
0
100
AcDbSymbolTable
 70
     1
100
AcDbDimStyleTable
  0
DIMSTYLE
105
27
330
A
100
AcDbSymbolTableRecord
100
AcDbDimStyleTableRecord
  2
Standard
 70
     0
178
     0
340
11
  0
ENDTAB
  0
TABLE
  2
BLOCK_RECORD
  5
1
330
0
100
AcDbSymbolTable
 70
     7
  0
BLOCK_RECORD
  5
1F
330
1
100
AcDbSymbolTableRecord
100
AcDbBlockTableRecord
  2
*Model_Space
340
22
 70
     0
280
     1
281
     0
  0
BLOCK_RECORD
  5
1B
330
1
100
AcDbSymbolTableRecord
100
AcDbBlockTableRecord
  2
*Paper_Space
340
1E
 70
     0
280
     1
281
     0
  0
BLOCK_RECORD
  5
23
330
1
100
AcDbSymbolTableRecord
100
AcDbBlockTableRecord
  2
*Paper_Space0
340
26
 70
     0
280
     1
281
     0
  0
BLOCK_RECORD
  5
90
330
1
100
AcDbSymbolTableRecord
100
AcDbBlockTableRecord
  2
block 2
340
0
102
{BLKREFS
331
91
102
}
 70
     0
280
     1
281
     0
  0
BLOCK_RECORD
  5
A9
330
1
100
AcDbSymbolTableRecord
100
AcDbBlockTableRecord
  2
block 3
340
0
102
{BLKREFS
331
AA
102
}
 70
     0
280
     1
281
     0
  0
BLOCK_RECORD
  5
BB
330
1
100
AcDbSymbolTableRecord
100
AcDbBlockTableRecord
  2
block 4
340
0
102
{BLKREFS
331
BC
102
}
 70
     0
280
     1
281
     0
  0
BLOCK_RECORD
  5
CF
330
1
100
AcDbSymbolTableRecord
100
AcDbBlockTableRecord
  2
block 5
340
0
102
{BLKREFS
331
D0
102
}
 70
     0
280
     1
281
     0
  0
BLOCK_RECORD
  5
E6
330
1
100
AcDbSymbolTableRecord
100
AcDbBlockTableRecord
  2
block 6
340
0
102
{BLKREFS
331
E7
102
}
 70
     0
280
     1
281
     0
  0
BLOCK_RECORD
  5
F0
330
1
100
AcDbSymbolTableRecord
100
AcDbBlockTableRecord
  2
block 7
340
0
102
{BLKREFS
331
F1
102
}
 70
     0
280
     1
281
     0
  0
ENDTAB
  0
ENDSEC
  0
SECTION
  2
BLOCKS
  0
BLOCK
  5
20
330
1F
100
AcDbEntity
  8
0
100
AcDbBlockBegin
  2
*Model_Space
 70
     0
 10
0.0
 20
0.0
 30
0.0
  3
*Model_Space
  1

  0
ENDBLK
  5
21
330
1F
100
AcDbEntity
  8
0
100
AcDbBlockEnd
  0
BLOCK
  5
1C
330
1B
100
AcDbEntity
 67
     1
  8
0
100
AcDbBlockBegin
  2
*Paper_Space
 70
     0
 10
0.0
 20
0.0
 30
0.0
  3
*Paper_Space
  1

  0
ENDBLK
  5
1D
330
1B
100
AcDbEntity
 67
     1
  8
0
100
AcDbBlockEnd
  0
BLOCK
  5
24
330
23
100
AcDbEntity
  8
0
100
AcDbBlockBegin
  2
*Paper_Space0
 70
     0
 10
0.0
 20
0.0
 30
0.0
  3
*Paper_Space0
  1

  0
ENDBLK
  5
25
330
23
100
AcDbEntity
  8
0
100
AcDbBlockEnd
  0
BLOCK
  5
92
330
90
100
AcDbEntity
  8
0
100
AcDbBlockBegin
  2
block 2
 70
     0
 10
0.0
 20
0.0
 30
0.0
  3
block 2
  1

  0
SPLINE
  5
94
330
90
100
AcDbEntity
  8
_U+30EC_U+30A4_U+30E4_U+30FC 1
370
     0
100
AcDbSpline
210
0.0
220
0.0
230
1.0
 70
    11
 71
     3
 72
    26
 73
    22
 74
     0
 42
0.0000000001
 43
0.0000000001
 12
1.0
 22
0.0
 32
0.0
 13
1.0
 23
0.0
 33
0.0
 40
0.0
 40
0.0
 40
0.0
 40
0.0
 40
1.0
 40
1.0
 40
1.0
 40
2.0
 40
2.0
 40
2.0
 40
3.0
 40
3.0
 40
3.0
 40
4.0
 40
4.0
 40
4.0
 40
5.0
 40
5.0
 40
5.0
 40
6.0
 40
6.0
 40
6.0
 40
7.0
 40
7.0
 40
7.0
 40
7.0
 10
86.57197670361742
 20
-140.0741373347731
 30
0.0
 10
86.57197670361742
 20
-140.0741373347731
 30
0.0
 10
86.57197670361742
 20
-138.9699842317506
 30
0.0
 10
86.57197670361742
 20
-138.9699842317506
 30
0.0
 10
86.57197670361742
 20
-138.9699842317506
 30
0.0
 10
86.2419365561305
 20
-138.9699842317506
 30
0.0
 10
86.2419365561305
 20
-138.9699842317506
 30
0.0
 10
86.2419365561305
 20
-138.9699842317506
 30
0.0
 10
86.2419365561305
 20
-138.8218451258848
 30
0.0
 10
86.2419365561305
 20
-138.8218451258848
 30
0.0
 10
86.57404376090858
 20
-138.8070312152983
 30
0.0
 10
86.62055254995946
 20
-138.6440781988459
 30
0.0
 10
86.65018037113259
 20
-138.5297010287356
 30
0.0
 10
86.65018037113259
 20
-138.5297010287356
 30
0.0
 10
86.79625241970719
 20
-138.5297010287356
 30
0.0
 10
86.79625241970719
 20
-138.5297010287356
 30
0.0
 10
86.79625241970719
 20
-138.5297010287356
 30
0.0
 10
86.79625241970719
 20
-140.0741373347731
 30
0.0
 10
86.79625241970719
 20
-140.0741373347731
 30
0.0
 10
86.79625241970719
 20
-140.0741373347731
 30
0.0
 10
86.57197670361742
 20
-140.0741373347731
 30
0.0
 10
86.57197670361742
 20
-140.0741373347731
 30
0.0
  0
HATCH
  5
95
330
90
100
AcDbEntity
  8
_U+30EC_U+30A4_U+30E4_U+30FC 1
 62
     7
420
 16777215
100
AcDbHatch
 10
0.0
 20
0.0
 30
0.0
210
0.0
220
0.0
230
1.0
  2
SOLID
 70
     1
 71
     0
 91
        1
 92
        1
 93
        1
 72
     4
 94
        3
 73
     0
 74
     1
 95
       26
 96
       22
 40
0.0
 40
0.0
 40
0.0
 40
0.0
 40
1.0
 40
1.0
 40
1.0
 40
2.0
 40
2.0
 40
2.0
 40
3.0
 40
3.0
 40
3.0
 40
4.0
 40
4.0
 40
4.0
 40
5.0
 40
5.0
 40
5.0
 40
6.0
 40
6.0
 40
6.0
 40
7.0
 40
7.0
 40
7.0
 40
7.0
 10
86.57197670361742
 20
-140.0741373347731
 10
86.57197670361742
 20
-140.0741373347731
 10
86.57197670361742
 20
-138.9699842317506
 10
86.57197670361742
 20
-138.9699842317506
 10
86.57197670361742
 20
-138.9699842317506
 10
86.2419365561305
 20
-138.9699842317506
 10
86.2419365561305
 20
-138.9699842317506
 10
86.2419365561305
 20
-138.9699842317506
 10
86.2419365561305
 20
-138.8218451258848
 10
86.2419365561305
 20
-138.8218451258848
 10
86.57404376090858
 20
-138.8070312152983
 10
86.62055254995946
 20
-138.6440781988459
 10
86.65018037113259
 20
-138.5297010287356
 10
86.65018037113259
 20
-138.5297010287356
 10
86.79625241970719
 20
-138.5297010287356
 10
86.79625241970719
 20
-138.5297010287356
 10
86.79625241970719
 20
-138.5297010287356
 10
86.79625241970719
 20
-140.0741373347731
 10
86.79625241970719
 20
-140.0741373347731
 10
86.79625241970719
 20
-140.0741373347731
 10
86.57197670361742
 20
-140.0741373347731
 10
86.57197670361742
 20
-140.0741373347731
 97
        0
 97
        0
 75
     2
 76
     1
 98
        0
  0
SPLINE
  5
96
330
90
100
AcDbEntity
  8
_U+30EC_U+30A4_U+30E4_U+30FC 1
370
     0
100
AcDbSpline
210
0.0
220
0.0
230
1.0
 70
    11
 71
     3
 72
    29
 73
    25
 74
     0
 42
0.0000000001
 43
0.0000000001
 12
1.0
 22
0.0
 32
0.0
 13
1.0
 23
0.0
 33
0.0
 40
0.0
 40
0.0
 40
0.0
 40
0.0
 40
1.0
 40
1.0
 40
1.0
 40
2.0
 40
2.0
 40
2.0
 40
3.0
 40
3.0
 40
3.0
 40
4.0
 40
4.0
 40
4.0
 40
5.0
 40
5.0
 40
5.0
 40
6.0
 40
6.0
 40
6.0
 40
7.0
 40
7.0
 40
7.0
 40
8.0
 40
8.0
 40
8.0
 40
8.0
 10
88.19530569626716
 20
-139.8963704077343
 30
0.0
 10
88.08712969803031
 20
-140.1058322132374
 30
0.0
 10
87.91384139512223
 20
-140.1247802384063
 30
0.0
 10
87.79739716772079
 20
-140.1247802384063
 30
0.0
 10
87.63651120855963
 20
-140.1247802384063
 30
0.0
 10
87.49491778411586
 20
-140.0782714493554
 30
0.0
 10
87.39983314872296
 20
-139.8963704077343
 30
0.0
 10
87.29613577461694
 20
-139.7017225128176
 30
0.0
 10
87.27684323989955
 20
-139.4646999434324
 30
0.0
 10
87.27684323989955
 20
-139.3020914365287
 30
0.0
 10
87.27684323989955
 20
-139.1580864452452
 30
0.0
 10
87.29406871732579
 20
-138.9062499652734
 30
0.0
 10
87.39983314872296
 20
-138.7074679557745
 30
0.0
 10
87.50766463741128
 20
-138.5045518316933
 30
0.0
 10
87.66855059657244
 20
-138.4811251823936
 30
0.0
 10
87.79739716772079
 20
-138.4811251823936
 30
0.0
 10
87.95621606959081
 20
-138.4811251823936
 30
0.0
 10
88.09987655132574
 20
-138.5255669141533
 30
0.0
 10
88.19530569626716
 20
-138.7074679557745
 30
0.0
 10
88.29452444624235
 20
-138.9000487934
 30
0.0
 10
88.31795109554204
 20
-139.1284586240721
 30
0.0
 10
88.31795109554204
 20
-139.3020914365287
 30
0.0
 10
88.31795109554204
 20
-139.4733126821456
 30
0.0
 10
88.29659150353349
 20
-139.7037895701088
 30
0.0
 10
88.19530569626716
 20
-139.8963704077343
 30
0.0
  0
SPLINE
  5
97
330
90
100
AcDbEntity
  8
_U+30EC_U+30A4_U+30E4_U+30FC 1
370
     0
100
AcDbSpline
210
0.0
220
0.0
230
1.0
 70
    11
 71
     3
 72
    17
 73
    13
 74
     0
 42
0.0000000001
 43
0.0000000001
 12
1.0
 22
0.0
 32
0.0
 13
1.0
 23
0.0
 33
0.0
 40
0.0
 40
0.0
 40
0.0
 40
0.0
 40
1.0
 40
1.0
 40
1.0
 40
2.0
 40
2.0
 40
2.0
 40
3.0
 40
3.0
 40
3.0
 40
4.0
 40
4.0
 40
4.0
 40
4.0
 10
87.79739716772079
 20
-138.6737060200191
 30
0.0
 10
87.54762774504017
 20
-138.6737060200191
 30
0.0
 10
87.50111895598931
 20
-138.9572373784551
 30
0.0
 10
87.50111895598931
 20
-139.3020914365287
 30
0.0
 10
87.50111895598931
 20
-139.6214517880113
 30
0.0
 10
87.53729245858443
 20
-139.9301323434897
 30
0.0
 10
87.79739716772079
 20
-139.9301323434897
 30
0.0
 10
88.04509953311026
 20
-139.9301323434897
 30
0.0
 10
88.09367537945228
 20
-139.6490125518933
 30
0.0
 10
88.09367537945228
 20
-139.3020914365287
 30
0.0
 10
88.09367537945228
 20
-138.9823865754975
 30
0.0
 10
88.055434819566
 20
-138.6737060200191
 30
0.0
 10
87.79739716772079
 20
-138.6737060200191
 30
0.0
  0
HATCH
  5
98
330
90
100
AcDbEntity
  8
_U+30EC_U+30A4_U+30E4_U+30FC 1
 62
     7
420
 16777215
100
AcDbHatch
 10
0.0
 20
0.0
 30
0.0
210
0.0
220
0.0
230
1.0
  2
SOLID
 70
     1
 71
     0
 91
        2
 92
        1
 93
        1
 72
     4
 94
        3
 73
     0
 74
     1
 95
       29
 96
       25
 40
0.0
 40
0.0
 40
0.0
 40
0.0
 40
1.0
 40
1.0
 40
1.0
 40
2.0
 40
2.0
 40
2.0
 40
3.0
 40
3.0
 40
3.0
 40
4.0
 40
4.0
 40
4.0
 40
5.0
 40
5.0
 40
5.0
 40
6.0
 40
6.0
 40
6.0
 40
7.0
 40
7.0
 40
7.0
 40
8.0
 40
8.0
 40
8.0
 40
8.0
 10
88.19530569626716
 20
-139.8963704077343
 10
88.08712969803031
 20
-140.1058322132374
 10
87.91384139512223
 20
-140.1247802384063
 10
87.79739716772079
 20
-140.1247802384063
 10
87.63651120855963
 20
-140.1247802384063
 10
87.49491778411586
 20
-140.0782714493554
 10
87.39983314872296
 20
-139.8963704077343
 10
87.29613577461694
 20
-139.7017225128176
 10
87.27684323989955
 20
-139.4646999434324
 10
87.27684323989955
 20
-139.3020914365287
 10
87.27684323989955
 20
-139.1580864452452
 10
87.29406871732579
 20
-138.9062499652734
 10
87.39983314872296
 20
-138.7074679557745
 10
87.50766463741128
 20
-138.5045518316933
 10
87.66855059657244
 20
-138.4811251823936
 10
87.79739716772079
 20
-138.4811251823936
 10
87.95621606959081
 20
-138.4811251823936
 10
88.09987655132574
 20
-138.5255669141533
 10
88.19530569626716
 20
-138.7074679557745
 10
88.29452444624235
 20
-138.9000487934
 10
88.31795109554204
 20
-139.1284586240721
 10
88.31795109554204
 20
-139.3020914365287
 10
88.31795109554204
 20
-139.4733126821456
 10
88.29659150353349
 20
-139.7037895701088
 10
88.19530569626716
 20
-139.8963704077343
 97
        0
 97
        0
 92
        1
 93
        1
 72
     4
 94
        3
 73
     0
 74
     1
 95
       17
 96
       13
 40
0.0
 40
0.0
 40
0.0
 40
0.0
 40
1.0
 40
1.0
 40
1.0
 40
2.0
 40
2.0
 40
2.0
 40
3.0
 40
3.0
 40
3.0
 40
4.0
 40
4.0
 40
4.0
 40
4.0
 10
87.79739716772079
 20
-138.6737060200191
 10
87.54762774504017
 20
-138.6737060200191
 10
87.50111895598931
 20
-138.9572373784551
 10
87.50111895598931
 20
-139.3020914365287
 10
87.50111895598931
 20
-139.6214517880113
 10
87.53729245858443
 20
-139.9301323434897
 10
87.79739716772079
 20
-139.9301323434897
 10
88.04509953311026
 20
-139.9301323434897
 10
88.09367537945228
 20
-139.6490125518933
 10
88.09367537945228
 20
-139.3020914365287
 10
88.09367537945228
 20
-138.9823865754975
 10
88.055434819566
 20
-138.6737060200191
 10
87.79739716772079
 20
-138.6737060200191
 97
        0
 97
        0
 75
     2
 76
     1
 98
        0
  0
ENDBLK
  5
93
330
90
100
AcDbEntity
  8
0
100
AcDbBlockEnd
  0
BLOCK
  5
AB
330
A9
100
AcDbEntity
  8
0
100
AcDbBlockBegin
  2
block 3
 70
     0
 10
0.0
 20
0.0
 30
0.0
  3
block 3
  1

  0
SPLINE
  5
AD
330
A9
100
AcDbEntity
  8
_U+30EC_U+30A4_U+30E4_U+30FC 1
370
     0
100
AcDbSpline
210
0.0
220
0.0
230
1.0
 70
    11
 71
     3
 72
    26
 73
    22
 74
     0
 42
0.0000000001
 43
0.0000000001
 12
1.0
 22
0.0
 32
0.0
 13
1.0
 23
0.0
 33
0.0
 40
0.0
 40
0.0
 40
0.0
 40
0.0
 40
1.0
 40
1.0
 40
1.0
 40
2.0
 40
2.0
 40
2.0
 40
3.0
 40
3.0
 40
3.0
 40
4.0
 40
4.0
 40
4.0
 40
5.0
 40
5.0
 40
5.0
 40
6.0
 40
6.0
 40
6.0
 40
7.0
 40
7.0
 40
7.0
 40
7.0
 10
107.9107258844807
 20
-123.5197645090506
 30
0.0
 10
107.9107258844807
 20
-123.5197645090506
 30
0.0
 10
106.8065727814581
 20
-123.5197645090506
 30
0.0
 10
106.8065727814581
 20
-123.5197645090506
 30
0.0
 10
106.8065727814581
 20
-123.5197645090506
 30
0.0
 10
106.8065727814581
 20
-123.8498046565376
 30
0.0
 10
106.8065727814581
 20
-123.8498046565376
 30
0.0
 10
106.8065727814581
 20
-123.8498046565376
 30
0.0
 10
106.6584336755923
 20
-123.8498046565376
 30
0.0
 10
106.6584336755923
 20
-123.8498046565376
 30
0.0
 10
106.6436197650058
 20
-123.5176974517595
 30
0.0
 10
106.4806667485534
 20
-123.4711886627086
 30
0.0
 10
106.3662895784432
 20
-123.4415608415354
 30
0.0
 10
106.3662895784432
 20
-123.4415608415354
 30
0.0
 10
106.3662895784432
 20
-123.2954887929609
 30
0.0
 10
106.3662895784432
 20
-123.2954887929609
 30
0.0
 10
106.3662895784432
 20
-123.2954887929609
 30
0.0
 10
107.9107258844807
 20
-123.2954887929609
 30
0.0
 10
107.9107258844807
 20
-123.2954887929609
 30
0.0
 10
107.9107258844807
 20
-123.2954887929609
 30
0.0
 10
107.9107258844807
 20
-123.5197645090506
 30
0.0
 10
107.9107258844807
 20
-123.5197645090506
 30
0.0
  0
HATCH
  5
AE
330
A9
100
AcDbEntity
  8
_U+30EC_U+30A4_U+30E4_U+30FC 1
 62
     7
420
 16777215
100
AcDbHatch
 10
0.0
 20
0.0
 30
0.0
210
0.0
220
0.0
230
1.0
  2
SOLID
 70
     1
 71
     0
 91
        1
 92
        1
 93
        1
 72
     4
 94
        3
 73
     0
 74
     1
 95
       26
 96
       22
 40
0.0
 40
0.0
 40
0.0
 40
0.0
 40
1.0
 40
1.0
 40
1.0
 40
2.0
 40
2.0
 40
2.0
 40
3.0
 40
3.0
 40
3.0
 40
4.0
 40
4.0
 40
4.0
 40
5.0
 40
5.0
 40
5.0
 40
6.0
 40
6.0
 40
6.0
 40
7.0
 40
7.0
 40
7.0
 40
7.0
 10
107.9107258844807
 20
-123.5197645090506
 10
107.9107258844807
 20
-123.5197645090506
 10
106.8065727814581
 20
-123.5197645090506
 10
106.8065727814581
 20
-123.5197645090506
 10
106.8065727814581
 20
-123.5197645090506
 10
106.8065727814581
 20
-123.8498046565376
 10
106.8065727814581
 20
-123.8498046565376
 10
106.8065727814581
 20
-123.8498046565376
 10
106.6584336755923
 20
-123.8498046565376
 10
106.6584336755923
 20
-123.8498046565376
 10
106.6436197650058
 20
-123.5176974517595
 10
106.4806667485534
 20
-123.4711886627086
 10
106.3662895784432
 20
-123.4415608415354
 10
106.3662895784432
 20
-123.4415608415354
 10
106.3662895784432
 20
-123.2954887929609
 10
106.3662895784432
 20
-123.2954887929609
 10
106.3662895784432
 20
-123.2954887929609
 10
107.9107258844807
 20
-123.2954887929609
 10
107.9107258844807
 20
-123.2954887929609
 10
107.9107258844807
 20
-123.2954887929609
 10
107.9107258844807
 20
-123.5197645090506
 10
107.9107258844807
 20
-123.5197645090506
 97
        0
 97
        0
 75
     2
 76
     1
 98
        0
  0
ENDBLK
  5
AC
330
A9
100
AcDbEntity
  8
0
100
AcDbBlockEnd
  0
BLOCK
  5
BD
330
BB
100
AcDbEntity
  8
0
100
AcDbBlockBegin
  2
block 4
 70
     0
 10
0.0
 20
0.0
 30
0.0
  3
block 4
  1

  0
SPLINE
  5
BF
330
BB
100
AcDbEntity
  8
_U+30EC_U+30A4_U+30E4_U+30FC 1
370
     0
100
AcDbSpline
210
0.0
220
0.0
230
1.0
 70
    11
 71
     3
 72
    62
 73
    58
 74
     0
 42
0.0000000001
 43
0.0000000001
 12
1.0
 22
0.0
 32
0.0
 13
1.0
 23
0.0
 33
0.0
 40
0.0
 40
0.0
 40
0.0
 40
0.0
 40
1.0
 40
1.0
 40
1.0
 40
2.0
 40
2.0
 40
2.0
 40
3.0
 40
3.0
 40
3.0
 40
4.0
 40
4.0
 40
4.0
 40
5.0
 40
5.0
 40
5.0
 40
6.0
 40
6.0
 40
6.0
 40
7.0
 40
7.0
 40
7.0
 40
8.0
 40
8.0
 40
8.0
 40
9.0
 40
9.0
 40
9.0
 40
10.0
 40
10.0
 40
10.0
 40
11.0
 40
11.0
 40
11.0
 40
12.0
 40
12.0
 40
12.0
 40
13.0
 40
13.0
 40
13.0
 40
14.0
 40
14.0
 40
14.0
 40
15.0
 40
15.0
 40
15.0
 40
16.0
 40
16.0
 40
16.0
 40
17.0
 40
17.0
 40
17.0
 40
18.0
 40
18.0
 40
18.0
 40
19.0
 40
19.0
 40
19.0
 40
19.0
 10
87.42704940305643
 20
-118.2313706844179
 30
0.0
 10
87.33162025811501
 20
-118.2313706844179
 30
0.0
 10
87.11389022344723
 20
-118.2101833471836
 30
0.0
 10
86.98883325733266
 20
-118.0239759362058
 30
0.0
 10
86.91476370439979
 20
-117.9118380781609
 30
0.0
 10
86.91062958981749
 20
-117.8124470734115
 30
0.0
 10
86.90649547523519
 20
-117.7278699792486
 30
0.0
 10
86.90649547523519
 20
-117.7278699792486
 30
0.0
 10
87.12663707674265
 20
-117.7278699792486
 30
0.0
 10
87.12663707674265
 20
-117.7278699792486
 30
0.0
 10
87.1287041340338
 20
-117.8019395321815
 30
0.0
 10
87.13903942048955
 20
-118.0367227895012
 30
0.0
 10
87.42257077892562
 20
-118.0367227895012
 30
0.0
 10
87.56003008878707
 20
-118.0367227895012
 30
0.0
 10
87.71264781878365
 20
-117.9669596059249
 30
0.0
 10
87.71264781878365
 20
-117.7383775204786
 30
0.0
 10
87.71264781878365
 20
-117.6221055478514
 30
0.0
 10
87.67440725889738
 20
-117.5733574467351
 30
0.0
 10
87.64271238043308
 20
-117.5416625682708
 30
0.0
 10
87.5686428275002
 20
-117.467593015338
 30
0.0
 10
87.45219860009875
 20
-117.4550184168168
 30
0.0
 10
87.3974215818833
 20
-117.4550184168168
 30
0.0
 10
87.37812904716588
 20
-117.4550184168168
 30
0.0
 10
87.34230005411929
 20
-117.457085474108
 30
0.0
 10
87.31473929023728
 20
-117.4612195886903
 30
0.0
 10
87.31473929023728
 20
-117.4612195886903
 30
0.0
 10
87.31473929023728
 20
-117.2665716937736
 30
0.0
 10
87.31473929023728
 20
-117.2665716937736
 30
0.0
 10
87.35297985012356
 20
-117.2729451204214
 30
0.0
 10
87.39501001504361
 20
-117.2751844324868
 30
0.0
 10
87.40155569646559
 20
-117.2751844324868
 30
0.0
 10
87.46701251068534
 20
-117.2751844324868
 30
0.0
 10
87.66579452018425
 20
-117.2539970952525
 30
0.0
 10
87.66579452018425
 20
-117.0169745258673
 30
0.0
 10
87.66579452018425
 20
-116.8393798536027
 30
0.0
 10
87.53488089174476
 20
-116.7842583258387
 30
0.0
 10
87.42463783621676
 20
-116.7842583258387
 30
0.0
 10
87.1603990124981
 20
-116.7842583258387
 30
0.0
 10
87.15178627378498
 20
-117.0169745258673
 30
0.0
 10
87.14765215920268
 20
-117.088977021509
 30
0.0
 10
87.14765215920268
 20
-117.088977021509
 30
0.0
 10
86.94439152557294
 20
-117.088977021509
 30
0.0
 10
86.94439152557294
 20
-117.088977021509
 30
0.0
 10
86.95300426428606
 20
-116.9640923101687
 30
0.0
 10
86.98056502816806
 20
-116.5875433736309
 30
0.0
 10
87.43738468951219
 20
-116.5875433736309
 30
0.0
 10
87.66166040560195
 20
-116.5875433736309
 30
0.0
 10
87.90281708956944
 20
-116.7144951422624
 30
0.0
 10
87.90281708956944
 20
-117.0106010992196
 30
0.0
 10
87.90281708956944
 20
-117.1968085101973
 30
0.0
 10
87.80773245417654
 20
-117.2793185470691
 30
0.0
 10
87.70816919465283
 20
-117.3406412467065
 30
0.0
 10
87.76949189429027
 20
-117.3682020105885
 30
0.0
 10
87.95139293591146
 20
-117.4486449901691
 30
0.0
 10
87.95139293591146
 20
-117.7258029219574
 30
0.0
 10
87.95139293591146
 20
-118.0642835533832
 30
0.0
 10
87.70403508007053
 20
-118.2313706844179
 30
0.0
 10
87.42704940305643
 20
-118.2313706844179
 30
0.0
  0
HATCH
  5
C0
330
BB
100
AcDbEntity
  8
_U+30EC_U+30A4_U+30E4_U+30FC 1
 62
     7
420
 16777215
100
AcDbHatch
 10
0.0
 20
0.0
 30
0.0
210
0.0
220
0.0
230
1.0
  2
SOLID
 70
     1
 71
     0
 91
        1
 92
        1
 93
        1
 72
     4
 94
        3
 73
     0
 74
     1
 95
       62
 96
       58
 40
0.0
 40
0.0
 40
0.0
 40
0.0
 40
1.0
 40
1.0
 40
1.0
 40
2.0
 40
2.0
 40
2.0
 40
3.0
 40
3.0
 40
3.0
 40
4.0
 40
4.0
 40
4.0
 40
5.0
 40
5.0
 40
5.0
 40
6.0
 40
6.0
 40
6.0
 40
7.0
 40
7.0
 40
7.0
 40
8.0
 40
8.0
 40
8.0
 40
9.0
 40
9.0
 40
9.0
 40
10.0
 40
10.0
 40
10.0
 40
11.0
 40
11.0
 40
11.0
 40
12.0
 40
12.0
 40
12.0
 40
13.0
 40
13.0
 40
13.0
 40
14.0
 40
14.0
 40
14.0
 40
15.0
 40
15.0
 40
15.0
 40
16.0
 40
16.0
 40
16.0
 40
17.0
 40
17.0
 40
17.0
 40
18.0
 40
18.0
 40
18.0
 40
19.0
 40
19.0
 40
19.0
 40
19.0
 10
87.42704940305643
 20
-118.2313706844179
 10
87.33162025811501
 20
-118.2313706844179
 10
87.11389022344723
 20
-118.2101833471836
 10
86.98883325733266
 20
-118.0239759362058
 10
86.91476370439979
 20
-117.9118380781609
 10
86.91062958981749
 20
-117.8124470734115
 10
86.90649547523519
 20
-117.7278699792486
 10
86.90649547523519
 20
-117.7278699792486
 10
87.12663707674265
 20
-117.7278699792486
 10
87.12663707674265
 20
-117.7278699792486
 10
87.1287041340338
 20
-117.8019395321815
 10
87.13903942048955
 20
-118.0367227895012
 10
87.42257077892562
 20
-118.0367227895012
 10
87.56003008878707
 20
-118.0367227895012
 10
87.71264781878365
 20
-117.9669596059249
 10
87.71264781878365
 20
-117.7383775204786
 10
87.71264781878365
 20
-117.6221055478514
 10
87.67440725889738
 20
-117.5733574467351
 10
87.64271238043308
 20
-117.5416625682708
 10
87.5686428275002
 20
-117.467593015338
 10
87.45219860009875
 20
-117.4550184168168
 10
87.3974215818833
 20
-117.4550184168168
 10
87.37812904716588
 20
-117.4550184168168
 10
87.34230005411929
 20
-117.457085474108
 10
87.31473929023728
 20
-117.4612195886903
 10
87.31473929023728
 20
-117.4612195886903
 10
87.31473929023728
 20
-117.2665716937736
 10
87.31473929023728
 20
-117.2665716937736
 10
87.35297985012356
 20
-117.2729451204214
 10
87.39501001504361
 20
-117.2751844324868
 10
87.40155569646559
 20
-117.2751844324868
 10
87.46701251068534
 20
-117.2751844324868
 10
87.66579452018425
 20
-117.2539970952525
 10
87.66579452018425
 20
-117.0169745258673
 10
87.66579452018425
 20
-116.8393798536027
 10
87.53488089174476
 20
-116.7842583258387
 10
87.42463783621676
 20
-116.7842583258387
 10
87.1603990124981
 20
-116.7842583258387
 10
87.15178627378498
 20
-117.0169745258673
 10
87.14765215920268
 20
-117.088977021509
 10
87.14765215920268
 20
-117.088977021509
 10
86.94439152557294
 20
-117.088977021509
 10
86.94439152557294
 20
-117.088977021509
 10
86.95300426428606
 20
-116.9640923101687
 10
86.98056502816806
 20
-116.5875433736309
 10
87.43738468951219
 20
-116.5875433736309
 10
87.66166040560195
 20
-116.5875433736309
 10
87.90281708956944
 20
-116.7144951422624
 10
87.90281708956944
 20
-117.0106010992196
 10
87.90281708956944
 20
-117.1968085101973
 10
87.80773245417654
 20
-117.2793185470691
 10
87.70816919465283
 20
-117.3406412467065
 10
87.76949189429027
 20
-117.3682020105885
 10
87.95139293591146
 20
-117.4486449901691
 10
87.95139293591146
 20
-117.7258029219574
 10
87.95139293591146
 20
-118.0642835533832
 10
87.70403508007053
 20
-118.2313706844179
 10
87.42704940305643
 20
-118.2313706844179
 97
        0
 97
        0
 75
     2
 76
     1
 98
        0
  0
SPLINE
  5
C1
330
BB
100
AcDbEntity
  8
_U+30EC_U+30A4_U+30E4_U+30FC 1
370
     0
100
AcDbSpline
210
0.0
220
0.0
230
1.0
 70
    11
 71
     3
 72
    62
 73
    58
 74
     0
 42
0.0000000001
 43
0.0000000001
 12
1.0
 22
0.0
 32
0.0
 13
1.0
 23
0.0
 33
0.0
 40
0.0
 40
0.0
 40
0.0
 40
0.0
 40
1.0
 40
1.0
 40
1.0
 40
2.0
 40
2.0
 40
2.0
 40
3.0
 40
3.0
 40
3.0
 40
4.0
 40
4.0
 40
4.0
 40
5.0
 40
5.0
 40
5.0
 40
6.0
 40
6.0
 40
6.0
 40
7.0
 40
7.0
 40
7.0
 40
8.0
 40
8.0
 40
8.0
 40
9.0
 40
9.0
 40
9.0
 40
10.0
 40
10.0
 40
10.0
 40
11.0
 40
11.0
 40
11.0
 40
12.0
 40
12.0
 40
12.0
 40
13.0
 40
13.0
 40
13.0
 40
14.0
 40
14.0
 40
14.0
 40
15.0
 40
15.0
 40
15.0
 40
16.0
 40
16.0
 40
16.0
 40
17.0
 40
17.0
 40
17.0
 40
18.0
 40
18.0
 40
18.0
 40
19.0
 40
19.0
 40
19.0
 40
19.0
 10
88.60389402081778
 20
-118.2313706844179
 30
0.0
 10
88.50846487587636
 20
-118.2313706844179
 30
0.0
 10
88.29073484120858
 20
-118.2101833471836
 30
0.0
 10
88.165677875094
 20
-118.0239759362058
 30
0.0
 10
88.09160832216114
 20
-117.9118380781609
 30
0.0
 10
88.08747420757884
 20
-117.8124470734115
 30
0.0
 10
88.08334009299654
 20
-117.7278699792486
 30
0.0
 10
88.08334009299654
 20
-117.7278699792486
 30
0.0
 10
88.303481694504
 20
-117.7278699792486
 30
0.0
 10
88.303481694504
 20
-117.7278699792486
 30
0.0
 10
88.30554875179514
 20
-117.8019395321815
 30
0.0
 10
88.3158840382509
 20
-118.0367227895012
 30
0.0
 10
88.59941539668695
 20
-118.0367227895012
 30
0.0
 10
88.73687470654842
 20
-118.0367227895012
 30
0.0
 10
88.889492436545
 20
-117.9669596059249
 30
0.0
 10
88.889492436545
 20
-117.7383775204786
 30
0.0
 10
88.889492436545
 20
-117.6221055478514
 30
0.0
 10
88.85125187665872
 20
-117.5733574467351
 30
0.0
 10
88.81955699819441
 20
-117.5416625682708
 30
0.0
 10
88.74548744526155
 20
-117.467593015338
 30
0.0
 10
88.6290432178601
 20
-117.4550184168168
 30
0.0
 10
88.57426619964463
 20
-117.4550184168168
 30
0.0
 10
88.55497366492723
 20
-117.4550184168168
 30
0.0
 10
88.51914467188064
 20
-117.457085474108
 30
0.0
 10
88.49158390799863
 20
-117.4612195886903
 30
0.0
 10
88.49158390799863
 20
-117.4612195886903
 30
0.0
 10
88.49158390799863
 20
-117.2665716937736
 30
0.0
 10
88.49158390799863
 20
-117.2665716937736
 30
0.0
 10
88.52982446788491
 20
-117.2729451204214
 30
0.0
 10
88.57185463280496
 20
-117.2751844324868
 30
0.0
 10
88.57840031422693
 20
-117.2751844324868
 30
0.0
 10
88.64385712844668
 20
-117.2751844324868
 30
0.0
 10
88.8426391379456
 20
-117.2539970952525
 30
0.0
 10
88.8426391379456
 20
-117.0169745258673
 30
0.0
 10
88.8426391379456
 20
-116.8393798536027
 30
0.0
 10
88.7117255095061
 20
-116.7842583258387
 30
0.0
 10
88.60148245397811
 20
-116.7842583258387
 30
0.0
 10
88.33724363025944
 20
-116.7842583258387
 30
0.0
 10
88.32863089154633
 20
-117.0169745258673
 30
0.0
 10
88.32449677696403
 20
-117.088977021509
 30
0.0
 10
88.32449677696403
 20
-117.088977021509
 30
0.0
 10
88.12123614333427
 20
-117.088977021509
 30
0.0
 10
88.12123614333427
 20
-117.088977021509
 30
0.0
 10
88.1298488820474
 20
-116.9640923101687
 30
0.0
 10
88.1574096459294
 20
-116.5875433736309
 30
0.0
 10
88.61422930727353
 20
-116.5875433736309
 30
0.0
 10
88.8385050233633
 20
-116.5875433736309
 30
0.0
 10
89.07966170733079
 20
-116.7144951422624
 30
0.0
 10
89.07966170733079
 20
-117.0106010992196
 30
0.0
 10
89.07966170733079
 20
-117.1968085101973
 30
0.0
 10
88.98457707193789
 20
-117.2793185470691
 30
0.0
 10
88.88501381241417
 20
-117.3406412467065
 30
0.0
 10
88.94633651205162
 20
-117.3682020105885
 30
0.0
 10
89.1282375536728
 20
-117.4486449901691
 30
0.0
 10
89.1282375536728
 20
-117.7258029219574
 30
0.0
 10
89.1282375536728
 20
-118.0642835533832
 30
0.0
 10
88.88087969783187
 20
-118.2313706844179
 30
0.0
 10
88.60389402081778
 20
-118.2313706844179
 30
0.0
  0
HATCH
  5
C2
330
BB
100
AcDbEntity
  8
_U+30EC_U+30A4_U+30E4_U+30FC 1
 62
     7
420
 16777215
100
AcDbHatch
 10
0.0
 20
0.0
 30
0.0
210
0.0
220
0.0
230
1.0
  2
SOLID
 70
     1
 71
     0
 91
        1
 92
        1
 93
        1
 72
     4
 94
        3
 73
     0
 74
     1
 95
       62
 96
       58
 40
0.0
 40
0.0
 40
0.0
 40
0.0
 40
1.0
 40
1.0
 40
1.0
 40
2.0
 40
2.0
 40
2.0
 40
3.0
 40
3.0
 40
3.0
 40
4.0
 40
4.0
 40
4.0
 40
5.0
 40
5.0
 40
5.0
 40
6.0
 40
6.0
 40
6.0
 40
7.0
 40
7.0
 40
7.0
 40
8.0
 40
8.0
 40
8.0
 40
9.0
 40
9.0
 40
9.0
 40
10.0
 40
10.0
 40
10.0
 40
11.0
 40
11.0
 40
11.0
 40
12.0
 40
12.0
 40
12.0
 40
13.0
 40
13.0
 40
13.0
 40
14.0
 40
14.0
 40
14.0
 40
15.0
 40
15.0
 40
15.0
 40
16.0
 40
16.0
 40
16.0
 40
17.0
 40
17.0
 40
17.0
 40
18.0
 40
18.0
 40
18.0
 40
19.0
 40
19.0
 40
19.0
 40
19.0
 10
88.60389402081778
 20
-118.2313706844179
 10
88.50846487587636
 20
-118.2313706844179
 10
88.29073484120858
 20
-118.2101833471836
 10
88.165677875094
 20
-118.0239759362058
 10
88.09160832216114
 20
-117.9118380781609
 10
88.08747420757884
 20
-117.8124470734115
 10
88.08334009299654
 20
-117.7278699792486
 10
88.08334009299654
 20
-117.7278699792486
 10
88.303481694504
 20
-117.7278699792486
 10
88.303481694504
 20
-117.7278699792486
 10
88.30554875179514
 20
-117.8019395321815
 10
88.3158840382509
 20
-118.0367227895012
 10
88.59941539668695
 20
-118.0367227895012
 10
88.73687470654842
 20
-118.0367227895012
 10
88.889492436545
 20
-117.9669596059249
 10
88.889492436545
 20
-117.7383775204786
 10
88.889492436545
 20
-117.6221055478514
 10
88.85125187665872
 20
-117.5733574467351
 10
88.81955699819441
 20
-117.5416625682708
 10
88.74548744526155
 20
-117.467593015338
 10
88.6290432178601
 20
-117.4550184168168
 10
88.57426619964463
 20
-117.4550184168168
 10
88.55497366492723
 20
-117.4550184168168
 10
88.51914467188064
 20
-117.457085474108
 10
88.49158390799863
 20
-117.4612195886903
 10
88.49158390799863
 20
-117.4612195886903
 10
88.49158390799863
 20
-117.2665716937736
 10
88.49158390799863
 20
-117.2665716937736
 10
88.52982446788491
 20
-117.2729451204214
 10
88.57185463280496
 20
-117.2751844324868
 10
88.57840031422693
 20
-117.2751844324868
 10
88.64385712844668
 20
-117.2751844324868
 10
88.8426391379456
 20
-117.2539970952525
 10
88.8426391379456
 20
-117.0169745258673
 10
88.8426391379456
 20
-116.8393798536027
 10
88.7117255095061
 20
-116.7842583258387
 10
88.60148245397811
 20
-116.7842583258387
 10
88.33724363025944
 20
-116.7842583258387
 10
88.32863089154633
 20
-117.0169745258673
 10
88.32449677696403
 20
-117.088977021509
 10
88.32449677696403
 20
-117.088977021509
 10
88.12123614333427
 20
-117.088977021509
 10
88.12123614333427
 20
-117.088977021509
 10
88.1298488820474
 20
-116.9640923101687
 10
88.1574096459294
 20
-116.5875433736309
 10
88.61422930727353
 20
-116.5875433736309
 10
88.8385050233633
 20
-116.5875433736309
 10
89.07966170733079
 20
-116.7144951422624
 10
89.07966170733079
 20
-117.0106010992196
 10
89.07966170733079
 20
-117.1968085101973
 10
88.98457707193789
 20
-117.2793185470691
 10
88.88501381241417
 20
-117.3406412467065
 10
88.94633651205162
 20
-117.3682020105885
 10
89.1282375536728
 20
-117.4486449901691
 10
89.1282375536728
 20
-117.7258029219574
 10
89.1282375536728
 20
-118.0642835533832
 10
88.88087969783187
 20
-118.2313706844179
 10
88.60389402081778
 20
-118.2313706844179
 97
        0
 97
        0
 75
     2
 76
     1
 98
        0
  0
ENDBLK
  5
BE
330
BB
100
AcDbEntity
  8
0
100
AcDbBlockEnd
  0
BLOCK
  5
D1
330
CF
100
AcDbEntity
  8
0
100
AcDbBlockBegin
  2
block 5
 70
     0
 10
0.0
 20
0.0
 30
0.0
  3
block 5
  1

  0
SPLINE
  5
D3
330
CF
100
AcDbEntity
  8
_U+30EC_U+30A4_U+30E4_U+30FC 1
370
     0
100
AcDbSpline
210
0.0
220
0.0
230
1.0
 70
    11
 71
     3
 72
    26
 73
    22
 74
     0
 42
0.0000000001
 43
0.0000000001
 12
1.0
 22
0.0
 32
0.0
 13
1.0
 23
0.0
 33
0.0
 40
0.0
 40
0.0
 40
0.0
 40
0.0
 40
1.0
 40
1.0
 40
1.0
 40
2.0
 40
2.0
 40
2.0
 40
3.0
 40
3.0
 40
3.0
 40
4.0
 40
4.0
 40
4.0
 40
5.0
 40
5.0
 40
5.0
 40
6.0
 40
6.0
 40
6.0
 40
7.0
 40
7.0
 40
7.0
 40
7.0
 10
76.23272838805988
 20
-140.0741373347731
 30
0.0
 10
76.23272838805988
 20
-140.0741373347731
 30
0.0
 10
76.23272838805988
 20
-138.9699842317506
 30
0.0
 10
76.23272838805988
 20
-138.9699842317506
 30
0.0
 10
76.23272838805988
 20
-138.9699842317506
 30
0.0
 10
75.90268824057294
 20
-138.9699842317506
 30
0.0
 10
75.90268824057294
 20
-138.9699842317506
 30
0.0
 10
75.90268824057294
 20
-138.9699842317506
 30
0.0
 10
75.90268824057294
 20
-138.8218451258848
 30
0.0
 10
75.90268824057294
 20
-138.8218451258848
 30
0.0
 10
76.23479544535103
 20
-138.8070312152983
 30
0.0
 10
76.2813042344019
 20
-138.6440781988459
 30
0.0
 10
76.31093205557505
 20
-138.5297010287356
 30
0.0
 10
76.31093205557505
 20
-138.5297010287356
 30
0.0
 10
76.45700410414965
 20
-138.5297010287356
 30
0.0
 10
76.45700410414965
 20
-138.5297010287356
 30
0.0
 10
76.45700410414965
 20
-138.5297010287356
 30
0.0
 10
76.45700410414965
 20
-140.0741373347731
 30
0.0
 10
76.45700410414965
 20
-140.0741373347731
 30
0.0
 10
76.45700410414965
 20
-140.0741373347731
 30
0.0
 10
76.23272838805988
 20
-140.0741373347731
 30
0.0
 10
76.23272838805988
 20
-140.0741373347731
 30
0.0
  0
HATCH
  5
D4
330
CF
100
AcDbEntity
  8
_U+30EC_U+30A4_U+30E4_U+30FC 1
 62
     7
420
 16777215
100
AcDbHatch
 10
0.0
 20
0.0
 30
0.0
210
0.0
220
0.0
230
1.0
  2
SOLID
 70
     1
 71
     0
 91
        1
 92
        1
 93
        1
 72
     4
 94
        3
 73
     0
 74
     1
 95
       26
 96
       22
 40
0.0
 40
0.0
 40
0.0
 40
0.0
 40
1.0
 40
1.0
 40
1.0
 40
2.0
 40
2.0
 40
2.0
 40
3.0
 40
3.0
 40
3.0
 40
4.0
 40
4.0
 40
4.0
 40
5.0
 40
5.0
 40
5.0
 40
6.0
 40
6.0
 40
6.0
 40
7.0
 40
7.0
 40
7.0
 40
7.0
 10
76.23272838805988
 20
-140.0741373347731
 10
76.23272838805988
 20
-140.0741373347731
 10
76.23272838805988
 20
-138.9699842317506
 10
76.23272838805988
 20
-138.9699842317506
 10
76.23272838805988
 20
-138.9699842317506
 10
75.90268824057294
 20
-138.9699842317506
 10
75.90268824057294
 20
-138.9699842317506
 10
75.90268824057294
 20
-138.9699842317506
 10
75.90268824057294
 20
-138.8218451258848
 10
75.90268824057294
 20
-138.8218451258848
 10
76.23479544535103
 20
-138.8070312152983
 10
76.2813042344019
 20
-138.6440781988459
 10
76.31093205557505
 20
-138.5297010287356
 10
76.31093205557505
 20
-138.5297010287356
 10
76.45700410414965
 20
-138.5297010287356
 10
76.45700410414965
 20
-138.5297010287356
 10
76.45700410414965
 20
-138.5297010287356
 10
76.45700410414965
 20
-140.0741373347731
 10
76.45700410414965
 20
-140.0741373347731
 10
76.45700410414965
 20
-140.0741373347731
 10
76.23272838805988
 20
-140.0741373347731
 10
76.23272838805988
 20
-140.0741373347731
 97
        0
 97
        0
 75
     2
 76
     1
 98
        0
  0
SPLINE
  5
D5
330
CF
100
AcDbEntity
  8
_U+30EC_U+30A4_U+30E4_U+30FC 1
370
     0
100
AcDbSpline
210
0.0
220
0.0
230
1.0
 70
    11
 71
     3
 72
    29
 73
    25
 74
     0
 42
0.0000000001
 43
0.0000000001
 12
1.0
 22
0.0
 32
0.0
 13
1.0
 23
0.0
 33
0.0
 40
0.0
 40
0.0
 40
0.0
 40
0.0
 40
1.0
 40
1.0
 40
1.0
 40
2.0
 40
2.0
 40
2.0
 40
3.0
 40
3.0
 40
3.0
 40
4.0
 40
4.0
 40
4.0
 40
5.0
 40
5.0
 40
5.0
 40
6.0
 40
6.0
 40
6.0
 40
7.0
 40
7.0
 40
7.0
 40
8.0
 40
8.0
 40
8.0
 40
8.0
 10
77.85588512593534
 20
-139.8963704077343
 30
0.0
 10
77.74805363724701
 20
-140.1058322132374
 30
0.0
 10
77.57459307956469
 20
-140.1247802384063
 30
0.0
 10
77.45814885216325
 20
-140.1247802384063
 30
0.0
 10
77.29743514777634
 20
-140.1247802384063
 30
0.0
 10
77.15566946855832
 20
-140.0782714493554
 30
0.0
 10
77.06041257839115
 20
-139.8963704077343
 30
0.0
 10
76.95688745905939
 20
-139.7017225128176
 30
0.0
 10
76.93776717911625
 20
-139.4646999434324
 30
0.0
 10
76.93776717911625
 20
-139.3020914365287
 30
0.0
 10
76.93776717911625
 20
-139.1580864452452
 30
0.0
 10
76.95464814699397
 20
-138.9062499652734
 30
0.0
 10
77.06041257839115
 20
-138.7074679557745
 30
0.0
 10
77.16841632185373
 20
-138.5045518316933
 30
0.0
 10
77.32913002624063
 20
-138.4811251823936
 30
0.0
 10
77.45814885216325
 20
-138.4811251823936
 30
0.0
 10
77.616795499259
 20
-138.4811251823936
 30
0.0
 10
77.76062823576818
 20
-138.5255669141533
 30
0.0
 10
77.85588512593534
 20
-138.7074679557745
 30
0.0
 10
77.9552761306848
 20
-138.9000487934
 30
0.0
 10
77.97853052521023
 20
-139.1284586240721
 30
0.0
 10
77.97853052521023
 20
-139.3020914365287
 30
0.0
 10
77.97853052521023
 20
-139.4733126821456
 30
0.0
 10
77.9575154427502
 20
-139.7037895701088
 30
0.0
 10
77.85588512593534
 20
-139.8963704077343
 30
0.0
  0
SPLINE
  5
D6
330
CF
100
AcDbEntity
  8
_U+30EC_U+30A4_U+30E4_U+30FC 1
370
     0
100
AcDbSpline
210
0.0
220
0.0
230
1.0
 70
    11
 71
     3
 72
    17
 73
    13
 74
     0
 42
0.0000000001
 43
0.0000000001
 12
1.0
 22
0.0
 32
0.0
 13
1.0
 23
0.0
 33
0.0
 40
0.0
 40
0.0
 40
0.0
 40
0.0
 40
1.0
 40
1.0
 40
1.0
 40
2.0
 40
2.0
 40
2.0
 40
3.0
 40
3.0
 40
3.0
 40
4.0
 40
4.0
 40
4.0
 40
4.0
 10
77.45814885216325
 20
-138.6737060200191
 30
0.0
 10
77.20855168425689
 20
-138.6737060200191
 30
0.0
 10
77.16204289520601
 20
-138.9572373784551
 30
0.0
 10
77.16204289520601
 20
-139.3020914365287
 30
0.0
 10
77.16204289520601
 20
-139.6214517880113
 30
0.0
 10
77.19804414302688
 20
-139.9301323434897
 30
0.0
 10
77.45814885216325
 20
-139.9301323434897
 30
0.0
 10
77.70567896277845
 20
-139.9301323434897
 30
0.0
 10
77.75442706389472
 20
-139.6490125518933
 30
0.0
 10
77.75442706389472
 20
-139.3020914365287
 30
0.0
 10
77.75442706389472
 20
-138.9823865754975
 30
0.0
 10
77.71618650400846
 20
-138.6737060200191
 30
0.0
 10
77.45814885216325
 20
-138.6737060200191
 30
0.0
  0
HATCH
  5
D7
330
CF
100
AcDbEntity
  8
_U+30EC_U+30A4_U+30E4_U+30FC 1
 62
     7
420
 16777215
100
AcDbHatch
 10
0.0
 20
0.0
 30
0.0
210
0.0
220
0.0
230
1.0
  2
SOLID
 70
     1
 71
     0
 91
        2
 92
        1
 93
        1
 72
     4
 94
        3
 73
     0
 74
     1
 95
       29
 96
       25
 40
0.0
 40
0.0
 40
0.0
 40
0.0
 40
1.0
 40
1.0
 40
1.0
 40
2.0
 40
2.0
 40
2.0
 40
3.0
 40
3.0
 40
3.0
 40
4.0
 40
4.0
 40
4.0
 40
5.0
 40
5.0
 40
5.0
 40
6.0
 40
6.0
 40
6.0
 40
7.0
 40
7.0
 40
7.0
 40
8.0
 40
8.0
 40
8.0
 40
8.0
 10
77.85588512593534
 20
-139.8963704077343
 10
77.74805363724701
 20
-140.1058322132374
 10
77.57459307956469
 20
-140.1247802384063
 10
77.45814885216325
 20
-140.1247802384063
 10
77.29743514777634
 20
-140.1247802384063
 10
77.15566946855832
 20
-140.0782714493554
 10
77.06041257839115
 20
-139.8963704077343
 10
76.95688745905939
 20
-139.7017225128176
 10
76.93776717911625
 20
-139.4646999434324
 10
76.93776717911625
 20
-139.3020914365287
 10
76.93776717911625
 20
-139.1580864452452
 10
76.95464814699397
 20
-138.9062499652734
 10
77.06041257839115
 20
-138.7074679557745
 10
77.16841632185373
 20
-138.5045518316933
 10
77.32913002624063
 20
-138.4811251823936
 10
77.45814885216325
 20
-138.4811251823936
 10
77.616795499259
 20
-138.4811251823936
 10
77.76062823576818
 20
-138.5255669141533
 10
77.85588512593534
 20
-138.7074679557745
 10
77.9552761306848
 20
-138.9000487934
 10
77.97853052521023
 20
-139.1284586240721
 10
77.97853052521023
 20
-139.3020914365287
 10
77.97853052521023
 20
-139.4733126821456
 10
77.9575154427502
 20
-139.7037895701088
 10
77.85588512593534
 20
-139.8963704077343
 97
        0
 97
        0
 92
        1
 93
        1
 72
     4
 94
        3
 73
     0
 74
     1
 95
       17
 96
       13
 40
0.0
 40
0.0
 40
0.0
 40
0.0
 40
1.0
 40
1.0
 40
1.0
 40
2.0
 40
2.0
 40
2.0
 40
3.0
 40
3.0
 40
3.0
 40
4.0
 40
4.0
 40
4.0
 40
4.0
 10
77.45814885216325
 20
-138.6737060200191
 10
77.20855168425689
 20
-138.6737060200191
 10
77.16204289520601
 20
-138.9572373784551
 10
77.16204289520601
 20
-139.3020914365287
 10
77.16204289520601
 20
-139.6214517880113
 10
77.19804414302688
 20
-139.9301323434897
 10
77.45814885216325
 20
-139.9301323434897
 10
77.70567896277845
 20
-139.9301323434897
 10
77.75442706389472
 20
-139.6490125518933
 10
77.75442706389472
 20
-139.3020914365287
 10
77.75442706389472
 20
-138.9823865754975
 10
77.71618650400846
 20
-138.6737060200191
 10
77.45814885216325
 20
-138.6737060200191
 97
        0
 97
        0
 75
     2
 76
     1
 98
        0
  0
ENDBLK
  5
D2
330
CF
100
AcDbEntity
  8
0
100
AcDbBlockEnd
  0
BLOCK
  5
E8
330
E6
100
AcDbEntity
  8
0
100
AcDbBlockBegin
  2
block 6
 70
     0
 10
0.0
 20
0.0
 30
0.0
  3
block 6
  1

  0
SPLINE
  5
EA
330
E6
100
AcDbEntity
  8
_U+30EC_U+30A4_U+30E4_U+30FC 1
370
     0
100
AcDbSpline
210
0.0
220
0.0
230
1.0
 70
    11
 71
     3
 72
    62
 73
    58
 74
     0
 42
0.0000000001
 43
0.0000000001
 12
1.0
 22
0.0
 32
0.0
 13
1.0
 23
0.0
 33
0.0
 40
0.0
 40
0.0
 40
0.0
 40
0.0
 40
1.0
 40
1.0
 40
1.0
 40
2.0
 40
2.0
 40
2.0
 40
3.0
 40
3.0
 40
3.0
 40
4.0
 40
4.0
 40
4.0
 40
5.0
 40
5.0
 40
5.0
 40
6.0
 40
6.0
 40
6.0
 40
7.0
 40
7.0
 40
7.0
 40
8.0
 40
8.0
 40
8.0
 40
9.0
 40
9.0
 40
9.0
 40
10.0
 40
10.0
 40
10.0
 40
11.0
 40
11.0
 40
11.0
 40
12.0
 40
12.0
 40
12.0
 40
13.0
 40
13.0
 40
13.0
 40
14.0
 40
14.0
 40
14.0
 40
15.0
 40
15.0
 40
15.0
 40
16.0
 40
16.0
 40
16.0
 40
17.0
 40
17.0
 40
17.0
 40
18.0
 40
18.0
 40
18.0
 40
19.0
 40
19.0
 40
19.0
 40
19.0
 10
107.9613687881138
 20
-134.874110209337
 30
0.0
 10
107.9613687881138
 20
-134.9695393542785
 30
0.0
 10
107.9403537056538
 20
-135.1872693889462
 30
0.0
 10
107.7543185494503
 20
-135.3123263550608
 30
0.0
 10
107.6420084366312
 20
-135.3860513984451
 30
0.0
 10
107.542789686656
 20
-135.390530022576
 30
0.0
 10
107.4580403377188
 20
-135.3946641371583
 30
0.0
 10
107.4580403377188
 20
-135.3946641371583
 30
0.0
 10
107.4580403377188
 20
-135.1745225356508
 30
0.0
 10
107.4580403377188
 20
-135.1745225356508
 30
0.0
 10
107.5321098906517
 20
-135.1724554783597
 30
0.0
 10
107.7667208931972
 20
-135.1621201919039
 30
0.0
 10
107.7667208931972
 20
-134.8785888334679
 30
0.0
 10
107.7667208931972
 20
-134.7411295236064
 30
0.0
 10
107.6971299643952
 20
-134.5885117936098
 30
0.0
 10
107.4687201337231
 20
-134.5885117936098
 30
0.0
 10
107.3522759063217
 20
-134.5885117936098
 30
0.0
 10
107.3037000599796
 20
-134.6267523534961
 30
0.0
 10
107.2720051815153
 20
-134.6584472319604
 30
0.0
 10
107.1979356285825
 20
-134.7325167848933
 30
0.0
 10
107.185188775287
 20
-134.8489610122947
 30
0.0
 10
107.185188775287
 20
-134.9037380305102
 30
0.0
 10
107.185188775287
 20
-134.9230305652276
 30
0.0
 10
107.1872558325782
 20
-134.9588595582742
 30
0.0
 10
107.1913899471605
 20
-134.9864203221562
 30
0.0
 10
107.1913899471605
 20
-134.9864203221562
 30
0.0
 10
106.9967420522439
 20
-134.9864203221562
 30
0.0
 10
106.9967420522439
 20
-134.9864203221562
 30
0.0
 10
107.0032877336658
 20
-134.9481797622699
 30
0.0
 10
107.005354790957
 20
-134.9061495973499
 30
0.0
 10
107.005354790957
 20
-134.8996039159279
 30
0.0
 10
107.005354790957
 20
-134.8341471017081
 30
0.0
 10
106.9839951989484
 20
-134.6353650922092
 30
0.0
 10
106.7473171391118
 20
-134.6353650922092
 30
0.0
 10
106.5695502120729
 20
-134.6353650922092
 30
0.0
 10
106.5144286843089
 20
-134.7662787206487
 30
0.0
 10
106.5144286843089
 20
-134.8765217761767
 30
0.0
 10
106.5144286843089
 20
-135.1407605998954
 30
0.0
 10
106.7473171391118
 20
-135.1493733386085
 30
0.0
 10
106.818975125205
 20
-135.1535074531908
 30
0.0
 10
106.818975125205
 20
-135.1535074531908
 30
0.0
 10
106.818975125205
 20
-135.3567680868205
 30
0.0
 10
106.818975125205
 20
-135.3567680868205
 30
0.0
 10
106.6942626686389
 20
-135.3481553481074
 30
0.0
 10
106.3177137321011
 20
-135.3205945842254
 30
0.0
 10
106.3177137321011
 20
-134.8637749228813
 30
0.0
 10
106.3177137321011
 20
-134.6394992067915
 30
0.0
 10
106.4448377555069
 20
-134.398342522824
 30
0.0
 10
106.7407714576898
 20
-134.398342522824
 30
0.0
 10
106.9271511234418
 20
-134.398342522824
 30
0.0
 10
107.0094889055393
 20
-134.4934271582169
 30
0.0
 10
107.0708116051767
 20
-134.5929904177407
 30
0.0
 10
107.0983723690588
 20
-134.5316677181032
 30
0.0
 10
107.1786430938651
 20
-134.349766676482
 30
0.0
 10
107.4559732804277
 20
-134.349766676482
 30
0.0
 10
107.7942816570792
 20
-134.349766676482
 30
0.0
 10
107.9613687881138
 20
-134.5971245323229
 30
0.0
 10
107.9613687881138
 20
-134.874110209337
 30
0.0
  0
HATCH
  5
EB
330
E6
100
AcDbEntity
  8
_U+30EC_U+30A4_U+30E4_U+30FC 1
 62
     7
420
 16777215
100
AcDbHatch
 10
0.0
 20
0.0
 30
0.0
210
0.0
220
0.0
230
1.0
  2
SOLID
 70
     1
 71
     0
 91
        1
 92
        1
 93
        1
 72
     4
 94
        3
 73
     0
 74
     1
 95
       62
 96
       58
 40
0.0
 40
0.0
 40
0.0
 40
0.0
 40
1.0
 40
1.0
 40
1.0
 40
2.0
 40
2.0
 40
2.0
 40
3.0
 40
3.0
 40
3.0
 40
4.0
 40
4.0
 40
4.0
 40
5.0
 40
5.0
 40
5.0
 40
6.0
 40
6.0
 40
6.0
 40
7.0
 40
7.0
 40
7.0
 40
8.0
 40
8.0
 40
8.0
 40
9.0
 40
9.0
 40
9.0
 40
10.0
 40
10.0
 40
10.0
 40
11.0
 40
11.0
 40
11.0
 40
12.0
 40
12.0
 40
12.0
 40
13.0
 40
13.0
 40
13.0
 40
14.0
 40
14.0
 40
14.0
 40
15.0
 40
15.0
 40
15.0
 40
16.0
 40
16.0
 40
16.0
 40
17.0
 40
17.0
 40
17.0
 40
18.0
 40
18.0
 40
18.0
 40
19.0
 40
19.0
 40
19.0
 40
19.0
 10
107.9613687881138
 20
-134.874110209337
 10
107.9613687881138
 20
-134.9695393542785
 10
107.9403537056538
 20
-135.1872693889462
 10
107.7543185494503
 20
-135.3123263550608
 10
107.6420084366312
 20
-135.3860513984451
 10
107.542789686656
 20
-135.390530022576
 10
107.4580403377188
 20
-135.3946641371583
 10
107.4580403377188
 20
-135.3946641371583
 10
107.4580403377188
 20
-135.1745225356508
 10
107.4580403377188
 20
-135.1745225356508
 10
107.5321098906517
 20
-135.1724554783597
 10
107.7667208931972
 20
-135.1621201919039
 10
107.7667208931972
 20
-134.8785888334679
 10
107.7667208931972
 20
-134.7411295236064
 10
107.6971299643952
 20
-134.5885117936098
 10
107.4687201337231
 20
-134.5885117936098
 10
107.3522759063217
 20
-134.5885117936098
 10
107.3037000599796
 20
-134.6267523534961
 10
107.2720051815153
 20
-134.6584472319604
 10
107.1979356285825
 20
-134.7325167848933
 10
107.185188775287
 20
-134.8489610122947
 10
107.185188775287
 20
-134.9037380305102
 10
107.185188775287
 20
-134.9230305652276
 10
107.1872558325782
 20
-134.9588595582742
 10
107.1913899471605
 20
-134.9864203221562
 10
107.1913899471605
 20
-134.9864203221562
 10
106.9967420522439
 20
-134.9864203221562
 10
106.9967420522439
 20
-134.9864203221562
 10
107.0032877336658
 20
-134.9481797622699
 10
107.005354790957
 20
-134.9061495973499
 10
107.005354790957
 20
-134.8996039159279
 10
107.005354790957
 20
-134.8341471017081
 10
106.9839951989484
 20
-134.6353650922092
 10
106.7473171391118
 20
-134.6353650922092
 10
106.5695502120729
 20
-134.6353650922092
 10
106.5144286843089
 20
-134.7662787206487
 10
106.5144286843089
 20
-134.8765217761767
 10
106.5144286843089
 20
-135.1407605998954
 10
106.7473171391118
 20
-135.1493733386085
 10
106.818975125205
 20
-135.1535074531908
 10
106.818975125205
 20
-135.1535074531908
 10
106.818975125205
 20
-135.3567680868205
 10
106.818975125205
 20
-135.3567680868205
 10
106.6942626686389
 20
-135.3481553481074
 10
106.3177137321011
 20
-135.3205945842254
 10
106.3177137321011
 20
-134.8637749228813
 10
106.3177137321011
 20
-134.6394992067915
 10
106.4448377555069
 20
-134.398342522824
 10
106.7407714576898
 20
-134.398342522824
 10
106.9271511234418
 20
-134.398342522824
 10
107.0094889055393
 20
-134.4934271582169
 10
107.0708116051767
 20
-134.5929904177407
 10
107.0983723690588
 20
-134.5316677181032
 10
107.1786430938651
 20
-134.349766676482
 10
107.4559732804277
 20
-134.349766676482
 10
107.7942816570792
 20
-134.349766676482
 10
107.9613687881138
 20
-134.5971245323229
 10
107.9613687881138
 20
-134.874110209337
 97
        0
 97
        0
 75
     2
 76
     1
 98
        0
  0
ENDBLK
  5
E9
330
E6
100
AcDbEntity
  8
0
100
AcDbBlockEnd
  0
BLOCK
  5
F2
330
F0
100
AcDbEntity
  8
0
100
AcDbBlockBegin
  2
block 7
 70
     0
 10
0.0
 20
0.0
 30
0.0
  3
block 7
  1

  0
SPLINE
  5
F4
330
F0
100
AcDbEntity
  8
_U+30EC_U+30A4_U+30E4_U+30FC 1
370
     0
100
AcDbSpline
210
0.0
220
0.0
230
1.0
 70
    11
 71
     3
 72
    32
 73
    28
 74
     0
 42
0.0000000001
 43
0.0000000001
 12
1.0
 22
0.0
 32
0.0
 13
1.0
 23
0.0
 33
0.0
 40
0.0
 40
0.0
 40
0.0
 40
0.0
 40
1.0
 40
1.0
 40
1.0
 40
2.0
 40
2.0
 40
2.0
 40
3.0
 40
3.0
 40
3.0
 40
4.0
 40
4.0
 40
4.0
 40
5.0
 40
5.0
 40
5.0
 40
6.0
 40
6.0
 40
6.0
 40
7.0
 40
7.0
 40
7.0
 40
8.0
 40
8.0
 40
8.0
 40
9.0
 40
9.0
 40
9.0
 40
9.0
 10
107.9613687881138
 20
-129.4808132271784
 30
0.0
 10
107.9613687881138
 20
-129.6541015300865
 30
0.0
 10
107.8917778593118
 20
-129.8997368381848
 30
0.0
 10
107.5596706545337
 20
-129.9376328885225
 30
0.0
 10
107.5596706545337
 20
-129.9376328885225
 30
0.0
 10
107.5596706545337
 20
-129.724036968437
 30
0.0
 10
107.5596706545337
 20
-129.724036968437
 30
0.0
 10
107.61892629688
 20
-129.7133571724328
 30
0.0
 10
107.7667208931972
 20
-129.6816622939685
 30
0.0
 10
107.7667208931972
 20
-129.4787461698873
 30
0.0
 10
107.7667208931972
 20
-129.1866020727381
 30
0.0
 10
107.4370252552588
 20
-129.1487060224003
 30
0.0
 10
107.2316975643379
 20
-129.1359591691049
 30
0.0
 10
107.3119682891442
 20
-129.2269096899155
 30
0.0
 10
107.3691568741994
 20
-129.2944335614264
 30
0.0
 10
107.3691568741994
 20
-129.4763346030476
 30
0.0
 10
107.3691568741994
 20
-129.6561685873776
 30
0.0
 10
107.2633924428022
 20
-129.9586479709826
 30
0.0
 10
106.8572156850913
 20
-129.9586479709826
 30
0.0
 10
106.5378553336086
 20
-129.9586479709826
 30
0.0
 10
106.3177137321011
 20
-129.7598659614837
 30
0.0
 10
106.3177137321011
 20
-129.4425726672922
 30
0.0
 10
106.3177137321011
 20
-128.9285644208929
 30
0.0
 10
106.8720295956778
 20
-128.9178846248886
 30
0.0
 10
107.0856255157633
 20
-128.9178846248886
 30
0.0
 10
107.3161024037265
 20
-128.9178846248886
 30
0.0
 10
107.9613687881138
 20
-128.937177159606
 30
0.0
 10
107.9613687881138
 20
-129.4808132271784
 30
0.0
  0
SPLINE
  5
F5
330
F0
100
AcDbEntity
  8
_U+30EC_U+30A4_U+30E4_U+30FC 1
370
     0
100
AcDbSpline
210
0.0
220
0.0
230
1.0
 70
    11
 71
     3
 72
    17
 73
    13
 74
     0
 42
0.0000000001
 43
0.0000000001
 12
1.0
 22
0.0
 32
0.0
 13
1.0
 23
0.0
 33
0.0
 40
0.0
 40
0.0
 40
0.0
 40
0.0
 40
1.0
 40
1.0
 40
1.0
 40
2.0
 40
2.0
 40
2.0
 40
3.0
 40
3.0
 40
3.0
 40
4.0
 40
4.0
 40
4.0
 40
4.0
 10
106.5102945697266
 20
-129.440505610001
 30
0.0
 10
106.5102945697266
 20
-129.5590168946936
 30
0.0
 10
106.5674831547817
 20
-129.7347167644413
 30
0.0
 10
106.853081570509
 20
-129.7347167644413
 30
0.0
 10
107.0794243438899
 20
-129.7347167644413
 30
0.0
 10
107.1745089792828
 20
-129.5948458877402
 30
0.0
 10
107.1745089792828
 20
-129.4594536351699
 30
0.0
 10
107.1745089792828
 20
-129.1972818687424
 30
0.0
 10
106.9650471737796
 20
-129.1590413088561
 30
0.0
 10
106.8486029463781
 20
-129.1590413088561
 30
0.0
 10
106.6732475861789
 20
-129.1590413088561
 30
0.0
 10
106.5102945697266
 20
-129.2544704537975
 30
0.0
 10
106.5102945697266
 20
-129.440505610001
 30
0.0
  0
HATCH
  5
F6
330
F0
100
AcDbEntity
  8
_U+30EC_U+30A4_U+30E4_U+30FC 1
 62
     7
420
 16777215
100
AcDbHatch
 10
0.0
 20
0.0
 30
0.0
210
0.0
220
0.0
230
1.0
  2
SOLID
 70
     1
 71
     0
 91
        2
 92
        1
 93
        1
 72
     4
 94
        3
 73
     0
 74
     1
 95
       32
 96
       28
 40
0.0
 40
0.0
 40
0.0
 40
0.0
 40
1.0
 40
1.0
 40
1.0
 40
2.0
 40
2.0
 40
2.0
 40
3.0
 40
3.0
 40
3.0
 40
4.0
 40
4.0
 40
4.0
 40
5.0
 40
5.0
 40
5.0
 40
6.0
 40
6.0
 40
6.0
 40
7.0
 40
7.0
 40
7.0
 40
8.0
 40
8.0
 40
8.0
 40
9.0
 40
9.0
 40
9.0
 40
9.0
 10
107.9613687881138
 20
-129.4808132271784
 10
107.9613687881138
 20
-129.6541015300865
 10
107.8917778593118
 20
-129.8997368381848
 10
107.5596706545337
 20
-129.9376328885225
 10
107.5596706545337
 20
-129.9376328885225
 10
107.5596706545337
 20
-129.724036968437
 10
107.5596706545337
 20
-129.724036968437
 10
107.61892629688
 20
-129.7133571724328
 10
107.7667208931972
 20
-129.6816622939685
 10
107.7667208931972
 20
-129.4787461698873
 10
107.7667208931972
 20
-129.1866020727381
 10
107.4370252552588
 20
-129.1487060224003
 10
107.2316975643379
 20
-129.1359591691049
 10
107.3119682891442
 20
-129.2269096899155
 10
107.3691568741994
 20
-129.2944335614264
 10
107.3691568741994
 20
-129.4763346030476
 10
107.3691568741994
 20
-129.6561685873776
 10
107.2633924428022
 20
-129.9586479709826
 10
106.8572156850913
 20
-129.9586479709826
 10
106.5378553336086
 20
-129.9586479709826
 10
106.3177137321011
 20
-129.7598659614837
 10
106.3177137321011
 20
-129.4425726672922
 10
106.3177137321011
 20
-128.9285644208929
 10
106.8720295956778
 20
-128.9178846248886
 10
107.0856255157633
 20
-128.9178846248886
 10
107.3161024037265
 20
-128.9178846248886
 10
107.9613687881138
 20
-128.937177159606
 10
107.9613687881138
 20
-129.4808132271784
 97
        0
 97
        0
 92
        1
 93
        1
 72
     4
 94
        3
 73
     0
 74
     1
 95
       17
 96
       13
 40
0.0
 40
0.0
 40
0.0
 40
0.0
 40
1.0
 40
1.0
 40
1.0
 40
2.0
 40
2.0
 40
2.0
 40
3.0
 40
3.0
 40
3.0
 40
4.0
 40
4.0
 40
4.0
 40
4.0
 10
106.5102945697266
 20
-129.440505610001
 10
106.5102945697266
 20
-129.5590168946936
 10
106.5674831547817
 20
-129.7347167644413
 10
106.853081570509
 20
-129.7347167644413
 10
107.0794243438899
 20
-129.7347167644413
 10
107.1745089792828
 20
-129.5948458877402
 10
107.1745089792828
 20
-129.4594536351699
 10
107.1745089792828
 20
-129.1972818687424
 10
106.9650471737796
 20
-129.1590413088561
 10
106.8486029463781
 20
-129.1590413088561
 10
106.6732475861789
 20
-129.1590413088561
 10
106.5102945697266
 20
-129.2544704537975
 10
106.5102945697266
 20
-129.440505610001
 97
        0
 97
        0
 75
     2
 76
     1
 98
        0
  0
POLYLINE
  5
F7
330
F0
100
AcDbEntity
  8
_U+30EC_U+30A4_U+30E4_U+30FC 1
370
     0
100
AcDb2dPolyline
 66
     1
 10
0.0
 20
0.0
 30
0.0
  0
VERTEX
  5
F8
330
F7
100
AcDbEntity
  8
_U+30EC_U+30A4_U+30E4_U+30FC 1
370
     0
100
AcDbVertex
100
AcDb2dVertex
 10
107.9107258844807
 20
-128.7015326284149
 30
0.0
  0
VERTEX
  5
F9
330
F7
100
AcDbEntity
  8
_U+30EC_U+30A4_U+30E4_U+30FC 1
370
     0
100
AcDbVertex
100
AcDb2dVertex
 10
107.6588894045089
 20
-128.7015326284149
 30
0.0
  0
VERTEX
  5
FA
330
F7
100
AcDbEntity
  8
_U+30EC_U+30A4_U+30E4_U+30FC 1
370
     0
100
AcDbVertex
100
AcDb2dVertex
 10
107.6588894045089
 20
-128.4496961484431
 30
0.0
  0
VERTEX
  5
FB
330
F7
100
AcDbEntity
  8
_U+30EC_U+30A4_U+30E4_U+30FC 1
370
     0
100
AcDbVertex
100
AcDb2dVertex
 10
107.9107258844807
 20
-128.4496961484431
 30
0.0
  0
VERTEX
  5
FC
330
F7
100
AcDbEntity
  8
_U+30EC_U+30A4_U+30E4_U+30FC 1
370
     0
100
AcDbVertex
100
AcDb2dVertex
 10
107.9107258844807
 20
-128.7015326284149
 30
0.0
  0
SEQEND
  5
FD
330
F7
100
AcDbEntity
  8
_U+30EC_U+30A4_U+30E4_U+30FC 1
370
     0
  0
HATCH
  5
FE
330
F0
100
AcDbEntity
  8
_U+30EC_U+30A4_U+30E4_U+30FC 1
 62
     7
420
 16777215
100
AcDbHatch
 10
0.0
 20
0.0
 30
0.0
210
0.0
220
0.0
230
1.0
  2
SOLID
 70
     1
 71
     0
 91
        1
 92
        1
 93
        4
 72
     1
 10
107.9107258844807
 20
-128.7015326284149
 11
107.6588894045089
 21
-128.7015326284149
 72
     1
 10
107.6588894045089
 20
-128.7015326284149
 11
107.6588894045089
 21
-128.4496961484431
 72
     1
 10
107.6588894045089
 20
-128.4496961484431
 11
107.9107258844807
 21
-128.4496961484431
 72
     1
 10
107.9107258844807
 20
-128.4496961484431
 11
107.9107258844807
 21
-128.7015326284149
 97
        0
 75
     2
 76
     1
 98
        0
  0
SPLINE
  5
FF
330
F0
100
AcDbEntity
  8
_U+30EC_U+30A4_U+30E4_U+30FC 1
370
     0
100
AcDbSpline
210
0.0
220
0.0
230
1.0
 70
    11
 71
     3
 72
    53
 73
    49
 74
     0
 42
0.0000000001
 43
0.0000000001
 12
1.0
 22
0.0
 32
0.0
 13
1.0
 23
0.0
 33
0.0
 40
0.0
 40
0.0
 40
0.0
 40
0.0
 40
1.0
 40
1.0
 40
1.0
 40
2.0
 40
2.0
 40
2.0
 40
3.0
 40
3.0
 40
3.0
 40
4.0
 40
4.0
 40
4.0
 40
5.0
 40
5.0
 40
5.0
 40
6.0
 40
6.0
 40
6.0
 40
7.0
 40
7.0
 40
7.0
 40
8.0
 40
8.0
 40
8.0
 40
9.0
 40
9.0
 40
9.0
 40
10.0
 40
10.0
 40
10.0
 40
11.0
 40
11.0
 40
11.0
 40
12.0
 40
12.0
 40
12.0
 40
13.0
 40
13.0
 40
13.0
 40
14.0
 40
14.0
 40
14.0
 40
15.0
 40
15.0
 40
15.0
 40
16.0
 40
16.0
 40
16.0
 40
16.0
 10
107.9613687881138
 20
-127.7324272684141
 30
0.0
 10
107.9613687881138
 20
-127.8106309359293
 30
0.0
 10
107.9444878202361
 20
-127.9122612527442
 30
0.0
 10
107.8810980633075
 20
-128.013891569559
 30
0.0
 10
107.771199517328
 20
-128.1871798724671
 30
0.0
 10
107.63994137934
 20
-128.2085394644756
 30
0.0
 10
107.5321098906517
 20
-128.2274874896445
 30
0.0
 10
107.5321098906517
 20
-128.2274874896445
 30
0.0
 10
107.5321098906517
 20
-128.0052788308459
 30
0.0
 10
107.5321098906517
 20
-128.0052788308459
 30
0.0
 10
107.7308919001506
 20
-127.9505018126304
 30
0.0
 10
107.7605197213238
 20
-127.8233777892247
 30
0.0
 10
107.7605197213238
 20
-127.730360211123
 30
0.0
 10
107.7605197213238
 20
-127.5908338439704
 30
0.0
 10
107.6609564618
 20
-127.4385606235223
 30
0.0
 10
107.4284125165457
 20
-127.4385606235223
 30
0.0
 10
107.1724419219916
 20
-127.4385606235223
 30
0.0
 10
107.1025064836411
 20
-127.6183946078524
 30
0.0
 10
107.1025064836411
 20
-127.7389729498361
 30
0.0
 10
107.1025064836411
 20
-127.7706678283004
 30
0.0
 10
107.1025064836411
 20
-127.9122612527442
 30
0.0
 10
107.2316975643379
 20
-128.0011447162636
 30
0.0
 10
107.2316975643379
 20
-128.0011447162636
 30
0.0
 10
107.212749539169
 20
-128.1768445860114
 30
0.0
 10
107.212749539169
 20
-128.1768445860114
 30
0.0
 10
107.212749539169
 20
-128.1768445860114
 30
0.0
 10
106.3662895784432
 20
-128.0562662440276
 30
0.0
 10
106.3662895784432
 20
-128.0562662440276
 30
0.0
 10
106.3662895784432
 20
-128.0562662440276
 30
0.0
 10
106.3662895784432
 20
-127.2776746643611
 30
0.0
 10
106.3662895784432
 20
-127.2776746643611
 30
0.0
 10
106.3662895784432
 20
-127.2776746643611
 30
0.0
 10
106.5609374733598
 20
-127.2776746643611
 30
0.0
 10
106.5609374733598
 20
-127.2776746643611
 30
0.0
 10
106.5609374733598
 20
-127.2776746643611
 30
0.0
 10
106.5609374733598
 20
-127.8933132275753
 30
0.0
 10
106.5609374733598
 20
-127.8933132275753
 30
0.0
 10
106.5609374733598
 20
-127.8933132275753
 30
0.0
 10
106.9839951989484
 20
-127.958770041795
 30
0.0
 10
106.9839951989484
 20
-127.958770041795
 30
0.0
 10
106.950233263193
 20
-127.8974473421576
 30
0.0
 10
106.9099256460156
 20
-127.8151095600601
 30
0.0
 10
106.9099256460156
 20
-127.6965982753675
 30
0.0
 10
106.9099256460156
 20
-127.4426947381046
 30
0.0
 10
107.0963053117676
 20
-127.2056721687194
 30
0.0
 10
107.4094644913768
 20
-127.2056721687194
 30
0.0
 10
107.7267577855683
 20
-127.2056721687194
 30
0.0
 10
107.9613687881138
 20
-127.4299478848092
 30
0.0
 10
107.9613687881138
 20
-127.7324272684141
 30
0.0
  0
HATCH
  5
100
330
F0
100
AcDbEntity
  8
_U+30EC_U+30A4_U+30E4_U+30FC 1
 62
     7
420
 16777215
100
AcDbHatch
 10
0.0
 20
0.0
 30
0.0
210
0.0
220
0.0
230
1.0
  2
SOLID
 70
     1
 71
     0
 91
        1
 92
        1
 93
        1
 72
     4
 94
        3
 73
     0
 74
     1
 95
       53
 96
       49
 40
0.0
 40
0.0
 40
0.0
 40
0.0
 40
1.0
 40
1.0
 40
1.0
 40
2.0
 40
2.0
 40
2.0
 40
3.0
 40
3.0
 40
3.0
 40
4.0
 40
4.0
 40
4.0
 40
5.0
 40
5.0
 40
5.0
 40
6.0
 40
6.0
 40
6.0
 40
7.0
 40
7.0
 40
7.0
 40
8.0
 40
8.0
 40
8.0
 40
9.0
 40
9.0
 40
9.0
 40
10.0
 40
10.0
 40
10.0
 40
11.0
 40
11.0
 40
11.0
 40
12.0
 40
12.0
 40
12.0
 40
13.0
 40
13.0
 40
13.0
 40
14.0
 40
14.0
 40
14.0
 40
15.0
 40
15.0
 40
15.0
 40
16.0
 40
16.0
 40
16.0
 40
16.0
 10
107.9613687881138
 20
-127.7324272684141
 10
107.9613687881138
 20
-127.8106309359293
 10
107.9444878202361
 20
-127.9122612527442
 10
107.8810980633075
 20
-128.013891569559
 10
107.771199517328
 20
-128.1871798724671
 10
107.63994137934
 20
-128.2085394644756
 10
107.5321098906517
 20
-128.2274874896445
 10
107.5321098906517
 20
-128.2274874896445
 10
107.5321098906517
 20
-128.0052788308459
 10
107.5321098906517
 20
-128.0052788308459
 10
107.7308919001506
 20
-127.9505018126304
 10
107.7605197213238
 20
-127.8233777892247
 10
107.7605197213238
 20
-127.730360211123
 10
107.7605197213238
 20
-127.5908338439704
 10
107.6609564618
 20
-127.4385606235223
 10
107.4284125165457
 20
-127.4385606235223
 10
107.1724419219916
 20
-127.4385606235223
 10
107.1025064836411
 20
-127.6183946078524
 10
107.1025064836411
 20
-127.7389729498361
 10
107.1025064836411
 20
-127.7706678283004
 10
107.1025064836411
 20
-127.9122612527442
 10
107.2316975643379
 20
-128.0011447162636
 10
107.2316975643379
 20
-128.0011447162636
 10
107.212749539169
 20
-128.1768445860114
 10
107.212749539169
 20
-128.1768445860114
 10
107.212749539169
 20
-128.1768445860114
 10
106.3662895784432
 20
-128.0562662440276
 10
106.3662895784432
 20
-128.0562662440276
 10
106.3662895784432
 20
-128.0562662440276
 10
106.3662895784432
 20
-127.2776746643611
 10
106.3662895784432
 20
-127.2776746643611
 10
106.3662895784432
 20
-127.2776746643611
 10
106.5609374733598
 20
-127.2776746643611
 10
106.5609374733598
 20
-127.2776746643611
 10
106.5609374733598
 20
-127.2776746643611
 10
106.5609374733598
 20
-127.8933132275753
 10
106.5609374733598
 20
-127.8933132275753
 10
106.5609374733598
 20
-127.8933132275753
 10
106.9839951989484
 20
-127.958770041795
 10
106.9839951989484
 20
-127.958770041795
 10
106.950233263193
 20
-127.8974473421576
 10
106.9099256460156
 20
-127.8151095600601
 10
106.9099256460156
 20
-127.6965982753675
 10
106.9099256460156
 20
-127.4426947381046
 10
107.0963053117676
 20
-127.2056721687194
 10
107.4094644913768
 20
-127.2056721687194
 10
107.7267577855683
 20
-127.2056721687194
 10
107.9613687881138
 20
-127.4299478848092
 10
107.9613687881138
 20
-127.7324272684141
 97
        0
 97
        0
 75
     2
 76
     1
 98
        0
  0
ENDBLK
  5
F3
330
F0
100
AcDbEntity
  8
0
100
AcDbBlockEnd
  0
ENDSEC
  0
SECTION
  2
ENTITIES
  0
POLYLINE
  5
41
330
1F
100
AcDbEntity
  8
_U+30EC_U+30A4_U+30E4_U+30FC 1
 62
   253
420
 11711154
370
     9
100
AcDb2dPolyline
 66
     1
 10
0.0
 20
0.0
 30
0.0
  0
VERTEX
  5
42
330
41
100
AcDbEntity
  8
_U+30EC_U+30A4_U+30E4_U+30FC 1
 62
   253
420
 11711154
370
     9
100
AcDbVertex
100
AcDb2dVertex
 10
71.94652122004688
 20
-122.8572599692857
 30
0.0
  0
VERTEX
  5
43
330
41
100
AcDbEntity
  8
_U+30EC_U+30A4_U+30E4_U+30FC 1
 62
   253
420
 11711154
370
     9
100
AcDbVertex
100
AcDb2dVertex
 10
71.94652122004688
 20
-123.7722949690568
 30
0.0
  0
VERTEX
  5
44
330
41
100
AcDbEntity
  8
_U+30EC_U+30A4_U+30E4_U+30FC 1
 62
   253
420
 11711154
370
     9
100
AcDbVertex
100
AcDb2dVertex
 10
81.84151430093792
 20
-123.7722949690568
 30
0.0
  0
VERTEX
  5
45
330
41
100
AcDbEntity
  8
_U+30EC_U+30A4_U+30E4_U+30FC 1
 62
   253
420
 11711154
370
     9
100
AcDbVertex
100
AcDb2dVertex
 10
81.84151430093792
 20
-136.4020216325664
 30
0.0
  0
VERTEX
  5
46
330
41
100
AcDbEntity
  8
_U+30EC_U+30A4_U+30E4_U+30FC 1
 62
   253
420
 11711154
370
     9
100
AcDbVertex
100
AcDb2dVertex
 10
92.0529490404225
 20
-136.4020216325664
 30
0.0
  0
VERTEX
  5
47
330
41
100
AcDbEntity
  8
_U+30EC_U+30A4_U+30E4_U+30FC 1
 62
   253
420
 11711154
370
     9
100
AcDbVertex
100
AcDb2dVertex
 10
92.0529490404225
 20
-133.4371713555298
 30
0.0
  0
VERTEX
  5
48
330
41
100
AcDbEntity
  8
_U+30EC_U+30A4_U+30E4_U+30FC 1
 62
   253
420
 11711154
370
     9
100
AcDbVertex
100
AcDb2dVertex
 10
91.02820017767714
 20
-133.4371713555298
 30
0.0
  0
VERTEX
  5
49
330
41
100
AcDbEntity
  8
_U+30EC_U+30A4_U+30E4_U+30FC 1
 62
   253
420
 11711154
370
     9
100
AcDbVertex
100
AcDb2dVertex
 10
91.02820017767714
 20
-135.4504741328043
 30
0.0
  0
VERTEX
  5
4A
330
41
100
AcDbEntity
  8
_U+30EC_U+30A4_U+30E4_U+30FC 1
 62
   253
420
 11711154
370
     9
100
AcDbVertex
100
AcDb2dVertex
 10
82.86644164595003
 20
-135.4504741328043
 30
0.0
  0
VERTEX
  5
4B
330
41
100
AcDbEntity
  8
_U+30EC_U+30A4_U+30E4_U+30FC 1
 62
   253
420
 11711154
370
     9
100
AcDbVertex
100
AcDb2dVertex
 10
82.86644164595003
 20
-123.8095130246033
 30
0.0
  0
VERTEX
  5
4C
330
41
100
AcDbEntity
  8
_U+30EC_U+30A4_U+30E4_U+30FC 1
 62
   253
420
 11711154
370
     9
100
AcDbVertex
100
AcDb2dVertex
 10
105.0464598200415
 20
-123.8095130246033
 30
0.0
  0
VERTEX
  5
4D
330
41
100
AcDbEntity
  8
_U+30EC_U+30A4_U+30E4_U+30FC 1
 62
   253
420
 11711154
370
     9
100
AcDbVertex
100
AcDb2dVertex
 10
105.0464598200415
 20
-122.8207474692948
 30
0.0
  0
VERTEX
  5
4E
330
41
100
AcDbEntity
  8
_U+30EC_U+30A4_U+30E4_U+30FC 1
 62
   253
420
 11711154
370
     9
100
AcDbVertex
100
AcDb2dVertex
 10
71.94652122004688
 20
-122.8572599692857
 30
0.0
  0
SEQEND
  5
50
330
41
100
AcDbEntity
  8
_U+30EC_U+30A4_U+30E4_U+30FC 1
 62
   253
420
 11711154
370
     9
  0
HATCH
  5
4F
330
1F
100
AcDbEntity
  8
_U+30EC_U+30A4_U+30E4_U+30FC 1
 62
   253
420
 11711154
100
AcDbHatch
 10
0.0
 20
0.0
 30
0.0
210
0.0
220
0.0
230
1.0
  2
SOLID
 70
     1
 71
     0
 91
        1
 92
        1
 93
       12
 72
     1
 10
71.94652122004688
 20
-122.8572599692857
 11
71.94652122004688
 21
-123.7722949690568
 72
     1
 10
71.94652122004688
 20
-123.7722949690568
 11
81.84151430093792
 21
-123.7722949690568
 72
     1
 10
81.84151430093792
 20
-123.7722949690568
 11
81.84151430093792
 21
-136.4020216325664
 72
     1
 10
81.84151430093792
 20
-136.4020216325664
 11
92.0529490404225
 21
-136.4020216325664
 72
     1
 10
92.0529490404225
 20
-136.4020216325664
 11
92.0529490404225
 21
-133.4371713555298
 72
     1
 10
92.0529490404225
 20
-133.4371713555298
 11
91.02820017767714
 21
-133.4371713555298
 72
     1
 10
91.02820017767714
 20
-133.4371713555298
 11
91.02820017767714
 21
-135.4504741328043
 72
     1
 10
91.02820017767714
 20
-135.4504741328043
 11
82.86644164595003
 21
-135.4504741328043
 72
     1
 10
82.86644164595003
 20
-135.4504741328043
 11
82.86644164595003
 21
-123.8095130246033
 72
     1
 10
82.86644164595003
 20
-123.8095130246033
 11
105.0464598200415
 21
-123.8095130246033
 72
     1
 10
105.0464598200415
 20
-123.8095130246033
 11
105.0464598200415
 21
-122.8207474692948
 72
     1
 10
105.0464598200415
 20
-122.8207474692948
 11
71.94652122004688
 21
-122.8572599692857
 97
        0
 75
     2
 76
     1
 98
        0
  0
POLYLINE
  5
51
330
1F
100
AcDbEntity
  8
_U+30EC_U+30A4_U+30E4_U+30FC 1
 62
     7
420
 16777215
370
    25
100
AcDb2dPolyline
 66
     1
 10
0.0
 20
0.0
 30
0.0
  0
VERTEX
  5
52
330
51
100
AcDbEntity
  8
_U+30EC_U+30A4_U+30E4_U+30FC 1
 62
     7
420
 16777215
370
    25
100
AcDbVertex
100
AcDb2dVertex
 10
71.95858621973908
 20
-122.8262508026267
 30
0.0
  0
VERTEX
  5
53
330
51
100
AcDbEntity
  8
_U+30EC_U+30A4_U+30E4_U+30FC 1
 62
     7
420
 16777215
370
    25
100
AcDbVertex
100
AcDb2dVertex
 10
104.9589709333847
 20
-122.8262508026267
 30
0.0
  0
SEQEND
  5
54
330
51
100
AcDbEntity
  8
_U+30EC_U+30A4_U+30E4_U+30FC 1
 62
     7
420
 16777215
370
    25
  0
POLYLINE
  5
55
330
1F
100
AcDbEntity
  8
_U+30EC_U+30A4_U+30E4_U+30FC 1
 62
     7
420
 16777215
370
    25
100
AcDb2dPolyline
 66
     1
 10
0.0
 20
0.0
 30
0.0
  0
VERTEX
  5
56
330
55
100
AcDbEntity
  8
_U+30EC_U+30A4_U+30E4_U+30FC 1
 62
     7
420
 16777215
370
    25
100
AcDbVertex
100
AcDb2dVertex
 10
71.95858621973908
 20
-123.8260230245992
 30
0.0
  0
VERTEX
  5
57
330
55
100
AcDbEntity
  8
_U+30EC_U+30A4_U+30E4_U+30FC 1
 62
     7
420
 16777215
370
    25
100
AcDbVertex
100
AcDb2dVertex
 10
81.95863652017209
 20
-123.8260230245992
 30
0.0
  0
SEQEND
  5
58
330
55
100
AcDbEntity
  8
_U+30EC_U+30A4_U+30E4_U+30FC 1
 62
     7
420
 16777215
370
    25
  0
POLYLINE
  5
59
330
1F
100
AcDbEntity
  8
_U+30EC_U+30A4_U+30E4_U+30FC 1
 62
     7
420
 16777215
370
    25
100
AcDb2dPolyline
 66
     1
 10
0.0
 20
0.0
 30
0.0
  0
VERTEX
  5
5A
330
59
100
AcDbEntity
  8
_U+30EC_U+30A4_U+30E4_U+30FC 1
 62
     7
420
 16777215
370
    25
100
AcDbVertex
100
AcDb2dVertex
 10
105.0099499737473
 20
-123.8260230245992
 30
0.0
  0
VERTEX
  5
5B
330
59
100
AcDbEntity
  8
_U+30EC_U+30A4_U+30E4_U+30FC 1
 62
     7
420
 16777215
370
    25
100
AcDbVertex
100
AcDb2dVertex
 10
105.0099499737473
 20
-122.8262508026267
 30
0.0
  0
SEQEND
  5
5C
330
59
100
AcDbEntity
  8
_U+30EC_U+30A4_U+30E4_U+30FC 1
 62
     7
420
 16777215
370
    25
  0
POLYLINE
  5
5D
330
1F
100
AcDbEntity
  8
_U+30EC_U+30A4_U+30E4_U+30FC 1
 62
     7
420
 16777215
370
    25
100
AcDb2dPolyline
 66
     1
 10
0.0
 20
0.0
 30
0.0
  0
VERTEX
  5
5E
330
5D
100
AcDbEntity
  8
_U+30EC_U+30A4_U+30E4_U+30FC 1
 62
     7
420
 16777215
370
    25
100
AcDbVertex
100
AcDb2dVertex
 10
82.85885483053895
 20
-123.8260230245992
 30
0.0
  0
VERTEX
  5
5F
330
5D
100
AcDbEntity
  8
_U+30EC_U+30A4_U+30E4_U+30FC 1
 62
     7
420
 16777215
370
    25
100
AcDbVertex
100
AcDb2dVertex
 10
105.0099499737473
 20
-123.8260230245992
 30
0.0
  0
SEQEND
  5
60
330
5D
100
AcDbEntity
  8
_U+30EC_U+30A4_U+30E4_U+30FC 1
 62
     7
420
 16777215
370
    25
  0
POLYLINE
  5
61
330
1F
100
AcDbEntity
  8
_U+30EC_U+30A4_U+30E4_U+30FC 1
 62
     7
420
 16777215
370
    25
100
AcDb2dPolyline
 66
     1
 10
0.0
 20
0.0
 30
0.0
  0
VERTEX
  5
62
330
61
100
AcDbEntity
  8
_U+30EC_U+30A4_U+30E4_U+30FC 1
 62
     7
420
 16777215
370
    25
100
AcDbVertex
100
AcDb2dVertex
 10
71.99922621870226
 20
-123.8260230245992
 30
0.0
  0
VERTEX
  5
63
330
61
100
AcDbEntity
  8
_U+30EC_U+30A4_U+30E4_U+30FC 1
 62
     7
420
 16777215
370
    25
100
AcDbVertex
100
AcDb2dVertex
 10
71.99922621870226
 20
-122.8262508026267
 30
0.0
  0
SEQEND
  5
64
330
61
100
AcDbEntity
  8
_U+30EC_U+30A4_U+30E4_U+30FC 1
 62
     7
420
 16777215
370
    25
  0
POLYLINE
  5
65
330
1F
100
AcDbEntity
  8
_U+30EC_U+30A4_U+30E4_U+30FC 1
 62
     7
420
 16777215
370
    25
100
AcDb2dPolyline
 66
     1
 10
0.0
 20
0.0
 30
0.0
  0
VERTEX
  5
66
330
65
100
AcDbEntity
  8
_U+30EC_U+30A4_U+30E4_U+30FC 1
 62
     7
420
 16777215
370
    25
100
AcDbVertex
100
AcDb2dVertex
 10
81.95863652017209
 20
-136.4943435769874
 30
0.0
  0
VERTEX
  5
67
330
65
100
AcDbEntity
  8
_U+30EC_U+30A4_U+30E4_U+30FC 1
 62
     7
420
 16777215
370
    25
100
AcDbVertex
100
AcDb2dVertex
 10
81.95863652017209
 20
-123.8260230245992
 30
0.0
  0
SEQEND
  5
68
330
65
100
AcDbEntity
  8
_U+30EC_U+30A4_U+30E4_U+30FC 1
 62
     7
420
 16777215
370
    25
  0
POLYLINE
  5
69
330
1F
100
AcDbEntity
  8
_U+30EC_U+30A4_U+30E4_U+30FC 1
 62
     7
420
 16777215
370
    25
100
AcDb2dPolyline
 66
     1
 10
0.0
 20
0.0
 30
0.0
  0
VERTEX
  5
6A
330
69
100
AcDbEntity
  8
_U+30EC_U+30A4_U+30E4_U+30FC 1
 62
     7
420
 16777215
370
    25
100
AcDbVertex
100
AcDb2dVertex
 10
81.95863652017209
 20
-136.4943435769874
 30
0.0
  0
VERTEX
  5
6B
330
69
100
AcDbEntity
  8
_U+30EC_U+30A4_U+30E4_U+30FC 1
 62
     7
420
 16777215
370
    25
100
AcDbVertex
100
AcDb2dVertex
 10
91.9585457094976
 20
-136.4943435769874
 30
0.0
  0
SEQEND
  5
6C
330
69
100
AcDbEntity
  8
_U+30EC_U+30A4_U+30E4_U+30FC 1
 62
     7
420
 16777215
370
    25
  0
POLYLINE
  5
6D
330
1F
100
AcDbEntity
  8
_U+30EC_U+30A4_U+30E4_U+30FC 1
 62
     7
420
 16777215
370
    25
100
AcDb2dPolyline
 66
     1
 10
0.0
 20
0.0
 30
0.0
  0
VERTEX
  5
6E
330
6D
100
AcDbEntity
  8
_U+30EC_U+30A4_U+30E4_U+30FC 1
 62
     7
420
 16777215
370
    25
100
AcDbVertex
100
AcDb2dVertex
 10
82.85885483053895
 20
-135.4945713550156
 30
0.0
  0
VERTEX
  5
6F
330
6D
100
AcDbEntity
  8
_U+30EC_U+30A4_U+30E4_U+30FC 1
 62
     7
420
 16777215
370
    25
100
AcDbVertex
100
AcDb2dVertex
 10
91.0488729549275
 20
-135.4945713550156
 30
0.0
  0
SEQEND
  5
70
330
6D
100
AcDbEntity
  8
_U+30EC_U+30A4_U+30E4_U+30FC 1
 62
     7
420
 16777215
370
    25
  0
POLYLINE
  5
71
330
1F
100
AcDbEntity
  8
_U+30EC_U+30A4_U+30E4_U+30FC 1
 62
     7
420
 16777215
370
    25
100
AcDb2dPolyline
 66
     1
 10
0.0
 20
0.0
 30
0.0
  0
VERTEX
  5
72
330
71
100
AcDbEntity
  8
_U+30EC_U+30A4_U+30E4_U+30FC 1
 62
     7
420
 16777215
370
    25
100
AcDbVertex
100
AcDb2dVertex
 10
91.02407497724388
 20
-133.4943566332931
 30
0.0
  0
VERTEX
  5
73
330
71
100
AcDbEntity
  8
_U+30EC_U+30A4_U+30E4_U+30FC 1
 62
     7
420
 16777215
370
    25
100
AcDbVertex
100
AcDb2dVertex
 10
92.02469154114341
 20
-133.4943566332931
 30
0.0
  0
SEQEND
  5
74
330
71
100
AcDbEntity
  8
_U+30EC_U+30A4_U+30E4_U+30FC 1
 62
     7
420
 16777215
370
    25
  0
POLYLINE
  5
75
330
1F
100
AcDbEntity
  8
_U+30EC_U+30A4_U+30E4_U+30FC 1
 62
     7
420
 16777215
370
    25
100
AcDb2dPolyline
 66
     1
 10
0.0
 20
0.0
 30
0.0
  0
VERTEX
  5
76
330
75
100
AcDbEntity
  8
_U+30EC_U+30A4_U+30E4_U+30FC 1
 62
     7
420
 16777215
370
    25
100
AcDbVertex
100
AcDb2dVertex
 10
92.02469154114341
 20
-136.4943435769874
 30
0.0
  0
VERTEX
  5
77
330
75
100
AcDbEntity
  8
_U+30EC_U+30A4_U+30E4_U+30FC 1
 62
     7
420
 16777215
370
    25
100
AcDbVertex
100
AcDb2dVertex
 10
92.02469154114341
 20
-133.4943566332931
 30
0.0
  0
SEQEND
  5
78
330
75
100
AcDbEntity
  8
_U+30EC_U+30A4_U+30E4_U+30FC 1
 62
     7
420
 16777215
370
    25
  0
POLYLINE
  5
79
330
1F
100
AcDbEntity
  8
_U+30EC_U+30A4_U+30E4_U+30FC 1
 62
     7
420
 16777215
370
    25
100
AcDb2dPolyline
 66
     1
 10
0.0
 20
0.0
 30
0.0
  0
VERTEX
  5
7A
330
79
100
AcDbEntity
  8
_U+30EC_U+30A4_U+30E4_U+30FC 1
 62
     7
420
 16777215
370
    25
100
AcDbVertex
100
AcDb2dVertex
 10
91.02407497724388
 20
-135.4945713550156
 30
0.0
  0
VERTEX
  5
7B
330
79
100
AcDbEntity
  8
_U+30EC_U+30A4_U+30E4_U+30FC 1
 62
     7
420
 16777215
370
    25
100
AcDbVertex
100
AcDb2dVertex
 10
91.02407497724388
 20
-133.4943566332931
 30
0.0
  0
SEQEND
  5
7C
330
79
100
AcDbEntity
  8
_U+30EC_U+30A4_U+30E4_U+30FC 1
 62
     7
420
 16777215
370
    25
  0
POLYLINE
  5
7D
330
1F
100
AcDbEntity
  8
_U+30EC_U+30A4_U+30E4_U+30FC 1
 62
     7
420
 16777215
370
    25
100
AcDb2dPolyline
 66
     1
 10
0.0
 20
0.0
 30
0.0
  0
VERTEX
  5
7E
330
7D
100
AcDbEntity
  8
_U+30EC_U+30A4_U+30E4_U+30FC 1
 62
     7
420
 16777215
370
    25
100
AcDbVertex
100
AcDb2dVertex
 10
82.85885483053895
 20
-128.2030427457271
 30
0.0
  0
VERTEX
  5
7F
330
7D
100
AcDbEntity
  8
_U+30EC_U+30A4_U+30E4_U+30FC 1
 62
     7
420
 16777215
370
    25
100
AcDbVertex
100
AcDb2dVertex
 10
82.85885483053895
 20
-123.8260230245992
 30
0.0
  0
SEQEND
  5
80
330
7D
100
AcDbEntity
  8
_U+30EC_U+30A4_U+30E4_U+30FC 1
 62
     7
420
 16777215
370
    25
  0
SPLINE
  5
81
330
1F
100
AcDbEntity
  8
_U+30EC_U+30A4_U+30E4_U+30FC 1
 62
     7
420
 16777215
370
     9
100
AcDbSpline
210
0.0
220
0.0
230
1.0
 70
    11
 71
     3
 72
    17
 73
    13
 74
     0
 42
0.0000000001
 43
0.0000000001
 12
1.0
 22
0.0
 32
0.0
 13
1.0
 23
0.0
 33
0.0
 40
0.0
 40
0.0
 40
0.0
 40
0.0
 40
1.0
 40
1.0
 40
1.0
 40
2.0
 40
2.0
 40
2.0
 40
3.0
 40
3.0
 40
3.0
 40
4.0
 40
4.0
 40
4.0
 40
4.0
 10
72.0267781624438
 20
-118.8258213591824
 30
0.0
 10
72.0267781624438
 20
-118.7707174703072
 30
0.0
 10
71.98201066358591
 20
-118.7259146925408
 30
0.0
 10
71.92687149832597
 20
-118.7259146925408
 30
0.0
 10
71.87176942647642
 20
-118.7259146925408
 30
0.0
 10
71.82696664871003
 20
-118.7707174703072
 30
0.0
 10
71.82696664871003
 20
-118.8258213591824
 30
0.0
 10
71.82696664871003
 20
-118.8816308036129
 30
0.0
 10
71.87176942647642
 20
-118.9264335813796
 30
0.0
 10
71.92687149832597
 20
-118.9264335813796
 30
0.0
 10
71.98201066358591
 20
-118.9264335813796
 30
0.0
 10
72.0267781624438
 20
-118.8816308036129
 30
0.0
 10
72.0267781624438
 20
-118.8258213591824
 30
0.0
  0
SPLINE
  5
82
330
1F
100
AcDbEntity
  8
_U+30EC_U+30A4_U+30E4_U+30FC 1
 62
     7
420
 16777215
370
     9
100
AcDbSpline
210
0.0
220
0.0
230
1.0
 70
    11
 71
     3
 72
    17
 73
    13
 74
     0
 42
0.0000000001
 43
0.0000000001
 12
1.0
 22
0.0
 32
0.0
 13
1.0
 23
0.0
 33
0.0
 40
0.0
 40
0.0
 40
0.0
 40
0.0
 40
1.0
 40
1.0
 40
1.0
 40
2.0
 40
2.0
 40
2.0
 40
3.0
 40
3.0
 40
3.0
 40
4.0
 40
4.0
 40
4.0
 40
4.0
 10
104.9272562119716
 20
-118.8258213591824
 30
0.0
 10
104.9272562119716
 20
-118.7707174703072
 30
0.0
 10
104.8824887131137
 20
-118.7259146925408
 30
0.0
 10
104.8273495478537
 20
-118.7259146925408
 30
0.0
 10
104.7722456603707
 20
-118.7259146925408
 30
0.0
 10
104.7274428837359
 20
-118.7707174703072
 30
0.0
 10
104.7274428837359
 20
-118.8258213591824
 30
0.0
 10
104.7274428837359
 20
-118.8816308036129
 30
0.0
 10
104.7722456603707
 20
-118.9264335813796
 30
0.0
 10
104.8273495478537
 20
-118.9264335813796
 30
0.0
 10
104.8824887131137
 20
-118.9264335813796
 30
0.0
 10
104.9272562119716
 20
-118.8816308036129
 30
0.0
 10
104.9272562119716
 20
-118.8258213591824
 30
0.0
  0
SPLINE
  5
83
330
1F
100
AcDbEntity
  8
_U+30EC_U+30A4_U+30E4_U+30FC 1
 62
     7
420
 16777215
370
     9
100
AcDbSpline
210
0.0
220
0.0
230
1.0
 70
    11
 71
     3
 72
    17
 73
    13
 74
     0
 42
0.0000000001
 43
0.0000000001
 12
1.0
 22
0.0
 32
0.0
 13
1.0
 23
0.0
 33
0.0
 40
0.0
 40
0.0
 40
0.0
 40
0.0
 40
1.0
 40
1.0
 40
1.0
 40
2.0
 40
2.0
 40
2.0
 40
3.0
 40
3.0
 40
3.0
 40
4.0
 40
4.0
 40
4.0
 40
4.0
 10
109.1268286048315
 20
-122.8262508026267
 30
0.0
 10
109.1268286048315
 20
-122.7711469137517
 30
0.0
 10
109.0820638616186
 20
-122.726344135985
 30
0.0
 10
109.0269219407137
 20
-122.726344135985
 30
0.0
 10
108.9718180532306
 20
-122.726344135985
 30
0.0
 10
108.9270152765959
 20
-122.7711469137517
 30
0.0
 10
108.9270152765959
 20
-122.8262508026267
 30
0.0
 10
108.9270152765959
 20
-122.8813899692797
 30
0.0
 10
108.9718180532306
 20
-122.9261574692686
 30
0.0
 10
109.0269219407137
 20
-122.9261574692686
 30
0.0
 10
109.0820638616186
 20
-122.9261574692686
 30
0.0
 10
109.1268286048315
 20
-122.8813899692797
 30
0.0
 10
109.1268286048315
 20
-122.8262508026267
 30
0.0
  0
SPLINE
  5
84
330
1F
100
AcDbEntity
  8
_U+30EC_U+30A4_U+30E4_U+30FC 1
 62
     7
420
 16777215
370
     9
100
AcDbSpline
210
0.0
220
0.0
230
1.0
 70
    11
 71
     3
 72
    17
 73
    13
 74
     0
 42
0.0000000001
 43
0.0000000001
 12
1.0
 22
0.0
 32
0.0
 13
1.0
 23
0.0
 33
0.0
 40
0.0
 40
0.0
 40
0.0
 40
0.0
 40
1.0
 40
1.0
 40
1.0
 40
2.0
 40
2.0
 40
2.0
 40
3.0
 40
3.0
 40
3.0
 40
4.0
 40
4.0
 40
4.0
 40
4.0
 10
109.1268286048315
 20
-123.8260230245992
 30
0.0
 10
109.1268286048315
 20
-123.770919135724
 30
0.0
 10
109.0820638616186
 20
-123.7261163579572
 30
0.0
 10
109.0269219407137
 20
-123.7261163579572
 30
0.0
 10
108.9718180532306
 20
-123.7261163579572
 30
0.0
 10
108.9270152765959
 20
-123.770919135724
 30
0.0
 10
108.9270152765959
 20
-123.8260230245992
 30
0.0
 10
108.9270152765959
 20
-123.881162191252
 30
0.0
 10
108.9718180532306
 20
-123.9259296912408
 30
0.0
 10
109.0269219407137
 20
-123.9259296912408
 30
0.0
 10
109.0820638616186
 20
-123.9259296912408
 30
0.0
 10
109.1268286048315
 20
-123.881162191252
 30
0.0
 10
109.1268286048315
 20
-123.8260230245992
 30
0.0
  0
SPLINE
  5
85
330
1F
100
AcDbEntity
  8
_U+30EC_U+30A4_U+30E4_U+30FC 1
 62
     7
420
 16777215
370
     9
100
AcDbSpline
210
0.0
220
0.0
230
1.0
 70
    11
 71
     3
 72
    17
 73
    13
 74
     0
 42
0.0000000001
 43
0.0000000001
 12
1.0
 22
0.0
 32
0.0
 13
1.0
 23
0.0
 33
0.0
 40
0.0
 40
0.0
 40
0.0
 40
0.0
 40
1.0
 40
1.0
 40
1.0
 40
2.0
 40
2.0
 40
2.0
 40
3.0
 40
3.0
 40
3.0
 40
4.0
 40
4.0
 40
4.0
 40
4.0
 10
82.05889596205871
 20
-140.7200921870425
 30
0.0
 10
82.05889596205871
 20
-140.6649882981669
 30
0.0
 10
82.01413053505195
 20
-140.6201855204002
 30
0.0
 10
81.95863652017209
 20
-140.6201855204002
 30
0.0
 10
81.90353263268902
 20
-140.6201855204002
 30
0.0
 10
81.85872985605425
 20
-140.6649882981669
 30
0.0
 10
81.85872985605425
 20
-140.7200921870425
 30
0.0
 10
81.85872985605425
 20
-140.7752313536949
 30
0.0
 10
81.90353263268902
 20
-140.8199988536841
 30
0.0
 10
81.95863652017209
 20
-140.8199988536841
 30
0.0
 10
82.01413053505195
 20
-140.8199988536841
 30
0.0
 10
82.05889596205871
 20
-140.7752313536949
 30
0.0
 10
82.05889596205871
 20
-140.7200921870425
 30
0.0
  0
SPLINE
  5
86
330
1F
100
AcDbEntity
  8
_U+30EC_U+30A4_U+30E4_U+30FC 1
 62
     7
420
 16777215
370
     9
100
AcDbSpline
210
0.0
220
0.0
230
1.0
 70
    11
 71
     3
 72
    17
 73
    13
 74
     0
 42
0.0000000001
 43
0.0000000001
 12
1.0
 22
0.0
 32
0.0
 13
1.0
 23
0.0
 33
0.0
 40
0.0
 40
0.0
 40
0.0
 40
0.0
 40
1.0
 40
1.0
 40
1.0
 40
2.0
 40
2.0
 40
2.0
 40
3.0
 40
3.0
 40
3.0
 40
4.0
 40
4.0
 40
4.0
 40
4.0
 10
92.2100409808592
 20
-140.7200921870425
 30
0.0
 10
92.2100409808592
 20
-140.6649882981669
 30
0.0
 10
92.16527348200131
 20
-140.6201855204002
 30
0.0
 10
92.11013431674137
 20
-140.6201855204002
 30
0.0
 10
92.0550304292583
 20
-140.6201855204002
 30
0.0
 10
92.01022765262353
 20
-140.6649882981669
 30
0.0
 10
92.01022765262353
 20
-140.7200921870425
 30
0.0
 10
92.01022765262353
 20
-140.7752313536949
 30
0.0
 10
92.0550304292583
 20
-140.8199988536841
 30
0.0
 10
92.11013431674137
 20
-140.8199988536841
 30
0.0
 10
92.16527348200131
 20
-140.8199988536841
 30
0.0
 10
92.2100409808592
 20
-140.7752313536949
 30
0.0
 10
92.2100409808592
 20
-140.7200921870425
 30
0.0
  0
SPLINE
  5
87
330
1F
100
AcDbEntity
  8
_U+30EC_U+30A4_U+30E4_U+30FC 1
 62
     7
420
 16777215
370
     9
100
AcDbSpline
210
0.0
220
0.0
230
1.0
 70
    11
 71
     3
 72
    17
 73
    13
 74
     0
 42
0.0000000001
 43
0.0000000001
 12
1.0
 22
0.0
 32
0.0
 13
1.0
 23
0.0
 33
0.0
 40
0.0
 40
0.0
 40
0.0
 40
0.0
 40
1.0
 40
1.0
 40
1.0
 40
2.0
 40
2.0
 40
2.0
 40
3.0
 40
3.0
 40
3.0
 40
4.0
 40
4.0
 40
4.0
 40
4.0
 10
72.1718051031883
 20
-140.7200921870425
 30
0.0
 10
72.1718051031883
 20
-140.6649882981669
 30
0.0
 10
72.12703760433041
 20
-140.6201855204002
 30
0.0
 10
72.07189843907047
 20
-140.6201855204002
 30
0.0
 10
72.01644177381861
 20
-140.6201855204002
 30
0.0
 10
71.97167427496073
 20
-140.6649882981669
 30
0.0
 10
71.97167427496073
 20
-140.7200921870425
 30
0.0
 10
71.97167427496073
 20
-140.7752313536949
 30
0.0
 10
72.01644177381861
 20
-140.8199988536841
 30
0.0
 10
72.07189843907047
 20
-140.8199988536841
 30
0.0
 10
72.12703760433041
 20
-140.8199988536841
 30
0.0
 10
72.1718051031883
 20
-140.7752313536949
 30
0.0
 10
72.1718051031883
 20
-140.7200921870425
 30
0.0
  0
POLYLINE
  5
88
330
1F
100
AcDbEntity
  8
_U+30EC_U+30A4_U+30E4_U+30FC 1
 62
     7
420
 16777215
370
     9
100
AcDb2dPolyline
 66
     1
 10
0.0
 20
0.0
 30
0.0
  0
VERTEX
  5
89
330
88
100
AcDbEntity
  8
_U+30EC_U+30A4_U+30E4_U+30FC 1
 62
     7
420
 16777215
370
     9
100
AcDbVertex
100
AcDb2dVertex
 10
81.95863652017209
 20
-140.7200921870425
 30
0.0
  0
VERTEX
  5
8A
330
88
100
AcDbEntity
  8
_U+30EC_U+30A4_U+30E4_U+30FC 1
 62
     7
420
 16777215
370
     9
100
AcDbVertex
100
AcDb2dVertex
 10
91.9585457094976
 20
-140.7200921870425
 30
0.0
  0
SEQEND
  5
8B
330
88
100
AcDbEntity
  8
_U+30EC_U+30A4_U+30E4_U+30FC 1
 62
     7
420
 16777215
370
     9
  0
POLYLINE
  5
8C
330
1F
100
AcDbEntity
  8
_U+30EC_U+30A4_U+30E4_U+30FC 1
 62
     7
420
 16777215
370
     9
100
AcDb2dPolyline
 66
     1
 10
0.0
 20
0.0
 30
0.0
  0
VERTEX
  5
8D
330
8C
100
AcDbEntity
  8
_U+30EC_U+30A4_U+30E4_U+30FC 1
 62
     7
420
 16777215
370
     9
100
AcDbVertex
100
AcDb2dVertex
 10
92.11013431674137
 20
-139.2600507985181
 30
0.0
  0
VERTEX
  5
8E
330
8C
100
AcDbEntity
  8
_U+30EC_U+30A4_U+30E4_U+30FC 1
 62
     7
420
 16777215
370
     9
100
AcDbVertex
100
AcDb2dVertex
 10
92.11013431674137
 20
-141.7198644090144
 30
0.0
  0
SEQEND
  5
8F
330
8C
100
AcDbEntity
  8
_U+30EC_U+30A4_U+30E4_U+30FC 1
 62
     7
420
 16777215
370
     9
  0
INSERT
  5
91
330
1F
100
AcDbEntity
  8
_U+30EC_U+30A4_U+30E4_U+30FC 1
100
AcDbBlockReference
  2
block 2
 10
0.0
 20
0.0
 30
0.0
  0
POLYLINE
  5
99
330
1F
100
AcDbEntity
  8
_U+30EC_U+30A4_U+30E4_U+30FC 1
 62
     7
420
 16777215
370
     9
100
AcDb2dPolyline
 66
     1
 10
0.0
 20
0.0
 30
0.0
  0
VERTEX
  5
9A
330
99
100
AcDbEntity
  8
_U+30EC_U+30A4_U+30E4_U+30FC 1
 62
     7
420
 16777215
370
     9
100
AcDbVertex
100
AcDb2dVertex
 10
109.0269219407137
 20
-122.8262508026267
 30
0.0
  0
VERTEX
  5
9B
330
99
100
AcDbEntity
  8
_U+30EC_U+30A4_U+30E4_U+30FC 1
 62
     7
420
 16777215
370
     9
100
AcDbVertex
100
AcDb2dVertex
 10
109.0269219407137
 20
-119.0559383035692
 30
0.0
  0
SEQEND
  5
9C
330
99
100
AcDbEntity
  8
_U+30EC_U+30A4_U+30E4_U+30FC 1
 62
     7
420
 16777215
370
     9
  0
POLYLINE
  5
9D
330
1F
100
AcDbEntity
  8
_U+30EC_U+30A4_U+30E4_U+30FC 1
 62
     7
420
 16777215
370
     9
100
AcDb2dPolyline
 66
     1
 10
0.0
 20
0.0
 30
0.0
  0
VERTEX
  5
9E
330
9D
100
AcDbEntity
  8
_U+30EC_U+30A4_U+30E4_U+30FC 1
 62
     7
420
 16777215
370
     9
100
AcDbVertex
100
AcDb2dVertex
 10
109.0269219407137
 20
-122.8262508026267
 30
0.0
  0
VERTEX
  5
9F
330
9D
100
AcDbEntity
  8
_U+30EC_U+30A4_U+30E4_U+30FC 1
 62
     7
420
 16777215
370
     9
100
AcDbVertex
100
AcDb2dVertex
 10
109.0269219407137
 20
-123.8260230245992
 30
0.0
  0
SEQEND
  5
A0
330
9D
100
AcDbEntity
  8
_U+30EC_U+30A4_U+30E4_U+30FC 1
 62
     7
420
 16777215
370
     9
  0
POLYLINE
  5
A1
330
1F
100
AcDbEntity
  8
_U+30EC_U+30A4_U+30E4_U+30FC 1
 62
     7
420
 16777215
370
     9
100
AcDb2dPolyline
 66
     1
 10
0.0
 20
0.0
 30
0.0
  0
VERTEX
  5
A2
330
A1
100
AcDbEntity
  8
_U+30EC_U+30A4_U+30E4_U+30FC 1
 62
     7
420
 16777215
370
     9
100
AcDbVertex
100
AcDb2dVertex
 10
107.5669158668505
 20
-122.8262508026267
 30
0.0
  0
VERTEX
  5
A3
330
A1
100
AcDbEntity
  8
_U+30EC_U+30A4_U+30E4_U+30FC 1
 62
     7
420
 16777215
370
     9
100
AcDbVertex
100
AcDb2dVertex
 10
110.0266941374296
 20
-122.8262508026267
 30
0.0
  0
SEQEND
  5
A4
330
A1
100
AcDbEntity
  8
_U+30EC_U+30A4_U+30E4_U+30FC 1
 62
     7
420
 16777215
370
     9
  0
POLYLINE
  5
A5
330
1F
100
AcDbEntity
  8
_U+30EC_U+30A4_U+30E4_U+30FC 1
 62
     7
420
 16777215
370
     9
100
AcDb2dPolyline
 66
     1
 10
0.0
 20
0.0
 30
0.0
  0
VERTEX
  5
A6
330
A5
100
AcDbEntity
  8
_U+30EC_U+30A4_U+30E4_U+30FC 1
 62
     7
420
 16777215
370
     9
100
AcDbVertex
100
AcDb2dVertex
 10
107.5669158668505
 20
-123.8260230245992
 30
0.0
  0
VERTEX
  5
A7
330
A5
100
AcDbEntity
  8
_U+30EC_U+30A4_U+30E4_U+30FC 1
 62
     7
420
 16777215
370
     9
100
AcDbVertex
100
AcDb2dVertex
 10
110.0266941374296
 20
-123.8260230245992
 30
0.0
  0
SEQEND
  5
A8
330
A5
100
AcDbEntity
  8
_U+30EC_U+30A4_U+30E4_U+30FC 1
 62
     7
420
 16777215
370
     9
  0
INSERT
  5
AA
330
1F
100
AcDbEntity
  8
_U+30EC_U+30A4_U+30E4_U+30FC 1
100
AcDbBlockReference
  2
block 3
 10
0.0
 20
0.0
 30
0.0
  0
POLYLINE
  5
AF
330
1F
100
AcDbEntity
  8
_U+30EC_U+30A4_U+30E4_U+30FC 1
 62
     7
420
 16777215
370
     9
100
AcDb2dPolyline
 66
     1
 10
0.0
 20
0.0
 30
0.0
  0
VERTEX
  5
B0
330
AF
100
AcDbEntity
  8
_U+30EC_U+30A4_U+30E4_U+30FC 1
 62
     7
420
 16777215
370
     9
100
AcDbVertex
100
AcDb2dVertex
 10
71.92687149832597
 20
-118.8258213591824
 30
0.0
  0
VERTEX
  5
B1
330
AF
100
AcDbEntity
  8
_U+30EC_U+30A4_U+30E4_U+30FC 1
 62
     7
420
 16777215
370
     9
100
AcDbVertex
100
AcDb2dVertex
 10
104.9272562119716
 20
-118.8258213591824
 30
0.0
  0
SEQEND
  5
B2
330
AF
100
AcDbEntity
  8
_U+30EC_U+30A4_U+30E4_U+30FC 1
 62
     7
420
 16777215
370
     9
  0
POLYLINE
  5
B3
330
1F
100
AcDbEntity
  8
_U+30EC_U+30A4_U+30E4_U+30FC 1
 62
     7
420
 16777215
370
     9
100
AcDb2dPolyline
 66
     1
 10
0.0
 20
0.0
 30
0.0
  0
VERTEX
  5
B4
330
B3
100
AcDbEntity
  8
_U+30EC_U+30A4_U+30E4_U+30FC 1
 62
     7
420
 16777215
370
     9
100
AcDbVertex
100
AcDb2dVertex
 10
71.92687149832597
 20
-120.2858627477064
 30
0.0
  0
VERTEX
  5
B5
330
B3
100
AcDbEntity
  8
_U+30EC_U+30A4_U+30E4_U+30FC 1
 62
     7
420
 16777215
370
     9
100
AcDbVertex
100
AcDb2dVertex
 10
71.92687149832597
 20
-117.8260491372102
 30
0.0
  0
SEQEND
  5
B6
330
B3
100
AcDbEntity
  8
_U+30EC_U+30A4_U+30E4_U+30FC 1
 62
     7
420
 16777215
370
     9
  0
POLYLINE
  5
B7
330
1F
100
AcDbEntity
  8
_U+30EC_U+30A4_U+30E4_U+30FC 1
 62
     7
420
 16777215
370
     9
100
AcDb2dPolyline
 66
     1
 10
0.0
 20
0.0
 30
0.0
  0
VERTEX
  5
B8
330
B7
100
AcDbEntity
  8
_U+30EC_U+30A4_U+30E4_U+30FC 1
 62
     7
420
 16777215
370
     9
100
AcDbVertex
100
AcDb2dVertex
 10
104.8273495478537
 20
-120.2858627477064
 30
0.0
  0
VERTEX
  5
B9
330
B7
100
AcDbEntity
  8
_U+30EC_U+30A4_U+30E4_U+30FC 1
 62
     7
420
 16777215
370
     9
100
AcDbVertex
100
AcDb2dVertex
 10
104.8273495478537
 20
-117.8260491372102
 30
0.0
  0
SEQEND
  5
BA
330
B7
100
AcDbEntity
  8
_U+30EC_U+30A4_U+30E4_U+30FC 1
 62
     7
420
 16777215
370
     9
  0
INSERT
  5
BC
330
1F
100
AcDbEntity
  8
_U+30EC_U+30A4_U+30E4_U+30FC 1
100
AcDbBlockReference
  2
block 4
 10
0.0
 20
0.0
 30
0.0
  0
POLYLINE
  5
C3
330
1F
100
AcDbEntity
  8
_U+30EC_U+30A4_U+30E4_U+30FC 1
 62
     7
420
 16777215
370
     9
100
AcDb2dPolyline
 66
     1
 10
0.0
 20
0.0
 30
0.0
  0
VERTEX
  5
C4
330
C3
100
AcDbEntity
  8
_U+30EC_U+30A4_U+30E4_U+30FC 1
 62
     7
420
 16777215
370
     9
100
AcDbVertex
100
AcDb2dVertex
 10
71.95858621973908
 20
-140.7200921870425
 30
0.0
  0
VERTEX
  5
C5
330
C3
100
AcDbEntity
  8
_U+30EC_U+30A4_U+30E4_U+30FC 1
 62
     7
420
 16777215
370
     9
100
AcDbVertex
100
AcDb2dVertex
 10
81.95863652017209
 20
-140.7200921870425
 30
0.0
  0
SEQEND
  5
C6
330
C3
100
AcDbEntity
  8
_U+30EC_U+30A4_U+30E4_U+30FC 1
 62
     7
420
 16777215
370
     9
  0
POLYLINE
  5
C7
330
1F
100
AcDbEntity
  8
_U+30EC_U+30A4_U+30E4_U+30FC 1
 62
     7
420
 16777215
370
     9
100
AcDb2dPolyline
 66
     1
 10
0.0
 20
0.0
 30
0.0
  0
VERTEX
  5
C8
330
C7
100
AcDbEntity
  8
_U+30EC_U+30A4_U+30E4_U+30FC 1
 62
     7
420
 16777215
370
     9
100
AcDbVertex
100
AcDb2dVertex
 10
72.07189843907047
 20
-126.3664463572973
 30
0.0
  0
VERTEX
  5
C9
330
C7
100
AcDbEntity
  8
_U+30EC_U+30A4_U+30E4_U+30FC 1
 62
     7
420
 16777215
370
     9
100
AcDbVertex
100
AcDb2dVertex
 10
72.07189843907047
 20
-141.7198644090144
 30
0.0
  0
SEQEND
  5
CA
330
C7
100
AcDbEntity
  8
_U+30EC_U+30A4_U+30E4_U+30FC 1
 62
     7
420
 16777215
370
     9
  0
POLYLINE
  5
CB
330
1F
100
AcDbEntity
  8
_U+30EC_U+30A4_U+30E4_U+30FC 1
 62
     7
420
 16777215
370
     9
100
AcDb2dPolyline
 66
     1
 10
0.0
 20
0.0
 30
0.0
  0
VERTEX
  5
CC
330
CB
100
AcDbEntity
  8
_U+30EC_U+30A4_U+30E4_U+30FC 1
 62
     7
420
 16777215
370
     9
100
AcDbVertex
100
AcDb2dVertex
 10
81.95863652017209
 20
-139.2600507985181
 30
0.0
  0
VERTEX
  5
CD
330
CB
100
AcDbEntity
  8
_U+30EC_U+30A4_U+30E4_U+30FC 1
 62
     7
420
 16777215
370
     9
100
AcDbVertex
100
AcDb2dVertex
 10
81.95863652017209
 20
-141.7198644090144
 30
0.0
  0
SEQEND
  5
CE
330
CB
100
AcDbEntity
  8
_U+30EC_U+30A4_U+30E4_U+30FC 1
 62
     7
420
 16777215
370
     9
  0
INSERT
  5
D0
330
1F
100
AcDbEntity
  8
_U+30EC_U+30A4_U+30E4_U+30FC 1
100
AcDbBlockReference
  2
block 5
 10
0.0
 20
0.0
 30
0.0
  0
POLYLINE
  5
D8
330
1F
100
AcDbEntity
  8
_U+30EC_U+30A4_U+30E4_U+30FC 1
 62
     7
420
 16777215
370
     9
100
AcDb2dPolyline
 66
     1
 10
0.0
 20
0.0
 30
0.0
  0
VERTEX
  5
D9
330
D8
100
AcDbEntity
  8
_U+30EC_U+30A4_U+30E4_U+30FC 1
 62
     7
420
 16777215
370
     9
100
AcDbVertex
100
AcDb2dVertex
 10
109.0269219407137
 20
-133.3262227444463
 30
0.0
  0
VERTEX
  5
DA
330
D8
100
AcDbEntity
  8
_U+30EC_U+30A4_U+30E4_U+30FC 1
 62
     7
420
 16777215
370
     9
100
AcDbVertex
100
AcDb2dVertex
 10
109.0269219407137
 20
-123.8260230245992
 30
0.0
  0
SEQEND
  5
DB
330
D8
100
AcDbEntity
  8
_U+30EC_U+30A4_U+30E4_U+30FC 1
 62
     7
420
 16777215
370
     9
  0
SPLINE
  5
DC
330
1F
100
AcDbEntity
  8
_U+30EC_U+30A4_U+30E4_U+30FC 1
 62
     7
420
 16777215
370
     9
100
AcDbSpline
210
0.0
220
0.0
230
1.0
 70
    11
 71
     3
 72
    17
 73
    13
 74
     0
 42
0.0000000001
 43
0.0000000001
 12
1.0
 22
0.0
 32
0.0
 13
1.0
 23
0.0
 33
0.0
 40
0.0
 40
0.0
 40
0.0
 40
0.0
 40
1.0
 40
1.0
 40
1.0
 40
2.0
 40
2.0
 40
2.0
 40
3.0
 40
3.0
 40
3.0
 40
4.0
 40
4.0
 40
4.0
 40
4.0
 10
109.1268286048315
 20
-133.3661924666582
 30
0.0
 10
109.1268286048315
 20
-133.3103830222277
 30
0.0
 10
109.0820638616186
 20
-133.2655802444616
 30
0.0
 10
109.0269219407137
 20
-133.2655802444616
 30
0.0
 10
108.9718180532306
 20
-133.2655802444616
 30
0.0
 10
108.9270152765959
 20
-133.3103830222277
 30
0.0
 10
108.9270152765959
 20
-133.3661924666582
 30
0.0
 10
108.9270152765959
 20
-133.4212963555337
 30
0.0
 10
108.9718180532306
 20
-133.4660991333004
 30
0.0
 10
109.0269219407137
 20
-133.4660991333004
 30
0.0
 10
109.0820638616186
 20
-133.4660991333004
 30
0.0
 10
109.1268286048315
 20
-133.4212963555337
 30
0.0
 10
109.1268286048315
 20
-133.3661924666582
 30
0.0
  0
SPLINE
  5
DD
330
1F
100
AcDbEntity
  8
_U+30EC_U+30A4_U+30E4_U+30FC 1
 62
     7
420
 16777215
370
     9
100
AcDbSpline
210
0.0
220
0.0
230
1.0
 70
    11
 71
     3
 72
    17
 73
    13
 74
     0
 42
0.0000000001
 43
0.0000000001
 12
1.0
 22
0.0
 32
0.0
 13
1.0
 23
0.0
 33
0.0
 40
0.0
 40
0.0
 40
0.0
 40
0.0
 40
1.0
 40
1.0
 40
1.0
 40
2.0
 40
2.0
 40
2.0
 40
3.0
 40
3.0
 40
3.0
 40
4.0
 40
4.0
 40
4.0
 40
4.0
 10
109.1268286048315
 20
-136.3661794103531
 30
0.0
 10
109.1268286048315
 20
-136.3103699659227
 30
0.0
 10
109.0820638616186
 20
-136.265567188156
 30
0.0
 10
109.0269219407137
 20
-136.265567188156
 30
0.0
 10
108.9718180532306
 20
-136.265567188156
 30
0.0
 10
108.9270152765959
 20
-136.3103699659227
 30
0.0
 10
108.9270152765959
 20
-136.3661794103531
 30
0.0
 10
108.9270152765959
 20
-136.4213185770056
 30
0.0
 10
108.9718180532306
 20
-136.4660860769948
 30
0.0
 10
109.0269219407137
 20
-136.4660860769948
 30
0.0
 10
109.0820638616186
 20
-136.4660860769948
 30
0.0
 10
109.1268286048315
 20
-136.4213185770056
 30
0.0
 10
109.1268286048315
 20
-136.3661794103531
 30
0.0
  0
POLYLINE
  5
DE
330
1F
100
AcDbEntity
  8
_U+30EC_U+30A4_U+30E4_U+30FC 1
 62
     7
420
 16777215
370
     9
100
AcDb2dPolyline
 66
     1
 10
0.0
 20
0.0
 30
0.0
  0
VERTEX
  5
DF
330
DE
100
AcDbEntity
  8
_U+30EC_U+30A4_U+30E4_U+30FC 1
 62
     7
420
 16777215
370
     9
100
AcDbVertex
100
AcDb2dVertex
 10
109.0269219407137
 20
-136.3661794103531
 30
0.0
  0
VERTEX
  5
E0
330
DE
100
AcDbEntity
  8
_U+30EC_U+30A4_U+30E4_U+30FC 1
 62
     7
420
 16777215
370
     9
100
AcDbVertex
100
AcDb2dVertex
 10
109.0269219407137
 20
-133.3661924666582
 30
0.0
  0
SEQEND
  5
E1
330
DE
100
AcDbEntity
  8
_U+30EC_U+30A4_U+30E4_U+30FC 1
 62
     7
420
 16777215
370
     9
  0
POLYLINE
  5
E2
330
1F
100
AcDbEntity
  8
_U+30EC_U+30A4_U+30E4_U+30FC 1
 62
     7
420
 16777215
370
     9
100
AcDb2dPolyline
 66
     1
 10
0.0
 20
0.0
 30
0.0
  0
VERTEX
  5
E3
330
E2
100
AcDbEntity
  8
_U+30EC_U+30A4_U+30E4_U+30FC 1
 62
     7
420
 16777215
370
     9
100
AcDbVertex
100
AcDb2dVertex
 10
94.58854164301954
 20
-136.3661794103531
 30
0.0
  0
VERTEX
  5
E4
330
E2
100
AcDbEntity
  8
_U+30EC_U+30A4_U+30E4_U+30FC 1
 62
     7
420
 16777215
370
     9
100
AcDbVertex
100
AcDb2dVertex
 10
110.0266941374296
 20
-136.3661794103531
 30
0.0
  0
SEQEND
  5
E5
330
E2
100
AcDbEntity
  8
_U+30EC_U+30A4_U+30E4_U+30FC 1
 62
     7
420
 16777215
370
     9
  0
INSERT
  5
E7
330
1F
100
AcDbEntity
  8
_U+30EC_U+30A4_U+30E4_U+30FC 1
100
AcDbBlockReference
  2
block 6
 10
0.0
 20
0.0
 30
0.0
  0
POLYLINE
  5
EC
330
1F
100
AcDbEntity
  8
_U+30EC_U+30A4_U+30E4_U+30FC 1
 62
     7
420
 16777215
370
     9
100
AcDb2dPolyline
 66
     1
 10
0.0
 20
0.0
 30
0.0
  0
VERTEX
  5
ED
330
EC
100
AcDbEntity
  8
_U+30EC_U+30A4_U+30E4_U+30FC 1
 62
     7
420
 16777215
370
     9
100
AcDbVertex
100
AcDb2dVertex
 10
94.58854164301954
 20
-133.3661924666582
 30
0.0
  0
VERTEX
  5
EE
330
EC
100
AcDbEntity
  8
_U+30EC_U+30A4_U+30E4_U+30FC 1
 62
     7
420
 16777215
370
     9
100
AcDbVertex
100
AcDb2dVertex
 10
110.0266941374296
 20
-133.3661924666582
 30
0.0
  0
SEQEND
  5
EF
330
EC
100
AcDbEntity
  8
_U+30EC_U+30A4_U+30E4_U+30FC 1
 62
     7
420
 16777215
370
     9
  0
INSERT
  5
F1
330
1F
100
AcDbEntity
  8
_U+30EC_U+30A4_U+30E4_U+30FC 1
100
AcDbBlockReference
  2
block 7
 10
0.0
 20
0.0
 30
0.0
  0
POLYLINE
  5
101
330
1F
100
AcDbEntity
  8
_U+30EC_U+30A4_U+30E4_U+30FC 1
 62
     7
420
 16777215
370
    25
100
AcDb2dPolyline
 66
     1
 10
0.0
 20
0.0
 30
0.0
  0
VERTEX
  5
102
330
101
100
AcDbEntity
  8
_U+30EC_U+30A4_U+30E4_U+30FC 1
 62
     7
420
 16777215
370
    25
100
AcDbVertex
100
AcDb2dVertex
 10
82.85885483053895
 20
-135.4945713550156
 30
0.0
  0
VERTEX
  5
103
330
101
100
AcDbEntity
  8
_U+30EC_U+30A4_U+30E4_U+30FC 1
 62
     7
420
 16777215
370
    25
100
AcDbVertex
100
AcDb2dVertex
 10
82.85885483053895
 20
-128.9492383010962
 30
0.0
  0
SEQEND
  5
104
330
101
100
AcDbEntity
  8
_U+30EC_U+30A4_U+30E4_U+30FC 1
 62
     7
420
 16777215
370
    25
  0
POLYLINE
  5
105
330
1F
100
AcDbEntity
  8
_U+30EC_U+30A4_U+30E4_U+30FC 1
 62
   179
420
  2234388
370
    25
100
AcDb2dPolyline
 66
     1
 10
0.0
 20
0.0
 30
0.0
  0
VERTEX
  5
106
330
105
100
AcDbEntity
  8
_U+30EC_U+30A4_U+30E4_U+30FC 1
 62
   179
420
  2234388
370
    25
100
AcDbVertex
100
AcDb2dVertex
 10
82.85885483053895
 20
-128.9492383010962
 30
0.0
  0
VERTEX
  5
107
330
105
100
AcDbEntity
  8
_U+30EC_U+30A4_U+30E4_U+30FC 1
 62
   179
420
  2234388
370
    25
100
AcDbVertex
100
AcDb2dVertex
 10
83.15892760066123
 20
-128.5764933011891
 30
0.0
  0
VERTEX
  5
108
330
105
100
AcDbEntity
  8
_U+30EC_U+30A4_U+30E4_U+30FC 1
 62
   179
420
  2234388
370
    25
100
AcDbVertex
100
AcDb2dVertex
 10
82.85885483053895
 20
-128.2030427457271
 30
0.0
  0
SEQEND
  5
10A
330
105
100
AcDbEntity
  8
_U+30EC_U+30A4_U+30E4_U+30FC 1
 62
   179
420
  2234388
370
    25
  0
HATCH
  5
109
330
1F
100
AcDbEntity
  8
_U+30EC_U+30A4_U+30E4_U+30FC 1
 62
   253
420
 11711154
100
AcDbHatch
 10
0.0
 20
0.0
 30
0.0
210
0.0
220
0.0
230
1.0
  2
SOLID
 70
     1
 71
     0
 91
        1
 92
        1
 93
        3
 72
     1
 10
82.85885483053895
 20
-128.9492383010962
 11
83.15892760066123
 21
-128.5764933011891
 72
     1
 10
83.15892760066123
 20
-128.5764933011891
 11
82.85885483053895
 21
-128.2030427457271
 72
     1
 10
82.85885483053895
 20
-128.2030427457271
 11
82.85885483053895
 21
-128.9492383010962
 97
        0
 75
     2
 76
     1
 98
        0
  0
ENDSEC
  0
SECTION
  2
OBJECTS
  0
DICTIONARY
  5
C
330
0
100
AcDbDictionary
281
     1
  3
ACAD_GROUP
350
D
  3
ACAD_LAYOUT
350
1A
  3
ACAD_MATERIAL
350
3B
  3
ACAD_MLEADERSTYLE
350
10C
  3
ACAD_MLINESTYLE
350
17
  3
ACAD_PLOTSETTINGS
350
19
  3
ACAD_PLOTSTYLENAME
350
E
  3
ACAD_TABLESTYLE
350
10B
  3
ACAD_VISUALSTYLE
350
2A
  0
SUN
  5
3F
330
29
100
AcDbSun
 90
        1
290
     0
 63
     7
421
 16777215
 40
1.0
291
     1
 91
  2455826
 92
 54000000
292
     0
 70
     2
 71
   256
280
     1
  0
DICTIONARY
  5
D
102
{ACAD_REACTORS
330
C
102
}
330
C
100
AcDbDictionary
281
     1
  0
DICTIONARY
  5
1A
102
{ACAD_REACTORS
330
C
102
}
330
C
100
AcDbDictionary
281
     1
  3
Layout1
350
1E
  3
Layout2
350
26
  3
Model
350
22
  0
DICTIONARY
  5
3B
102
{ACAD_REACTORS
330
C
102
}
330
C
100
AcDbDictionary
281
     1
  3
ByBlock
350
3D
  3
ByLayer
350
3C
  3
Global
350
3E
  0
DICTIONARY
  5
10C
102
{ACAD_REACTORS
330
C
102
}
330
C
100
AcDbDictionary
281
     1
  0
DICTIONARY
  5
17
102
{ACAD_REACTORS
330
C
102
}
330
C
100
AcDbDictionary
281
     1
  3
Standard
350
18
  0
DICTIONARY
  5
19
102
{ACAD_REACTORS
330
C
102
}
330
C
100
AcDbDictionary
281
     1
  0
ACDBDICTIONARYWDFLT
  5
E
102
{ACAD_REACTORS
330
C
102
}
330
C
100
AcDbDictionary
281
     1
  3
Normal
350
F
100
AcDbDictionaryWithDefault
340
F
  0
DICTIONARY
  5
10B
102
{ACAD_REACTORS
330
C
102
}
330
C
100
AcDbDictionary
281
     1
  0
DICTIONARY
  5
2A
102
{ACAD_REACTORS
330
C
102
}
330
C
100
AcDbDictionary
281
     1
  3
2dWireframe
350
2F
  3
3D Hidden
350
31
  3
3dWireframe
350
30
  3
Basic
350
32
  3
Brighten
350
36
  3
ColorChange
350
3A
  3
Conceptual
350
34
  3
Dim
350
35
  3
Facepattern
350
39
  3
Flat
350
2B
  3
FlatWithEdges
350
2C
  3
Gouraud
350
2D
  3
GouraudWithEdges
350
2E
  3
Linepattern
350
38
  3
Realistic
350
33
  3
Thicken
350
37
  0
LAYOUT
  5
1E
102
{ACAD_REACTORS
330
1A
102
}
330
1A
100
AcDbPlotSettings
  1

  2
none_device
  4

  6

 40
0.0
 41
0.0
 42
0.0
 43
0.0
 44
0.0
 45
0.0
 46
0.0
 47
0.0
 48
0.0
 49
0.0
140
0.0
141
0.0
142
1.0
143
1.0
 70
   688
 72
     0
 73
     0
 74
     5
  7

 75
    16
 76
     0
 77
     2
 78
   300
147
1.0
148
0.0
149
0.0
100
AcDbLayout
  1
Layout1
 70
     1
 71
     1
 10
0.0
 20
0.0
 11
12.0
 21
9.0
 12
0.0
 22
0.0
 32
0.0
 14
1.000000000000000E+20
 24
1.000000000000000E+20
 34
1.000000000000000E+20
 15
-1.000000000000000E+20
 25
-1.000000000000000E+20
 35
-1.000000000000000E+20
146
0.0
 13
0.0
 23
0.0
 33
0.0
 16
1.0
 26
0.0
 36
0.0
 17
0.0
 27
1.0
 37
0.0
 76
     0
330
1B
  0
LAYOUT
  5
26
102
{ACAD_REACTORS
330
1A
102
}
330
1A
100
AcDbPlotSettings
  1

  2
none_device
  4

  6

 40
0.0
 41
0.0
 42
0.0
 43
0.0
 44
0.0
 45
0.0
 46
0.0
 47
0.0
 48
0.0
 49
0.0
140
0.0
141
0.0
142
1.0
143
1.0
 70
   688
 72
     0
 73
     0
 74
     5
  7

 75
    16
 76
     0
 77
     2
 78
   300
147
1.0
148
0.0
149
0.0
100
AcDbLayout
  1
Layout2
 70
     1
 71
     2
 10
0.0
 20
0.0
 11
0.0
 21
0.0
 12
0.0
 22
0.0
 32
0.0
 14
0.0
 24
0.0
 34
0.0
 15
0.0
 25
0.0
 35
0.0
146
0.0
 13
0.0
 23
0.0
 33
0.0
 16
1.0
 26
0.0
 36
0.0
 17
0.0
 27
1.0
 37
0.0
 76
     0
330
23
  0
LAYOUT
  5
22
102
{ACAD_REACTORS
330
1A
102
}
330
1A
100
AcDbPlotSettings
  1

  2
none_device
  4

  6

 40
0.0
 41
0.0
 42
0.0
 43
0.0
 44
0.0
 45
0.0
 46
0.0
 47
0.0
 48
0.0
 49
0.0
140
0.0
141
0.0
142
1.0
143
1.0
 70
  1712
 72
     0
 73
     0
 74
     0
  7

 75
     0
 76
     0
 77
     2
 78
   300
147
1.0
148
0.0
149
0.0
100
AcDbLayout
  1
Model
 70
     1
 71
     0
 10
0.0
 20
0.0
 11
12.0
 21
9.0
 12
0.0
 22
0.0
 32
0.0
 14
1.000000000000000E+20
 24
1.000000000000000E+20
 34
1.000000000000000E+20
 15
-1.000000000000000E+20
 25
-1.000000000000000E+20
 35
-1.000000000000000E+20
146
0.0
 13
0.0
 23
0.0
 33
0.0
 16
1.0
 26
0.0
 36
0.0
 17
0.0
 27
1.0
 37
0.0
 76
     0
330
1F
331
29
  0
MATERIAL
  5
3D
102
{ACAD_REACTORS
330
3B
102
}
330
3B
100
AcDbMaterial
  1
ByBlock
 72
     1
 94
      127
  0
MATERIAL
  5
3C
102
{ACAD_REACTORS
330
3B
102
}
330
3B
100
AcDbMaterial
  1
ByLayer
 72
     1
 94
      127
  0
MATERIAL
  5
3E
102
{ACAD_REACTORS
330
3B
102
}
330
3B
100
AcDbMaterial
  1
Global
 72
     1
 94
      127
  0
MLINESTYLE
  5
18
102
{ACAD_REACTORS
330
17
102
}
330
17
100
AcDbMlineStyle
  2
Standard
 70
     0
  3

 62
   256
 51
90.0
 52
90.0
 71
     2
 49
0.5
 62
   256
  6
BYLAYER
 49
-0.5
 62
   256
  6
BYLAYER
  0
ACDBPLACEHOLDER
  5
F
102
{ACAD_REACTORS
330
E
102
}
330
E
  0
VISUALSTYLE
  5
2F
102
{ACAD_REACTORS
330
2A
102
}
330
2A
100
AcDbVisualStyle
  2
2dWireframe
 70
     4
177
     2
291
     0
 71
     0
176
     1
 72
     2
176
     1
 73
     0
176
     1
 90
        0
176
     1
 40
-0.6
176
     1
 41
-30.0
176
     1
 62
     5
 63
     7
421
 16777215
176
     1
 74
     1
176
     1
 91
        4
176
     1
 64
     7
176
     1
 65
   257
176
     1
 75
     1
176
     1
175
     1
176
     1
 42
1.0
176
     1
 92
        0
176
     1
 66
   257
176
     1
 43
1.0
176
     1
 76
     1
176
     1
 77
     6
176
     1
 78
     2
176
     1
 67
     7
176
     1
 79
     5
176
     1
170
     0
176
     1
171
     0
176
     1
290
     0
176
     1
 93
        1
176
     1
 44
0.0
176
     1
173
     0
176
     1
  0
VISUALSTYLE
  5
31
102
{ACAD_REACTORS
330
2A
102
}
330
2A
100
AcDbVisualStyle
  2
3D Hidden
 70
     6
177
     2
291
     0
 71
     1
176
     1
 72
     2
176
     1
 73
     2
176
     1
 90
        0
176
     1
 40
-0.6
176
     1
 41
-30.0
176
     1
 62
     5
 63
     7
421
 16777215
176
     1
 74
     2
176
     1
 91
        2
176
     1
 64
     7
176
     1
 65
   257
176
     1
 75
     2
176
     1
175
     1
176
     1
 42
40.0
176
     1
 92
        0
176
     1
 66
   257
176
     1
 43
1.0
176
     1
 76
     1
176
     1
 77
     6
176
     1
 78
     2
176
     1
 67
     7
176
     1
 79
     3
176
     1
170
     0
176
     1
171
     0
176
     1
290
     0
176
     1
 93
        1
176
     1
 44
0.0
176
     1
173
     0
176
     1
  0
VISUALSTYLE
  5
30
102
{ACAD_REACTORS
330
2A
102
}
330
2A
100
AcDbVisualStyle
  2
3dWireframe
 70
     5
177
     2
291
     0
 71
     0
176
     1
 72
     2
176
     1
 73
     0
176
     1
 90
        0
176
     1
 40
-0.6
176
     1
 41
-30.0
176
     1
 62
     5
 63
     7
421
 16777215
176
     1
 74
     1
176
     1
 91
        4
176
     1
 64
     7
176
     1
 65
   257
176
     1
 75
     1
176
     1
175
     1
176
     1
 42
1.0
176
     1
 92
        0
176
     1
 66
   257
176
     1
 43
1.0
176
     1
 76
     1
176
     1
 77
     6
176
     1
 78
     2
176
     1
 67
     7
176
     1
 79
     5
176
     1
170
     0
176
     1
171
     0
176
     1
290
     0
176
     1
 93
        1
176
     1
 44
0.0
176
     1
173
     0
176
     1
  0
VISUALSTYLE
  5
32
102
{ACAD_REACTORS
330
2A
102
}
330
2A
100
AcDbVisualStyle
  2
Basic
 70
     7
177
     2
291
     1
 71
     1
176
     1
 72
     0
176
     1
 73
     1
176
     1
 90
        0
176
     1
 40
-0.6
176
     1
 41
-30.0
176
     1
 62
     5
 63
     7
421
 16777215
176
     1
 74
     0
176
     1
 91
        4
176
     1
 64
     7
176
     1
 65
   257
176
     1
 75
     1
176
     1
175
     1
176
     1
 42
1.0
176
     1
 92
        8
176
     1
 66
     7
176
     1
 43
1.0
176
     1
 76
     1
176
     1
 77
     6
176
     1
 78
     2
176
     1
 67
     7
176
     1
 79
     5
176
     1
170
     0
176
     1
171
     0
176
     1
290
     0
176
     1
 93
        1
176
     1
 44
0.0
176
     1
173
     0
176
     1
  0
VISUALSTYLE
  5
36
102
{ACAD_REACTORS
330
2A
102
}
330
2A
100
AcDbVisualStyle
  2
Brighten
 70
    12
177
     2
291
     1
 71
     2
176
     1
 72
     2
176
     1
 73
     0
176
     1
 90
        0
176
     1
 40
-0.6
176
     1
 41
-30.0
176
     1
 62
     5
 63
     7
421
 16777215
176
     1
 74
     1
176
     1
 91
        4
176
     1
 64
     7
176
     1
 65
   257
176
     1
 75
     1
176
     1
175
     1
176
     1
 42
1.0
176
     1
 92
        8
176
     1
 66
     7
176
     1
 43
1.0
176
     1
 76
     1
176
     1
 77
     6
176
     1
 78
     2
176
     1
 67
     7
176
     1
 79
     5
176
     1
170
     0
176
     1
171
     0
176
     1
290
     0
176
     1
 93
        1
176
     1
 44
50.0
176
     1
173
     0
176
     1
  0
VISUALSTYLE
  5
3A
102
{ACAD_REACTORS
330
2A
102
}
330
2A
100
AcDbVisualStyle
  2
ColorChange
 70
    16
177
     2
291
     1
 71
     2
176
     1
 72
     2
176
     1
 73
     3
176
     1
 90
        0
176
     1
 40
-0.6
176
     1
 41
-30.0
176
     1
 62
     5
 63
     8
421
  8421504
176
     1
 74
     1
176
     1
 91
        4
176
     1
 64
     7
176
     1
 65
   257
176
     1
 75
     1
176
     1
175
     1
176
     1
 42
1.0
176
     1
 92
        8
176
     1
 66
     8
424
  8421504
176
     1
 43
1.0
176
     1
 76
     1
176
     1
 77
     6
176
     1
 78
     2
176
     1
 67
     7
176
     1
 79
     5
176
     1
170
     0
176
     1
171
     0
176
     1
290
     0
176
     1
 93
        1
176
     1
 44
0.0
176
     1
173
     0
176
     1
  0
VISUALSTYLE
  5
34
102
{ACAD_REACTORS
330
2A
102
}
330
2A
100
AcDbVisualStyle
  2
Conceptual
 70
     9
177
     2
291
     0
 71
     3
176
     1
 72
     2
176
     1
 73
     0
176
     1
 90
        0
176
     1
 40
-0.6
176
     1
 41
-30.0
176
     1
 62
     5
 63
     7
421
 16777215
176
     1
 74
     2
176
     1
 91
        2
176
     1
 64
     7
176
     1
 65
   257
176
     1
 75
     1
176
     1
175
     1
176
     1
 42
40.0
176
     1
 92
        8
176
     1
 66
     7
176
     1
 43
1.0
176
     1
 76
     1
176
     1
 77
     6
176
     1
 78
     2
176
     1
 67
     7
176
     1
 79
     3
176
     1
170
     0
176
     1
171
     0
176
     1
290
     0
176
     1
 93
        1
176
     1
 44
0.0
176
     1
173
     0
176
     1
  0
VISUALSTYLE
  5
35
102
{ACAD_REACTORS
330
2A
102
}
330
2A
100
AcDbVisualStyle
  2
Dim
 70
    11
177
     2
291
     1
 71
     2
176
     1
 72
     2
176
     1
 73
     0
176
     1
 90
        0
176
     1
 40
-0.6
176
     1
 41
-30.0
176
     1
 62
     5
 63
     7
421
 16777215
176
     1
 74
     1
176
     1
 91
        4
176
     1
 64
     7
176
     1
 65
   257
176
     1
 75
     1
176
     1
175
     1
176
     1
 42
1.0
176
     1
 92
        8
176
     1
 66
     7
176
     1
 43
1.0
176
     1
 76
     1
176
     1
 77
     6
176
     1
 78
     2
176
     1
 67
     7
176
     1
 79
     5
176
     1
170
     0
176
     1
171
     0
176
     1
290
     0
176
     1
 93
        1
176
     1
 44
-50.0
176
     1
173
     0
176
     1
  0
VISUALSTYLE
  5
39
102
{ACAD_REACTORS
330
2A
102
}
330
2A
100
AcDbVisualStyle
  2
Facepattern
 70
    15
177
     2
291
     1
 71
     2
176
     1
 72
     2
176
     1
 73
     0
176
     1
 90
        0
176
     1
 40
-0.6
176
     1
 41
-30.0
176
     1
 62
     5
 63
     7
421
 16777215
176
     1
 74
     1
176
     1
 91
        4
176
     1
 64
     7
176
     1
 65
   257
176
     1
 75
     1
176
     1
175
     1
176
     1
 42
1.0
176
     1
 92
        8
176
     1
 66
     7
176
     1
 43
1.0
176
     1
 76
     1
176
     1
 77
     6
176
     1
 78
     2
176
     1
 67
     7
176
     1
 79
     5
176
     1
170
     0
176
     1
171
     0
176
     1
290
     0
176
     1
 93
        1
176
     1
 44
0.0
176
     1
173
     0
176
     1
  0
VISUALSTYLE
  5
2B
102
{ACAD_REACTORS
330
2A
102
}
330
2A
100
AcDbVisualStyle
  2
Flat
 70
     0
177
     2
291
     1
 71
     2
176
     1
 72
     1
176
     1
 73
     1
176
     1
 90
        2
176
     1
 40
-0.6
176
     1
 41
30.0
176
     1
 62
     5
 63
     7
421
 16777215
176
     1
 74
     0
176
     1
 91
        4
176
     1
 64
     7
176
     1
 65
   257
176
     1
 75
     1
176
     1
175
     1
176
     1
 42
1.0
176
     1
 92
        8
176
     1
 66
     7
176
     1
 43
1.0
176
     1
 76
     1
176
     1
 77
     6
176
     1
 78
     2
176
     1
 67
     7
176
     1
 79
     5
176
     1
170
     0
176
     1
171
     0
176
     1
290
     0
176
     1
 93
       13
176
     1
 44
0.0
176
     1
173
     0
176
     1
  0
VISUALSTYLE
  5
2C
102
{ACAD_REACTORS
330
2A
102
}
330
2A
100
AcDbVisualStyle
  2
FlatWithEdges
 70
     1
177
     2
291
     1
 71
     2
176
     1
 72
     1
176
     1
 73
     1
176
     1
 90
        2
176
     1
 40
-0.6
176
     1
 41
30.0
176
     1
 62
     5
 63
     7
421
 16777215
176
     1
 74
     1
176
     1
 91
        4
176
     1
 64
     7
176
     1
 65
   257
176
     1
 75
     1
176
     1
175
     1
176
     1
 42
1.0
176
     1
 92
        0
176
     1
 66
   257
176
     1
 43
1.0
176
     1
 76
     1
176
     1
 77
     6
176
     1
 78
     2
176
     1
 67
     7
176
     1
 79
     5
176
     1
170
     0
176
     1
171
     0
176
     1
290
     0
176
     1
 93
       13
176
     1
 44
0.0
176
     1
173
     0
176
     1
  0
VISUALSTYLE
  5
2D
102
{ACAD_REACTORS
330
2A
102
}
330
2A
100
AcDbVisualStyle
  2
Gouraud
 70
     2
177
     2
291
     1
 71
     2
176
     1
 72
     2
176
     1
 73
     1
176
     1
 90
        2
176
     1
 40
-0.6
176
     1
 41
30.0
176
     1
 62
     5
 63
     7
421
 16777215
176
     1
 74
     0
176
     1
 91
        4
176
     1
 64
     7
176
     1
 65
   257
176
     1
 75
     1
176
     1
175
     1
176
     1
 42
1.0
176
     1
 92
        0
176
     1
 66
     7
176
     1
 43
1.0
176
     1
 76
     1
176
     1
 77
     6
176
     1
 78
     2
176
     1
 67
     7
176
     1
 79
     5
176
     1
170
     0
176
     1
171
     0
176
     1
290
     0
176
     1
 93
       13
176
     1
 44
0.0
176
     1
173
     0
176
     1
  0
VISUALSTYLE
  5
2E
102
{ACAD_REACTORS
330
2A
102
}
330
2A
100
AcDbVisualStyle
  2
GouraudWithEdges
 70
     3
177
     2
291
     1
 71
     2
176
     1
 72
     2
176
     1
 73
     1
176
     1
 90
        2
176
     1
 40
-0.6
176
     1
 41
30.0
176
     1
 62
     5
 63
     7
421
 16777215
176
     1
 74
     1
176
     1
 91
        4
176
     1
 64
     7
176
     1
 65
   257
176
     1
 75
     1
176
     1
175
     1
176
     1
 42
1.0
176
     1
 92
        0
176
     1
 66
   257
176
     1
 43
1.0
176
     1
 76
     1
176
     1
 77
     6
176
     1
 78
     2
176
     1
 67
     7
176
     1
 79
     5
176
     1
170
     0
176
     1
171
     0
176
     1
290
     0
176
     1
 93
       13
176
     1
 44
0.0
176
     1
173
     0
176
     1
  0
VISUALSTYLE
  5
38
102
{ACAD_REACTORS
330
2A
102
}
330
2A
100
AcDbVisualStyle
  2
Linepattern
 70
    14
177
     2
291
     1
 71
     2
176
     1
 72
     2
176
     1
 73
     0
176
     1
 90
        0
176
     1
 40
-0.6
176
     1
 41
-30.0
176
     1
 62
     5
 63
     7
421
 16777215
176
     1
 74
     1
176
     1
 91
        4
176
     1
 64
     7
176
     1
 65
   257
176
     1
 75
     7
176
     1
175
     7
176
     1
 42
1.0
176
     1
 92
        8
176
     1
 66
     7
176
     1
 43
1.0
176
     1
 76
     1
176
     1
 77
     6
176
     1
 78
     2
176
     1
 67
     7
176
     1
 79
     5
176
     1
170
     0
176
     1
171
     0
176
     1
290
     0
176
     1
 93
        1
176
     1
 44
0.0
176
     1
173
     0
176
     1
  0
VISUALSTYLE
  5
33
102
{ACAD_REACTORS
330
2A
102
}
330
2A
100
AcDbVisualStyle
  2
Realistic
 70
     8
177
     2
291
     0
 71
     2
176
     1
 72
     2
176
     1
 73
     0
176
     1
 90
        0
176
     1
 40
-0.6
176
     1
 41
-30.0
176
     1
 62
     5
 63
     7
421
 16777215
176
     1
 74
     1
176
     1
 91
        0
176
     1
 64
     7
176
     1
 65
   257
176
     1
 75
     1
176
     1
175
     1
176
     1
 42
1.0
176
     1
 92
        8
176
     1
 66
     8
424
  7895160
176
     1
 43
1.0
176
     1
 76
     1
176
     1
 77
     6
176
     1
 78
     2
176
     1
 67
     7
176
     1
 79
     5
176
     1
170
     0
176
     1
171
     0
176
     1
290
     0
176
     1
 93
       13
176
     1
 44
0.0
176
     1
173
     0
176
     1
  0
VISUALSTYLE
  5
37
102
{ACAD_REACTORS
330
2A
102
}
330
2A
100
AcDbVisualStyle
  2
Thicken
 70
    13
177
     2
291
     1
 71
     2
176
     1
 72
     2
176
     1
 73
     0
176
     1
 90
        0
176
     1
 40
-0.6
176
     1
 41
-30.0
176
     1
 62
     5
 63
     7
421
 16777215
176
     1
 74
     1
176
     1
 91
        4
176
     1
 64
     7
176
     1
 65
   257
176
     1
 75
     1
176
     1
175
     1
176
     1
 42
1.0
176
     1
 92
       12
176
     1
 66
     7
176
     1
 43
1.0
176
     1
 76
     1
176
     1
 77
     6
176
     1
 78
     2
176
     1
 67
     7
176
     1
 79
     5
176
     1
170
     0
176
     1
171
     0
176
     1
290
     0
176
     1
 93
        1
176
     1
 44
0.0
176
     1
173
     0
176
     1
  0
ENDSEC
  0
EOF
