  0
SECTION
  2
HEADER
  9
$ACADVER
  1
AC1024
  9
$ACADMAINTVER
 70
     6
  9
$DWGCODEPAGE
  3
UNDEFINED
  9
$INSBASE
 10
0.0
 20
0.0
 30
0.0
  9
$EXTMIN
 10
1.000000000000000E+20
 20
1.000000000000000E+20
 30
1.000000000000000E+20
  9
$EXTMAX
 10
-1.000000000000000E+20
 20
-1.000000000000000E+20
 30
-1.000000000000000E+20
  9
$LIMMIN
 10
0.0
 20
0.0
  9
$LIMMAX
 10
12.0
 20
9.0
  9
$ORTHOMODE
 70
     0
  9
$REGENMODE
 70
     1
  9
$FILLMODE
 70
     1
  9
$QTEXTMODE
 70
     0
  9
$MIRRTEXT
 70
     1
  9
$LTSCALE
 40
1.0
  9
$ATTMODE
 70
     1
  9
$TEXTSIZE
 40
0.2
  9
$TRACEWID
 40
0.05
  9
$TEXTSTYLE
  7
Standard
  9
$CLAYER
  8
0
  9
$CELTYPE
  6
ByLayer
  9
$CECOLOR
 62
   256
  9
$CELTSCALE
 40
1.0
  9
$DISPSILH
 70
     0
  9
$DIMSCALE
 40
1.0
  9
$DIMASZ
 40
0.18
  9
$DIMEXO
 40
0.0625
  9
$DIMDLI
 40
0.38
  9
$DIMRND
 40
0.0
  9
$DIMDLE
 40
0.0
  9
$DIMEXE
 40
0.18
  9
$DIMTP
 40
0.0
  9
$DIMTM
 40
0.0
  9
$DIMTXT
 40
0.18
  9
$DIMCEN
 40
0.09
  9
$DIMTSZ
 40
0.0
  9
$DIMTOL
 70
     0
  9
$DIMLIM
 70
     0
  9
$DIMTIH
 70
     1
  9
$DIMTOH
 70
     1
  9
$DIMSE1
 70
     0
  9
$DIMSE2
 70
     0
  9
$DIMTAD
 70
     0
  9
$DIMZIN
 70
     0
  9
$DIMBLK
  1

  9
$DIMASO
 70
     1
  9
$DIMSHO
 70
     1
  9
$DIMPOST
  1

  9
$DIMAPOST
  1

  9
$DIMALT
 70
     0
  9
$DIMALTD
 70
     2
  9
$DIMALTF
 40
25.4
  9
$DIMLFAC
 40
1.0
  9
$DIMTOFL
 70
     0
  9
$DIMTVP
 40
0.0
  9
$DIMTIX
 70
     0
  9
$DIMSOXD
 70
     0
  9
$DIMSAH
 70
     0
  9
$DIMBLK1
  1

  9
$DIMBLK2
  1

  9
$DIMSTYLE
  2
Standard
  9
$DIMCLRD
 70
     0
  9
$DIMCLRE
 70
     0
  9
$DIMCLRT
 70
     0
  9
$DIMTFAC
 40
1.0
  9
$DIMGAP
 40
0.09
  9
$DIMJUST
 70
     0
  9
$DIMSD1
 70
     0
  9
$DIMSD2
 70
     0
  9
$DIMTOLJ
 70
     1
  9
$DIMTZIN
 70
     0
  9
$DIMALTZ
 70
     0
  9
$DIMALTTZ
 70
     0
  9
$DIMUPT
 70
     0
  9
$DIMDEC
 70
     4
  9
$DIMTDEC
 70
     4
  9
$DIMALTU
 70
     2
  9
$DIMALTTD
 70
     2
  9
$DIMTXSTY
  7
Standard
  9
$DIMAUNIT
 70
     0
  9
$DIMADEC
 70
     0
  9
$DIMALTRND
 40
0.0
  9
$DIMAZIN
 70
     0
  9
$DIMDSEP
 70
    46
  9
$DIMATFIT
 70
     3
  9
$DIMFRAC
 70
     0
  9
$DIMLDRBLK
  1

  9
$DIMLUNIT
 70
     2
  9
$DIMLWD
 70
    -2
  9
$DIMLWE
 70
    -2
  9
$DIMTMOVE
 70
     0
  9
$DIMFXL
 40
1.0
  9
$DIMFXLON
 70
     0
  9
$DIMJOGANG
 40
0.7853981633974483
  9
$DIMTFILL
 70
     0
  9
$DIMTFILLCLR
 70
     0
  9
$DIMARCSYM
 70
     0
  9
$DIMLTYPE
  6

  9
$DIMLTEX1
  6

  9
$DIMLTEX2
  6

  9
$DIMTXTDIRECTION
 70
     0
  9
$LUNITS
 70
     2
  9
$LUPREC
 70
     4
  9
$SKETCHINC
 40
0.1
  9
$FILLETRAD
 40
0.5
  9
$AUNITS
 70
     0
  9
$AUPREC
 70
     0
  9
$MENU
  1
.
  9
$ELEVATION
 40
0.0
  9
$PELEVATION
 40
0.0
  9
$THICKNESS
 40
0.0
  9
$LIMCHECK
 70
     0
  9
$CHAMFERA
 40
0.5
  9
$CHAMFERB
 40
0.5
  9
$CHAMFERC
 40
1.0
  9
$CHAMFERD
 40
0.0
  9
$SKPOLY
 70
     0
  9
$TDCREATE
 40
2457917.616898148
  9
$TDUCREATE
 40
2457917.241898148
  9
$TDUPDATE
 40
2457917.616898148
  9
$TDUUPDATE
 40
2457917.241898148
  9
$TDINDWG
 40
0.0000000116
  9
$TDUSRTIMER
 40
0.0000000116
  9
$USRTIMER
 70
     1
  9
$ANGBASE
 50
0.0
  9
$ANGDIR
 70
     0
  9
$PDMODE
 70
     0
  9
$PDSIZE
 40
0.0
  9
$PLINEWID
 40
0.0
  9
$SPLFRAME
 70
     0
  9
$SPLINETYPE
 70
     6
  9
$SPLINESEGS
 70
     8
  9
$HANDSEED
  5
E6
  9
$SURFTAB1
 70
     6
  9
$SURFTAB2
 70
     6
  9
$SURFTYPE
 70
     6
  9
$SURFU
 70
     6
  9
$SURFV
 70
     6
  9
$UCSBASE
  2

  9
$UCSNAME
  2

  9
$UCSORG
 10
0.0
 20
0.0
 30
0.0
  9
$UCSXDIR
 10
1.0
 20
0.0
 30
0.0
  9
$UCSYDIR
 10
0.0
 20
1.0
 30
0.0
  9
$UCSORTHOREF
  2

  9
$UCSORTHOVIEW
 70
     0
  9
$UCSORGTOP
 10
0.0
 20
0.0
 30
0.0
  9
$UCSORGBOTTOM
 10
0.0
 20
0.0
 30
0.0
  9
$UCSORGLEFT
 10
0.0
 20
0.0
 30
0.0
  9
$UCSORGRIGHT
 10
0.0
 20
0.0
 30
0.0
  9
$UCSORGFRONT
 10
0.0
 20
0.0
 30
0.0
  9
$UCSORGBACK
 10
0.0
 20
0.0
 30
0.0
  9
$PUCSBASE
  2

  9
$PUCSNAME
  2

  9
$PUCSORG
 10
0.0
 20
0.0
 30
0.0
  9
$PUCSXDIR
 10
1.0
 20
0.0
 30
0.0
  9
$PUCSYDIR
 10
0.0
 20
1.0
 30
0.0
  9
$PUCSORTHOREF
  2

  9
$PUCSORTHOVIEW
 70
     0
  9
$PUCSORGTOP
 10
0.0
 20
0.0
 30
0.0
  9
$PUCSORGBOTTOM
 10
0.0
 20
0.0
 30
0.0
  9
$PUCSORGLEFT
 10
0.0
 20
0.0
 30
0.0
  9
$PUCSORGRIGHT
 10
0.0
 20
0.0
 30
0.0
  9
$PUCSORGFRONT
 10
0.0
 20
0.0
 30
0.0
  9
$PUCSORGBACK
 10
0.0
 20
0.0
 30
0.0
  9
$USERI1
 70
     0
  9
$USERI2
 70
     0
  9
$USERI3
 70
     0
  9
$USERI4
 70
     0
  9
$USERI5
 70
     0
  9
$USERR1
 40
0.0
  9
$USERR2
 40
0.0
  9
$USERR3
 40
0.0
  9
$USERR4
 40
0.0
  9
$USERR5
 40
0.0
  9
$WORLDVIEW
 70
     1
  9
$SHADEDGE
 70
     3
  9
$SHADEDIF
 70
    70
  9
$TILEMODE
 70
     1
  9
$MAXACTVP
 70
    64
  9
$PINSBASE
 10
0.0
 20
0.0
 30
0.0
  9
$PLIMCHECK
 70
     0
  9
$PEXTMIN
 10
1.000000000000000E+20
 20
1.000000000000000E+20
 30
1.000000000000000E+20
  9
$PEXTMAX
 10
-1.000000000000000E+20
 20
-1.000000000000000E+20
 30
-1.000000000000000E+20
  9
$PLIMMIN
 10
0.0
 20
0.0
  9
$PLIMMAX
 10
12.0
 20
9.0
  9
$UNITMODE
 70
     0
  9
$VISRETAIN
 70
     1
  9
$PLINEGEN
 70
     0
  9
$PSLTSCALE
 70
     1
  9
$TREEDEPTH
 70
  3020
  9
$CMLSTYLE
  2
Standard
  9
$CMLJUST
 70
     0
  9
$CMLSCALE
 40
1.0
  9
$PROXYGRAPHICS
 70
     1
  9
$MEASUREMENT
 70
     0
  9
$CELWEIGHT
370
    -1
  9
$ENDCAPS
280
     0
  9
$JOINSTYLE
280
     0
  9
$LWDISPLAY
290
     1
  9
$INSUNITS
 70
     1
  9
$HYPERLINKBASE
  1

  9
$STYLESHEET
  1

  9
$XEDIT
290
     1
  9
$CEPSNTYPE
380
     0
  9
$PSTYLEMODE
290
     1
  9
$FINGERPRINTGUID
  2
{F5E1CDF9-6482-F916-DB36-A14C2068EC0B}
  9
$VERSIONGUID
  2
{FAEB1C32-E019-11D5-929B-00C0DF256EC4}
  9
$EXTNAMES
290
     1
  9
$PSVPSCALE
 40
0.0
  9
$OLESTARTUP
290
     0
  9
$SORTENTS
280
   127
  9
$INDEXCTL
280
     0
  9
$HIDETEXT
280
     1
  9
$XCLIPFRAME
280
     2
  9
$HALOGAP
280
     0
  9
$OBSCOLOR
 70
   257
  9
$OBSLTYPE
280
     0
  9
$INTERSECTIONDISPLAY
280
     0
  9
$INTERSECTIONCOLOR
 70
   257
  9
$DIMASSOC
280
     2
  9
$PROJECTNAME
  1

  9
$CAMERADISPLAY
290
     0
  9
$LENSLENGTH
 40
50.0
  9
$CAMERAHEIGHT
 40
0.0
  9
$STEPSPERSEC
 40
2.0
  9
$STEPSIZE
 40
6.0
  9
$3DDWFPREC
 40
2.0
  9
$PSOLWIDTH
 40
0.25
  9
$PSOLHEIGHT
 40
4.0
  9
$LOFTANG1
 40
1.570796326794897
  9
$LOFTANG2
 40
1.570796326794897
  9
$LOFTMAG1
 40
0.0
  9
$LOFTMAG2
 40
0.0
  9
$LOFTPARAM
 70
     7
  9
$LOFTNORMALS
280
     1
  9
$LATITUDE
 40
37.795
  9
$LONGITUDE
 40
-122.394
  9
$NORTHDIRECTION
 40
0.0
  9
$TIMEZONE
 70
 -8000
  9
$LIGHTGLYPHDISPLAY
280
     1
  9
$TILEMODELIGHTSYNCH
280
     1
  9
$CMATERIAL
347
3C
  9
$SOLIDHIST
280
     1
  9
$SHOWHIST
280
     1
  9
$DWFFRAME
280
     2
  9
$DGNFRAME
280
     2
  9
$REALWORLDSCALE
290
     1
  9
$INTERFERECOLOR
 62
   256
  9
$CSHADOW
280
     0
  9
$SHADOWPLANELOCATION
 40
0.0
  0
ENDSEC
  0
SECTION
  2
CLASSES
  0
CLASS
  1
ACDBDICTIONARYWDFLT
  2
AcDbDictionaryWithDefault
  3
ObjectDBX Classes
 90
        0
 91
        4
280
     0
281
     0
  0
CLASS
  1
VISUALSTYLE
  2
AcDbVisualStyle
  3
ObjectDBX Classes
 90
     4095
 91
        4
280
     0
281
     0
  0
CLASS
  1
MATERIAL
  2
AcDbMaterial
  3
ObjectDBX Classes
 90
     1153
 91
        4
280
     0
281
     0
  0
CLASS
  1
SUN
  2
AcDbSun
  3
SCENEOE
 90
     1024
 91
        4
280
     0
281
     0
  0
ENDSEC
  0
SECTION
  2
TABLES
  0
TABLE
  2
VPORT
  5
8
330
0
100
AcDbSymbolTable
 70
     1
  0
VPORT
  5
29
330
8
100
AcDbSymbolTableRecord
100
AcDbViewportTableRecord
  2
*Active
 70
     0
 10
0.0
 20
0.0
 11
1.0
 21
1.0
 12
0.0
 22
0.0
 13
0.0
 23
0.0
 14
0.5
 24
0.5
 15
0.5
 25
0.5
 16
0.0
 26
0.0
 36
1.0
 17
91.00082462281999
 27
-128.4993055234307
 37
0.0
 40
256.9986110468615
 41
0.7081814508812795
 42
50.0
 43
0.0
 44
0.0
 50
0.0
 51
0.0
 71
     0
 72
   100
 73
     1
 74
     3
 75
     0
 76
     0
 77
     0
 78
     0
281
     0
 65
     1
110
0.0
120
0.0
130
0.0
111
1.0
121
0.0
131
0.0
112
0.0
122
1.0
132
0.0
 79
     0
146
0.0
 60
     3
 61
     5
292
     1
282
     1
141
0.0
142
0.0
 63
   250
361
3F
  0
ENDTAB
  0
TABLE
  2
LTYPE
  5
5
330
0
100
AcDbSymbolTable
 70
     1
  0
LTYPE
  5
14
330
5
100
AcDbSymbolTableRecord
100
AcDbLinetypeTableRecord
  2
ByBlock
 70
     0
  3

 72
    65
 73
     0
 40
0.0
  0
LTYPE
  5
15
330
5
100
AcDbSymbolTableRecord
100
AcDbLinetypeTableRecord
  2
ByLayer
 70
     0
  3

 72
    65
 73
     0
 40
0.0
  0
LTYPE
  5
16
330
5
100
AcDbSymbolTableRecord
100
AcDbLinetypeTableRecord
  2
Continuous
 70
     0
  3
Solid line
 72
    65
 73
     0
 40
0.0
  0
ENDTAB
  0
TABLE
  2
LAYER
  5
2
330
0
100
AcDbSymbolTable
 70
     2
  0
LAYER
  5
10
330
2
100
AcDbSymbolTableRecord
100
AcDbLayerTableRecord
  2
0
 70
     0
 62
     7
  6
Continuous
370
    -3
390
F
347
3E
  0
LAYER
  5
40
330
2
100
AcDbSymbolTableRecord
100
AcDbLayerTableRecord
  2
_U+30EC_U+30A4_U+30E4_U+30FC 1
 70
     0
 62
     7
  6
Continuous
370
    -3
390
F
347
3E
  0
ENDTAB
  0
TABLE
  2
STYLE
  5
3
330
0
100
AcDbSymbolTable
 70
     1
  0
STYLE
  5
11
330
3
100
AcDbSymbolTableRecord
100
AcDbTextStyleTableRecord
  2
Standard
 70
     0
 40
0.0
 41
1.0
 50
0.0
 71
     0
 42
0.2
  3
txt
  4

  0
ENDTAB
  0
TABLE
  2
VIEW
  5
6
330
0
100
AcDbSymbolTable
 70
     0
  0
ENDTAB
  0
TABLE
  2
UCS
  5
7
330
0
100
AcDbSymbolTable
 70
     0
  0
ENDTAB
  0
TABLE
  2
APPID
  5
9
330
0
100
AcDbSymbolTable
 70
     1
  0
APPID
  5
12
330
9
100
AcDbSymbolTableRecord
100
AcDbRegAppTableRecord
  2
ACAD
 70
     0
  0
ENDTAB
  0
TABLE
  2
DIMSTYLE
  5
A
330
0
100
AcDbSymbolTable
 70
     1
100
AcDbDimStyleTable
  0
DIMSTYLE
105
27
330
A
100
AcDbSymbolTableRecord
100
AcDbDimStyleTableRecord
  2
Standard
 70
     0
178
     0
340
11
  0
ENDTAB
  0
TABLE
  2
BLOCK_RECORD
  5
1
330
0
100
AcDbSymbolTable
 70
     7
  0
BLOCK_RECORD
  5
1F
330
1
100
AcDbSymbolTableRecord
100
AcDbBlockTableRecord
  2
*Model_Space
340
22
 70
     0
280
     1
281
     0
  0
BLOCK_RECORD
  5
1B
330
1
100
AcDbSymbolTableRecord
100
AcDbBlockTableRecord
  2
*Paper_Space
340
1E
 70
     0
280
     1
281
     0
  0
BLOCK_RECORD
  5
23
330
1
100
AcDbSymbolTableRecord
100
AcDbBlockTableRecord
  2
*Paper_Space0
340
26
 70
     0
280
     1
281
     0
  0
BLOCK_RECORD
  5
41
330
1
100
AcDbSymbolTableRecord
100
AcDbBlockTableRecord
  2
block 2
340
0
102
{BLKREFS
331
42
102
}
 70
     0
280
     1
281
     0
  0
BLOCK_RECORD
  5
8F
330
1
100
AcDbSymbolTableRecord
100
AcDbBlockTableRecord
  2
block 3
340
0
102
{BLKREFS
331
90
102
}
 70
     0
280
     1
281
     0
  0
BLOCK_RECORD
  5
A4
330
1
100
AcDbSymbolTableRecord
100
AcDbBlockTableRecord
  2
block 4
340
0
102
{BLKREFS
331
A5
102
}
 70
     0
280
     1
281
     0
  0
BLOCK_RECORD
  5
BD
330
1
100
AcDbSymbolTableRecord
100
AcDbBlockTableRecord
  2
block 5
340
0
102
{BLKREFS
331
BE
102
}
 70
     0
280
     1
281
     0
  0
BLOCK_RECORD
  5
CB
330
1
100
AcDbSymbolTableRecord
100
AcDbBlockTableRecord
  2
block 6
340
0
102
{BLKREFS
331
CC
102
}
 70
     0
280
     1
281
     0
  0
BLOCK_RECORD
  5
DC
330
1
100
AcDbSymbolTableRecord
100
AcDbBlockTableRecord
  2
block 7
340
0
102
{BLKREFS
331
DD
102
}
 70
     0
280
     1
281
     0
  0
ENDTAB
  0
ENDSEC
  0
SECTION
  2
BLOCKS
  0
BLOCK
  5
20
330
1F
100
AcDbEntity
  8
0
100
AcDbBlockBegin
  2
*Model_Space
 70
     0
 10
0.0
 20
0.0
 30
0.0
  3
*Model_Space
  1

  0
ENDBLK
  5
21
330
1F
100
AcDbEntity
  8
0
100
AcDbBlockEnd
  0
BLOCK
  5
1C
330
1B
100
AcDbEntity
 67
     1
  8
0
100
AcDbBlockBegin
  2
*Paper_Space
 70
     0
 10
0.0
 20
0.0
 30
0.0
  3
*Paper_Space
  1

  0
ENDBLK
  5
1D
330
1B
100
AcDbEntity
 67
     1
  8
0
100
AcDbBlockEnd
  0
BLOCK
  5
24
330
23
100
AcDbEntity
  8
0
100
AcDbBlockBegin
  2
*Paper_Space0
 70
     0
 10
0.0
 20
0.0
 30
0.0
  3
*Paper_Space0
  1

  0
ENDBLK
  5
25
330
23
100
AcDbEntity
  8
0
100
AcDbBlockEnd
  0
BLOCK
  5
43
330
41
100
AcDbEntity
  8
0
100
AcDbBlockBegin
  2
block 2
 70
     0
 10
0.0
 20
0.0
 30
0.0
  3
block 2
  1

  0
POLYLINE
  5
45
330
41
100
AcDbEntity
  8
_U+30EC_U+30A4_U+30E4_U+30FC 1
370
     0
100
AcDb2dPolyline
 66
     1
 10
0.0
 20
0.0
 30
0.0
  0
VERTEX
  5
46
330
45
100
AcDbEntity
  8
_U+30EC_U+30A4_U+30E4_U+30FC 1
370
     0
100
AcDbVertex
100
AcDb2dVertex
 10
75.77211390022566
 20
-141.7360569090107
 30
0.0
  0
VERTEX
  5
47
330
45
100
AcDbEntity
  8
_U+30EC_U+30A4_U+30E4_U+30FC 1
370
     0
100
AcDbVertex
100
AcDb2dVertex
 10
85.77184670066677
 20
-141.7360569090107
 30
0.0
  0
VERTEX
  5
48
330
45
100
AcDbEntity
  8
_U+30EC_U+30A4_U+30E4_U+30FC 1
370
     0
100
AcDbVertex
100
AcDb2dVertex
 10
85.77184670066677
 20
-131.7363238559551
 30
0.0
  0
VERTEX
  5
49
330
45
100
AcDbEntity
  8
_U+30EC_U+30A4_U+30E4_U+30FC 1
370
     0
100
AcDbVertex
100
AcDb2dVertex
 10
84.77207450395086
 20
-131.7363238559551
 30
0.0
  0
VERTEX
  5
4A
330
45
100
AcDbEntity
  8
_U+30EC_U+30A4_U+30E4_U+30FC 1
370
     0
100
AcDbVertex
100
AcDb2dVertex
 10
84.77207450395086
 20
-140.7355791314826
 30
0.0
  0
VERTEX
  5
4B
330
45
100
AcDbEntity
  8
_U+30EC_U+30A4_U+30E4_U+30FC 1
370
     0
100
AcDbVertex
100
AcDb2dVertex
 10
76.77188609694157
 20
-140.7355791314826
 30
0.0
  0
VERTEX
  5
4C
330
45
100
AcDbEntity
  8
_U+30EC_U+30A4_U+30E4_U+30FC 1
370
     0
100
AcDbVertex
100
AcDb2dVertex
 10
76.77188609694157
 20
-118.7357219147605
 30
0.0
  0
VERTEX
  5
4D
330
45
100
AcDbEntity
  8
_U+30EC_U+30A4_U+30E4_U+30FC 1
370
     0
100
AcDbVertex
100
AcDb2dVertex
 10
95.77260255663735
 20
-118.7357219147605
 30
0.0
  0
VERTEX
  5
4E
330
45
100
AcDbEntity
  8
_U+30EC_U+30A4_U+30E4_U+30FC 1
370
     0
100
AcDbVertex
100
AcDb2dVertex
 10
95.77260255663735
 20
-117.7359496927883
 30
0.0
  0
VERTEX
  5
4F
330
45
100
AcDbEntity
  8
_U+30EC_U+30A4_U+30E4_U+30FC 1
370
     0
100
AcDbVertex
100
AcDb2dVertex
 10
75.77211390022566
 20
-117.7359496927883
 30
0.0
  0
VERTEX
  5
50
330
45
100
AcDbEntity
  8
_U+30EC_U+30A4_U+30E4_U+30FC 1
370
     0
100
AcDbVertex
100
AcDb2dVertex
 10
75.77211390022566
 20
-141.7360569090107
 30
0.0
  0
SEQEND
  5
52
330
45
100
AcDbEntity
  8
_U+30EC_U+30A4_U+30E4_U+30FC 1
370
     0
  0
HATCH
  5
51
330
41
100
AcDbEntity
  8
_U+30EC_U+30A4_U+30E4_U+30FC 1
 62
     9
420
 13224394
100
AcDbHatch
 10
0.0
 20
0.0
 30
0.0
210
0.0
220
0.0
230
1.0
  2
SOLID
 70
     1
 71
     0
 91
        1
 92
        1
 93
       10
 72
     1
 10
75.77211390022566
 20
-141.7360569090107
 11
85.77184670066677
 21
-141.7360569090107
 72
     1
 10
85.77184670066677
 20
-141.7360569090107
 11
85.77184670066677
 21
-131.7363238559551
 72
     1
 10
85.77184670066677
 20
-131.7363238559551
 11
84.77207450395086
 21
-131.7363238559551
 72
     1
 10
84.77207450395086
 20
-131.7363238559551
 11
84.77207450395086
 21
-140.7355791314826
 72
     1
 10
84.77207450395086
 20
-140.7355791314826
 11
76.77188609694157
 21
-140.7355791314826
 72
     1
 10
76.77188609694157
 20
-140.7355791314826
 11
76.77188609694157
 21
-118.7357219147605
 72
     1
 10
76.77188609694157
 20
-118.7357219147605
 11
95.77260255663735
 21
-118.7357219147605
 72
     1
 10
95.77260255663735
 20
-118.7357219147605
 11
95.77260255663735
 21
-117.7359496927883
 72
     1
 10
95.77260255663735
 20
-117.7359496927883
 11
75.77211390022566
 21
-117.7359496927883
 72
     1
 10
75.77211390022566
 20
-117.7359496927883
 11
75.77211390022566
 21
-141.7360569090107
 97
        0
 75
     2
 76
     1
 98
        0
  0
POLYLINE
  5
53
330
41
100
AcDbEntity
  8
_U+30EC_U+30A4_U+30E4_U+30FC 1
 62
   179
420
  2234388
370
    25
100
AcDb2dPolyline
 66
     1
 10
0.0
 20
0.0
 30
0.0
  0
VERTEX
  5
54
330
53
100
AcDbEntity
  8
_U+30EC_U+30A4_U+30E4_U+30FC 1
 62
   179
420
  2234388
370
    25
100
AcDbVertex
100
AcDb2dVertex
 10
75.77211390022566
 20
-117.7361260816772
 30
0.0
  0
VERTEX
  5
55
330
53
100
AcDbEntity
  8
_U+30EC_U+30A4_U+30E4_U+30FC 1
 62
   179
420
  2234388
370
    25
100
AcDbVertex
100
AcDb2dVertex
 10
95.77228505664544
 20
-117.7361260816772
 30
0.0
  0
SEQEND
  5
56
330
53
100
AcDbEntity
  8
_U+30EC_U+30A4_U+30E4_U+30FC 1
 62
   179
420
  2234388
370
    25
  0
POLYLINE
  5
57
330
41
100
AcDbEntity
  8
_U+30EC_U+30A4_U+30E4_U+30FC 1
 62
   179
420
  2234388
370
    25
100
AcDb2dPolyline
 66
     1
 10
0.0
 20
0.0
 30
0.0
  0
VERTEX
  5
58
330
57
100
AcDbEntity
  8
_U+30EC_U+30A4_U+30E4_U+30FC 1
 62
   179
420
  2234388
370
    25
100
AcDbVertex
100
AcDb2dVertex
 10
75.77211390022566
 20
-117.7361260816772
 30
0.0
  0
VERTEX
  5
59
330
57
100
AcDbEntity
  8
_U+30EC_U+30A4_U+30E4_U+30FC 1
 62
   179
420
  2234388
370
    25
100
AcDbVertex
100
AcDb2dVertex
 10
75.77211390022566
 20
-141.7360569090107
 30
0.0
  0
SEQEND
  5
5A
330
57
100
AcDbEntity
  8
_U+30EC_U+30A4_U+30E4_U+30FC 1
 62
   179
420
  2234388
370
    25
  0
POLYLINE
  5
5B
330
41
100
AcDbEntity
  8
_U+30EC_U+30A4_U+30E4_U+30FC 1
 62
   179
420
  2234388
370
    25
100
AcDb2dPolyline
 66
     1
 10
0.0
 20
0.0
 30
0.0
  0
VERTEX
  5
5C
330
5B
100
AcDbEntity
  8
_U+30EC_U+30A4_U+30E4_U+30FC 1
 62
   179
420
  2234388
370
    25
100
AcDbVertex
100
AcDb2dVertex
 10
95.77228505664544
 20
-117.7361260816772
 30
0.0
  0
VERTEX
  5
5D
330
5B
100
AcDbEntity
  8
_U+30EC_U+30A4_U+30E4_U+30FC 1
 62
   179
420
  2234388
370
    25
100
AcDbVertex
100
AcDb2dVertex
 10
95.77228505664544
 20
-118.7358983036494
 30
0.0
  0
SEQEND
  5
5E
330
5B
100
AcDbEntity
  8
_U+30EC_U+30A4_U+30E4_U+30FC 1
 62
   179
420
  2234388
370
    25
  0
POLYLINE
  5
5F
330
41
100
AcDbEntity
  8
_U+30EC_U+30A4_U+30E4_U+30FC 1
 62
   179
420
  2234388
370
    25
100
AcDb2dPolyline
 66
     1
 10
0.0
 20
0.0
 30
0.0
  0
VERTEX
  5
60
330
5F
100
AcDbEntity
  8
_U+30EC_U+30A4_U+30E4_U+30FC 1
 62
   179
420
  2234388
370
    25
100
AcDbVertex
100
AcDb2dVertex
 10
76.77188609694157
 20
-118.7358983036494
 30
0.0
  0
VERTEX
  5
61
330
5F
100
AcDbEntity
  8
_U+30EC_U+30A4_U+30E4_U+30FC 1
 62
   179
420
  2234388
370
    25
100
AcDbVertex
100
AcDb2dVertex
 10
95.77228505664544
 20
-118.7358983036494
 30
0.0
  0
SEQEND
  5
62
330
5F
100
AcDbEntity
  8
_U+30EC_U+30A4_U+30E4_U+30FC 1
 62
   179
420
  2234388
370
    25
  0
POLYLINE
  5
63
330
41
100
AcDbEntity
  8
_U+30EC_U+30A4_U+30E4_U+30FC 1
 62
   179
420
  2234388
370
    25
100
AcDb2dPolyline
 66
     1
 10
0.0
 20
0.0
 30
0.0
  0
VERTEX
  5
64
330
63
100
AcDbEntity
  8
_U+30EC_U+30A4_U+30E4_U+30FC 1
 62
   179
420
  2234388
370
    25
100
AcDbVertex
100
AcDb2dVertex
 10
85.77184670066677
 20
-131.7363238559551
 30
0.0
  0
VERTEX
  5
65
330
63
100
AcDbEntity
  8
_U+30EC_U+30A4_U+30E4_U+30FC 1
 62
   179
420
  2234388
370
    25
100
AcDbVertex
100
AcDb2dVertex
 10
85.77184670066677
 20
-141.7360569090107
 30
0.0
  0
SEQEND
  5
66
330
63
100
AcDbEntity
  8
_U+30EC_U+30A4_U+30E4_U+30FC 1
 62
   179
420
  2234388
370
    25
  0
POLYLINE
  5
67
330
41
100
AcDbEntity
  8
_U+30EC_U+30A4_U+30E4_U+30FC 1
 62
   179
420
  2234388
370
    25
100
AcDb2dPolyline
 66
     1
 10
0.0
 20
0.0
 30
0.0
  0
VERTEX
  5
68
330
67
100
AcDbEntity
  8
_U+30EC_U+30A4_U+30E4_U+30FC 1
 62
   179
420
  2234388
370
    25
100
AcDbVertex
100
AcDb2dVertex
 10
84.77207450395086
 20
-131.7363238559551
 30
0.0
  0
VERTEX
  5
69
330
67
100
AcDbEntity
  8
_U+30EC_U+30A4_U+30E4_U+30FC 1
 62
   179
420
  2234388
370
    25
100
AcDbVertex
100
AcDb2dVertex
 10
84.77207450395086
 20
-140.7355791314826
 30
0.0
  0
SEQEND
  5
6A
330
67
100
AcDbEntity
  8
_U+30EC_U+30A4_U+30E4_U+30FC 1
 62
   179
420
  2234388
370
    25
  0
POLYLINE
  5
6B
330
41
100
AcDbEntity
  8
_U+30EC_U+30A4_U+30E4_U+30FC 1
 62
   179
420
  2234388
370
    25
100
AcDb2dPolyline
 66
     1
 10
0.0
 20
0.0
 30
0.0
  0
VERTEX
  5
6C
330
6B
100
AcDbEntity
  8
_U+30EC_U+30A4_U+30E4_U+30FC 1
 62
   179
420
  2234388
370
    25
100
AcDbVertex
100
AcDb2dVertex
 10
76.77188609694157
 20
-118.7358983036494
 30
0.0
  0
VERTEX
  5
6D
330
6B
100
AcDbEntity
  8
_U+30EC_U+30A4_U+30E4_U+30FC 1
 62
   179
420
  2234388
370
    25
100
AcDbVertex
100
AcDb2dVertex
 10
76.77188609694157
 20
-140.7355791314826
 30
0.0
  0
SEQEND
  5
6E
330
6B
100
AcDbEntity
  8
_U+30EC_U+30A4_U+30E4_U+30FC 1
 62
   179
420
  2234388
370
    25
  0
POLYLINE
  5
6F
330
41
100
AcDbEntity
  8
_U+30EC_U+30A4_U+30E4_U+30FC 1
 62
   179
420
  2234388
370
    25
100
AcDb2dPolyline
 66
     1
 10
0.0
 20
0.0
 30
0.0
  0
VERTEX
  5
70
330
6F
100
AcDbEntity
  8
_U+30EC_U+30A4_U+30E4_U+30FC 1
 62
   179
420
  2234388
370
    25
100
AcDbVertex
100
AcDb2dVertex
 10
84.77207450395086
 20
-131.7363238559551
 30
0.0
  0
VERTEX
  5
71
330
6F
100
AcDbEntity
  8
_U+30EC_U+30A4_U+30E4_U+30FC 1
 62
   179
420
  2234388
370
    25
100
AcDbVertex
100
AcDb2dVertex
 10
85.77184670066677
 20
-131.7363238559551
 30
0.0
  0
SEQEND
  5
72
330
6F
100
AcDbEntity
  8
_U+30EC_U+30A4_U+30E4_U+30FC 1
 62
   179
420
  2234388
370
    25
  0
POLYLINE
  5
73
330
41
100
AcDbEntity
  8
_U+30EC_U+30A4_U+30E4_U+30FC 1
 62
   179
420
  2234388
370
    25
100
AcDb2dPolyline
 66
     1
 10
0.0
 20
0.0
 30
0.0
  0
VERTEX
  5
74
330
73
100
AcDbEntity
  8
_U+30EC_U+30A4_U+30E4_U+30FC 1
 62
   179
420
  2234388
370
    25
100
AcDbVertex
100
AcDb2dVertex
 10
75.77211390022566
 20
-141.7360569090107
 30
0.0
  0
VERTEX
  5
75
330
73
100
AcDbEntity
  8
_U+30EC_U+30A4_U+30E4_U+30FC 1
 62
   179
420
  2234388
370
    25
100
AcDbVertex
100
AcDb2dVertex
 10
85.77184670066677
 20
-141.7360569090107
 30
0.0
  0
SEQEND
  5
76
330
73
100
AcDbEntity
  8
_U+30EC_U+30A4_U+30E4_U+30FC 1
 62
   179
420
  2234388
370
    25
  0
POLYLINE
  5
77
330
41
100
AcDbEntity
  8
_U+30EC_U+30A4_U+30E4_U+30FC 1
 62
   179
420
  2234388
370
    25
100
AcDb2dPolyline
 66
     1
 10
0.0
 20
0.0
 30
0.0
  0
VERTEX
  5
78
330
77
100
AcDbEntity
  8
_U+30EC_U+30A4_U+30E4_U+30FC 1
 62
   179
420
  2234388
370
    25
100
AcDbVertex
100
AcDb2dVertex
 10
76.77188609694157
 20
-140.7355791314826
 30
0.0
  0
VERTEX
  5
79
330
77
100
AcDbEntity
  8
_U+30EC_U+30A4_U+30E4_U+30FC 1
 62
   179
420
  2234388
370
    25
100
AcDbVertex
100
AcDb2dVertex
 10
84.77207450395086
 20
-140.7355791314826
 30
0.0
  0
SEQEND
  5
7A
330
77
100
AcDbEntity
  8
_U+30EC_U+30A4_U+30E4_U+30FC 1
 62
   179
420
  2234388
370
    25
  0
SPLINE
  5
7B
330
41
100
AcDbEntity
  8
_U+30EC_U+30A4_U+30E4_U+30FC 1
 62
   179
420
  2234388
370
     9
100
AcDbSpline
210
0.0
220
0.0
230
1.0
 70
    11
 71
     3
 72
    17
 73
    13
 74
     0
 42
0.0000000001
 43
0.0000000001
 12
1.0
 22
0.0
 32
0.0
 13
1.0
 23
0.0
 33
0.0
 40
0.0
 40
0.0
 40
0.0
 40
0.0
 40
1.0
 40
1.0
 40
1.0
 40
2.0
 40
2.0
 40
2.0
 40
3.0
 40
3.0
 40
3.0
 40
4.0
 40
4.0
 40
4.0
 40
4.0
 10
75.8720205643435
 20
-113.7356966382329
 30
0.0
 10
75.8720205643435
 20
-113.6805574715798
 30
0.0
 10
75.8272530654856
 20
-113.635789971591
 30
0.0
 10
75.77211390022566
 20
-113.635789971591
 30
0.0
 10
75.71701001274259
 20
-113.635789971591
 30
0.0
 10
75.67220723610782
 20
-113.6805574715798
 30
0.0
 10
75.67220723610782
 20
-113.7356966382329
 30
0.0
 10
75.67220723610782
 20
-113.7911533048856
 30
0.0
 10
75.71701001274259
 20
-113.835956082652
 30
0.0
 10
75.77211390022566
 20
-113.835956082652
 30
0.0
 10
75.8272530654856
 20
-113.835956082652
 30
0.0
 10
75.8720205643435
 20
-113.7911533048856
 30
0.0
 10
75.8720205643435
 20
-113.7356966382329
 30
0.0
  0
SPLINE
  5
7C
330
41
100
AcDbEntity
  8
_U+30EC_U+30A4_U+30E4_U+30FC 1
 62
   179
420
  2234388
370
     9
100
AcDbSpline
210
0.0
220
0.0
230
1.0
 70
    11
 71
     3
 72
    17
 73
    13
 74
     0
 42
0.0000000001
 43
0.0000000001
 12
1.0
 22
0.0
 32
0.0
 13
1.0
 23
0.0
 33
0.0
 40
0.0
 40
0.0
 40
0.0
 40
0.0
 40
1.0
 40
1.0
 40
1.0
 40
2.0
 40
2.0
 40
2.0
 40
3.0
 40
3.0
 40
3.0
 40
4.0
 40
4.0
 40
4.0
 40
4.0
 10
95.87219172076328
 20
-113.7356966382329
 30
0.0
 10
95.87219172076328
 20
-113.6805574715798
 30
0.0
 10
95.82738894412851
 20
-113.635789971591
 30
0.0
 10
95.77228505664544
 20
-113.635789971591
 30
0.0
 10
95.71679311361672
 20
-113.635789971591
 30
0.0
 10
95.67202561475884
 20
-113.6805574715798
 30
0.0
 10
95.67202561475884
 20
-113.7356966382329
 30
0.0
 10
95.67202561475884
 20
-113.7911533048856
 30
0.0
 10
95.71679311361672
 20
-113.835956082652
 30
0.0
 10
95.77228505664544
 20
-113.835956082652
 30
0.0
 10
95.82738894412851
 20
-113.835956082652
 30
0.0
 10
95.87219172076328
 20
-113.7911533048856
 30
0.0
 10
95.87219172076328
 20
-113.7356966382329
 30
0.0
  0
SPLINE
  5
7D
330
41
100
AcDbEntity
  8
_U+30EC_U+30A4_U+30E4_U+30FC 1
 62
   179
420
  2234388
370
     9
100
AcDbSpline
210
0.0
220
0.0
230
1.0
 70
    11
 71
     3
 72
    17
 73
    13
 74
     0
 42
0.0000000001
 43
0.0000000001
 12
1.0
 22
0.0
 32
0.0
 13
1.0
 23
0.0
 33
0.0
 40
0.0
 40
0.0
 40
0.0
 40
0.0
 40
1.0
 40
1.0
 40
1.0
 40
2.0
 40
2.0
 40
2.0
 40
3.0
 40
3.0
 40
3.0
 40
4.0
 40
4.0
 40
4.0
 40
4.0
 10
99.87226828537949
 20
-117.7361260816772
 30
0.0
 10
99.87226828537949
 20
-117.6806694150242
 30
0.0
 10
99.82750078652161
 20
-117.6359019150356
 30
0.0
 10
99.77204412126976
 20
-117.6359019150356
 30
0.0
 10
99.71690495600981
 20
-117.6359019150356
 30
0.0
 10
99.67213745715193
 20
-117.6806694150242
 30
0.0
 10
99.67213745715193
 20
-117.7361260816772
 30
0.0
 10
99.67213745715193
 20
-117.7912652483299
 30
0.0
 10
99.71690495600981
 20
-117.8360327483188
 30
0.0
 10
99.77204412126976
 20
-117.8360327483188
 30
0.0
 10
99.82750078652161
 20
-117.8360327483188
 30
0.0
 10
99.87226828537949
 20
-117.7912652483299
 30
0.0
 10
99.87226828537949
 20
-117.7361260816772
 30
0.0
  0
SPLINE
  5
7E
330
41
100
AcDbEntity
  8
_U+30EC_U+30A4_U+30E4_U+30FC 1
 62
   179
420
  2234388
370
     9
100
AcDbSpline
210
0.0
220
0.0
230
1.0
 70
    11
 71
     3
 72
    17
 73
    13
 74
     0
 42
0.0000000001
 43
0.0000000001
 12
1.0
 22
0.0
 32
0.0
 13
1.0
 23
0.0
 33
0.0
 40
0.0
 40
0.0
 40
0.0
 40
0.0
 40
1.0
 40
1.0
 40
1.0
 40
2.0
 40
2.0
 40
2.0
 40
3.0
 40
3.0
 40
3.0
 40
4.0
 40
4.0
 40
4.0
 40
4.0
 10
99.87226828537949
 20
-118.7358983036494
 30
0.0
 10
99.87226828537949
 20
-118.6807944147741
 30
0.0
 10
99.82750078652161
 20
-118.6359916370077
 30
0.0
 10
99.77204412126976
 20
-118.6359916370077
 30
0.0
 10
99.71690495600981
 20
-118.6359916370077
 30
0.0
 10
99.67213745715193
 20
-118.6807944147741
 30
0.0
 10
99.67213745715193
 20
-118.7358983036494
 30
0.0
 10
99.67213745715193
 20
-118.7910374703021
 30
0.0
 10
99.71690495600981
 20
-118.835804970291
 30
0.0
 10
99.77204412126976
 20
-118.835804970291
 30
0.0
 10
99.82750078652161
 20
-118.835804970291
 30
0.0
 10
99.87226828537949
 20
-118.7910374703021
 30
0.0
 10
99.87226828537949
 20
-118.7358983036494
 30
0.0
  0
SPLINE
  5
7F
330
41
100
AcDbEntity
  8
_U+30EC_U+30A4_U+30E4_U+30FC 1
 62
   179
420
  2234388
370
     9
100
AcDbSpline
210
0.0
220
0.0
230
1.0
 70
    11
 71
     3
 72
    17
 73
    13
 74
     0
 42
0.0000000001
 43
0.0000000001
 12
1.0
 22
0.0
 32
0.0
 13
1.0
 23
0.0
 33
0.0
 40
0.0
 40
0.0
 40
0.0
 40
0.0
 40
1.0
 40
1.0
 40
1.0
 40
2.0
 40
2.0
 40
2.0
 40
3.0
 40
3.0
 40
3.0
 40
4.0
 40
4.0
 40
4.0
 40
4.0
 10
99.87226828537949
 20
-131.7363238559551
 30
0.0
 10
99.87226828537949
 20
-131.6811846893021
 30
0.0
 10
99.82750078652161
 20
-131.6364171893129
 30
0.0
 10
99.77204412126976
 20
-131.6364171893129
 30
0.0
 10
99.71690495600981
 20
-131.6364171893129
 30
0.0
 10
99.67213745715193
 20
-131.6811846893021
 30
0.0
 10
99.67213745715193
 20
-131.7363238559551
 30
0.0
 10
99.67213745715193
 20
-131.79142774483
 30
0.0
 10
99.71690495600981
 20
-131.8362305225968
 30
0.0
 10
99.77204412126976
 20
-131.8362305225968
 30
0.0
 10
99.82750078652161
 20
-131.8362305225968
 30
0.0
 10
99.87226828537949
 20
-131.79142774483
 30
0.0
 10
99.87226828537949
 20
-131.7363238559551
 30
0.0
  0
SPLINE
  5
80
330
41
100
AcDbEntity
  8
_U+30EC_U+30A4_U+30E4_U+30FC 1
 62
   179
420
  2234388
370
     9
100
AcDbSpline
210
0.0
220
0.0
230
1.0
 70
    11
 71
     3
 72
    17
 73
    13
 74
     0
 42
0.0000000001
 43
0.0000000001
 12
1.0
 22
0.0
 32
0.0
 13
1.0
 23
0.0
 33
0.0
 40
0.0
 40
0.0
 40
0.0
 40
0.0
 40
1.0
 40
1.0
 40
1.0
 40
2.0
 40
2.0
 40
2.0
 40
3.0
 40
3.0
 40
3.0
 40
4.0
 40
4.0
 40
4.0
 40
4.0
 10
99.87226828537949
 20
-141.7360569090107
 30
0.0
 10
99.87226828537949
 20
-141.6809177423576
 30
0.0
 10
99.82750078652161
 20
-141.6361502423691
 30
0.0
 10
99.77204412126976
 20
-141.6361502423691
 30
0.0
 10
99.71690495600981
 20
-141.6361502423691
 30
0.0
 10
99.67213745715193
 20
-141.6809177423576
 30
0.0
 10
99.67213745715193
 20
-141.7360569090107
 30
0.0
 10
99.67213745715193
 20
-141.7911607978856
 30
0.0
 10
99.71690495600981
 20
-141.8359635756523
 30
0.0
 10
99.77204412126976
 20
-141.8359635756523
 30
0.0
 10
99.82750078652161
 20
-141.8359635756523
 30
0.0
 10
99.87226828537949
 20
-141.7911607978856
 30
0.0
 10
99.87226828537949
 20
-141.7360569090107
 30
0.0
  0
SPLINE
  5
81
330
41
100
AcDbEntity
  8
_U+30EC_U+30A4_U+30E4_U+30FC 1
 62
   179
420
  2234388
370
     9
100
AcDbSpline
210
0.0
220
0.0
230
1.0
 70
    11
 71
     3
 72
    17
 73
    13
 74
     0
 42
0.0000000001
 43
0.0000000001
 12
1.0
 22
0.0
 32
0.0
 13
1.0
 23
0.0
 33
0.0
 40
0.0
 40
0.0
 40
0.0
 40
0.0
 40
1.0
 40
1.0
 40
1.0
 40
2.0
 40
2.0
 40
2.0
 40
3.0
 40
3.0
 40
3.0
 40
4.0
 40
4.0
 40
4.0
 40
4.0
 10
85.87175553408768
 20
-145.7358160746769
 30
0.0
 10
85.87175553408768
 20
-145.6806769080245
 30
0.0
 10
85.82698586592673
 20
-145.6359094080353
 30
0.0
 10
85.77184670066677
 20
-145.6359094080353
 30
0.0
 10
85.7167428131837
 20
-145.6359094080353
 30
0.0
 10
85.67194003654895
 20
-145.6806769080245
 30
0.0
 10
85.67194003654895
 20
-145.7358160746769
 30
0.0
 10
85.67194003654895
 20
-145.7909199635525
 30
0.0
 10
85.7167428131837
 20
-145.8357227413186
 30
0.0
 10
85.77184670066677
 20
-145.8357227413186
 30
0.0
 10
85.82698586592673
 20
-145.8357227413186
 30
0.0
 10
85.87175553408768
 20
-145.7909199635525
 30
0.0
 10
85.87175553408768
 20
-145.7358160746769
 30
0.0
  0
SPLINE
  5
82
330
41
100
AcDbEntity
  8
_U+30EC_U+30A4_U+30E4_U+30FC 1
 62
   179
420
  2234388
370
     9
100
AcDbSpline
210
0.0
220
0.0
230
1.0
 70
    11
 71
     3
 72
    17
 73
    13
 74
     0
 42
0.0000000001
 43
0.0000000001
 12
1.0
 22
0.0
 32
0.0
 13
1.0
 23
0.0
 33
0.0
 40
0.0
 40
0.0
 40
0.0
 40
0.0
 40
1.0
 40
1.0
 40
1.0
 40
2.0
 40
2.0
 40
2.0
 40
3.0
 40
3.0
 40
3.0
 40
4.0
 40
4.0
 40
4.0
 40
4.0
 10
75.8720205643435
 20
-145.7358160746769
 30
0.0
 10
75.8720205643435
 20
-145.6806769080245
 30
0.0
 10
75.8272530654856
 20
-145.6359094080353
 30
0.0
 10
75.77211390022566
 20
-145.6359094080353
 30
0.0
 10
75.71701001274259
 20
-145.6359094080353
 30
0.0
 10
75.67220723610782
 20
-145.6806769080245
 30
0.0
 10
75.67220723610782
 20
-145.7358160746769
 30
0.0
 10
75.67220723610782
 20
-145.7909199635525
 30
0.0
 10
75.71701001274259
 20
-145.8357227413186
 30
0.0
 10
75.77211390022566
 20
-145.8357227413186
 30
0.0
 10
75.8272530654856
 20
-145.8357227413186
 30
0.0
 10
75.8720205643435
 20
-145.7909199635525
 30
0.0
 10
75.8720205643435
 20
-145.7358160746769
 30
0.0
  0
POLYLINE
  5
83
330
41
100
AcDbEntity
  8
_U+30EC_U+30A4_U+30E4_U+30FC 1
 62
   179
420
  2234388
370
     9
100
AcDb2dPolyline
 66
     1
 10
0.0
 20
0.0
 30
0.0
  0
VERTEX
  5
84
330
83
100
AcDbEntity
  8
_U+30EC_U+30A4_U+30E4_U+30FC 1
 62
   179
420
  2234388
370
     9
100
AcDbVertex
100
AcDb2dVertex
 10
75.77211390022566
 20
-145.7358160746769
 30
0.0
  0
VERTEX
  5
85
330
83
100
AcDbEntity
  8
_U+30EC_U+30A4_U+30E4_U+30FC 1
 62
   179
420
  2234388
370
     9
100
AcDbVertex
100
AcDb2dVertex
 10
85.77184670066677
 20
-145.7358160746769
 30
0.0
  0
SEQEND
  5
86
330
83
100
AcDbEntity
  8
_U+30EC_U+30A4_U+30E4_U+30FC 1
 62
   179
420
  2234388
370
     9
  0
POLYLINE
  5
87
330
41
100
AcDbEntity
  8
_U+30EC_U+30A4_U+30E4_U+30FC 1
 62
   179
420
  2234388
370
     9
100
AcDb2dPolyline
 66
     1
 10
0.0
 20
0.0
 30
0.0
  0
VERTEX
  5
88
330
87
100
AcDbEntity
  8
_U+30EC_U+30A4_U+30E4_U+30FC 1
 62
   179
420
  2234388
370
     9
100
AcDbVertex
100
AcDb2dVertex
 10
75.77211390022566
 20
-144.2757746861532
 30
0.0
  0
VERTEX
  5
89
330
87
100
AcDbEntity
  8
_U+30EC_U+30A4_U+30E4_U+30FC 1
 62
   179
420
  2234388
370
     9
100
AcDbVertex
100
AcDb2dVertex
 10
75.77211390022566
 20
-146.7355882966495
 30
0.0
  0
SEQEND
  5
8A
330
87
100
AcDbEntity
  8
_U+30EC_U+30A4_U+30E4_U+30FC 1
 62
   179
420
  2234388
370
     9
  0
POLYLINE
  5
8B
330
41
100
AcDbEntity
  8
_U+30EC_U+30A4_U+30E4_U+30FC 1
 62
   179
420
  2234388
370
     9
100
AcDb2dPolyline
 66
     1
 10
0.0
 20
0.0
 30
0.0
  0
VERTEX
  5
8C
330
8B
100
AcDbEntity
  8
_U+30EC_U+30A4_U+30E4_U+30FC 1
 62
   179
420
  2234388
370
     9
100
AcDbVertex
100
AcDb2dVertex
 10
85.77184670066677
 20
-144.2757746861532
 30
0.0
  0
VERTEX
  5
8D
330
8B
100
AcDbEntity
  8
_U+30EC_U+30A4_U+30E4_U+30FC 1
 62
   179
420
  2234388
370
     9
100
AcDbVertex
100
AcDb2dVertex
 10
85.77184670066677
 20
-146.7355882966495
 30
0.0
  0
SEQEND
  5
8E
330
8B
100
AcDbEntity
  8
_U+30EC_U+30A4_U+30E4_U+30FC 1
 62
   179
420
  2234388
370
     9
  0
INSERT
  5
90
330
41
100
AcDbEntity
  8
_U+30EC_U+30A4_U+30E4_U+30FC 1
100
AcDbBlockReference
  2
block 3
 10
0.0
 20
0.0
 30
0.0
  0
POLYLINE
  5
98
330
41
100
AcDbEntity
  8
_U+30EC_U+30A4_U+30E4_U+30FC 1
 62
   179
420
  2234388
370
     9
100
AcDb2dPolyline
 66
     1
 10
0.0
 20
0.0
 30
0.0
  0
VERTEX
  5
99
330
98
100
AcDbEntity
  8
_U+30EC_U+30A4_U+30E4_U+30FC 1
 62
   179
420
  2234388
370
     9
100
AcDbVertex
100
AcDb2dVertex
 10
75.77211390022566
 20
-113.7356966382329
 30
0.0
  0
VERTEX
  5
9A
330
98
100
AcDbEntity
  8
_U+30EC_U+30A4_U+30E4_U+30FC 1
 62
   179
420
  2234388
370
     9
100
AcDbVertex
100
AcDb2dVertex
 10
95.77228505664544
 20
-113.7356966382329
 30
0.0
  0
SEQEND
  5
9B
330
98
100
AcDbEntity
  8
_U+30EC_U+30A4_U+30E4_U+30FC 1
 62
   179
420
  2234388
370
     9
  0
POLYLINE
  5
9C
330
41
100
AcDbEntity
  8
_U+30EC_U+30A4_U+30E4_U+30FC 1
 62
   179
420
  2234388
370
     9
100
AcDb2dPolyline
 66
     1
 10
0.0
 20
0.0
 30
0.0
  0
VERTEX
  5
9D
330
9C
100
AcDbEntity
  8
_U+30EC_U+30A4_U+30E4_U+30FC 1
 62
   179
420
  2234388
370
     9
100
AcDbVertex
100
AcDb2dVertex
 10
75.77211390022566
 20
-115.1957380267566
 30
0.0
  0
VERTEX
  5
9E
330
9C
100
AcDbEntity
  8
_U+30EC_U+30A4_U+30E4_U+30FC 1
 62
   179
420
  2234388
370
     9
100
AcDbVertex
100
AcDb2dVertex
 10
75.77211390022566
 20
-112.7359244162604
 30
0.0
  0
SEQEND
  5
9F
330
9C
100
AcDbEntity
  8
_U+30EC_U+30A4_U+30E4_U+30FC 1
 62
   179
420
  2234388
370
     9
  0
POLYLINE
  5
A0
330
41
100
AcDbEntity
  8
_U+30EC_U+30A4_U+30E4_U+30FC 1
 62
   179
420
  2234388
370
     9
100
AcDb2dPolyline
 66
     1
 10
0.0
 20
0.0
 30
0.0
  0
VERTEX
  5
A1
330
A0
100
AcDbEntity
  8
_U+30EC_U+30A4_U+30E4_U+30FC 1
 62
   179
420
  2234388
370
     9
100
AcDbVertex
100
AcDb2dVertex
 10
95.77228505664544
 20
-115.1957380267566
 30
0.0
  0
VERTEX
  5
A2
330
A0
100
AcDbEntity
  8
_U+30EC_U+30A4_U+30E4_U+30FC 1
 62
   179
420
  2234388
370
     9
100
AcDbVertex
100
AcDb2dVertex
 10
95.77228505664544
 20
-112.7359244162604
 30
0.0
  0
SEQEND
  5
A3
330
A0
100
AcDbEntity
  8
_U+30EC_U+30A4_U+30E4_U+30FC 1
 62
   179
420
  2234388
370
     9
  0
INSERT
  5
A5
330
41
100
AcDbEntity
  8
_U+30EC_U+30A4_U+30E4_U+30FC 1
100
AcDbBlockReference
  2
block 4
 10
0.0
 20
0.0
 30
0.0
  0
POLYLINE
  5
AD
330
41
100
AcDbEntity
  8
_U+30EC_U+30A4_U+30E4_U+30FC 1
 62
   179
420
  2234388
370
     9
100
AcDb2dPolyline
 66
     1
 10
0.0
 20
0.0
 30
0.0
  0
VERTEX
  5
AE
330
AD
100
AcDbEntity
  8
_U+30EC_U+30A4_U+30E4_U+30FC 1
 62
   179
420
  2234388
370
     9
100
AcDbVertex
100
AcDb2dVertex
 10
99.77204412126976
 20
-117.7361260816772
 30
0.0
  0
VERTEX
  5
AF
330
AD
100
AcDbEntity
  8
_U+30EC_U+30A4_U+30E4_U+30FC 1
 62
   179
420
  2234388
370
     9
100
AcDbVertex
100
AcDb2dVertex
 10
99.77204412126976
 20
-113.9658135826197
 30
0.0
  0
SEQEND
  5
B0
330
AD
100
AcDbEntity
  8
_U+30EC_U+30A4_U+30E4_U+30FC 1
 62
   179
420
  2234388
370
     9
  0
POLYLINE
  5
B1
330
41
100
AcDbEntity
  8
_U+30EC_U+30A4_U+30E4_U+30FC 1
 62
   179
420
  2234388
370
     9
100
AcDb2dPolyline
 66
     1
 10
0.0
 20
0.0
 30
0.0
  0
VERTEX
  5
B2
330
B1
100
AcDbEntity
  8
_U+30EC_U+30A4_U+30E4_U+30FC 1
 62
   179
420
  2234388
370
     9
100
AcDbVertex
100
AcDb2dVertex
 10
99.77204412126976
 20
-117.7361260816772
 30
0.0
  0
VERTEX
  5
B3
330
B1
100
AcDbEntity
  8
_U+30EC_U+30A4_U+30E4_U+30FC 1
 62
   179
420
  2234388
370
     9
100
AcDbVertex
100
AcDb2dVertex
 10
99.77204412126976
 20
-118.7358983036494
 30
0.0
  0
SEQEND
  5
B4
330
B1
100
AcDbEntity
  8
_U+30EC_U+30A4_U+30E4_U+30FC 1
 62
   179
420
  2234388
370
     9
  0
POLYLINE
  5
B5
330
41
100
AcDbEntity
  8
_U+30EC_U+30A4_U+30E4_U+30FC 1
 62
   179
420
  2234388
370
     9
100
AcDb2dPolyline
 66
     1
 10
0.0
 20
0.0
 30
0.0
  0
VERTEX
  5
B6
330
B5
100
AcDbEntity
  8
_U+30EC_U+30A4_U+30E4_U+30FC 1
 62
   179
420
  2234388
370
     9
100
AcDbVertex
100
AcDb2dVertex
 10
98.31200276962963
 20
-117.7361260816772
 30
0.0
  0
VERTEX
  5
B7
330
B5
100
AcDbEntity
  8
_U+30EC_U+30A4_U+30E4_U+30FC 1
 62
   179
420
  2234388
370
     9
100
AcDbVertex
100
AcDb2dVertex
 10
100.7721338179776
 20
-117.7361260816772
 30
0.0
  0
SEQEND
  5
B8
330
B5
100
AcDbEntity
  8
_U+30EC_U+30A4_U+30E4_U+30FC 1
 62
   179
420
  2234388
370
     9
  0
POLYLINE
  5
B9
330
41
100
AcDbEntity
  8
_U+30EC_U+30A4_U+30E4_U+30FC 1
 62
   179
420
  2234388
370
     9
100
AcDb2dPolyline
 66
     1
 10
0.0
 20
0.0
 30
0.0
  0
VERTEX
  5
BA
330
B9
100
AcDbEntity
  8
_U+30EC_U+30A4_U+30E4_U+30FC 1
 62
   179
420
  2234388
370
     9
100
AcDbVertex
100
AcDb2dVertex
 10
98.31200276962963
 20
-118.7358983036494
 30
0.0
  0
VERTEX
  5
BB
330
B9
100
AcDbEntity
  8
_U+30EC_U+30A4_U+30E4_U+30FC 1
 62
   179
420
  2234388
370
     9
100
AcDbVertex
100
AcDb2dVertex
 10
100.7721338179776
 20
-118.7358983036494
 30
0.0
  0
SEQEND
  5
BC
330
B9
100
AcDbEntity
  8
_U+30EC_U+30A4_U+30E4_U+30FC 1
 62
   179
420
  2234388
370
     9
  0
INSERT
  5
BE
330
41
100
AcDbEntity
  8
_U+30EC_U+30A4_U+30E4_U+30FC 1
100
AcDbBlockReference
  2
block 5
 10
0.0
 20
0.0
 30
0.0
  0
POLYLINE
  5
C3
330
41
100
AcDbEntity
  8
_U+30EC_U+30A4_U+30E4_U+30FC 1
 62
   179
420
  2234388
370
     9
100
AcDb2dPolyline
 66
     1
 10
0.0
 20
0.0
 30
0.0
  0
VERTEX
  5
C4
330
C3
100
AcDbEntity
  8
_U+30EC_U+30A4_U+30E4_U+30FC 1
 62
   179
420
  2234388
370
     9
100
AcDbVertex
100
AcDb2dVertex
 10
99.77204412126976
 20
-131.7363238559551
 30
0.0
  0
VERTEX
  5
C5
330
C3
100
AcDbEntity
  8
_U+30EC_U+30A4_U+30E4_U+30FC 1
 62
   179
420
  2234388
370
     9
100
AcDbVertex
100
AcDb2dVertex
 10
99.77204412126976
 20
-141.7360569090107
 30
0.0
  0
SEQEND
  5
C6
330
C3
100
AcDbEntity
  8
_U+30EC_U+30A4_U+30E4_U+30FC 1
 62
   179
420
  2234388
370
     9
  0
POLYLINE
  5
C7
330
41
100
AcDbEntity
  8
_U+30EC_U+30A4_U+30E4_U+30FC 1
 62
   179
420
  2234388
370
     9
100
AcDb2dPolyline
 66
     1
 10
0.0
 20
0.0
 30
0.0
  0
VERTEX
  5
C8
330
C7
100
AcDbEntity
  8
_U+30EC_U+30A4_U+30E4_U+30FC 1
 62
   179
420
  2234388
370
     9
100
AcDbVertex
100
AcDb2dVertex
 10
88.31191942236634
 20
-141.7360569090107
 30
0.0
  0
VERTEX
  5
C9
330
C7
100
AcDbEntity
  8
_U+30EC_U+30A4_U+30E4_U+30FC 1
 62
   179
420
  2234388
370
     9
100
AcDbVertex
100
AcDb2dVertex
 10
100.7721338179776
 20
-141.7360569090107
 30
0.0
  0
SEQEND
  5
CA
330
C7
100
AcDbEntity
  8
_U+30EC_U+30A4_U+30E4_U+30FC 1
 62
   179
420
  2234388
370
     9
  0
INSERT
  5
CC
330
41
100
AcDbEntity
  8
_U+30EC_U+30A4_U+30E4_U+30FC 1
100
AcDbBlockReference
  2
block 6
 10
0.0
 20
0.0
 30
0.0
  0
POLYLINE
  5
D4
330
41
100
AcDbEntity
  8
_U+30EC_U+30A4_U+30E4_U+30FC 1
 62
   179
420
  2234388
370
     9
100
AcDb2dPolyline
 66
     1
 10
0.0
 20
0.0
 30
0.0
  0
VERTEX
  5
D5
330
D4
100
AcDbEntity
  8
_U+30EC_U+30A4_U+30E4_U+30FC 1
 62
   179
420
  2234388
370
     9
100
AcDbVertex
100
AcDb2dVertex
 10
99.77204412126976
 20
-131.7363238559551
 30
0.0
  0
VERTEX
  5
D6
330
D4
100
AcDbEntity
  8
_U+30EC_U+30A4_U+30E4_U+30FC 1
 62
   179
420
  2234388
370
     9
100
AcDbVertex
100
AcDb2dVertex
 10
99.77204412126976
 20
-118.7358983036494
 30
0.0
  0
SEQEND
  5
D7
330
D4
100
AcDbEntity
  8
_U+30EC_U+30A4_U+30E4_U+30FC 1
 62
   179
420
  2234388
370
     9
  0
POLYLINE
  5
D8
330
41
100
AcDbEntity
  8
_U+30EC_U+30A4_U+30E4_U+30FC 1
 62
   179
420
  2234388
370
     9
100
AcDb2dPolyline
 66
     1
 10
0.0
 20
0.0
 30
0.0
  0
VERTEX
  5
D9
330
D8
100
AcDbEntity
  8
_U+30EC_U+30A4_U+30E4_U+30FC 1
 62
   179
420
  2234388
370
     9
100
AcDbVertex
100
AcDb2dVertex
 10
88.31191942236634
 20
-131.7363238559551
 30
0.0
  0
VERTEX
  5
DA
330
D8
100
AcDbEntity
  8
_U+30EC_U+30A4_U+30E4_U+30FC 1
 62
   179
420
  2234388
370
     9
100
AcDbVertex
100
AcDb2dVertex
 10
100.7721338179776
 20
-131.7363238559551
 30
0.0
  0
SEQEND
  5
DB
330
D8
100
AcDbEntity
  8
_U+30EC_U+30A4_U+30E4_U+30FC 1
 62
   179
420
  2234388
370
     9
  0
INSERT
  5
DD
330
41
100
AcDbEntity
  8
_U+30EC_U+30A4_U+30E4_U+30FC 1
100
AcDbBlockReference
  2
block 7
 10
0.0
 20
0.0
 30
0.0
  0
ENDBLK
  5
44
330
41
100
AcDbEntity
  8
0
100
AcDbBlockEnd
  0
BLOCK
  5
91
330
8F
100
AcDbEntity
  8
0
100
AcDbBlockBegin
  2
block 3
 70
     0
 10
0.0
 20
0.0
 30
0.0
  3
block 3
  1

  0
SPLINE
  5
93
330
8F
100
AcDbEntity
  8
_U+30EC_U+30A4_U+30E4_U+30FC 1
370
     0
100
AcDbSpline
210
0.0
220
0.0
230
1.0
 70
    11
 71
     3
 72
    26
 73
    22
 74
     0
 42
0.0000000001
 43
0.0000000001
 12
1.0
 22
0.0
 32
0.0
 13
1.0
 23
0.0
 33
0.0
 40
0.0
 40
0.0
 40
0.0
 40
0.0
 40
1.0
 40
1.0
 40
1.0
 40
2.0
 40
2.0
 40
2.0
 40
3.0
 40
3.0
 40
3.0
 40
4.0
 40
4.0
 40
4.0
 40
5.0
 40
5.0
 40
5.0
 40
6.0
 40
6.0
 40
6.0
 40
7.0
 40
7.0
 40
7.0
 40
7.0
 10
80.13464353465385
 20
-145.0905408708454
 30
0.0
 10
80.13464353465385
 20
-145.0905408708454
 30
0.0
 10
80.13464353465385
 20
-143.9863877678229
 30
0.0
 10
80.13464353465385
 20
-143.9863877678229
 30
0.0
 10
80.13464353465385
 20
-143.9863877678229
 30
0.0
 10
79.8046033871669
 20
-143.9863877678229
 30
0.0
 10
79.8046033871669
 20
-143.9863877678229
 30
0.0
 10
79.8046033871669
 20
-143.9863877678229
 30
0.0
 10
79.8046033871669
 20
-143.8382486619571
 30
0.0
 10
79.8046033871669
 20
-143.8382486619571
 30
0.0
 10
80.13671059194499
 20
-143.8234347513705
 30
0.0
 10
80.18321938099587
 20
-143.6604817349182
 30
0.0
 10
80.21284720216902
 20
-143.5461045648079
 30
0.0
 10
80.21284720216902
 20
-143.5461045648079
 30
0.0
 10
80.35891925074361
 20
-143.5461045648079
 30
0.0
 10
80.35891925074361
 20
-143.5461045648079
 30
0.0
 10
80.35891925074361
 20
-143.5461045648079
 30
0.0
 10
80.35891925074361
 20
-145.0905408708454
 30
0.0
 10
80.35891925074361
 20
-145.0905408708454
 30
0.0
 10
80.35891925074361
 20
-145.0905408708454
 30
0.0
 10
80.13464353465385
 20
-145.0905408708454
 30
0.0
 10
80.13464353465385
 20
-145.0905408708454
 30
0.0
  0
HATCH
  5
94
330
8F
100
AcDbEntity
  8
_U+30EC_U+30A4_U+30E4_U+30FC 1
 62
   179
420
  2234388
100
AcDbHatch
 10
0.0
 20
0.0
 30
0.0
210
0.0
220
0.0
230
1.0
  2
SOLID
 70
     1
 71
     0
 91
        1
 92
        1
 93
        1
 72
     4
 94
        3
 73
     0
 74
     1
 95
       26
 96
       22
 40
0.0
 40
0.0
 40
0.0
 40
0.0
 40
1.0
 40
1.0
 40
1.0
 40
2.0
 40
2.0
 40
2.0
 40
3.0
 40
3.0
 40
3.0
 40
4.0
 40
4.0
 40
4.0
 40
5.0
 40
5.0
 40
5.0
 40
6.0
 40
6.0
 40
6.0
 40
7.0
 40
7.0
 40
7.0
 40
7.0
 10
80.13464353465385
 20
-145.0905408708454
 10
80.13464353465385
 20
-145.0905408708454
 10
80.13464353465385
 20
-143.9863877678229
 10
80.13464353465385
 20
-143.9863877678229
 10
80.13464353465385
 20
-143.9863877678229
 10
79.8046033871669
 20
-143.9863877678229
 10
79.8046033871669
 20
-143.9863877678229
 10
79.8046033871669
 20
-143.9863877678229
 10
79.8046033871669
 20
-143.8382486619571
 10
79.8046033871669
 20
-143.8382486619571
 10
80.13671059194499
 20
-143.8234347513705
 10
80.18321938099587
 20
-143.6604817349182
 10
80.21284720216902
 20
-143.5461045648079
 10
80.21284720216902
 20
-143.5461045648079
 10
80.35891925074361
 20
-143.5461045648079
 10
80.35891925074361
 20
-143.5461045648079
 10
80.35891925074361
 20
-143.5461045648079
 10
80.35891925074361
 20
-145.0905408708454
 10
80.35891925074361
 20
-145.0905408708454
 10
80.35891925074361
 20
-145.0905408708454
 10
80.13464353465385
 20
-145.0905408708454
 10
80.13464353465385
 20
-145.0905408708454
 97
        0
 97
        0
 75
     2
 76
     1
 98
        0
  0
SPLINE
  5
95
330
8F
100
AcDbEntity
  8
_U+30EC_U+30A4_U+30E4_U+30FC 1
370
     0
100
AcDbSpline
210
0.0
220
0.0
230
1.0
 70
    11
 71
     3
 72
    29
 73
    25
 74
     0
 42
0.0000000001
 43
0.0000000001
 12
1.0
 22
0.0
 32
0.0
 13
1.0
 23
0.0
 33
0.0
 40
0.0
 40
0.0
 40
0.0
 40
0.0
 40
1.0
 40
1.0
 40
1.0
 40
2.0
 40
2.0
 40
2.0
 40
3.0
 40
3.0
 40
3.0
 40
4.0
 40
4.0
 40
4.0
 40
5.0
 40
5.0
 40
5.0
 40
6.0
 40
6.0
 40
6.0
 40
7.0
 40
7.0
 40
7.0
 40
8.0
 40
8.0
 40
8.0
 40
8.0
 10
81.75780027252931
 20
-144.9127739438065
 30
0.0
 10
81.64996878384099
 20
-145.1222357493097
 30
0.0
 10
81.47650822615866
 20
-145.1411837744786
 30
0.0
 10
81.36006399875721
 20
-145.1411837744786
 30
0.0
 10
81.1993502943703
 20
-145.1411837744786
 30
0.0
 10
81.05758461515228
 20
-145.0946749854277
 30
0.0
 10
80.96232772498512
 20
-144.9127739438065
 30
0.0
 10
80.85880260565335
 20
-144.7181260488899
 30
0.0
 10
80.83968232571023
 20
-144.4814479890533
 30
0.0
 10
80.83968232571023
 20
-144.3184949726009
 30
0.0
 10
80.83968232571023
 20
-144.1744899813175
 30
0.0
 10
80.85656329358794
 20
-143.9226535013457
 30
0.0
 10
80.96232772498512
 20
-143.7238714918468
 30
0.0
 10
81.0703314684477
 20
-143.5209553677656
 30
0.0
 10
81.2310451728346
 20
-143.4975287184659
 30
0.0
 10
81.36006399875721
 20
-143.4975287184659
 30
0.0
 10
81.51871064585296
 20
-143.4975287184659
 30
0.0
 10
81.66254338236214
 20
-143.5419704502256
 30
0.0
 10
81.75780027252931
 20
-143.7238714918468
 30
0.0
 10
81.85719127727876
 20
-143.9164523294723
 30
0.0
 10
81.8804456718042
 20
-144.1448621601444
 30
0.0
 10
81.8804456718042
 20
-144.3184949726009
 30
0.0
 10
81.8804456718042
 20
-144.4897162182179
 30
0.0
 10
81.85943058934417
 20
-144.7201931061811
 30
0.0
 10
81.75780027252931
 20
-144.9127739438065
 30
0.0
  0
SPLINE
  5
96
330
8F
100
AcDbEntity
  8
_U+30EC_U+30A4_U+30E4_U+30FC 1
370
     0
100
AcDbSpline
210
0.0
220
0.0
230
1.0
 70
    11
 71
     3
 72
    17
 73
    13
 74
     0
 42
0.0000000001
 43
0.0000000001
 12
1.0
 22
0.0
 32
0.0
 13
1.0
 23
0.0
 33
0.0
 40
0.0
 40
0.0
 40
0.0
 40
0.0
 40
1.0
 40
1.0
 40
1.0
 40
2.0
 40
2.0
 40
2.0
 40
3.0
 40
3.0
 40
3.0
 40
4.0
 40
4.0
 40
4.0
 40
4.0
 10
81.36006399875721
 20
-143.6901095560914
 30
0.0
 10
81.11046683085085
 20
-143.6901095560914
 30
0.0
 10
81.06395804179999
 20
-143.9736409145274
 30
0.0
 10
81.06395804179999
 20
-144.3184949726009
 30
0.0
 10
81.06395804179999
 20
-144.6378553240836
 30
0.0
 10
81.09995928962084
 20
-144.946535879562
 30
0.0
 10
81.36006399875721
 20
-144.946535879562
 30
0.0
 10
81.60759410937241
 20
-144.946535879562
 30
0.0
 10
81.6563422104887
 20
-144.6654160879656
 30
0.0
 10
81.6563422104887
 20
-144.3184949726009
 30
0.0
 10
81.6563422104887
 20
-143.9987901115697
 30
0.0
 10
81.61827390537668
 20
-143.6901095560914
 30
0.0
 10
81.36006399875721
 20
-143.6901095560914
 30
0.0
  0
HATCH
  5
97
330
8F
100
AcDbEntity
  8
_U+30EC_U+30A4_U+30E4_U+30FC 1
 62
   179
420
  2234388
100
AcDbHatch
 10
0.0
 20
0.0
 30
0.0
210
0.0
220
0.0
230
1.0
  2
SOLID
 70
     1
 71
     0
 91
        2
 92
        1
 93
        1
 72
     4
 94
        3
 73
     0
 74
     1
 95
       29
 96
       25
 40
0.0
 40
0.0
 40
0.0
 40
0.0
 40
1.0
 40
1.0
 40
1.0
 40
2.0
 40
2.0
 40
2.0
 40
3.0
 40
3.0
 40
3.0
 40
4.0
 40
4.0
 40
4.0
 40
5.0
 40
5.0
 40
5.0
 40
6.0
 40
6.0
 40
6.0
 40
7.0
 40
7.0
 40
7.0
 40
8.0
 40
8.0
 40
8.0
 40
8.0
 10
81.75780027252931
 20
-144.9127739438065
 10
81.64996878384099
 20
-145.1222357493097
 10
81.47650822615866
 20
-145.1411837744786
 10
81.36006399875721
 20
-145.1411837744786
 10
81.1993502943703
 20
-145.1411837744786
 10
81.05758461515228
 20
-145.0946749854277
 10
80.96232772498512
 20
-144.9127739438065
 10
80.85880260565335
 20
-144.7181260488899
 10
80.83968232571023
 20
-144.4814479890533
 10
80.83968232571023
 20
-144.3184949726009
 10
80.83968232571023
 20
-144.1744899813175
 10
80.85656329358794
 20
-143.9226535013457
 10
80.96232772498512
 20
-143.7238714918468
 10
81.0703314684477
 20
-143.5209553677656
 10
81.2310451728346
 20
-143.4975287184659
 10
81.36006399875721
 20
-143.4975287184659
 10
81.51871064585296
 20
-143.4975287184659
 10
81.66254338236214
 20
-143.5419704502256
 10
81.75780027252931
 20
-143.7238714918468
 10
81.85719127727876
 20
-143.9164523294723
 10
81.8804456718042
 20
-144.1448621601444
 10
81.8804456718042
 20
-144.3184949726009
 10
81.8804456718042
 20
-144.4897162182179
 10
81.85943058934417
 20
-144.7201931061811
 10
81.75780027252931
 20
-144.9127739438065
 97
        0
 97
        0
 92
        1
 93
        1
 72
     4
 94
        3
 73
     0
 74
     1
 95
       17
 96
       13
 40
0.0
 40
0.0
 40
0.0
 40
0.0
 40
1.0
 40
1.0
 40
1.0
 40
2.0
 40
2.0
 40
2.0
 40
3.0
 40
3.0
 40
3.0
 40
4.0
 40
4.0
 40
4.0
 40
4.0
 10
81.36006399875721
 20
-143.6901095560914
 10
81.11046683085085
 20
-143.6901095560914
 10
81.06395804179999
 20
-143.9736409145274
 10
81.06395804179999
 20
-144.3184949726009
 10
81.06395804179999
 20
-144.6378553240836
 10
81.09995928962084
 20
-144.946535879562
 10
81.36006399875721
 20
-144.946535879562
 10
81.60759410937241
 20
-144.946535879562
 10
81.6563422104887
 20
-144.6654160879656
 10
81.6563422104887
 20
-144.3184949726009
 10
81.6563422104887
 20
-143.9987901115697
 10
81.61827390537668
 20
-143.6901095560914
 10
81.36006399875721
 20
-143.6901095560914
 97
        0
 97
        0
 75
     2
 76
     1
 98
        0
  0
ENDBLK
  5
92
330
8F
100
AcDbEntity
  8
0
100
AcDbBlockEnd
  0
BLOCK
  5
A6
330
A4
100
AcDbEntity
  8
0
100
AcDbBlockBegin
  2
block 4
 70
     0
 10
0.0
 20
0.0
 30
0.0
  3
block 4
  1

  0
SPLINE
  5
A8
330
A4
100
AcDbEntity
  8
_U+30EC_U+30A4_U+30E4_U+30FC 1
370
     0
100
AcDbSpline
210
0.0
220
0.0
230
1.0
 70
    11
 71
     3
 72
    44
 73
    40
 74
     0
 42
0.0000000001
 43
0.0000000001
 12
1.0
 22
0.0
 32
0.0
 13
1.0
 23
0.0
 33
0.0
 40
0.0
 40
0.0
 40
0.0
 40
0.0
 40
1.0
 40
1.0
 40
1.0
 40
2.0
 40
2.0
 40
2.0
 40
3.0
 40
3.0
 40
3.0
 40
4.0
 40
4.0
 40
4.0
 40
5.0
 40
5.0
 40
5.0
 40
6.0
 40
6.0
 40
6.0
 40
7.0
 40
7.0
 40
7.0
 40
8.0
 40
8.0
 40
8.0
 40
9.0
 40
9.0
 40
9.0
 40
10.0
 40
10.0
 40
10.0
 40
11.0
 40
11.0
 40
11.0
 40
12.0
 40
12.0
 40
12.0
 40
13.0
 40
13.0
 40
13.0
 40
13.0
 10
85.27662080116349
 20
-112.5085503190951
 30
0.0
 10
85.05871851172144
 20
-112.6671969661908
 30
0.0
 10
84.96552867884543
 20
-112.7412665191237
 30
0.0
 10
84.9169528325034
 20
-112.8850992556329
 30
0.0
 10
84.9169528325034
 20
-112.8850992556329
 30
0.0
 10
85.69537215739561
 20
-112.8850992556329
 30
0.0
 10
85.69537215739561
 20
-112.8850992556329
 30
0.0
 10
85.69537215739561
 20
-112.8850992556329
 30
0.0
 10
85.69537215739561
 20
-113.0902546917795
 30
0.0
 10
85.69537215739561
 20
-113.0902546917795
 30
0.0
 10
85.69537215739561
 20
-113.0902546917795
 30
0.0
 10
84.66735566459705
 20
-113.0902546917795
 30
0.0
 10
84.66735566459705
 20
-113.0902546917795
 30
0.0
 10
84.69905054306135
 20
-112.7326537804106
 30
0.0
 10
84.76467961205536
 20
-112.6544501128954
 30
0.0
 10
85.14966903253203
 20
-112.3561048438728
 30
0.0
 10
85.40563962708609
 20
-112.1573228343739
 30
0.0
 10
85.47109644130585
 20
-112.0896267080887
 30
0.0
 10
85.47109644130585
 20
-111.9521673982272
 30
0.0
 10
85.47109644130585
 20
-111.8336561135346
 30
0.0
 10
85.39926620043838
 20
-111.7025702303209
 30
0.0
 10
85.20255124823062
 20
-111.7025702303209
 30
0.0
 10
84.94227428431999
 20
-111.7025702303209
 30
0.0
 10
84.93383380038112
 20
-111.9330471182841
 30
0.0
 10
84.92952743102457
 20
-112.0494913456856
 30
0.0
 10
84.92952743102457
 20
-112.0494913456856
 30
0.0
 10
84.70542396970906
 20
-112.0494913456856
 30
0.0
 10
84.70542396970906
 20
-112.0494913456856
 30
0.0
 10
84.71386445364793
 20
-111.9225395770541
 30
0.0
 10
84.72437199487794
 20
-111.8104017190092
 30
0.0
 10
84.80481497445852
 20
-111.6918904343166
 30
0.0
 10
84.914713520438
 20
-111.5311767299297
 30
0.0
 10
85.10092093141574
 20
-111.4972425394
 30
0.0
 10
85.21736515881719
 20
-111.4972425394
 30
0.0
 10
85.49452309060554
 20
-111.4972425394
 30
0.0
 10
85.70174558404332
 20
-111.6813828930866
 30
0.0
 10
85.70174558404332
 20
-111.9542344555184
 30
0.0
 10
85.70174558404332
 20
-112.1826442861905
 30
0.0
 10
85.58547361141613
 20
-112.2822075457142
 30
0.0
 10
85.27662080116349
 20
-112.5085503190951
 30
0.0
  0
HATCH
  5
A9
330
A4
100
AcDbEntity
  8
_U+30EC_U+30A4_U+30E4_U+30FC 1
 62
   179
420
  2234388
100
AcDbHatch
 10
0.0
 20
0.0
 30
0.0
210
0.0
220
0.0
230
1.0
  2
SOLID
 70
     1
 71
     0
 91
        1
 92
        1
 93
        1
 72
     4
 94
        3
 73
     0
 74
     1
 95
       44
 96
       40
 40
0.0
 40
0.0
 40
0.0
 40
0.0
 40
1.0
 40
1.0
 40
1.0
 40
2.0
 40
2.0
 40
2.0
 40
3.0
 40
3.0
 40
3.0
 40
4.0
 40
4.0
 40
4.0
 40
5.0
 40
5.0
 40
5.0
 40
6.0
 40
6.0
 40
6.0
 40
7.0
 40
7.0
 40
7.0
 40
8.0
 40
8.0
 40
8.0
 40
9.0
 40
9.0
 40
9.0
 40
10.0
 40
10.0
 40
10.0
 40
11.0
 40
11.0
 40
11.0
 40
12.0
 40
12.0
 40
12.0
 40
13.0
 40
13.0
 40
13.0
 40
13.0
 10
85.27662080116349
 20
-112.5085503190951
 10
85.05871851172144
 20
-112.6671969661908
 10
84.96552867884543
 20
-112.7412665191237
 10
84.9169528325034
 20
-112.8850992556329
 10
84.9169528325034
 20
-112.8850992556329
 10
85.69537215739561
 20
-112.8850992556329
 10
85.69537215739561
 20
-112.8850992556329
 10
85.69537215739561
 20
-112.8850992556329
 10
85.69537215739561
 20
-113.0902546917795
 10
85.69537215739561
 20
-113.0902546917795
 10
85.69537215739561
 20
-113.0902546917795
 10
84.66735566459705
 20
-113.0902546917795
 10
84.66735566459705
 20
-113.0902546917795
 10
84.69905054306135
 20
-112.7326537804106
 10
84.76467961205536
 20
-112.6544501128954
 10
85.14966903253203
 20
-112.3561048438728
 10
85.40563962708609
 20
-112.1573228343739
 10
85.47109644130585
 20
-112.0896267080887
 10
85.47109644130585
 20
-111.9521673982272
 10
85.47109644130585
 20
-111.8336561135346
 10
85.39926620043838
 20
-111.7025702303209
 10
85.20255124823062
 20
-111.7025702303209
 10
84.94227428431999
 20
-111.7025702303209
 10
84.93383380038112
 20
-111.9330471182841
 10
84.92952743102457
 20
-112.0494913456856
 10
84.92952743102457
 20
-112.0494913456856
 10
84.70542396970906
 20
-112.0494913456856
 10
84.70542396970906
 20
-112.0494913456856
 10
84.71386445364793
 20
-111.9225395770541
 10
84.72437199487794
 20
-111.8104017190092
 10
84.80481497445852
 20
-111.6918904343166
 10
84.914713520438
 20
-111.5311767299297
 10
85.10092093141574
 20
-111.4972425394
 10
85.21736515881719
 20
-111.4972425394
 10
85.49452309060554
 20
-111.4972425394
 10
85.70174558404332
 20
-111.6813828930866
 10
85.70174558404332
 20
-111.9542344555184
 10
85.70174558404332
 20
-112.1826442861905
 10
85.58547361141613
 20
-112.2822075457142
 10
85.27662080116349
 20
-112.5085503190951
 97
        0
 97
        0
 75
     2
 76
     1
 98
        0
  0
SPLINE
  5
AA
330
A4
100
AcDbEntity
  8
_U+30EC_U+30A4_U+30E4_U+30FC 1
370
     0
100
AcDbSpline
210
0.0
220
0.0
230
1.0
 70
    11
 71
     3
 72
    29
 73
    25
 74
     0
 42
0.0000000001
 43
0.0000000001
 12
1.0
 22
0.0
 32
0.0
 13
1.0
 23
0.0
 33
0.0
 40
0.0
 40
0.0
 40
0.0
 40
0.0
 40
1.0
 40
1.0
 40
1.0
 40
2.0
 40
2.0
 40
2.0
 40
3.0
 40
3.0
 40
3.0
 40
4.0
 40
4.0
 40
4.0
 40
5.0
 40
5.0
 40
5.0
 40
6.0
 40
6.0
 40
6.0
 40
7.0
 40
7.0
 40
7.0
 40
8.0
 40
8.0
 40
8.0
 40
8.0
 10
86.75801185982091
 20
-112.9124877647406
 30
0.0
 10
86.65018037113259
 20
-113.1219495702438
 30
0.0
 10
86.476547558676
 20
-113.141069850187
 30
0.0
 10
86.36044784082308
 20
-113.141069850187
 30
0.0
 10
86.19956188166192
 20
-113.141069850187
 30
0.0
 10
86.05762394766963
 20
-113.0945610611361
 30
0.0
 10
85.96253931227673
 20
-112.9124877647406
 30
0.0
 10
85.85901419294497
 20
-112.717839869824
 30
0.0
 10
85.83989391300183
 20
-112.4809895552131
 30
0.0
 10
85.83989391300183
 20
-112.3180365387608
 30
0.0
 10
85.83989391300183
 20
-112.1742038022516
 30
0.0
 10
85.85677488087956
 20
-111.9225395770541
 30
0.0
 10
85.96253931227673
 20
-111.7235853127809
 30
0.0
 10
86.07037080096505
 20
-111.5204969339254
 30
0.0
 10
86.23125676012621
 20
-111.4972425394
 30
0.0
 10
86.36044784082308
 20
-111.4972425394
 30
0.0
 10
86.51892223314458
 20
-111.4972425394
 30
0.0
 10
86.66292722442802
 20
-111.5416842711597
 30
0.0
 10
86.75801185982091
 20
-111.7235853127809
 30
0.0
 10
86.85757511934465
 20
-111.9161661504064
 30
0.0
 10
86.88065725909581
 20
-112.1445759810784
 30
0.0
 10
86.88065725909581
 20
-112.3180365387608
 30
0.0
 10
86.88065725909581
 20
-112.489430039152
 30
0.0
 10
86.85964217663579
 20
-112.7200791818894
 30
0.0
 10
86.75801185982091
 20
-112.9124877647406
 30
0.0
  0
SPLINE
  5
AB
330
A4
100
AcDbEntity
  8
_U+30EC_U+30A4_U+30E4_U+30FC 1
370
     0
100
AcDbSpline
210
0.0
220
0.0
230
1.0
 70
    11
 71
     3
 72
    17
 73
    13
 74
     0
 42
0.0000000001
 43
0.0000000001
 12
1.0
 22
0.0
 32
0.0
 13
1.0
 23
0.0
 33
0.0
 40
0.0
 40
0.0
 40
0.0
 40
0.0
 40
1.0
 40
1.0
 40
1.0
 40
2.0
 40
2.0
 40
2.0
 40
3.0
 40
3.0
 40
3.0
 40
4.0
 40
4.0
 40
4.0
 40
4.0
 10
86.36044784082308
 20
-111.6898233770255
 30
0.0
 10
86.11067841814247
 20
-111.6898233770255
 30
0.0
 10
86.0641696290916
 20
-111.9733547354615
 30
0.0
 10
86.0641696290916
 20
-112.3180365387608
 30
0.0
 10
86.0641696290916
 20
-112.6375691450177
 30
0.0
 10
86.0999986221382
 20
-112.9464219552703
 30
0.0
 10
86.36044784082308
 20
-112.9464219552703
 30
0.0
 10
86.60780569666403
 20
-112.9464219552703
 30
0.0
 10
86.65638154300605
 20
-112.6649576541254
 30
0.0
 10
86.65638154300605
 20
-112.3180365387608
 30
0.0
 10
86.65638154300605
 20
-111.9986761872781
 30
0.0
 10
86.6184854926683
 20
-111.6898233770255
 30
0.0
 10
86.36044784082308
 20
-111.6898233770255
 30
0.0
  0
HATCH
  5
AC
330
A4
100
AcDbEntity
  8
_U+30EC_U+30A4_U+30E4_U+30FC 1
 62
   179
420
  2234388
100
AcDbHatch
 10
0.0
 20
0.0
 30
0.0
210
0.0
220
0.0
230
1.0
  2
SOLID
 70
     1
 71
     0
 91
        2
 92
        1
 93
        1
 72
     4
 94
        3
 73
     0
 74
     1
 95
       29
 96
       25
 40
0.0
 40
0.0
 40
0.0
 40
0.0
 40
1.0
 40
1.0
 40
1.0
 40
2.0
 40
2.0
 40
2.0
 40
3.0
 40
3.0
 40
3.0
 40
4.0
 40
4.0
 40
4.0
 40
5.0
 40
5.0
 40
5.0
 40
6.0
 40
6.0
 40
6.0
 40
7.0
 40
7.0
 40
7.0
 40
8.0
 40
8.0
 40
8.0
 40
8.0
 10
86.75801185982091
 20
-112.9124877647406
 10
86.65018037113259
 20
-113.1219495702438
 10
86.476547558676
 20
-113.141069850187
 10
86.36044784082308
 20
-113.141069850187
 10
86.19956188166192
 20
-113.141069850187
 10
86.05762394766963
 20
-113.0945610611361
 10
85.96253931227673
 20
-112.9124877647406
 10
85.85901419294497
 20
-112.717839869824
 10
85.83989391300183
 20
-112.4809895552131
 10
85.83989391300183
 20
-112.3180365387608
 10
85.83989391300183
 20
-112.1742038022516
 10
85.85677488087956
 20
-111.9225395770541
 10
85.96253931227673
 20
-111.7235853127809
 10
86.07037080096505
 20
-111.5204969339254
 10
86.23125676012621
 20
-111.4972425394
 10
86.36044784082308
 20
-111.4972425394
 10
86.51892223314458
 20
-111.4972425394
 10
86.66292722442802
 20
-111.5416842711597
 10
86.75801185982091
 20
-111.7235853127809
 10
86.85757511934465
 20
-111.9161661504064
 10
86.88065725909581
 20
-112.1445759810784
 10
86.88065725909581
 20
-112.3180365387608
 10
86.88065725909581
 20
-112.489430039152
 10
86.85964217663579
 20
-112.7200791818894
 10
86.75801185982091
 20
-112.9124877647406
 97
        0
 97
        0
 92
        1
 93
        1
 72
     4
 94
        3
 73
     0
 74
     1
 95
       17
 96
       13
 40
0.0
 40
0.0
 40
0.0
 40
0.0
 40
1.0
 40
1.0
 40
1.0
 40
2.0
 40
2.0
 40
2.0
 40
3.0
 40
3.0
 40
3.0
 40
4.0
 40
4.0
 40
4.0
 40
4.0
 10
86.36044784082308
 20
-111.6898233770255
 10
86.11067841814247
 20
-111.6898233770255
 10
86.0641696290916
 20
-111.9733547354615
 10
86.0641696290916
 20
-112.3180365387608
 10
86.0641696290916
 20
-112.6375691450177
 10
86.0999986221382
 20
-112.9464219552703
 10
86.36044784082308
 20
-112.9464219552703
 10
86.60780569666403
 20
-112.9464219552703
 10
86.65638154300605
 20
-112.6649576541254
 10
86.65638154300605
 20
-112.3180365387608
 10
86.65638154300605
 20
-111.9986761872781
 10
86.6184854926683
 20
-111.6898233770255
 10
86.36044784082308
 20
-111.6898233770255
 97
        0
 97
        0
 75
     2
 76
     1
 98
        0
  0
ENDBLK
  5
A7
330
A4
100
AcDbEntity
  8
0
100
AcDbBlockEnd
  0
BLOCK
  5
BF
330
BD
100
AcDbEntity
  8
0
100
AcDbBlockBegin
  2
block 5
 70
     0
 10
0.0
 20
0.0
 30
0.0
  3
block 5
  1

  0
SPLINE
  5
C1
330
BD
100
AcDbEntity
  8
_U+30EC_U+30A4_U+30E4_U+30FC 1
370
     0
100
AcDbSpline
210
0.0
220
0.0
230
1.0
 70
    11
 71
     3
 72
    26
 73
    22
 74
     0
 42
0.0000000001
 43
0.0000000001
 12
1.0
 22
0.0
 32
0.0
 13
1.0
 23
0.0
 33
0.0
 40
0.0
 40
0.0
 40
0.0
 40
0.0
 40
1.0
 40
1.0
 40
1.0
 40
2.0
 40
2.0
 40
2.0
 40
3.0
 40
3.0
 40
3.0
 40
4.0
 40
4.0
 40
4.0
 40
5.0
 40
5.0
 40
5.0
 40
6.0
 40
6.0
 40
6.0
 40
7.0
 40
7.0
 40
7.0
 40
7.0
 10
103.9471435287007
 20
-118.3131917021925
 30
0.0
 10
103.9471435287007
 20
-118.3131917021925
 30
0.0
 10
102.8429904256782
 20
-118.3131917021925
 30
0.0
 10
102.8429904256782
 20
-118.3131917021925
 30
0.0
 10
102.8429904256782
 20
-118.3131917021925
 30
0.0
 10
102.8429904256782
 20
-118.6432318496795
 30
0.0
 10
102.8429904256782
 20
-118.6432318496795
 30
0.0
 10
102.8429904256782
 20
-118.6432318496795
 30
0.0
 10
102.6948513198124
 20
-118.6432318496795
 30
0.0
 10
102.6948513198124
 20
-118.6432318496795
 30
0.0
 10
102.6800374092258
 20
-118.3111246449014
 30
0.0
 10
102.5170843927735
 20
-118.2646158558505
 30
0.0
 10
102.4027072226632
 20
-118.2349880346774
 30
0.0
 10
102.4027072226632
 20
-118.2349880346774
 30
0.0
 10
102.4027072226632
 20
-118.0889159861028
 30
0.0
 10
102.4027072226632
 20
-118.0889159861028
 30
0.0
 10
102.4027072226632
 20
-118.0889159861028
 30
0.0
 10
103.9471435287007
 20
-118.0889159861028
 30
0.0
 10
103.9471435287007
 20
-118.0889159861028
 30
0.0
 10
103.9471435287007
 20
-118.0889159861028
 30
0.0
 10
103.9471435287007
 20
-118.3131917021925
 30
0.0
 10
103.9471435287007
 20
-118.3131917021925
 30
0.0
  0
HATCH
  5
C2
330
BD
100
AcDbEntity
  8
_U+30EC_U+30A4_U+30E4_U+30FC 1
 62
   179
420
  2234388
100
AcDbHatch
 10
0.0
 20
0.0
 30
0.0
210
0.0
220
0.0
230
1.0
  2
SOLID
 70
     1
 71
     0
 91
        1
 92
        1
 93
        1
 72
     4
 94
        3
 73
     0
 74
     1
 95
       26
 96
       22
 40
0.0
 40
0.0
 40
0.0
 40
0.0
 40
1.0
 40
1.0
 40
1.0
 40
2.0
 40
2.0
 40
2.0
 40
3.0
 40
3.0
 40
3.0
 40
4.0
 40
4.0
 40
4.0
 40
5.0
 40
5.0
 40
5.0
 40
6.0
 40
6.0
 40
6.0
 40
7.0
 40
7.0
 40
7.0
 40
7.0
 10
103.9471435287007
 20
-118.3131917021925
 10
103.9471435287007
 20
-118.3131917021925
 10
102.8429904256782
 20
-118.3131917021925
 10
102.8429904256782
 20
-118.3131917021925
 10
102.8429904256782
 20
-118.3131917021925
 10
102.8429904256782
 20
-118.6432318496795
 10
102.8429904256782
 20
-118.6432318496795
 10
102.8429904256782
 20
-118.6432318496795
 10
102.6948513198124
 20
-118.6432318496795
 10
102.6948513198124
 20
-118.6432318496795
 10
102.6800374092258
 20
-118.3111246449014
 10
102.5170843927735
 20
-118.2646158558505
 10
102.4027072226632
 20
-118.2349880346774
 10
102.4027072226632
 20
-118.2349880346774
 10
102.4027072226632
 20
-118.0889159861028
 10
102.4027072226632
 20
-118.0889159861028
 10
102.4027072226632
 20
-118.0889159861028
 10
103.9471435287007
 20
-118.0889159861028
 10
103.9471435287007
 20
-118.0889159861028
 10
103.9471435287007
 20
-118.0889159861028
 10
103.9471435287007
 20
-118.3131917021925
 10
103.9471435287007
 20
-118.3131917021925
 97
        0
 97
        0
 75
     2
 76
     1
 98
        0
  0
ENDBLK
  5
C0
330
BD
100
AcDbEntity
  8
0
100
AcDbBlockEnd
  0
BLOCK
  5
CD
330
CB
100
AcDbEntity
  8
0
100
AcDbBlockBegin
  2
block 6
 70
     0
 10
0.0
 20
0.0
 30
0.0
  3
block 6
  1

  0
SPLINE
  5
CF
330
CB
100
AcDbEntity
  8
_U+30EC_U+30A4_U+30E4_U+30FC 1
370
     0
100
AcDbSpline
210
0.0
220
0.0
230
1.0
 70
    11
 71
     3
 72
    26
 73
    22
 74
     0
 42
0.0000000001
 43
0.0000000001
 12
1.0
 22
0.0
 32
0.0
 13
1.0
 23
0.0
 33
0.0
 40
0.0
 40
0.0
 40
0.0
 40
0.0
 40
1.0
 40
1.0
 40
1.0
 40
2.0
 40
2.0
 40
2.0
 40
3.0
 40
3.0
 40
3.0
 40
4.0
 40
4.0
 40
4.0
 40
5.0
 40
5.0
 40
5.0
 40
6.0
 40
6.0
 40
6.0
 40
7.0
 40
7.0
 40
7.0
 40
7.0
 10
99.12573239709357
 20
-137.3742160029828
 30
0.0
 10
99.12573239709357
 20
-137.3742160029828
 30
0.0
 10
98.021579294071
 20
-137.3742160029828
 30
0.0
 10
98.021579294071
 20
-137.3742160029828
 30
0.0
 10
98.021579294071
 20
-137.3742160029828
 30
0.0
 10
98.021579294071
 20
-137.7042561504698
 30
0.0
 10
98.021579294071
 20
-137.7042561504698
 30
0.0
 10
98.021579294071
 20
-137.7042561504698
 30
0.0
 10
97.87344018820525
 20
-137.7042561504698
 30
0.0
 10
97.87344018820525
 20
-137.7042561504698
 30
0.0
 10
97.85862627761868
 20
-137.3721489456917
 30
0.0
 10
97.69567326116636
 20
-137.3256401566408
 30
0.0
 10
97.58129609105607
 20
-137.2960123354677
 30
0.0
 10
97.58129609105607
 20
-137.2960123354677
 30
0.0
 10
97.58129609105607
 20
-137.1499402868931
 30
0.0
 10
97.58129609105607
 20
-137.1499402868931
 30
0.0
 10
97.58129609105607
 20
-137.1499402868931
 30
0.0
 10
99.12573239709357
 20
-137.1499402868931
 30
0.0
 10
99.12573239709357
 20
-137.1499402868931
 30
0.0
 10
99.12573239709357
 20
-137.1499402868931
 30
0.0
 10
99.12573239709357
 20
-137.3742160029828
 30
0.0
 10
99.12573239709357
 20
-137.3742160029828
 30
0.0
  0
HATCH
  5
D0
330
CB
100
AcDbEntity
  8
_U+30EC_U+30A4_U+30E4_U+30FC 1
 62
   179
420
  2234388
100
AcDbHatch
 10
0.0
 20
0.0
 30
0.0
210
0.0
220
0.0
230
1.0
  2
SOLID
 70
     1
 71
     0
 91
        1
 92
        1
 93
        1
 72
     4
 94
        3
 73
     0
 74
     1
 95
       26
 96
       22
 40
0.0
 40
0.0
 40
0.0
 40
0.0
 40
1.0
 40
1.0
 40
1.0
 40
2.0
 40
2.0
 40
2.0
 40
3.0
 40
3.0
 40
3.0
 40
4.0
 40
4.0
 40
4.0
 40
5.0
 40
5.0
 40
5.0
 40
6.0
 40
6.0
 40
6.0
 40
7.0
 40
7.0
 40
7.0
 40
7.0
 10
99.12573239709357
 20
-137.3742160029828
 10
99.12573239709357
 20
-137.3742160029828
 10
98.021579294071
 20
-137.3742160029828
 10
98.021579294071
 20
-137.3742160029828
 10
98.021579294071
 20
-137.3742160029828
 10
98.021579294071
 20
-137.7042561504698
 10
98.021579294071
 20
-137.7042561504698
 10
98.021579294071
 20
-137.7042561504698
 10
97.87344018820525
 20
-137.7042561504698
 10
97.87344018820525
 20
-137.7042561504698
 10
97.85862627761868
 20
-137.3721489456917
 10
97.69567326116636
 20
-137.3256401566408
 10
97.58129609105607
 20
-137.2960123354677
 10
97.58129609105607
 20
-137.2960123354677
 10
97.58129609105607
 20
-137.1499402868931
 10
97.58129609105607
 20
-137.1499402868931
 10
97.58129609105607
 20
-137.1499402868931
 10
99.12573239709357
 20
-137.1499402868931
 10
99.12573239709357
 20
-137.1499402868931
 10
99.12573239709357
 20
-137.1499402868931
 10
99.12573239709357
 20
-137.3742160029828
 10
99.12573239709357
 20
-137.3742160029828
 97
        0
 97
        0
 75
     2
 76
     1
 98
        0
  0
SPLINE
  5
D1
330
CB
100
AcDbEntity
  8
_U+30EC_U+30A4_U+30E4_U+30FC 1
370
     0
100
AcDbSpline
210
0.0
220
0.0
230
1.0
 70
    11
 71
     3
 72
    29
 73
    25
 74
     0
 42
0.0000000001
 43
0.0000000001
 12
1.0
 22
0.0
 32
0.0
 13
1.0
 23
0.0
 33
0.0
 40
0.0
 40
0.0
 40
0.0
 40
0.0
 40
1.0
 40
1.0
 40
1.0
 40
2.0
 40
2.0
 40
2.0
 40
3.0
 40
3.0
 40
3.0
 40
4.0
 40
4.0
 40
4.0
 40
5.0
 40
5.0
 40
5.0
 40
6.0
 40
6.0
 40
6.0
 40
7.0
 40
7.0
 40
7.0
 40
8.0
 40
8.0
 40
8.0
 40
8.0
 10
98.94796547005468
 20
-135.7508870103331
 30
0.0
 10
99.15742727555786
 20
-135.85906300857
 30
0.0
 10
99.17637530072675
 20
-136.032351311478
 30
0.0
 10
99.17637530072675
 20
-136.1487955388795
 30
0.0
 10
99.17637530072675
 20
-136.3096814980406
 30
0.0
 10
99.12986651167587
 20
-136.4512749224844
 30
0.0
 10
98.94796547005468
 20
-136.5463595578773
 30
0.0
 10
98.75331757513807
 20
-136.6500569319833
 30
0.0
 10
98.51629500575288
 20
-136.6690049571522
 30
0.0
 10
98.35368649884909
 20
-136.6690049571522
 30
0.0
 10
98.20968150756563
 20
-136.6690049571522
 30
0.0
 10
97.95784502759388
 20
-136.6521239892745
 30
0.0
 10
97.75906301809496
 20
-136.5463595578773
 30
0.0
 10
97.55614689401375
 20
-136.438528069189
 30
0.0
 10
97.53272024471404
 20
-136.2776421100278
 30
0.0
 10
97.53272024471404
 20
-136.1487955388795
 30
0.0
 10
97.53272024471404
 20
-135.9899766370094
 30
0.0
 10
97.57716197647377
 20
-135.8463161552745
 30
0.0
 10
97.75906301809496
 20
-135.7508870103331
 30
0.0
 10
97.95164385572043
 20
-135.6516682603579
 30
0.0
 10
98.1800536863925
 20
-135.6282416110582
 30
0.0
 10
98.35368649884909
 20
-135.6282416110582
 30
0.0
 10
98.524907744466
 20
-135.6282416110582
 30
0.0
 10
98.75538463242921
 20
-135.6496012030668
 30
0.0
 10
98.94796547005468
 20
-135.7508870103331
 30
0.0
  0
SPLINE
  5
D2
330
CB
100
AcDbEntity
  8
_U+30EC_U+30A4_U+30E4_U+30FC 1
370
     0
100
AcDbSpline
210
0.0
220
0.0
230
1.0
 70
    11
 71
     3
 72
    17
 73
    13
 74
     0
 42
0.0000000001
 43
0.0000000001
 12
1.0
 22
0.0
 32
0.0
 13
1.0
 23
0.0
 33
0.0
 40
0.0
 40
0.0
 40
0.0
 40
0.0
 40
1.0
 40
1.0
 40
1.0
 40
2.0
 40
2.0
 40
2.0
 40
3.0
 40
3.0
 40
3.0
 40
4.0
 40
4.0
 40
4.0
 40
4.0
 10
97.72530108233951
 20
-136.1487955388795
 30
0.0
 10
97.72530108233951
 20
-136.3982204520116
 30
0.0
 10
98.00883244077558
 20
-136.445073750611
 30
0.0
 10
98.35368649884909
 20
-136.445073750611
 30
0.0
 10
98.67304685033174
 20
-136.445073750611
 30
0.0
 10
98.98172740581013
 20
-136.4089002480158
 30
0.0
 10
98.98172740581013
 20
-136.1487955388795
 30
0.0
 10
98.98172740581013
 20
-135.90109317349
 30
0.0
 10
98.70060761421374
 20
-135.852517327148
 30
0.0
 10
98.35368649884909
 20
-135.852517327148
 30
0.0
 10
98.0339816378179
 20
-135.852517327148
 30
0.0
 10
97.72530108233951
 20
-135.8907578870343
 30
0.0
 10
97.72530108233951
 20
-136.1487955388795
 30
0.0
  0
HATCH
  5
D3
330
CB
100
AcDbEntity
  8
_U+30EC_U+30A4_U+30E4_U+30FC 1
 62
   179
420
  2234388
100
AcDbHatch
 10
0.0
 20
0.0
 30
0.0
210
0.0
220
0.0
230
1.0
  2
SOLID
 70
     1
 71
     0
 91
        2
 92
        1
 93
        1
 72
     4
 94
        3
 73
     0
 74
     1
 95
       29
 96
       25
 40
0.0
 40
0.0
 40
0.0
 40
0.0
 40
1.0
 40
1.0
 40
1.0
 40
2.0
 40
2.0
 40
2.0
 40
3.0
 40
3.0
 40
3.0
 40
4.0
 40
4.0
 40
4.0
 40
5.0
 40
5.0
 40
5.0
 40
6.0
 40
6.0
 40
6.0
 40
7.0
 40
7.0
 40
7.0
 40
8.0
 40
8.0
 40
8.0
 40
8.0
 10
98.94796547005468
 20
-135.7508870103331
 10
99.15742727555786
 20
-135.85906300857
 10
99.17637530072675
 20
-136.032351311478
 10
99.17637530072675
 20
-136.1487955388795
 10
99.17637530072675
 20
-136.3096814980406
 10
99.12986651167587
 20
-136.4512749224844
 10
98.94796547005468
 20
-136.5463595578773
 10
98.75331757513807
 20
-136.6500569319833
 10
98.51629500575288
 20
-136.6690049571522
 10
98.35368649884909
 20
-136.6690049571522
 10
98.20968150756563
 20
-136.6690049571522
 10
97.95784502759388
 20
-136.6521239892745
 10
97.75906301809496
 20
-136.5463595578773
 10
97.55614689401375
 20
-136.438528069189
 10
97.53272024471404
 20
-136.2776421100278
 10
97.53272024471404
 20
-136.1487955388795
 10
97.53272024471404
 20
-135.9899766370094
 10
97.57716197647377
 20
-135.8463161552745
 10
97.75906301809496
 20
-135.7508870103331
 10
97.95164385572043
 20
-135.6516682603579
 10
98.1800536863925
 20
-135.6282416110582
 10
98.35368649884909
 20
-135.6282416110582
 10
98.524907744466
 20
-135.6282416110582
 10
98.75538463242921
 20
-135.6496012030668
 10
98.94796547005468
 20
-135.7508870103331
 97
        0
 97
        0
 92
        1
 93
        1
 72
     4
 94
        3
 73
     0
 74
     1
 95
       17
 96
       13
 40
0.0
 40
0.0
 40
0.0
 40
0.0
 40
1.0
 40
1.0
 40
1.0
 40
2.0
 40
2.0
 40
2.0
 40
3.0
 40
3.0
 40
3.0
 40
4.0
 40
4.0
 40
4.0
 40
4.0
 10
97.72530108233951
 20
-136.1487955388795
 10
97.72530108233951
 20
-136.3982204520116
 10
98.00883244077558
 20
-136.445073750611
 10
98.35368649884909
 20
-136.445073750611
 10
98.67304685033174
 20
-136.445073750611
 10
98.98172740581013
 20
-136.4089002480158
 10
98.98172740581013
 20
-136.1487955388795
 10
98.98172740581013
 20
-135.90109317349
 10
98.70060761421374
 20
-135.852517327148
 10
98.35368649884909
 20
-135.852517327148
 10
98.0339816378179
 20
-135.852517327148
 10
97.72530108233951
 20
-135.8907578870343
 10
97.72530108233951
 20
-136.1487955388795
 97
        0
 97
        0
 75
     2
 76
     1
 98
        0
  0
ENDBLK
  5
CE
330
CB
100
AcDbEntity
  8
0
100
AcDbBlockEnd
  0
BLOCK
  5
DE
330
DC
100
AcDbEntity
  8
0
100
AcDbBlockBegin
  2
block 7
 70
     0
 10
0.0
 20
0.0
 30
0.0
  3
block 7
  1

  0
SPLINE
  5
E0
330
DC
100
AcDbEntity
  8
_U+30EC_U+30A4_U+30E4_U+30FC 1
370
     0
100
AcDbSpline
210
0.0
220
0.0
230
1.0
 70
    11
 71
     3
 72
    26
 73
    22
 74
     0
 42
0.0000000001
 43
0.0000000001
 12
1.0
 22
0.0
 32
0.0
 13
1.0
 23
0.0
 33
0.0
 40
0.0
 40
0.0
 40
0.0
 40
0.0
 40
1.0
 40
1.0
 40
1.0
 40
2.0
 40
2.0
 40
2.0
 40
3.0
 40
3.0
 40
3.0
 40
4.0
 40
4.0
 40
4.0
 40
5.0
 40
5.0
 40
5.0
 40
6.0
 40
6.0
 40
6.0
 40
7.0
 40
7.0
 40
7.0
 40
7.0
 10
99.12642141619062
 20
-125.8741427636704
 30
0.0
 10
99.12642141619062
 20
-125.8741427636704
 30
0.0
 10
98.02226831316806
 20
-125.8741427636704
 30
0.0
 10
98.02226831316806
 20
-125.8741427636704
 30
0.0
 10
98.02226831316806
 20
-125.8741427636704
 30
0.0
 10
98.02226831316806
 20
-126.2041829111573
 30
0.0
 10
98.02226831316806
 20
-126.2041829111573
 30
0.0
 10
98.02226831316806
 20
-126.2041829111573
 30
0.0
 10
97.8741292073023
 20
-126.2041829111573
 30
0.0
 10
97.8741292073023
 20
-126.2041829111573
 30
0.0
 10
97.85931529671574
 20
-125.8720757063792
 30
0.0
 10
97.69636228026341
 20
-125.8255669173283
 30
0.0
 10
97.58198511015311
 20
-125.7959390961552
 30
0.0
 10
97.58198511015311
 20
-125.7959390961552
 30
0.0
 10
97.58198511015311
 20
-125.6498670475806
 30
0.0
 10
97.58198511015311
 20
-125.6498670475806
 30
0.0
 10
97.58198511015311
 20
-125.6498670475806
 30
0.0
 10
99.12642141619062
 20
-125.6498670475806
 30
0.0
 10
99.12642141619062
 20
-125.6498670475806
 30
0.0
 10
99.12642141619062
 20
-125.6498670475806
 30
0.0
 10
99.12642141619062
 20
-125.8741427636704
 30
0.0
 10
99.12642141619062
 20
-125.8741427636704
 30
0.0
  0
HATCH
  5
E1
330
DC
100
AcDbEntity
  8
_U+30EC_U+30A4_U+30E4_U+30FC 1
 62
   179
420
  2234388
100
AcDbHatch
 10
0.0
 20
0.0
 30
0.0
210
0.0
220
0.0
230
1.0
  2
SOLID
 70
     1
 71
     0
 91
        1
 92
        1
 93
        1
 72
     4
 94
        3
 73
     0
 74
     1
 95
       26
 96
       22
 40
0.0
 40
0.0
 40
0.0
 40
0.0
 40
1.0
 40
1.0
 40
1.0
 40
2.0
 40
2.0
 40
2.0
 40
3.0
 40
3.0
 40
3.0
 40
4.0
 40
4.0
 40
4.0
 40
5.0
 40
5.0
 40
5.0
 40
6.0
 40
6.0
 40
6.0
 40
7.0
 40
7.0
 40
7.0
 40
7.0
 10
99.12642141619062
 20
-125.8741427636704
 10
99.12642141619062
 20
-125.8741427636704
 10
98.02226831316806
 20
-125.8741427636704
 10
98.02226831316806
 20
-125.8741427636704
 10
98.02226831316806
 20
-125.8741427636704
 10
98.02226831316806
 20
-126.2041829111573
 10
98.02226831316806
 20
-126.2041829111573
 10
98.02226831316806
 20
-126.2041829111573
 10
97.8741292073023
 20
-126.2041829111573
 10
97.8741292073023
 20
-126.2041829111573
 10
97.85931529671574
 20
-125.8720757063792
 10
97.69636228026341
 20
-125.8255669173283
 10
97.58198511015311
 20
-125.7959390961552
 10
97.58198511015311
 20
-125.7959390961552
 10
97.58198511015311
 20
-125.6498670475806
 10
97.58198511015311
 20
-125.6498670475806
 10
97.58198511015311
 20
-125.6498670475806
 10
99.12642141619062
 20
-125.6498670475806
 10
99.12642141619062
 20
-125.6498670475806
 10
99.12642141619062
 20
-125.6498670475806
 10
99.12642141619062
 20
-125.8741427636704
 10
99.12642141619062
 20
-125.8741427636704
 97
        0
 97
        0
 75
     2
 76
     1
 98
        0
  0
SPLINE
  5
E2
330
DC
100
AcDbEntity
  8
_U+30EC_U+30A4_U+30E4_U+30FC 1
370
     0
100
AcDbSpline
210
0.0
220
0.0
230
1.0
 70
    11
 71
     3
 72
    62
 73
    58
 74
     0
 42
0.0000000001
 43
0.0000000001
 12
1.0
 22
0.0
 32
0.0
 13
1.0
 23
0.0
 33
0.0
 40
0.0
 40
0.0
 40
0.0
 40
0.0
 40
1.0
 40
1.0
 40
1.0
 40
2.0
 40
2.0
 40
2.0
 40
3.0
 40
3.0
 40
3.0
 40
4.0
 40
4.0
 40
4.0
 40
5.0
 40
5.0
 40
5.0
 40
6.0
 40
6.0
 40
6.0
 40
7.0
 40
7.0
 40
7.0
 40
8.0
 40
8.0
 40
8.0
 40
9.0
 40
9.0
 40
9.0
 40
10.0
 40
10.0
 40
10.0
 40
11.0
 40
11.0
 40
11.0
 40
12.0
 40
12.0
 40
12.0
 40
13.0
 40
13.0
 40
13.0
 40
14.0
 40
14.0
 40
14.0
 40
15.0
 40
15.0
 40
15.0
 40
16.0
 40
16.0
 40
16.0
 40
17.0
 40
17.0
 40
17.0
 40
18.0
 40
18.0
 40
18.0
 40
19.0
 40
19.0
 40
19.0
 40
19.0
 10
99.1770643198238
 20
-124.6569905287316
 30
0.0
 10
99.1770643198238
 20
-124.752419673673
 30
0.0
 10
99.15604923736377
 20
-124.9701497083408
 30
0.0
 10
98.97001408116027
 20
-125.0952066744554
 30
0.0
 10
98.85770396834113
 20
-125.1692762273882
 30
0.0
 10
98.75848521836593
 20
-125.1734103419705
 30
0.0
 10
98.6737358694288
 20
-125.1775444565528
 30
0.0
 10
98.6737358694288
 20
-125.1775444565528
 30
0.0
 10
98.6737358694288
 20
-124.9574028550454
 30
0.0
 10
98.6737358694288
 20
-124.9574028550454
 30
0.0
 10
98.74780542236167
 20
-124.9553357977542
 30
0.0
 10
98.98241642490717
 20
-124.9450005112985
 30
0.0
 10
98.98241642490717
 20
-124.6614691528624
 30
0.0
 10
98.98241642490717
 20
-124.524009843001
 30
0.0
 10
98.91282549610513
 20
-124.3713921130044
 30
0.0
 10
98.68441566543306
 20
-124.3713921130044
 30
0.0
 10
98.56797143803162
 20
-124.3713921130044
 30
0.0
 10
98.5193955916896
 20
-124.4096326728907
 30
0.0
 10
98.48770071322531
 20
-124.4413275513549
 30
0.0
 10
98.41363116029243
 20
-124.5153971042878
 30
0.0
 10
98.400884306997
 20
-124.6318413316893
 30
0.0
 10
98.400884306997
 20
-124.6866183499047
 30
0.0
 10
98.400884306997
 20
-124.7059108846221
 30
0.0
 10
98.40295136428816
 20
-124.7417398776687
 30
0.0
 10
98.40708547887046
 20
-124.7693006415507
 30
0.0
 10
98.40708547887046
 20
-124.7693006415507
 30
0.0
 10
98.21243758395384
 20
-124.7693006415507
 30
0.0
 10
98.21243758395384
 20
-124.7693006415507
 30
0.0
 10
98.21898326537581
 20
-124.7310600816645
 30
0.0
 10
98.22105032266697
 20
-124.6890299167444
 30
0.0
 10
98.22105032266697
 20
-124.6824842353224
 30
0.0
 10
98.22105032266697
 20
-124.6170274211027
 30
0.0
 10
98.19969073065842
 20
-124.4182454116038
 30
0.0
 10
97.96301267082175
 20
-124.4182454116038
 30
0.0
 10
97.78524574378287
 20
-124.4182454116038
 30
0.0
 10
97.73012421601887
 20
-124.5491590400433
 30
0.0
 10
97.73012421601887
 20
-124.6594020955713
 30
0.0
 10
97.73012421601887
 20
-124.9236409192899
 30
0.0
 10
97.96301267082175
 20
-124.932253658003
 30
0.0
 10
98.03467065691495
 20
-124.9363877725853
 30
0.0
 10
98.03467065691495
 20
-124.9363877725853
 30
0.0
 10
98.03467065691495
 20
-125.1396484062151
 30
0.0
 10
98.03467065691495
 20
-125.1396484062151
 30
0.0
 10
97.90995820034891
 20
-125.131035667502
 30
0.0
 10
97.5334092638111
 20
-125.10347490362
 30
0.0
 10
97.5334092638111
 20
-124.6466552422758
 30
0.0
 10
97.5334092638111
 20
-124.4223795261861
 30
0.0
 10
97.66053328721682
 20
-124.1812228422186
 30
0.0
 10
97.95646698939977
 20
-124.1812228422186
 30
0.0
 10
98.14284665515179
 20
-124.1812228422186
 30
0.0
 10
98.22518443724927
 20
-124.2763074776115
 30
0.0
 10
98.28650713688671
 20
-124.3758707371352
 30
0.0
 10
98.3140679007687
 20
-124.3145480374978
 30
0.0
 10
98.39433862557503
 20
-124.1326469958766
 30
0.0
 10
98.67166881213764
 20
-124.1326469958766
 30
0.0
 10
99.00997718878918
 20
-124.1326469958766
 30
0.0
 10
99.1770643198238
 20
-124.3800048517175
 30
0.0
 10
99.1770643198238
 20
-124.6569905287316
 30
0.0
  0
HATCH
  5
E3
330
DC
100
AcDbEntity
  8
_U+30EC_U+30A4_U+30E4_U+30FC 1
 62
   179
420
  2234388
100
AcDbHatch
 10
0.0
 20
0.0
 30
0.0
210
0.0
220
0.0
230
1.0
  2
SOLID
 70
     1
 71
     0
 91
        1
 92
        1
 93
        1
 72
     4
 94
        3
 73
     0
 74
     1
 95
       62
 96
       58
 40
0.0
 40
0.0
 40
0.0
 40
0.0
 40
1.0
 40
1.0
 40
1.0
 40
2.0
 40
2.0
 40
2.0
 40
3.0
 40
3.0
 40
3.0
 40
4.0
 40
4.0
 40
4.0
 40
5.0
 40
5.0
 40
5.0
 40
6.0
 40
6.0
 40
6.0
 40
7.0
 40
7.0
 40
7.0
 40
8.0
 40
8.0
 40
8.0
 40
9.0
 40
9.0
 40
9.0
 40
10.0
 40
10.0
 40
10.0
 40
11.0
 40
11.0
 40
11.0
 40
12.0
 40
12.0
 40
12.0
 40
13.0
 40
13.0
 40
13.0
 40
14.0
 40
14.0
 40
14.0
 40
15.0
 40
15.0
 40
15.0
 40
16.0
 40
16.0
 40
16.0
 40
17.0
 40
17.0
 40
17.0
 40
18.0
 40
18.0
 40
18.0
 40
19.0
 40
19.0
 40
19.0
 40
19.0
 10
99.1770643198238
 20
-124.6569905287316
 10
99.1770643198238
 20
-124.752419673673
 10
99.15604923736377
 20
-124.9701497083408
 10
98.97001408116027
 20
-125.0952066744554
 10
98.85770396834113
 20
-125.1692762273882
 10
98.75848521836593
 20
-125.1734103419705
 10
98.6737358694288
 20
-125.1775444565528
 10
98.6737358694288
 20
-125.1775444565528
 10
98.6737358694288
 20
-124.9574028550454
 10
98.6737358694288
 20
-124.9574028550454
 10
98.74780542236167
 20
-124.9553357977542
 10
98.98241642490717
 20
-124.9450005112985
 10
98.98241642490717
 20
-124.6614691528624
 10
98.98241642490717
 20
-124.524009843001
 10
98.91282549610513
 20
-124.3713921130044
 10
98.68441566543306
 20
-124.3713921130044
 10
98.56797143803162
 20
-124.3713921130044
 10
98.5193955916896
 20
-124.4096326728907
 10
98.48770071322531
 20
-124.4413275513549
 10
98.41363116029243
 20
-124.5153971042878
 10
98.400884306997
 20
-124.6318413316893
 10
98.400884306997
 20
-124.6866183499047
 10
98.400884306997
 20
-124.7059108846221
 10
98.40295136428816
 20
-124.7417398776687
 10
98.40708547887046
 20
-124.7693006415507
 10
98.40708547887046
 20
-124.7693006415507
 10
98.21243758395384
 20
-124.7693006415507
 10
98.21243758395384
 20
-124.7693006415507
 10
98.21898326537581
 20
-124.7310600816645
 10
98.22105032266697
 20
-124.6890299167444
 10
98.22105032266697
 20
-124.6824842353224
 10
98.22105032266697
 20
-124.6170274211027
 10
98.19969073065842
 20
-124.4182454116038
 10
97.96301267082175
 20
-124.4182454116038
 10
97.78524574378287
 20
-124.4182454116038
 10
97.73012421601887
 20
-124.5491590400433
 10
97.73012421601887
 20
-124.6594020955713
 10
97.73012421601887
 20
-124.9236409192899
 10
97.96301267082175
 20
-124.932253658003
 10
98.03467065691495
 20
-124.9363877725853
 10
98.03467065691495
 20
-124.9363877725853
 10
98.03467065691495
 20
-125.1396484062151
 10
98.03467065691495
 20
-125.1396484062151
 10
97.90995820034891
 20
-125.131035667502
 10
97.5334092638111
 20
-125.10347490362
 10
97.5334092638111
 20
-124.6466552422758
 10
97.5334092638111
 20
-124.4223795261861
 10
97.66053328721682
 20
-124.1812228422186
 10
97.95646698939977
 20
-124.1812228422186
 10
98.14284665515179
 20
-124.1812228422186
 10
98.22518443724927
 20
-124.2763074776115
 10
98.28650713688671
 20
-124.3758707371352
 10
98.3140679007687
 20
-124.3145480374978
 10
98.39433862557503
 20
-124.1326469958766
 10
98.67166881213764
 20
-124.1326469958766
 10
99.00997718878918
 20
-124.1326469958766
 10
99.1770643198238
 20
-124.3800048517175
 10
99.1770643198238
 20
-124.6569905287316
 97
        0
 97
        0
 75
     2
 76
     1
 98
        0
  0
ENDBLK
  5
DF
330
DC
100
AcDbEntity
  8
0
100
AcDbBlockEnd
  0
ENDSEC
  0
SECTION
  2
ENTITIES
  0
INSERT
  5
42
330
1F
100
AcDbEntity
  8
_U+30EC_U+30A4_U+30E4_U+30FC 1
100
AcDbBlockReference
  2
block 2
 10
0.0
 20
0.0
 30
0.0
  0
ENDSEC
  0
SECTION
  2
OBJECTS
  0
DICTIONARY
  5
C
330
0
100
AcDbDictionary
281
     1
  3
ACAD_GROUP
350
D
  3
ACAD_LAYOUT
350
1A
  3
ACAD_MATERIAL
350
3B
  3
ACAD_MLEADERSTYLE
350
E5
  3
ACAD_MLINESTYLE
350
17
  3
ACAD_PLOTSETTINGS
350
19
  3
ACAD_PLOTSTYLENAME
350
E
  3
ACAD_TABLESTYLE
350
E4
  3
ACAD_VISUALSTYLE
350
2A
  0
SUN
  5
3F
330
29
100
AcDbSun
 90
        1
290
     0
 63
     7
421
 16777215
 40
1.0
291
     1
 91
  2455826
 92
 54000000
292
     0
 70
     2
 71
   256
280
     1
  0
DICTIONARY
  5
D
102
{ACAD_REACTORS
330
C
102
}
330
C
100
AcDbDictionary
281
     1
  0
DICTIONARY
  5
1A
102
{ACAD_REACTORS
330
C
102
}
330
C
100
AcDbDictionary
281
     1
  3
Layout1
350
1E
  3
Layout2
350
26
  3
Model
350
22
  0
DICTIONARY
  5
3B
102
{ACAD_REACTORS
330
C
102
}
330
C
100
AcDbDictionary
281
     1
  3
ByBlock
350
3D
  3
ByLayer
350
3C
  3
Global
350
3E
  0
DICTIONARY
  5
E5
102
{ACAD_REACTORS
330
C
102
}
330
C
100
AcDbDictionary
281
     1
  0
DICTIONARY
  5
17
102
{ACAD_REACTORS
330
C
102
}
330
C
100
AcDbDictionary
281
     1
  3
Standard
350
18
  0
DICTIONARY
  5
19
102
{ACAD_REACTORS
330
C
102
}
330
C
100
AcDbDictionary
281
     1
  0
ACDBDICTIONARYWDFLT
  5
E
102
{ACAD_REACTORS
330
C
102
}
330
C
100
AcDbDictionary
281
     1
  3
Normal
350
F
100
AcDbDictionaryWithDefault
340
F
  0
DICTIONARY
  5
E4
102
{ACAD_REACTORS
330
C
102
}
330
C
100
AcDbDictionary
281
     1
  0
DICTIONARY
  5
2A
102
{ACAD_REACTORS
330
C
102
}
330
C
100
AcDbDictionary
281
     1
  3
2dWireframe
350
2F
  3
3D Hidden
350
31
  3
3dWireframe
350
30
  3
Basic
350
32
  3
Brighten
350
36
  3
ColorChange
350
3A
  3
Conceptual
350
34
  3
Dim
350
35
  3
Facepattern
350
39
  3
Flat
350
2B
  3
FlatWithEdges
350
2C
  3
Gouraud
350
2D
  3
GouraudWithEdges
350
2E
  3
Linepattern
350
38
  3
Realistic
350
33
  3
Thicken
350
37
  0
LAYOUT
  5
1E
102
{ACAD_REACTORS
330
1A
102
}
330
1A
100
AcDbPlotSettings
  1

  2
none_device
  4

  6

 40
0.0
 41
0.0
 42
0.0
 43
0.0
 44
0.0
 45
0.0
 46
0.0
 47
0.0
 48
0.0
 49
0.0
140
0.0
141
0.0
142
1.0
143
1.0
 70
   688
 72
     0
 73
     0
 74
     5
  7

 75
    16
 76
     0
 77
     2
 78
   300
147
1.0
148
0.0
149
0.0
100
AcDbLayout
  1
Layout1
 70
     1
 71
     1
 10
0.0
 20
0.0
 11
12.0
 21
9.0
 12
0.0
 22
0.0
 32
0.0
 14
1.000000000000000E+20
 24
1.000000000000000E+20
 34
1.000000000000000E+20
 15
-1.000000000000000E+20
 25
-1.000000000000000E+20
 35
-1.000000000000000E+20
146
0.0
 13
0.0
 23
0.0
 33
0.0
 16
1.0
 26
0.0
 36
0.0
 17
0.0
 27
1.0
 37
0.0
 76
     0
330
1B
  0
LAYOUT
  5
26
102
{ACAD_REACTORS
330
1A
102
}
330
1A
100
AcDbPlotSettings
  1

  2
none_device
  4

  6

 40
0.0
 41
0.0
 42
0.0
 43
0.0
 44
0.0
 45
0.0
 46
0.0
 47
0.0
 48
0.0
 49
0.0
140
0.0
141
0.0
142
1.0
143
1.0
 70
   688
 72
     0
 73
     0
 74
     5
  7

 75
    16
 76
     0
 77
     2
 78
   300
147
1.0
148
0.0
149
0.0
100
AcDbLayout
  1
Layout2
 70
     1
 71
     2
 10
0.0
 20
0.0
 11
0.0
 21
0.0
 12
0.0
 22
0.0
 32
0.0
 14
0.0
 24
0.0
 34
0.0
 15
0.0
 25
0.0
 35
0.0
146
0.0
 13
0.0
 23
0.0
 33
0.0
 16
1.0
 26
0.0
 36
0.0
 17
0.0
 27
1.0
 37
0.0
 76
     0
330
23
  0
LAYOUT
  5
22
102
{ACAD_REACTORS
330
1A
102
}
330
1A
100
AcDbPlotSettings
  1

  2
none_device
  4

  6

 40
0.0
 41
0.0
 42
0.0
 43
0.0
 44
0.0
 45
0.0
 46
0.0
 47
0.0
 48
0.0
 49
0.0
140
0.0
141
0.0
142
1.0
143
1.0
 70
  1712
 72
     0
 73
     0
 74
     0
  7

 75
     0
 76
     0
 77
     2
 78
   300
147
1.0
148
0.0
149
0.0
100
AcDbLayout
  1
Model
 70
     1
 71
     0
 10
0.0
 20
0.0
 11
12.0
 21
9.0
 12
0.0
 22
0.0
 32
0.0
 14
1.000000000000000E+20
 24
1.000000000000000E+20
 34
1.000000000000000E+20
 15
-1.000000000000000E+20
 25
-1.000000000000000E+20
 35
-1.000000000000000E+20
146
0.0
 13
0.0
 23
0.0
 33
0.0
 16
1.0
 26
0.0
 36
0.0
 17
0.0
 27
1.0
 37
0.0
 76
     0
330
1F
331
29
  0
MATERIAL
  5
3D
102
{ACAD_REACTORS
330
3B
102
}
330
3B
100
AcDbMaterial
  1
ByBlock
 72
     1
 94
      127
  0
MATERIAL
  5
3C
102
{ACAD_REACTORS
330
3B
102
}
330
3B
100
AcDbMaterial
  1
ByLayer
 72
     1
 94
      127
  0
MATERIAL
  5
3E
102
{ACAD_REACTORS
330
3B
102
}
330
3B
100
AcDbMaterial
  1
Global
 72
     1
 94
      127
  0
MLINESTYLE
  5
18
102
{ACAD_REACTORS
330
17
102
}
330
17
100
AcDbMlineStyle
  2
Standard
 70
     0
  3

 62
   256
 51
90.0
 52
90.0
 71
     2
 49
0.5
 62
   256
  6
BYLAYER
 49
-0.5
 62
   256
  6
BYLAYER
  0
ACDBPLACEHOLDER
  5
F
102
{ACAD_REACTORS
330
E
102
}
330
E
  0
VISUALSTYLE
  5
2F
102
{ACAD_REACTORS
330
2A
102
}
330
2A
100
AcDbVisualStyle
  2
2dWireframe
 70
     4
177
     2
291
     0
 71
     0
176
     1
 72
     2
176
     1
 73
     0
176
     1
 90
        0
176
     1
 40
-0.6
176
     1
 41
-30.0
176
     1
 62
     5
 63
     7
421
 16777215
176
     1
 74
     1
176
     1
 91
        4
176
     1
 64
     7
176
     1
 65
   257
176
     1
 75
     1
176
     1
175
     1
176
     1
 42
1.0
176
     1
 92
        0
176
     1
 66
   257
176
     1
 43
1.0
176
     1
 76
     1
176
     1
 77
     6
176
     1
 78
     2
176
     1
 67
     7
176
     1
 79
     5
176
     1
170
     0
176
     1
171
     0
176
     1
290
     0
176
     1
 93
        1
176
     1
 44
0.0
176
     1
173
     0
176
     1
  0
VISUALSTYLE
  5
31
102
{ACAD_REACTORS
330
2A
102
}
330
2A
100
AcDbVisualStyle
  2
3D Hidden
 70
     6
177
     2
291
     0
 71
     1
176
     1
 72
     2
176
     1
 73
     2
176
     1
 90
        0
176
     1
 40
-0.6
176
     1
 41
-30.0
176
     1
 62
     5
 63
     7
421
 16777215
176
     1
 74
     2
176
     1
 91
        2
176
     1
 64
     7
176
     1
 65
   257
176
     1
 75
     2
176
     1
175
     1
176
     1
 42
40.0
176
     1
 92
        0
176
     1
 66
   257
176
     1
 43
1.0
176
     1
 76
     1
176
     1
 77
     6
176
     1
 78
     2
176
     1
 67
     7
176
     1
 79
     3
176
     1
170
     0
176
     1
171
     0
176
     1
290
     0
176
     1
 93
        1
176
     1
 44
0.0
176
     1
173
     0
176
     1
  0
VISUALSTYLE
  5
30
102
{ACAD_REACTORS
330
2A
102
}
330
2A
100
AcDbVisualStyle
  2
3dWireframe
 70
     5
177
     2
291
     0
 71
     0
176
     1
 72
     2
176
     1
 73
     0
176
     1
 90
        0
176
     1
 40
-0.6
176
     1
 41
-30.0
176
     1
 62
     5
 63
     7
421
 16777215
176
     1
 74
     1
176
     1
 91
        4
176
     1
 64
     7
176
     1
 65
   257
176
     1
 75
     1
176
     1
175
     1
176
     1
 42
1.0
176
     1
 92
        0
176
     1
 66
   257
176
     1
 43
1.0
176
     1
 76
     1
176
     1
 77
     6
176
     1
 78
     2
176
     1
 67
     7
176
     1
 79
     5
176
     1
170
     0
176
     1
171
     0
176
     1
290
     0
176
     1
 93
        1
176
     1
 44
0.0
176
     1
173
     0
176
     1
  0
VISUALSTYLE
  5
32
102
{ACAD_REACTORS
330
2A
102
}
330
2A
100
AcDbVisualStyle
  2
Basic
 70
     7
177
     2
291
     1
 71
     1
176
     1
 72
     0
176
     1
 73
     1
176
     1
 90
        0
176
     1
 40
-0.6
176
     1
 41
-30.0
176
     1
 62
     5
 63
     7
421
 16777215
176
     1
 74
     0
176
     1
 91
        4
176
     1
 64
     7
176
     1
 65
   257
176
     1
 75
     1
176
     1
175
     1
176
     1
 42
1.0
176
     1
 92
        8
176
     1
 66
     7
176
     1
 43
1.0
176
     1
 76
     1
176
     1
 77
     6
176
     1
 78
     2
176
     1
 67
     7
176
     1
 79
     5
176
     1
170
     0
176
     1
171
     0
176
     1
290
     0
176
     1
 93
        1
176
     1
 44
0.0
176
     1
173
     0
176
     1
  0
VISUALSTYLE
  5
36
102
{ACAD_REACTORS
330
2A
102
}
330
2A
100
AcDbVisualStyle
  2
Brighten
 70
    12
177
     2
291
     1
 71
     2
176
     1
 72
     2
176
     1
 73
     0
176
     1
 90
        0
176
     1
 40
-0.6
176
     1
 41
-30.0
176
     1
 62
     5
 63
     7
421
 16777215
176
     1
 74
     1
176
     1
 91
        4
176
     1
 64
     7
176
     1
 65
   257
176
     1
 75
     1
176
     1
175
     1
176
     1
 42
1.0
176
     1
 92
        8
176
     1
 66
     7
176
     1
 43
1.0
176
     1
 76
     1
176
     1
 77
     6
176
     1
 78
     2
176
     1
 67
     7
176
     1
 79
     5
176
     1
170
     0
176
     1
171
     0
176
     1
290
     0
176
     1
 93
        1
176
     1
 44
50.0
176
     1
173
     0
176
     1
  0
VISUALSTYLE
  5
3A
102
{ACAD_REACTORS
330
2A
102
}
330
2A
100
AcDbVisualStyle
  2
ColorChange
 70
    16
177
     2
291
     1
 71
     2
176
     1
 72
     2
176
     1
 73
     3
176
     1
 90
        0
176
     1
 40
-0.6
176
     1
 41
-30.0
176
     1
 62
     5
 63
     8
421
  8421504
176
     1
 74
     1
176
     1
 91
        4
176
     1
 64
     7
176
     1
 65
   257
176
     1
 75
     1
176
     1
175
     1
176
     1
 42
1.0
176
     1
 92
        8
176
     1
 66
     8
424
  8421504
176
     1
 43
1.0
176
     1
 76
     1
176
     1
 77
     6
176
     1
 78
     2
176
     1
 67
     7
176
     1
 79
     5
176
     1
170
     0
176
     1
171
     0
176
     1
290
     0
176
     1
 93
        1
176
     1
 44
0.0
176
     1
173
     0
176
     1
  0
VISUALSTYLE
  5
34
102
{ACAD_REACTORS
330
2A
102
}
330
2A
100
AcDbVisualStyle
  2
Conceptual
 70
     9
177
     2
291
     0
 71
     3
176
     1
 72
     2
176
     1
 73
     0
176
     1
 90
        0
176
     1
 40
-0.6
176
     1
 41
-30.0
176
     1
 62
     5
 63
     7
421
 16777215
176
     1
 74
     2
176
     1
 91
        2
176
     1
 64
     7
176
     1
 65
   257
176
     1
 75
     1
176
     1
175
     1
176
     1
 42
40.0
176
     1
 92
        8
176
     1
 66
     7
176
     1
 43
1.0
176
     1
 76
     1
176
     1
 77
     6
176
     1
 78
     2
176
     1
 67
     7
176
     1
 79
     3
176
     1
170
     0
176
     1
171
     0
176
     1
290
     0
176
     1
 93
        1
176
     1
 44
0.0
176
     1
173
     0
176
     1
  0
VISUALSTYLE
  5
35
102
{ACAD_REACTORS
330
2A
102
}
330
2A
100
AcDbVisualStyle
  2
Dim
 70
    11
177
     2
291
     1
 71
     2
176
     1
 72
     2
176
     1
 73
     0
176
     1
 90
        0
176
     1
 40
-0.6
176
     1
 41
-30.0
176
     1
 62
     5
 63
     7
421
 16777215
176
     1
 74
     1
176
     1
 91
        4
176
     1
 64
     7
176
     1
 65
   257
176
     1
 75
     1
176
     1
175
     1
176
     1
 42
1.0
176
     1
 92
        8
176
     1
 66
     7
176
     1
 43
1.0
176
     1
 76
     1
176
     1
 77
     6
176
     1
 78
     2
176
     1
 67
     7
176
     1
 79
     5
176
     1
170
     0
176
     1
171
     0
176
     1
290
     0
176
     1
 93
        1
176
     1
 44
-50.0
176
     1
173
     0
176
     1
  0
VISUALSTYLE
  5
39
102
{ACAD_REACTORS
330
2A
102
}
330
2A
100
AcDbVisualStyle
  2
Facepattern
 70
    15
177
     2
291
     1
 71
     2
176
     1
 72
     2
176
     1
 73
     0
176
     1
 90
        0
176
     1
 40
-0.6
176
     1
 41
-30.0
176
     1
 62
     5
 63
     7
421
 16777215
176
     1
 74
     1
176
     1
 91
        4
176
     1
 64
     7
176
     1
 65
   257
176
     1
 75
     1
176
     1
175
     1
176
     1
 42
1.0
176
     1
 92
        8
176
     1
 66
     7
176
     1
 43
1.0
176
     1
 76
     1
176
     1
 77
     6
176
     1
 78
     2
176
     1
 67
     7
176
     1
 79
     5
176
     1
170
     0
176
     1
171
     0
176
     1
290
     0
176
     1
 93
        1
176
     1
 44
0.0
176
     1
173
     0
176
     1
  0
VISUALSTYLE
  5
2B
102
{ACAD_REACTORS
330
2A
102
}
330
2A
100
AcDbVisualStyle
  2
Flat
 70
     0
177
     2
291
     1
 71
     2
176
     1
 72
     1
176
     1
 73
     1
176
     1
 90
        2
176
     1
 40
-0.6
176
     1
 41
30.0
176
     1
 62
     5
 63
     7
421
 16777215
176
     1
 74
     0
176
     1
 91
        4
176
     1
 64
     7
176
     1
 65
   257
176
     1
 75
     1
176
     1
175
     1
176
     1
 42
1.0
176
     1
 92
        8
176
     1
 66
     7
176
     1
 43
1.0
176
     1
 76
     1
176
     1
 77
     6
176
     1
 78
     2
176
     1
 67
     7
176
     1
 79
     5
176
     1
170
     0
176
     1
171
     0
176
     1
290
     0
176
     1
 93
       13
176
     1
 44
0.0
176
     1
173
     0
176
     1
  0
VISUALSTYLE
  5
2C
102
{ACAD_REACTORS
330
2A
102
}
330
2A
100
AcDbVisualStyle
  2
FlatWithEdges
 70
     1
177
     2
291
     1
 71
     2
176
     1
 72
     1
176
     1
 73
     1
176
     1
 90
        2
176
     1
 40
-0.6
176
     1
 41
30.0
176
     1
 62
     5
 63
     7
421
 16777215
176
     1
 74
     1
176
     1
 91
        4
176
     1
 64
     7
176
     1
 65
   257
176
     1
 75
     1
176
     1
175
     1
176
     1
 42
1.0
176
     1
 92
        0
176
     1
 66
   257
176
     1
 43
1.0
176
     1
 76
     1
176
     1
 77
     6
176
     1
 78
     2
176
     1
 67
     7
176
     1
 79
     5
176
     1
170
     0
176
     1
171
     0
176
     1
290
     0
176
     1
 93
       13
176
     1
 44
0.0
176
     1
173
     0
176
     1
  0
VISUALSTYLE
  5
2D
102
{ACAD_REACTORS
330
2A
102
}
330
2A
100
AcDbVisualStyle
  2
Gouraud
 70
     2
177
     2
291
     1
 71
     2
176
     1
 72
     2
176
     1
 73
     1
176
     1
 90
        2
176
     1
 40
-0.6
176
     1
 41
30.0
176
     1
 62
     5
 63
     7
421
 16777215
176
     1
 74
     0
176
     1
 91
        4
176
     1
 64
     7
176
     1
 65
   257
176
     1
 75
     1
176
     1
175
     1
176
     1
 42
1.0
176
     1
 92
        0
176
     1
 66
     7
176
     1
 43
1.0
176
     1
 76
     1
176
     1
 77
     6
176
     1
 78
     2
176
     1
 67
     7
176
     1
 79
     5
176
     1
170
     0
176
     1
171
     0
176
     1
290
     0
176
     1
 93
       13
176
     1
 44
0.0
176
     1
173
     0
176
     1
  0
VISUALSTYLE
  5
2E
102
{ACAD_REACTORS
330
2A
102
}
330
2A
100
AcDbVisualStyle
  2
GouraudWithEdges
 70
     3
177
     2
291
     1
 71
     2
176
     1
 72
     2
176
     1
 73
     1
176
     1
 90
        2
176
     1
 40
-0.6
176
     1
 41
30.0
176
     1
 62
     5
 63
     7
421
 16777215
176
     1
 74
     1
176
     1
 91
        4
176
     1
 64
     7
176
     1
 65
   257
176
     1
 75
     1
176
     1
175
     1
176
     1
 42
1.0
176
     1
 92
        0
176
     1
 66
   257
176
     1
 43
1.0
176
     1
 76
     1
176
     1
 77
     6
176
     1
 78
     2
176
     1
 67
     7
176
     1
 79
     5
176
     1
170
     0
176
     1
171
     0
176
     1
290
     0
176
     1
 93
       13
176
     1
 44
0.0
176
     1
173
     0
176
     1
  0
VISUALSTYLE
  5
38
102
{ACAD_REACTORS
330
2A
102
}
330
2A
100
AcDbVisualStyle
  2
Linepattern
 70
    14
177
     2
291
     1
 71
     2
176
     1
 72
     2
176
     1
 73
     0
176
     1
 90
        0
176
     1
 40
-0.6
176
     1
 41
-30.0
176
     1
 62
     5
 63
     7
421
 16777215
176
     1
 74
     1
176
     1
 91
        4
176
     1
 64
     7
176
     1
 65
   257
176
     1
 75
     7
176
     1
175
     7
176
     1
 42
1.0
176
     1
 92
        8
176
     1
 66
     7
176
     1
 43
1.0
176
     1
 76
     1
176
     1
 77
     6
176
     1
 78
     2
176
     1
 67
     7
176
     1
 79
     5
176
     1
170
     0
176
     1
171
     0
176
     1
290
     0
176
     1
 93
        1
176
     1
 44
0.0
176
     1
173
     0
176
     1
  0
VISUALSTYLE
  5
33
102
{ACAD_REACTORS
330
2A
102
}
330
2A
100
AcDbVisualStyle
  2
Realistic
 70
     8
177
     2
291
     0
 71
     2
176
     1
 72
     2
176
     1
 73
     0
176
     1
 90
        0
176
     1
 40
-0.6
176
     1
 41
-30.0
176
     1
 62
     5
 63
     7
421
 16777215
176
     1
 74
     1
176
     1
 91
        0
176
     1
 64
     7
176
     1
 65
   257
176
     1
 75
     1
176
     1
175
     1
176
     1
 42
1.0
176
     1
 92
        8
176
     1
 66
     8
424
  7895160
176
     1
 43
1.0
176
     1
 76
     1
176
     1
 77
     6
176
     1
 78
     2
176
     1
 67
     7
176
     1
 79
     5
176
     1
170
     0
176
     1
171
     0
176
     1
290
     0
176
     1
 93
       13
176
     1
 44
0.0
176
     1
173
     0
176
     1
  0
VISUALSTYLE
  5
37
102
{ACAD_REACTORS
330
2A
102
}
330
2A
100
AcDbVisualStyle
  2
Thicken
 70
    13
177
     2
291
     1
 71
     2
176
     1
 72
     2
176
     1
 73
     0
176
     1
 90
        0
176
     1
 40
-0.6
176
     1
 41
-30.0
176
     1
 62
     5
 63
     7
421
 16777215
176
     1
 74
     1
176
     1
 91
        4
176
     1
 64
     7
176
     1
 65
   257
176
     1
 75
     1
176
     1
175
     1
176
     1
 42
1.0
176
     1
 92
       12
176
     1
 66
     7
176
     1
 43
1.0
176
     1
 76
     1
176
     1
 77
     6
176
     1
 78
     2
176
     1
 67
     7
176
     1
 79
     5
176
     1
170
     0
176
     1
171
     0
176
     1
290
     0
176
     1
 93
        1
176
     1
 44
0.0
176
     1
173
     0
176
     1
  0
ENDSEC
  0
EOF
