  0
SECTION
  2
HEADER
  9
$ACADVER
  1
AC1024
  9
$ACADMAINTVER
 70
     6
  9
$DWGCODEPAGE
  3
UNDEFINED
  9
$INSBASE
 10
0.0
 20
0.0
 30
0.0
  9
$EXTMIN
 10
1.000000000000000E+20
 20
1.000000000000000E+20
 30
1.000000000000000E+20
  9
$EXTMAX
 10
-1.000000000000000E+20
 20
-1.000000000000000E+20
 30
-1.000000000000000E+20
  9
$LIMMIN
 10
0.0
 20
0.0
  9
$LIMMAX
 10
12.0
 20
9.0
  9
$ORTHOMODE
 70
     0
  9
$REGENMODE
 70
     1
  9
$FILLMODE
 70
     1
  9
$QTEXTMODE
 70
     0
  9
$MIRRTEXT
 70
     1
  9
$LTSCALE
 40
1.0
  9
$ATTMODE
 70
     1
  9
$TEXTSIZE
 40
0.2
  9
$TRACEWID
 40
0.05
  9
$TEXTSTYLE
  7
Standard
  9
$CLAYER
  8
0
  9
$CELTYPE
  6
ByLayer
  9
$CECOLOR
 62
   256
  9
$CELTSCALE
 40
1.0
  9
$DISPSILH
 70
     0
  9
$DIMSCALE
 40
1.0
  9
$DIMASZ
 40
0.18
  9
$DIMEXO
 40
0.0625
  9
$DIMDLI
 40
0.38
  9
$DIMRND
 40
0.0
  9
$DIMDLE
 40
0.0
  9
$DIMEXE
 40
0.18
  9
$DIMTP
 40
0.0
  9
$DIMTM
 40
0.0
  9
$DIMTXT
 40
0.18
  9
$DIMCEN
 40
0.09
  9
$DIMTSZ
 40
0.0
  9
$DIMTOL
 70
     0
  9
$DIMLIM
 70
     0
  9
$DIMTIH
 70
     1
  9
$DIMTOH
 70
     1
  9
$DIMSE1
 70
     0
  9
$DIMSE2
 70
     0
  9
$DIMTAD
 70
     0
  9
$DIMZIN
 70
     0
  9
$DIMBLK
  1

  9
$DIMASO
 70
     1
  9
$DIMSHO
 70
     1
  9
$DIMPOST
  1

  9
$DIMAPOST
  1

  9
$DIMALT
 70
     0
  9
$DIMALTD
 70
     2
  9
$DIMALTF
 40
25.4
  9
$DIMLFAC
 40
1.0
  9
$DIMTOFL
 70
     0
  9
$DIMTVP
 40
0.0
  9
$DIMTIX
 70
     0
  9
$DIMSOXD
 70
     0
  9
$DIMSAH
 70
     0
  9
$DIMBLK1
  1

  9
$DIMBLK2
  1

  9
$DIMSTYLE
  2
Standard
  9
$DIMCLRD
 70
     0
  9
$DIMCLRE
 70
     0
  9
$DIMCLRT
 70
     0
  9
$DIMTFAC
 40
1.0
  9
$DIMGAP
 40
0.09
  9
$DIMJUST
 70
     0
  9
$DIMSD1
 70
     0
  9
$DIMSD2
 70
     0
  9
$DIMTOLJ
 70
     1
  9
$DIMTZIN
 70
     0
  9
$DIMALTZ
 70
     0
  9
$DIMALTTZ
 70
     0
  9
$DIMUPT
 70
     0
  9
$DIMDEC
 70
     4
  9
$DIMTDEC
 70
     4
  9
$DIMALTU
 70
     2
  9
$DIMALTTD
 70
     2
  9
$DIMTXSTY
  7
Standard
  9
$DIMAUNIT
 70
     0
  9
$DIMADEC
 70
     0
  9
$DIMALTRND
 40
0.0
  9
$DIMAZIN
 70
     0
  9
$DIMDSEP
 70
    46
  9
$DIMATFIT
 70
     3
  9
$DIMFRAC
 70
     0
  9
$DIMLDRBLK
  1

  9
$DIMLUNIT
 70
     2
  9
$DIMLWD
 70
    -2
  9
$DIMLWE
 70
    -2
  9
$DIMTMOVE
 70
     0
  9
$DIMFXL
 40
1.0
  9
$DIMFXLON
 70
     0
  9
$DIMJOGANG
 40
0.7853981633974483
  9
$DIMTFILL
 70
     0
  9
$DIMTFILLCLR
 70
     0
  9
$DIMARCSYM
 70
     0
  9
$DIMLTYPE
  6

  9
$DIMLTEX1
  6

  9
$DIMLTEX2
  6

  9
$DIMTXTDIRECTION
 70
     0
  9
$LUNITS
 70
     2
  9
$LUPREC
 70
     4
  9
$SKETCHINC
 40
0.1
  9
$FILLETRAD
 40
0.5
  9
$AUNITS
 70
     0
  9
$AUPREC
 70
     0
  9
$MENU
  1
.
  9
$ELEVATION
 40
0.0
  9
$PELEVATION
 40
0.0
  9
$THICKNESS
 40
0.0
  9
$LIMCHECK
 70
     0
  9
$CHAMFERA
 40
0.5
  9
$CHAMFERB
 40
0.5
  9
$CHAMFERC
 40
1.0
  9
$CHAMFERD
 40
0.0
  9
$SKPOLY
 70
     0
  9
$TDCREATE
 40
2457917.616863414
  9
$TDUCREATE
 40
2457917.241863426
  9
$TDUPDATE
 40
2457917.616863414
  9
$TDUUPDATE
 40
2457917.241863426
  9
$TDINDWG
 40
0.0000000116
  9
$TDUSRTIMER
 40
0.0000000116
  9
$USRTIMER
 70
     1
  9
$ANGBASE
 50
0.0
  9
$ANGDIR
 70
     0
  9
$PDMODE
 70
     0
  9
$PDSIZE
 40
0.0
  9
$PLINEWID
 40
0.0
  9
$SPLFRAME
 70
     0
  9
$SPLINETYPE
 70
     6
  9
$SPLINESEGS
 70
     8
  9
$HANDSEED
  5
E7
  9
$SURFTAB1
 70
     6
  9
$SURFTAB2
 70
     6
  9
$SURFTYPE
 70
     6
  9
$SURFU
 70
     6
  9
$SURFV
 70
     6
  9
$UCSBASE
  2

  9
$UCSNAME
  2

  9
$UCSORG
 10
0.0
 20
0.0
 30
0.0
  9
$UCSXDIR
 10
1.0
 20
0.0
 30
0.0
  9
$UCSYDIR
 10
0.0
 20
1.0
 30
0.0
  9
$UCSORTHOREF
  2

  9
$UCSORTHOVIEW
 70
     0
  9
$UCSORGTOP
 10
0.0
 20
0.0
 30
0.0
  9
$UCSORGBOTTOM
 10
0.0
 20
0.0
 30
0.0
  9
$UCSORGLEFT
 10
0.0
 20
0.0
 30
0.0
  9
$UCSORGRIGHT
 10
0.0
 20
0.0
 30
0.0
  9
$UCSORGFRONT
 10
0.0
 20
0.0
 30
0.0
  9
$UCSORGBACK
 10
0.0
 20
0.0
 30
0.0
  9
$PUCSBASE
  2

  9
$PUCSNAME
  2

  9
$PUCSORG
 10
0.0
 20
0.0
 30
0.0
  9
$PUCSXDIR
 10
1.0
 20
0.0
 30
0.0
  9
$PUCSYDIR
 10
0.0
 20
1.0
 30
0.0
  9
$PUCSORTHOREF
  2

  9
$PUCSORTHOVIEW
 70
     0
  9
$PUCSORGTOP
 10
0.0
 20
0.0
 30
0.0
  9
$PUCSORGBOTTOM
 10
0.0
 20
0.0
 30
0.0
  9
$PUCSORGLEFT
 10
0.0
 20
0.0
 30
0.0
  9
$PUCSORGRIGHT
 10
0.0
 20
0.0
 30
0.0
  9
$PUCSORGFRONT
 10
0.0
 20
0.0
 30
0.0
  9
$PUCSORGBACK
 10
0.0
 20
0.0
 30
0.0
  9
$USERI1
 70
     0
  9
$USERI2
 70
     0
  9
$USERI3
 70
     0
  9
$USERI4
 70
     0
  9
$USERI5
 70
     0
  9
$USERR1
 40
0.0
  9
$USERR2
 40
0.0
  9
$USERR3
 40
0.0
  9
$USERR4
 40
0.0
  9
$USERR5
 40
0.0
  9
$WORLDVIEW
 70
     1
  9
$SHADEDGE
 70
     3
  9
$SHADEDIF
 70
    70
  9
$TILEMODE
 70
     1
  9
$MAXACTVP
 70
    64
  9
$PINSBASE
 10
0.0
 20
0.0
 30
0.0
  9
$PLIMCHECK
 70
     0
  9
$PEXTMIN
 10
1.000000000000000E+20
 20
1.000000000000000E+20
 30
1.000000000000000E+20
  9
$PEXTMAX
 10
-1.000000000000000E+20
 20
-1.000000000000000E+20
 30
-1.000000000000000E+20
  9
$PLIMMIN
 10
0.0
 20
0.0
  9
$PLIMMAX
 10
12.0
 20
9.0
  9
$UNITMODE
 70
     0
  9
$VISRETAIN
 70
     1
  9
$PLINEGEN
 70
     0
  9
$PSLTSCALE
 70
     1
  9
$TREEDEPTH
 70
  3020
  9
$CMLSTYLE
  2
Standard
  9
$CMLJUST
 70
     0
  9
$CMLSCALE
 40
1.0
  9
$PROXYGRAPHICS
 70
     1
  9
$MEASUREMENT
 70
     0
  9
$CELWEIGHT
370
    -1
  9
$ENDCAPS
280
     0
  9
$JOINSTYLE
280
     0
  9
$LWDISPLAY
290
     1
  9
$INSUNITS
 70
     1
  9
$HYPERLINKBASE
  1

  9
$STYLESHEET
  1

  9
$XEDIT
290
     1
  9
$CEPSNTYPE
380
     0
  9
$PSTYLEMODE
290
     1
  9
$FINGERPRINTGUID
  2
{737AED5C-117F-AD59-A402-CF5B23360E0F}
  9
$VERSIONGUID
  2
{FAEB1C32-E019-11D5-929B-00C0DF256EC4}
  9
$EXTNAMES
290
     1
  9
$PSVPSCALE
 40
0.0
  9
$OLESTARTUP
290
     0
  9
$SORTENTS
280
   127
  9
$INDEXCTL
280
     0
  9
$HIDETEXT
280
     1
  9
$XCLIPFRAME
280
     2
  9
$HALOGAP
280
     0
  9
$OBSCOLOR
 70
   257
  9
$OBSLTYPE
280
     0
  9
$INTERSECTIONDISPLAY
280
     0
  9
$INTERSECTIONCOLOR
 70
   257
  9
$DIMASSOC
280
     2
  9
$PROJECTNAME
  1

  9
$CAMERADISPLAY
290
     0
  9
$LENSLENGTH
 40
50.0
  9
$CAMERAHEIGHT
 40
0.0
  9
$STEPSPERSEC
 40
2.0
  9
$STEPSIZE
 40
6.0
  9
$3DDWFPREC
 40
2.0
  9
$PSOLWIDTH
 40
0.25
  9
$PSOLHEIGHT
 40
4.0
  9
$LOFTANG1
 40
1.570796326794897
  9
$LOFTANG2
 40
1.570796326794897
  9
$LOFTMAG1
 40
0.0
  9
$LOFTMAG2
 40
0.0
  9
$LOFTPARAM
 70
     7
  9
$LOFTNORMALS
280
     1
  9
$LATITUDE
 40
37.795
  9
$LONGITUDE
 40
-122.394
  9
$NORTHDIRECTION
 40
0.0
  9
$TIMEZONE
 70
 -8000
  9
$LIGHTGLYPHDISPLAY
280
     1
  9
$TILEMODELIGHTSYNCH
280
     1
  9
$CMATERIAL
347
3C
  9
$SOLIDHIST
280
     1
  9
$SHOWHIST
280
     1
  9
$DWFFRAME
280
     2
  9
$DGNFRAME
280
     2
  9
$REALWORLDSCALE
290
     1
  9
$INTERFERECOLOR
 62
   256
  9
$CSHADOW
280
     0
  9
$SHADOWPLANELOCATION
 40
0.0
  0
ENDSEC
  0
SECTION
  2
CLASSES
  0
CLASS
  1
ACDBDICTIONARYWDFLT
  2
AcDbDictionaryWithDefault
  3
ObjectDBX Classes
 90
        0
 91
        4
280
     0
281
     0
  0
CLASS
  1
VISUALSTYLE
  2
AcDbVisualStyle
  3
ObjectDBX Classes
 90
     4095
 91
        4
280
     0
281
     0
  0
CLASS
  1
MATERIAL
  2
AcDbMaterial
  3
ObjectDBX Classes
 90
     1153
 91
        4
280
     0
281
     0
  0
CLASS
  1
SUN
  2
AcDbSun
  3
SCENEOE
 90
     1024
 91
        4
280
     0
281
     0
  0
ENDSEC
  0
SECTION
  2
TABLES
  0
TABLE
  2
VPORT
  5
8
330
0
100
AcDbSymbolTable
 70
     1
  0
VPORT
  5
29
330
8
100
AcDbSymbolTableRecord
100
AcDbViewportTableRecord
  2
*Active
 70
     0
 10
0.0
 20
0.0
 11
1.0
 21
1.0
 12
0.0
 22
0.0
 13
0.0
 23
0.0
 14
0.5
 24
0.5
 15
0.5
 25
0.5
 16
0.0
 26
0.0
 36
1.0
 17
91.00082462281999
 27
-128.4993055234307
 37
0.0
 40
256.9986110468615
 41
0.7081814508812795
 42
50.0
 43
0.0
 44
0.0
 50
0.0
 51
0.0
 71
     0
 72
   100
 73
     1
 74
     3
 75
     0
 76
     0
 77
     0
 78
     0
281
     0
 65
     1
110
0.0
120
0.0
130
0.0
111
1.0
121
0.0
131
0.0
112
0.0
122
1.0
132
0.0
 79
     0
146
0.0
 60
     3
 61
     5
292
     1
282
     1
141
0.0
142
0.0
 63
   250
361
3F
  0
ENDTAB
  0
TABLE
  2
LTYPE
  5
5
330
0
100
AcDbSymbolTable
 70
     1
  0
LTYPE
  5
14
330
5
100
AcDbSymbolTableRecord
100
AcDbLinetypeTableRecord
  2
ByBlock
 70
     0
  3

 72
    65
 73
     0
 40
0.0
  0
LTYPE
  5
15
330
5
100
AcDbSymbolTableRecord
100
AcDbLinetypeTableRecord
  2
ByLayer
 70
     0
  3

 72
    65
 73
     0
 40
0.0
  0
LTYPE
  5
16
330
5
100
AcDbSymbolTableRecord
100
AcDbLinetypeTableRecord
  2
Continuous
 70
     0
  3
Solid line
 72
    65
 73
     0
 40
0.0
  0
ENDTAB
  0
TABLE
  2
LAYER
  5
2
330
0
100
AcDbSymbolTable
 70
     2
  0
LAYER
  5
10
330
2
100
AcDbSymbolTableRecord
100
AcDbLayerTableRecord
  2
0
 70
     0
 62
     7
  6
Continuous
370
    -3
390
F
347
3E
  0
LAYER
  5
40
330
2
100
AcDbSymbolTableRecord
100
AcDbLayerTableRecord
  2
_U+30EC_U+30A4_U+30E4_U+30FC 1
 70
     0
 62
     7
  6
Continuous
370
    -3
390
F
347
3E
  0
ENDTAB
  0
TABLE
  2
STYLE
  5
3
330
0
100
AcDbSymbolTable
 70
     1
  0
STYLE
  5
11
330
3
100
AcDbSymbolTableRecord
100
AcDbTextStyleTableRecord
  2
Standard
 70
     0
 40
0.0
 41
1.0
 50
0.0
 71
     0
 42
0.2
  3
txt
  4

  0
ENDTAB
  0
TABLE
  2
VIEW
  5
6
330
0
100
AcDbSymbolTable
 70
     0
  0
ENDTAB
  0
TABLE
  2
UCS
  5
7
330
0
100
AcDbSymbolTable
 70
     0
  0
ENDTAB
  0
TABLE
  2
APPID
  5
9
330
0
100
AcDbSymbolTable
 70
     1
  0
APPID
  5
12
330
9
100
AcDbSymbolTableRecord
100
AcDbRegAppTableRecord
  2
ACAD
 70
     0
  0
ENDTAB
  0
TABLE
  2
DIMSTYLE
  5
A
330
0
100
AcDbSymbolTable
 70
     1
100
AcDbDimStyleTable
  0
DIMSTYLE
105
27
330
A
100
AcDbSymbolTableRecord
100
AcDbDimStyleTableRecord
  2
Standard
 70
     0
178
     0
340
11
  0
ENDTAB
  0
TABLE
  2
BLOCK_RECORD
  5
1
330
0
100
AcDbSymbolTable
 70
     7
  0
BLOCK_RECORD
  5
1F
330
1
100
AcDbSymbolTableRecord
100
AcDbBlockTableRecord
  2
*Model_Space
340
22
 70
     0
280
     1
281
     0
  0
BLOCK_RECORD
  5
1B
330
1
100
AcDbSymbolTableRecord
100
AcDbBlockTableRecord
  2
*Paper_Space
340
1E
 70
     0
280
     1
281
     0
  0
BLOCK_RECORD
  5
23
330
1
100
AcDbSymbolTableRecord
100
AcDbBlockTableRecord
  2
*Paper_Space0
340
26
 70
     0
280
     1
281
     0
  0
BLOCK_RECORD
  5
41
330
1
100
AcDbSymbolTableRecord
100
AcDbBlockTableRecord
  2
block 2
340
0
102
{BLKREFS
331
42
102
}
 70
     0
280
     1
281
     0
  0
BLOCK_RECORD
  5
8F
330
1
100
AcDbSymbolTableRecord
100
AcDbBlockTableRecord
  2
block 3
340
0
102
{BLKREFS
331
90
102
}
 70
     0
280
     1
281
     0
  0
BLOCK_RECORD
  5
A4
330
1
100
AcDbSymbolTableRecord
100
AcDbBlockTableRecord
  2
block 4
340
0
102
{BLKREFS
331
A5
102
}
 70
     0
280
     1
281
     0
  0
BLOCK_RECORD
  5
BD
330
1
100
AcDbSymbolTableRecord
100
AcDbBlockTableRecord
  2
block 5
340
0
102
{BLKREFS
331
BE
102
}
 70
     0
280
     1
281
     0
  0
BLOCK_RECORD
  5
CB
330
1
100
AcDbSymbolTableRecord
100
AcDbBlockTableRecord
  2
block 6
340
0
102
{BLKREFS
331
CC
102
}
 70
     0
280
     1
281
     0
  0
BLOCK_RECORD
  5
DC
330
1
100
AcDbSymbolTableRecord
100
AcDbBlockTableRecord
  2
block 7
340
0
102
{BLKREFS
331
DD
102
}
 70
     0
280
     1
281
     0
  0
ENDTAB
  0
ENDSEC
  0
SECTION
  2
BLOCKS
  0
BLOCK
  5
20
330
1F
100
AcDbEntity
  8
0
100
AcDbBlockBegin
  2
*Model_Space
 70
     0
 10
0.0
 20
0.0
 30
0.0
  3
*Model_Space
  1

  0
ENDBLK
  5
21
330
1F
100
AcDbEntity
  8
0
100
AcDbBlockEnd
  0
BLOCK
  5
1C
330
1B
100
AcDbEntity
 67
     1
  8
0
100
AcDbBlockBegin
  2
*Paper_Space
 70
     0
 10
0.0
 20
0.0
 30
0.0
  3
*Paper_Space
  1

  0
ENDBLK
  5
1D
330
1B
100
AcDbEntity
 67
     1
  8
0
100
AcDbBlockEnd
  0
BLOCK
  5
24
330
23
100
AcDbEntity
  8
0
100
AcDbBlockBegin
  2
*Paper_Space0
 70
     0
 10
0.0
 20
0.0
 30
0.0
  3
*Paper_Space0
  1

  0
ENDBLK
  5
25
330
23
100
AcDbEntity
  8
0
100
AcDbBlockEnd
  0
BLOCK
  5
43
330
41
100
AcDbEntity
  8
0
100
AcDbBlockBegin
  2
block 2
 70
     0
 10
0.0
 20
0.0
 30
0.0
  3
block 2
  1

  0
POLYLINE
  5
45
330
41
100
AcDbEntity
  8
_U+30EC_U+30A4_U+30E4_U+30FC 1
370
     0
100
AcDb2dPolyline
 66
     1
 10
0.0
 20
0.0
 30
0.0
  0
VERTEX
  5
46
330
45
100
AcDbEntity
  8
_U+30EC_U+30A4_U+30E4_U+30FC 1
370
     0
100
AcDbVertex
100
AcDb2dVertex
 10
75.77006778916675
 20
-140.3249457982524
 30
0.0
  0
VERTEX
  5
47
330
45
100
AcDbEntity
  8
_U+30EC_U+30A4_U+30E4_U+30FC 1
370
     0
100
AcDbVertex
100
AcDb2dVertex
 10
85.76980275633548
 20
-140.3249457982524
 30
0.0
  0
VERTEX
  5
48
330
45
100
AcDbEntity
  8
_U+30EC_U+30A4_U+30E4_U+30FC 1
370
     0
100
AcDbVertex
100
AcDb2dVertex
 10
85.76980275633548
 20
-130.3252127451968
 30
0.0
  0
VERTEX
  5
49
330
45
100
AcDbEntity
  8
_U+30EC_U+30A4_U+30E4_U+30FC 1
370
     0
100
AcDbVertex
100
AcDb2dVertex
 10
84.77003053436293
 20
-130.3252127451968
 30
0.0
  0
VERTEX
  5
4A
330
45
100
AcDbEntity
  8
_U+30EC_U+30A4_U+30E4_U+30FC 1
370
     0
100
AcDbVertex
100
AcDb2dVertex
 10
84.77003053436293
 20
-139.3244680207243
 30
0.0
  0
VERTEX
  5
4B
330
45
100
AcDbEntity
  8
_U+30EC_U+30A4_U+30E4_U+30FC 1
370
     0
100
AcDbVertex
100
AcDb2dVertex
 10
76.76980470810578
 20
-139.3244680207243
 30
0.0
  0
VERTEX
  5
4C
330
45
100
AcDbEntity
  8
_U+30EC_U+30A4_U+30E4_U+30FC 1
370
     0
100
AcDbVertex
100
AcDb2dVertex
 10
76.76980470810578
 20
-120.3245977476965
 30
0.0
  0
VERTEX
  5
4D
330
45
100
AcDbEntity
  8
_U+30EC_U+30A4_U+30E4_U+30FC 1
370
     0
100
AcDbVertex
100
AcDb2dVertex
 10
95.77055644557844
 20
-120.3245977476965
 30
0.0
  0
VERTEX
  5
4E
330
45
100
AcDbEntity
  8
_U+30EC_U+30A4_U+30E4_U+30FC 1
370
     0
100
AcDbVertex
100
AcDb2dVertex
 10
95.77055644557844
 20
-119.3248608035021
 30
0.0
  0
VERTEX
  5
4F
330
45
100
AcDbEntity
  8
_U+30EC_U+30A4_U+30E4_U+30FC 1
370
     0
100
AcDbVertex
100
AcDb2dVertex
 10
75.77006778916675
 20
-119.3248608035021
 30
0.0
  0
VERTEX
  5
50
330
45
100
AcDbEntity
  8
_U+30EC_U+30A4_U+30E4_U+30FC 1
370
     0
100
AcDbVertex
100
AcDb2dVertex
 10
75.77006778916675
 20
-140.3249457982524
 30
0.0
  0
SEQEND
  5
52
330
45
100
AcDbEntity
  8
_U+30EC_U+30A4_U+30E4_U+30FC 1
370
     0
  0
HATCH
  5
51
330
41
100
AcDbEntity
  8
_U+30EC_U+30A4_U+30E4_U+30FC 1
 62
     9
420
 13224394
100
AcDbHatch
 10
0.0
 20
0.0
 30
0.0
210
0.0
220
0.0
230
1.0
  2
SOLID
 70
     1
 71
     0
 91
        1
 92
        1
 93
       10
 72
     1
 10
75.77006778916675
 20
-140.3249457982524
 11
85.76980275633548
 21
-140.3249457982524
 72
     1
 10
85.76980275633548
 20
-140.3249457982524
 11
85.76980275633548
 21
-130.3252127451968
 72
     1
 10
85.76980275633548
 20
-130.3252127451968
 11
84.77003053436293
 21
-130.3252127451968
 72
     1
 10
84.77003053436293
 20
-130.3252127451968
 11
84.77003053436293
 21
-139.3244680207243
 72
     1
 10
84.77003053436293
 20
-139.3244680207243
 11
76.76980470810578
 21
-139.3244680207243
 72
     1
 10
76.76980470810578
 20
-139.3244680207243
 11
76.76980470810578
 21
-120.3245977476965
 72
     1
 10
76.76980470810578
 20
-120.3245977476965
 11
95.77055644557844
 21
-120.3245977476965
 72
     1
 10
95.77055644557844
 20
-120.3245977476965
 11
95.77055644557844
 21
-119.3248608035021
 72
     1
 10
95.77055644557844
 20
-119.3248608035021
 11
75.77006778916675
 21
-119.3248608035021
 72
     1
 10
75.77006778916675
 20
-119.3248608035021
 11
75.77006778916675
 21
-140.3249457982524
 97
        0
 75
     2
 76
     1
 98
        0
  0
POLYLINE
  5
53
330
41
100
AcDbEntity
  8
_U+30EC_U+30A4_U+30E4_U+30FC 1
 62
   179
420
  2234388
370
    25
100
AcDb2dPolyline
 66
     1
 10
0.0
 20
0.0
 30
0.0
  0
VERTEX
  5
54
330
53
100
AcDbEntity
  8
_U+30EC_U+30A4_U+30E4_U+30FC 1
 62
   179
420
  2234388
370
    25
100
AcDbVertex
100
AcDb2dVertex
 10
75.77006778916675
 20
-119.3250019146132
 30
0.0
  0
VERTEX
  5
55
330
53
100
AcDbEntity
  8
_U+30EC_U+30A4_U+30E4_U+30FC 1
 62
   179
420
  2234388
370
    25
100
AcDbVertex
100
AcDb2dVertex
 10
95.77020366780967
 20
-119.3250019146132
 30
0.0
  0
SEQEND
  5
56
330
53
100
AcDbEntity
  8
_U+30EC_U+30A4_U+30E4_U+30FC 1
 62
   179
420
  2234388
370
    25
  0
POLYLINE
  5
57
330
41
100
AcDbEntity
  8
_U+30EC_U+30A4_U+30E4_U+30FC 1
 62
   179
420
  2234388
370
    25
100
AcDb2dPolyline
 66
     1
 10
0.0
 20
0.0
 30
0.0
  0
VERTEX
  5
58
330
57
100
AcDbEntity
  8
_U+30EC_U+30A4_U+30E4_U+30FC 1
 62
   179
420
  2234388
370
    25
100
AcDbVertex
100
AcDb2dVertex
 10
75.77006778916675
 20
-119.3250019146132
 30
0.0
  0
VERTEX
  5
59
330
57
100
AcDbEntity
  8
_U+30EC_U+30A4_U+30E4_U+30FC 1
 62
   179
420
  2234388
370
    25
100
AcDbVertex
100
AcDb2dVertex
 10
75.77006778916675
 20
-140.3249457982524
 30
0.0
  0
SEQEND
  5
5A
330
57
100
AcDbEntity
  8
_U+30EC_U+30A4_U+30E4_U+30FC 1
 62
   179
420
  2234388
370
    25
  0
POLYLINE
  5
5B
330
41
100
AcDbEntity
  8
_U+30EC_U+30A4_U+30E4_U+30FC 1
 62
   179
420
  2234388
370
    25
100
AcDb2dPolyline
 66
     1
 10
0.0
 20
0.0
 30
0.0
  0
VERTEX
  5
5C
330
5B
100
AcDbEntity
  8
_U+30EC_U+30A4_U+30E4_U+30FC 1
 62
   179
420
  2234388
370
    25
100
AcDbVertex
100
AcDb2dVertex
 10
95.77020366780967
 20
-119.3250019146132
 30
0.0
  0
VERTEX
  5
5D
330
5B
100
AcDbEntity
  8
_U+30EC_U+30A4_U+30E4_U+30FC 1
 62
   179
420
  2234388
370
    25
100
AcDbVertex
100
AcDb2dVertex
 10
95.77020366780967
 20
-120.3247741365854
 30
0.0
  0
SEQEND
  5
5E
330
5B
100
AcDbEntity
  8
_U+30EC_U+30A4_U+30E4_U+30FC 1
 62
   179
420
  2234388
370
    25
  0
POLYLINE
  5
5F
330
41
100
AcDbEntity
  8
_U+30EC_U+30A4_U+30E4_U+30FC 1
 62
   179
420
  2234388
370
    25
100
AcDb2dPolyline
 66
     1
 10
0.0
 20
0.0
 30
0.0
  0
VERTEX
  5
60
330
5F
100
AcDbEntity
  8
_U+30EC_U+30A4_U+30E4_U+30FC 1
 62
   179
420
  2234388
370
    25
100
AcDbVertex
100
AcDb2dVertex
 10
76.76980470810578
 20
-120.3247741365854
 30
0.0
  0
VERTEX
  5
61
330
5F
100
AcDbEntity
  8
_U+30EC_U+30A4_U+30E4_U+30FC 1
 62
   179
420
  2234388
370
    25
100
AcDbVertex
100
AcDb2dVertex
 10
95.77020366780967
 20
-120.3247741365854
 30
0.0
  0
SEQEND
  5
62
330
5F
100
AcDbEntity
  8
_U+30EC_U+30A4_U+30E4_U+30FC 1
 62
   179
420
  2234388
370
    25
  0
POLYLINE
  5
63
330
41
100
AcDbEntity
  8
_U+30EC_U+30A4_U+30E4_U+30FC 1
 62
   179
420
  2234388
370
    25
100
AcDb2dPolyline
 66
     1
 10
0.0
 20
0.0
 30
0.0
  0
VERTEX
  5
64
330
63
100
AcDbEntity
  8
_U+30EC_U+30A4_U+30E4_U+30FC 1
 62
   179
420
  2234388
370
    25
100
AcDbVertex
100
AcDb2dVertex
 10
85.76980275633548
 20
-130.3252127451968
 30
0.0
  0
VERTEX
  5
65
330
63
100
AcDbEntity
  8
_U+30EC_U+30A4_U+30E4_U+30FC 1
 62
   179
420
  2234388
370
    25
100
AcDbVertex
100
AcDb2dVertex
 10
85.76980275633548
 20
-140.3249457982524
 30
0.0
  0
SEQEND
  5
66
330
63
100
AcDbEntity
  8
_U+30EC_U+30A4_U+30E4_U+30FC 1
 62
   179
420
  2234388
370
    25
  0
POLYLINE
  5
67
330
41
100
AcDbEntity
  8
_U+30EC_U+30A4_U+30E4_U+30FC 1
 62
   179
420
  2234388
370
    25
100
AcDb2dPolyline
 66
     1
 10
0.0
 20
0.0
 30
0.0
  0
VERTEX
  5
68
330
67
100
AcDbEntity
  8
_U+30EC_U+30A4_U+30E4_U+30FC 1
 62
   179
420
  2234388
370
    25
100
AcDbVertex
100
AcDb2dVertex
 10
84.77003053436293
 20
-130.3252127451968
 30
0.0
  0
VERTEX
  5
69
330
67
100
AcDbEntity
  8
_U+30EC_U+30A4_U+30E4_U+30FC 1
 62
   179
420
  2234388
370
    25
100
AcDbVertex
100
AcDb2dVertex
 10
84.77003053436293
 20
-139.3244680207243
 30
0.0
  0
SEQEND
  5
6A
330
67
100
AcDbEntity
  8
_U+30EC_U+30A4_U+30E4_U+30FC 1
 62
   179
420
  2234388
370
    25
  0
POLYLINE
  5
6B
330
41
100
AcDbEntity
  8
_U+30EC_U+30A4_U+30E4_U+30FC 1
 62
   179
420
  2234388
370
    25
100
AcDb2dPolyline
 66
     1
 10
0.0
 20
0.0
 30
0.0
  0
VERTEX
  5
6C
330
6B
100
AcDbEntity
  8
_U+30EC_U+30A4_U+30E4_U+30FC 1
 62
   179
420
  2234388
370
    25
100
AcDbVertex
100
AcDb2dVertex
 10
76.76980470810578
 20
-120.3247741365854
 30
0.0
  0
VERTEX
  5
6D
330
6B
100
AcDbEntity
  8
_U+30EC_U+30A4_U+30E4_U+30FC 1
 62
   179
420
  2234388
370
    25
100
AcDbVertex
100
AcDb2dVertex
 10
76.76980470810578
 20
-139.3244680207243
 30
0.0
  0
SEQEND
  5
6E
330
6B
100
AcDbEntity
  8
_U+30EC_U+30A4_U+30E4_U+30FC 1
 62
   179
420
  2234388
370
    25
  0
POLYLINE
  5
6F
330
41
100
AcDbEntity
  8
_U+30EC_U+30A4_U+30E4_U+30FC 1
 62
   179
420
  2234388
370
    25
100
AcDb2dPolyline
 66
     1
 10
0.0
 20
0.0
 30
0.0
  0
VERTEX
  5
70
330
6F
100
AcDbEntity
  8
_U+30EC_U+30A4_U+30E4_U+30FC 1
 62
   179
420
  2234388
370
    25
100
AcDbVertex
100
AcDb2dVertex
 10
84.77003053436293
 20
-130.3252127451968
 30
0.0
  0
VERTEX
  5
71
330
6F
100
AcDbEntity
  8
_U+30EC_U+30A4_U+30E4_U+30FC 1
 62
   179
420
  2234388
370
    25
100
AcDbVertex
100
AcDb2dVertex
 10
85.76980275633548
 20
-130.3252127451968
 30
0.0
  0
SEQEND
  5
72
330
6F
100
AcDbEntity
  8
_U+30EC_U+30A4_U+30E4_U+30FC 1
 62
   179
420
  2234388
370
    25
  0
POLYLINE
  5
73
330
41
100
AcDbEntity
  8
_U+30EC_U+30A4_U+30E4_U+30FC 1
 62
   179
420
  2234388
370
    25
100
AcDb2dPolyline
 66
     1
 10
0.0
 20
0.0
 30
0.0
  0
VERTEX
  5
74
330
73
100
AcDbEntity
  8
_U+30EC_U+30A4_U+30E4_U+30FC 1
 62
   179
420
  2234388
370
    25
100
AcDbVertex
100
AcDb2dVertex
 10
75.77006778916675
 20
-140.3249457982524
 30
0.0
  0
VERTEX
  5
75
330
73
100
AcDbEntity
  8
_U+30EC_U+30A4_U+30E4_U+30FC 1
 62
   179
420
  2234388
370
    25
100
AcDbVertex
100
AcDb2dVertex
 10
85.76980275633548
 20
-140.3249457982524
 30
0.0
  0
SEQEND
  5
76
330
73
100
AcDbEntity
  8
_U+30EC_U+30A4_U+30E4_U+30FC 1
 62
   179
420
  2234388
370
    25
  0
POLYLINE
  5
77
330
41
100
AcDbEntity
  8
_U+30EC_U+30A4_U+30E4_U+30FC 1
 62
   179
420
  2234388
370
    25
100
AcDb2dPolyline
 66
     1
 10
0.0
 20
0.0
 30
0.0
  0
VERTEX
  5
78
330
77
100
AcDbEntity
  8
_U+30EC_U+30A4_U+30E4_U+30FC 1
 62
   179
420
  2234388
370
    25
100
AcDbVertex
100
AcDb2dVertex
 10
76.76980470810578
 20
-139.3244680207243
 30
0.0
  0
VERTEX
  5
79
330
77
100
AcDbEntity
  8
_U+30EC_U+30A4_U+30E4_U+30FC 1
 62
   179
420
  2234388
370
    25
100
AcDbVertex
100
AcDb2dVertex
 10
84.77003053436293
 20
-139.3244680207243
 30
0.0
  0
SEQEND
  5
7A
330
77
100
AcDbEntity
  8
_U+30EC_U+30A4_U+30E4_U+30FC 1
 62
   179
420
  2234388
370
    25
  0
SPLINE
  5
7B
330
41
100
AcDbEntity
  8
_U+30EC_U+30A4_U+30E4_U+30FC 1
 62
   179
420
  2234388
370
     9
100
AcDbSpline
210
0.0
220
0.0
230
1.0
 70
    11
 71
     3
 72
    17
 73
    13
 74
     0
 42
0.0000000001
 43
0.0000000001
 12
1.0
 22
0.0
 32
0.0
 13
1.0
 23
0.0
 33
0.0
 40
0.0
 40
0.0
 40
0.0
 40
0.0
 40
1.0
 40
1.0
 40
1.0
 40
2.0
 40
2.0
 40
2.0
 40
3.0
 40
3.0
 40
3.0
 40
4.0
 40
4.0
 40
4.0
 40
4.0
 10
75.86997445328458
 20
-115.3245724711689
 30
0.0
 10
75.86997445328458
 20
-115.2694333045158
 30
0.0
 10
75.82517167664982
 20
-115.2246658045273
 30
0.0
 10
75.77006778916675
 20
-115.2246658045273
 30
0.0
 10
75.71493053662682
 20
-115.2246658045273
 30
0.0
 10
75.6701277588601
 20
-115.2694333045158
 30
0.0
 10
75.6701277588601
 20
-115.3245724711689
 30
0.0
 10
75.6701277588601
 20
-115.3800291378216
 30
0.0
 10
75.71493053662682
 20
-115.4248319155883
 30
0.0
 10
75.77006778916675
 20
-115.4248319155883
 30
0.0
 10
75.82517167664982
 20
-115.4248319155883
 30
0.0
 10
75.86997445328458
 20
-115.3800291378216
 30
0.0
 10
75.86997445328458
 20
-115.3245724711689
 30
0.0
  0
SPLINE
  5
7C
330
41
100
AcDbEntity
  8
_U+30EC_U+30A4_U+30E4_U+30FC 1
 62
   179
420
  2234388
370
     9
100
AcDbSpline
210
0.0
220
0.0
230
1.0
 70
    11
 71
     3
 72
    17
 73
    13
 74
     0
 42
0.0000000001
 43
0.0000000001
 12
1.0
 22
0.0
 32
0.0
 13
1.0
 23
0.0
 33
0.0
 40
0.0
 40
0.0
 40
0.0
 40
0.0
 40
1.0
 40
1.0
 40
1.0
 40
2.0
 40
2.0
 40
2.0
 40
3.0
 40
3.0
 40
3.0
 40
4.0
 40
4.0
 40
4.0
 40
4.0
 10
95.87011033192749
 20
-115.3245724711689
 30
0.0
 10
95.87011033192749
 20
-115.2694333045158
 30
0.0
 10
95.82534283306961
 20
-115.2246658045273
 30
0.0
 10
95.77020366780967
 20
-115.2246658045273
 30
0.0
 10
95.71474700255781
 20
-115.2246658045273
 30
0.0
 10
95.66994422592305
 20
-115.2694333045158
 30
0.0
 10
95.66994422592305
 20
-115.3245724711689
 30
0.0
 10
95.66994422592305
 20
-115.3800291378216
 30
0.0
 10
95.71474700255781
 20
-115.4248319155883
 30
0.0
 10
95.77020366780967
 20
-115.4248319155883
 30
0.0
 10
95.82534283306961
 20
-115.4248319155883
 30
0.0
 10
95.87011033192749
 20
-115.3800291378216
 30
0.0
 10
95.87011033192749
 20
-115.3245724711689
 30
0.0
  0
SPLINE
  5
7D
330
41
100
AcDbEntity
  8
_U+30EC_U+30A4_U+30E4_U+30FC 1
 62
   179
420
  2234388
370
     9
100
AcDbSpline
210
0.0
220
0.0
230
1.0
 70
    11
 71
     3
 72
    17
 73
    13
 74
     0
 42
0.0000000001
 43
0.0000000001
 12
1.0
 22
0.0
 32
0.0
 13
1.0
 23
0.0
 33
0.0
 40
0.0
 40
0.0
 40
0.0
 40
0.0
 40
1.0
 40
1.0
 40
1.0
 40
2.0
 40
2.0
 40
2.0
 40
3.0
 40
3.0
 40
3.0
 40
4.0
 40
4.0
 40
4.0
 40
4.0
 10
99.87022217432059
 20
-119.3250019146132
 30
0.0
 10
99.87022217432059
 20
-119.2695452479605
 30
0.0
 10
99.82541939768582
 20
-119.2247777479716
 30
0.0
 10
99.76996273243397
 20
-119.2247777479716
 30
0.0
 10
99.7148588449509
 20
-119.2247777479716
 30
0.0
 10
99.67005606831614
 20
-119.2695452479605
 30
0.0
 10
99.67005606831614
 20
-119.3250019146132
 30
0.0
 10
99.67005606831614
 20
-119.3801410812662
 30
0.0
 10
99.7148588449509
 20
-119.4249085812548
 30
0.0
 10
99.76996273243397
 20
-119.4249085812548
 30
0.0
 10
99.82541939768582
 20
-119.4249085812548
 30
0.0
 10
99.87022217432059
 20
-119.3801410812662
 30
0.0
 10
99.87022217432059
 20
-119.3250019146132
 30
0.0
  0
SPLINE
  5
7E
330
41
100
AcDbEntity
  8
_U+30EC_U+30A4_U+30E4_U+30FC 1
 62
   179
420
  2234388
370
     9
100
AcDbSpline
210
0.0
220
0.0
230
1.0
 70
    11
 71
     3
 72
    17
 73
    13
 74
     0
 42
0.0000000001
 43
0.0000000001
 12
1.0
 22
0.0
 32
0.0
 13
1.0
 23
0.0
 33
0.0
 40
0.0
 40
0.0
 40
0.0
 40
0.0
 40
1.0
 40
1.0
 40
1.0
 40
2.0
 40
2.0
 40
2.0
 40
3.0
 40
3.0
 40
3.0
 40
4.0
 40
4.0
 40
4.0
 40
4.0
 10
99.87022217432059
 20
-120.3247741365854
 30
0.0
 10
99.87022217432059
 20
-120.2696702477105
 30
0.0
 10
99.82541939768582
 20
-120.2248674699437
 30
0.0
 10
99.76996273243397
 20
-120.2248674699437
 30
0.0
 10
99.7148588449509
 20
-120.2248674699437
 30
0.0
 10
99.67005606831614
 20
-120.2696702477105
 30
0.0
 10
99.67005606831614
 20
-120.3247741365854
 30
0.0
 10
99.67005606831614
 20
-120.3799133032385
 30
0.0
 10
99.7148588449509
 20
-120.4246808032273
 30
0.0
 10
99.76996273243397
 20
-120.4246808032273
 30
0.0
 10
99.82541939768582
 20
-120.4246808032273
 30
0.0
 10
99.87022217432059
 20
-120.3799133032385
 30
0.0
 10
99.87022217432059
 20
-120.3247741365854
 30
0.0
  0
SPLINE
  5
7F
330
41
100
AcDbEntity
  8
_U+30EC_U+30A4_U+30E4_U+30FC 1
 62
   179
420
  2234388
370
     9
100
AcDbSpline
210
0.0
220
0.0
230
1.0
 70
    11
 71
     3
 72
    17
 73
    13
 74
     0
 42
0.0000000001
 43
0.0000000001
 12
1.0
 22
0.0
 32
0.0
 13
1.0
 23
0.0
 33
0.0
 40
0.0
 40
0.0
 40
0.0
 40
0.0
 40
1.0
 40
1.0
 40
1.0
 40
2.0
 40
2.0
 40
2.0
 40
3.0
 40
3.0
 40
3.0
 40
4.0
 40
4.0
 40
4.0
 40
4.0
 10
99.87022217432059
 20
-130.3252127451968
 30
0.0
 10
99.87022217432059
 20
-130.2700735785437
 30
0.0
 10
99.82541939768582
 20
-130.2253060785545
 30
0.0
 10
99.76996273243397
 20
-130.2253060785545
 30
0.0
 10
99.7148588449509
 20
-130.2253060785545
 30
0.0
 10
99.67005606831614
 20
-130.2700735785437
 30
0.0
 10
99.67005606831614
 20
-130.3252127451968
 30
0.0
 10
99.67005606831614
 20
-130.3803166340717
 30
0.0
 10
99.7148588449509
 20
-130.4251194118384
 30
0.0
 10
99.76996273243397
 20
-130.4251194118384
 30
0.0
 10
99.82541939768582
 20
-130.4251194118384
 30
0.0
 10
99.87022217432059
 20
-130.3803166340717
 30
0.0
 10
99.87022217432059
 20
-130.3252127451968
 30
0.0
  0
SPLINE
  5
80
330
41
100
AcDbEntity
  8
_U+30EC_U+30A4_U+30E4_U+30FC 1
 62
   179
420
  2234388
370
     9
100
AcDbSpline
210
0.0
220
0.0
230
1.0
 70
    11
 71
     3
 72
    17
 73
    13
 74
     0
 42
0.0000000001
 43
0.0000000001
 12
1.0
 22
0.0
 32
0.0
 13
1.0
 23
0.0
 33
0.0
 40
0.0
 40
0.0
 40
0.0
 40
0.0
 40
1.0
 40
1.0
 40
1.0
 40
2.0
 40
2.0
 40
2.0
 40
3.0
 40
3.0
 40
3.0
 40
4.0
 40
4.0
 40
4.0
 40
4.0
 10
99.87022217432059
 20
-140.3249457982524
 30
0.0
 10
99.87022217432059
 20
-140.2698066315993
 30
0.0
 10
99.82541939768582
 20
-140.2250391316107
 30
0.0
 10
99.76996273243397
 20
-140.2250391316107
 30
0.0
 10
99.7148588449509
 20
-140.2250391316107
 30
0.0
 10
99.67005606831614
 20
-140.2698066315993
 30
0.0
 10
99.67005606831614
 20
-140.3249457982524
 30
0.0
 10
99.67005606831614
 20
-140.3800496871273
 30
0.0
 10
99.7148588449509
 20
-140.424852464894
 30
0.0
 10
99.76996273243397
 20
-140.424852464894
 30
0.0
 10
99.82541939768582
 20
-140.424852464894
 30
0.0
 10
99.87022217432059
 20
-140.3800496871273
 30
0.0
 10
99.87022217432059
 20
-140.3249457982524
 30
0.0
  0
SPLINE
  5
81
330
41
100
AcDbEntity
  8
_U+30EC_U+30A4_U+30E4_U+30FC 1
 62
   179
420
  2234388
370
     9
100
AcDbSpline
210
0.0
220
0.0
230
1.0
 70
    11
 71
     3
 72
    17
 73
    13
 74
     0
 42
0.0000000001
 43
0.0000000001
 12
1.0
 22
0.0
 32
0.0
 13
1.0
 23
0.0
 33
0.0
 40
0.0
 40
0.0
 40
0.0
 40
0.0
 40
1.0
 40
1.0
 40
1.0
 40
2.0
 40
2.0
 40
2.0
 40
3.0
 40
3.0
 40
3.0
 40
4.0
 40
4.0
 40
4.0
 40
4.0
 10
85.86970725372571
 20
-144.3247049639186
 30
0.0
 10
85.86970725372571
 20
-144.2695657972662
 30
0.0
 10
85.82490447709094
 20
-144.224798297277
 30
0.0
 10
85.76980275633548
 20
-144.224798297277
 30
0.0
 10
85.71466142434792
 20
-144.224798297277
 30
0.0
 10
85.66989392549003
 20
-144.2695657972662
 30
0.0
 10
85.66989392549003
 20
-144.3247049639186
 30
0.0
 10
85.66989392549003
 20
-144.3798088527942
 30
0.0
 10
85.71466142434792
 20
-144.4246116305602
 30
0.0
 10
85.76980275633548
 20
-144.4246116305602
 30
0.0
 10
85.82490447709094
 20
-144.4246116305602
 30
0.0
 10
85.86970725372571
 20
-144.3798088527942
 30
0.0
 10
85.86970725372571
 20
-144.3247049639186
 30
0.0
  0
SPLINE
  5
82
330
41
100
AcDbEntity
  8
_U+30EC_U+30A4_U+30E4_U+30FC 1
 62
   179
420
  2234388
370
     9
100
AcDbSpline
210
0.0
220
0.0
230
1.0
 70
    11
 71
     3
 72
    17
 73
    13
 74
     0
 42
0.0000000001
 43
0.0000000001
 12
1.0
 22
0.0
 32
0.0
 13
1.0
 23
0.0
 33
0.0
 40
0.0
 40
0.0
 40
0.0
 40
0.0
 40
1.0
 40
1.0
 40
1.0
 40
2.0
 40
2.0
 40
2.0
 40
3.0
 40
3.0
 40
3.0
 40
4.0
 40
4.0
 40
4.0
 40
4.0
 10
75.86997445328458
 20
-144.3247049639186
 30
0.0
 10
75.86997445328458
 20
-144.2695657972662
 30
0.0
 10
75.82517167664982
 20
-144.224798297277
 30
0.0
 10
75.77006778916675
 20
-144.224798297277
 30
0.0
 10
75.71493053662682
 20
-144.224798297277
 30
0.0
 10
75.6701277588601
 20
-144.2695657972662
 30
0.0
 10
75.6701277588601
 20
-144.3247049639186
 30
0.0
 10
75.6701277588601
 20
-144.3798088527942
 30
0.0
 10
75.71493053662682
 20
-144.4246116305602
 30
0.0
 10
75.77006778916675
 20
-144.4246116305602
 30
0.0
 10
75.82517167664982
 20
-144.4246116305602
 30
0.0
 10
75.86997445328458
 20
-144.3798088527942
 30
0.0
 10
75.86997445328458
 20
-144.3247049639186
 30
0.0
  0
POLYLINE
  5
83
330
41
100
AcDbEntity
  8
_U+30EC_U+30A4_U+30E4_U+30FC 1
 62
   179
420
  2234388
370
     9
100
AcDb2dPolyline
 66
     1
 10
0.0
 20
0.0
 30
0.0
  0
VERTEX
  5
84
330
83
100
AcDbEntity
  8
_U+30EC_U+30A4_U+30E4_U+30FC 1
 62
   179
420
  2234388
370
     9
100
AcDbVertex
100
AcDb2dVertex
 10
75.77006778916675
 20
-144.3247049639186
 30
0.0
  0
VERTEX
  5
85
330
83
100
AcDbEntity
  8
_U+30EC_U+30A4_U+30E4_U+30FC 1
 62
   179
420
  2234388
370
     9
100
AcDbVertex
100
AcDb2dVertex
 10
85.76980275633548
 20
-144.3247049639186
 30
0.0
  0
SEQEND
  5
86
330
83
100
AcDbEntity
  8
_U+30EC_U+30A4_U+30E4_U+30FC 1
 62
   179
420
  2234388
370
     9
  0
POLYLINE
  5
87
330
41
100
AcDbEntity
  8
_U+30EC_U+30A4_U+30E4_U+30FC 1
 62
   179
420
  2234388
370
     9
100
AcDb2dPolyline
 66
     1
 10
0.0
 20
0.0
 30
0.0
  0
VERTEX
  5
88
330
87
100
AcDbEntity
  8
_U+30EC_U+30A4_U+30E4_U+30FC 1
 62
   179
420
  2234388
370
     9
100
AcDbVertex
100
AcDb2dVertex
 10
75.77006778916675
 20
-142.8646635753949
 30
0.0
  0
VERTEX
  5
89
330
87
100
AcDbEntity
  8
_U+30EC_U+30A4_U+30E4_U+30FC 1
 62
   179
420
  2234388
370
     9
100
AcDbVertex
100
AcDb2dVertex
 10
75.77006778916675
 20
-145.3244771858911
 30
0.0
  0
SEQEND
  5
8A
330
87
100
AcDbEntity
  8
_U+30EC_U+30A4_U+30E4_U+30FC 1
 62
   179
420
  2234388
370
     9
  0
POLYLINE
  5
8B
330
41
100
AcDbEntity
  8
_U+30EC_U+30A4_U+30E4_U+30FC 1
 62
   179
420
  2234388
370
     9
100
AcDb2dPolyline
 66
     1
 10
0.0
 20
0.0
 30
0.0
  0
VERTEX
  5
8C
330
8B
100
AcDbEntity
  8
_U+30EC_U+30A4_U+30E4_U+30FC 1
 62
   179
420
  2234388
370
     9
100
AcDbVertex
100
AcDb2dVertex
 10
85.76980275633548
 20
-142.8646635753949
 30
0.0
  0
VERTEX
  5
8D
330
8B
100
AcDbEntity
  8
_U+30EC_U+30A4_U+30E4_U+30FC 1
 62
   179
420
  2234388
370
     9
100
AcDbVertex
100
AcDb2dVertex
 10
85.76980275633548
 20
-145.3244771858911
 30
0.0
  0
SEQEND
  5
8E
330
8B
100
AcDbEntity
  8
_U+30EC_U+30A4_U+30E4_U+30FC 1
 62
   179
420
  2234388
370
     9
  0
INSERT
  5
90
330
41
100
AcDbEntity
  8
_U+30EC_U+30A4_U+30E4_U+30FC 1
100
AcDbBlockReference
  2
block 3
 10
0.0
 20
0.0
 30
0.0
  0
POLYLINE
  5
98
330
41
100
AcDbEntity
  8
_U+30EC_U+30A4_U+30E4_U+30FC 1
 62
   179
420
  2234388
370
     9
100
AcDb2dPolyline
 66
     1
 10
0.0
 20
0.0
 30
0.0
  0
VERTEX
  5
99
330
98
100
AcDbEntity
  8
_U+30EC_U+30A4_U+30E4_U+30FC 1
 62
   179
420
  2234388
370
     9
100
AcDbVertex
100
AcDb2dVertex
 10
75.77006778916675
 20
-115.3245724711689
 30
0.0
  0
VERTEX
  5
9A
330
98
100
AcDbEntity
  8
_U+30EC_U+30A4_U+30E4_U+30FC 1
 62
   179
420
  2234388
370
     9
100
AcDbVertex
100
AcDb2dVertex
 10
95.77020366780967
 20
-115.3245724711689
 30
0.0
  0
SEQEND
  5
9B
330
98
100
AcDbEntity
  8
_U+30EC_U+30A4_U+30E4_U+30FC 1
 62
   179
420
  2234388
370
     9
  0
POLYLINE
  5
9C
330
41
100
AcDbEntity
  8
_U+30EC_U+30A4_U+30E4_U+30FC 1
 62
   179
420
  2234388
370
     9
100
AcDb2dPolyline
 66
     1
 10
0.0
 20
0.0
 30
0.0
  0
VERTEX
  5
9D
330
9C
100
AcDbEntity
  8
_U+30EC_U+30A4_U+30E4_U+30FC 1
 62
   179
420
  2234388
370
     9
100
AcDbVertex
100
AcDb2dVertex
 10
75.77006778916675
 20
-116.7846138596926
 30
0.0
  0
VERTEX
  5
9E
330
9C
100
AcDbEntity
  8
_U+30EC_U+30A4_U+30E4_U+30FC 1
 62
   179
420
  2234388
370
     9
100
AcDbVertex
100
AcDb2dVertex
 10
75.77006778916675
 20
-114.3248002491967
 30
0.0
  0
SEQEND
  5
9F
330
9C
100
AcDbEntity
  8
_U+30EC_U+30A4_U+30E4_U+30FC 1
 62
   179
420
  2234388
370
     9
  0
POLYLINE
  5
A0
330
41
100
AcDbEntity
  8
_U+30EC_U+30A4_U+30E4_U+30FC 1
 62
   179
420
  2234388
370
     9
100
AcDb2dPolyline
 66
     1
 10
0.0
 20
0.0
 30
0.0
  0
VERTEX
  5
A1
330
A0
100
AcDbEntity
  8
_U+30EC_U+30A4_U+30E4_U+30FC 1
 62
   179
420
  2234388
370
     9
100
AcDbVertex
100
AcDb2dVertex
 10
95.77020366780967
 20
-116.7846138596926
 30
0.0
  0
VERTEX
  5
A2
330
A0
100
AcDbEntity
  8
_U+30EC_U+30A4_U+30E4_U+30FC 1
 62
   179
420
  2234388
370
     9
100
AcDbVertex
100
AcDb2dVertex
 10
95.77020366780967
 20
-114.3248002491967
 30
0.0
  0
SEQEND
  5
A3
330
A0
100
AcDbEntity
  8
_U+30EC_U+30A4_U+30E4_U+30FC 1
 62
   179
420
  2234388
370
     9
  0
INSERT
  5
A5
330
41
100
AcDbEntity
  8
_U+30EC_U+30A4_U+30E4_U+30FC 1
100
AcDbBlockReference
  2
block 4
 10
0.0
 20
0.0
 30
0.0
  0
POLYLINE
  5
AD
330
41
100
AcDbEntity
  8
_U+30EC_U+30A4_U+30E4_U+30FC 1
 62
   179
420
  2234388
370
     9
100
AcDb2dPolyline
 66
     1
 10
0.0
 20
0.0
 30
0.0
  0
VERTEX
  5
AE
330
AD
100
AcDbEntity
  8
_U+30EC_U+30A4_U+30E4_U+30FC 1
 62
   179
420
  2234388
370
     9
100
AcDbVertex
100
AcDb2dVertex
 10
99.76996273243397
 20
-119.3250019146132
 30
0.0
  0
VERTEX
  5
AF
330
AD
100
AcDbEntity
  8
_U+30EC_U+30A4_U+30E4_U+30FC 1
 62
   179
420
  2234388
370
     9
100
AcDbVertex
100
AcDb2dVertex
 10
99.76996273243397
 20
-115.5546894155557
 30
0.0
  0
SEQEND
  5
B0
330
AD
100
AcDbEntity
  8
_U+30EC_U+30A4_U+30E4_U+30FC 1
 62
   179
420
  2234388
370
     9
  0
POLYLINE
  5
B1
330
41
100
AcDbEntity
  8
_U+30EC_U+30A4_U+30E4_U+30FC 1
 62
   179
420
  2234388
370
     9
100
AcDb2dPolyline
 66
     1
 10
0.0
 20
0.0
 30
0.0
  0
VERTEX
  5
B2
330
B1
100
AcDbEntity
  8
_U+30EC_U+30A4_U+30E4_U+30FC 1
 62
   179
420
  2234388
370
     9
100
AcDbVertex
100
AcDb2dVertex
 10
99.76996273243397
 20
-119.3250019146132
 30
0.0
  0
VERTEX
  5
B3
330
B1
100
AcDbEntity
  8
_U+30EC_U+30A4_U+30E4_U+30FC 1
 62
   179
420
  2234388
370
     9
100
AcDbVertex
100
AcDb2dVertex
 10
99.76996273243397
 20
-120.3247741365854
 30
0.0
  0
SEQEND
  5
B4
330
B1
100
AcDbEntity
  8
_U+30EC_U+30A4_U+30E4_U+30FC 1
 62
   179
420
  2234388
370
     9
  0
POLYLINE
  5
B5
330
41
100
AcDbEntity
  8
_U+30EC_U+30A4_U+30E4_U+30FC 1
 62
   179
420
  2234388
370
     9
100
AcDb2dPolyline
 66
     1
 10
0.0
 20
0.0
 30
0.0
  0
VERTEX
  5
B6
330
B5
100
AcDbEntity
  8
_U+30EC_U+30A4_U+30E4_U+30FC 1
 62
   179
420
  2234388
370
     9
100
AcDbVertex
100
AcDb2dVertex
 10
98.30992138079384
 20
-119.3250019146132
 30
0.0
  0
VERTEX
  5
B7
330
B5
100
AcDbEntity
  8
_U+30EC_U+30A4_U+30E4_U+30FC 1
 62
   179
420
  2234388
370
     9
100
AcDbVertex
100
AcDb2dVertex
 10
100.7700877069187
 20
-119.3250019146132
 30
0.0
  0
SEQEND
  5
B8
330
B5
100
AcDbEntity
  8
_U+30EC_U+30A4_U+30E4_U+30FC 1
 62
   179
420
  2234388
370
     9
  0
POLYLINE
  5
B9
330
41
100
AcDbEntity
  8
_U+30EC_U+30A4_U+30E4_U+30FC 1
 62
   179
420
  2234388
370
     9
100
AcDb2dPolyline
 66
     1
 10
0.0
 20
0.0
 30
0.0
  0
VERTEX
  5
BA
330
B9
100
AcDbEntity
  8
_U+30EC_U+30A4_U+30E4_U+30FC 1
 62
   179
420
  2234388
370
     9
100
AcDbVertex
100
AcDb2dVertex
 10
98.30992138079384
 20
-120.3247741365854
 30
0.0
  0
VERTEX
  5
BB
330
B9
100
AcDbEntity
  8
_U+30EC_U+30A4_U+30E4_U+30FC 1
 62
   179
420
  2234388
370
     9
100
AcDbVertex
100
AcDb2dVertex
 10
100.7700877069187
 20
-120.3247741365854
 30
0.0
  0
SEQEND
  5
BC
330
B9
100
AcDbEntity
  8
_U+30EC_U+30A4_U+30E4_U+30FC 1
 62
   179
420
  2234388
370
     9
  0
INSERT
  5
BE
330
41
100
AcDbEntity
  8
_U+30EC_U+30A4_U+30E4_U+30FC 1
100
AcDbBlockReference
  2
block 5
 10
0.0
 20
0.0
 30
0.0
  0
POLYLINE
  5
C3
330
41
100
AcDbEntity
  8
_U+30EC_U+30A4_U+30E4_U+30FC 1
 62
   179
420
  2234388
370
     9
100
AcDb2dPolyline
 66
     1
 10
0.0
 20
0.0
 30
0.0
  0
VERTEX
  5
C4
330
C3
100
AcDbEntity
  8
_U+30EC_U+30A4_U+30E4_U+30FC 1
 62
   179
420
  2234388
370
     9
100
AcDbVertex
100
AcDb2dVertex
 10
99.76996273243397
 20
-130.3252127451968
 30
0.0
  0
VERTEX
  5
C5
330
C3
100
AcDbEntity
  8
_U+30EC_U+30A4_U+30E4_U+30FC 1
 62
   179
420
  2234388
370
     9
100
AcDbVertex
100
AcDb2dVertex
 10
99.76996273243397
 20
-140.3249457982524
 30
0.0
  0
SEQEND
  5
C6
330
C3
100
AcDbEntity
  8
_U+30EC_U+30A4_U+30E4_U+30FC 1
 62
   179
420
  2234388
370
     9
  0
POLYLINE
  5
C7
330
41
100
AcDbEntity
  8
_U+30EC_U+30A4_U+30E4_U+30FC 1
 62
   179
420
  2234388
370
     9
100
AcDb2dPolyline
 66
     1
 10
0.0
 20
0.0
 30
0.0
  0
VERTEX
  5
C8
330
C7
100
AcDbEntity
  8
_U+30EC_U+30A4_U+30E4_U+30FC 1
 62
   179
420
  2234388
370
     9
100
AcDbVertex
100
AcDb2dVertex
 10
88.30983580258395
 20
-140.3249457982524
 30
0.0
  0
VERTEX
  5
C9
330
C7
100
AcDbEntity
  8
_U+30EC_U+30A4_U+30E4_U+30FC 1
 62
   179
420
  2234388
370
     9
100
AcDbVertex
100
AcDb2dVertex
 10
100.7700877069187
 20
-140.3249457982524
 30
0.0
  0
SEQEND
  5
CA
330
C7
100
AcDbEntity
  8
_U+30EC_U+30A4_U+30E4_U+30FC 1
 62
   179
420
  2234388
370
     9
  0
INSERT
  5
CC
330
41
100
AcDbEntity
  8
_U+30EC_U+30A4_U+30E4_U+30FC 1
100
AcDbBlockReference
  2
block 6
 10
0.0
 20
0.0
 30
0.0
  0
POLYLINE
  5
D4
330
41
100
AcDbEntity
  8
_U+30EC_U+30A4_U+30E4_U+30FC 1
 62
   179
420
  2234388
370
     9
100
AcDb2dPolyline
 66
     1
 10
0.0
 20
0.0
 30
0.0
  0
VERTEX
  5
D5
330
D4
100
AcDbEntity
  8
_U+30EC_U+30A4_U+30E4_U+30FC 1
 62
   179
420
  2234388
370
     9
100
AcDbVertex
100
AcDb2dVertex
 10
99.76996273243397
 20
-130.3252127451968
 30
0.0
  0
VERTEX
  5
D6
330
D4
100
AcDbEntity
  8
_U+30EC_U+30A4_U+30E4_U+30FC 1
 62
   179
420
  2234388
370
     9
100
AcDbVertex
100
AcDb2dVertex
 10
99.76996273243397
 20
-120.3247741365854
 30
0.0
  0
SEQEND
  5
D7
330
D4
100
AcDbEntity
  8
_U+30EC_U+30A4_U+30E4_U+30FC 1
 62
   179
420
  2234388
370
     9
  0
POLYLINE
  5
D8
330
41
100
AcDbEntity
  8
_U+30EC_U+30A4_U+30E4_U+30FC 1
 62
   179
420
  2234388
370
     9
100
AcDb2dPolyline
 66
     1
 10
0.0
 20
0.0
 30
0.0
  0
VERTEX
  5
D9
330
D8
100
AcDbEntity
  8
_U+30EC_U+30A4_U+30E4_U+30FC 1
 62
   179
420
  2234388
370
     9
100
AcDbVertex
100
AcDb2dVertex
 10
88.30983580258395
 20
-130.3252127451968
 30
0.0
  0
VERTEX
  5
DA
330
D8
100
AcDbEntity
  8
_U+30EC_U+30A4_U+30E4_U+30FC 1
 62
   179
420
  2234388
370
     9
100
AcDbVertex
100
AcDb2dVertex
 10
100.7700877069187
 20
-130.3252127451968
 30
0.0
  0
SEQEND
  5
DB
330
D8
100
AcDbEntity
  8
_U+30EC_U+30A4_U+30E4_U+30FC 1
 62
   179
420
  2234388
370
     9
  0
INSERT
  5
DD
330
41
100
AcDbEntity
  8
_U+30EC_U+30A4_U+30E4_U+30FC 1
100
AcDbBlockReference
  2
block 7
 10
0.0
 20
0.0
 30
0.0
  0
ENDBLK
  5
44
330
41
100
AcDbEntity
  8
0
100
AcDbBlockEnd
  0
BLOCK
  5
91
330
8F
100
AcDbEntity
  8
0
100
AcDbBlockBegin
  2
block 3
 70
     0
 10
0.0
 20
0.0
 30
0.0
  3
block 3
  1

  0
SPLINE
  5
93
330
8F
100
AcDbEntity
  8
_U+30EC_U+30A4_U+30E4_U+30FC 1
370
     0
100
AcDbSpline
210
0.0
220
0.0
230
1.0
 70
    11
 71
     3
 72
    26
 73
    22
 74
     0
 42
0.0000000001
 43
0.0000000001
 12
1.0
 22
0.0
 32
0.0
 13
1.0
 23
0.0
 33
0.0
 40
0.0
 40
0.0
 40
0.0
 40
0.0
 40
1.0
 40
1.0
 40
1.0
 40
2.0
 40
2.0
 40
2.0
 40
3.0
 40
3.0
 40
3.0
 40
4.0
 40
4.0
 40
4.0
 40
5.0
 40
5.0
 40
5.0
 40
6.0
 40
6.0
 40
6.0
 40
7.0
 40
7.0
 40
7.0
 40
7.0
 10
80.13257647736269
 20
-143.6794297600871
 30
0.0
 10
80.13257647736269
 20
-143.6794297600871
 30
0.0
 10
80.13257647736269
 20
-142.5752766570645
 30
0.0
 10
80.13257647736269
 20
-142.5752766570645
 30
0.0
 10
80.13257647736269
 20
-142.5752766570645
 30
0.0
 10
79.80253632987576
 20
-142.5752766570645
 30
0.0
 10
79.80253632987576
 20
-142.5752766570645
 30
0.0
 10
79.80253632987576
 20
-142.5752766570645
 30
0.0
 10
79.80253632987576
 20
-142.4271375511988
 30
0.0
 10
79.80253632987576
 20
-142.4271375511988
 30
0.0
 10
80.13464353465385
 20
-142.4123236406122
 30
0.0
 10
80.18115232370472
 20
-142.2493706241599
 30
0.0
 10
80.21078014487786
 20
-142.1349934540496
 30
0.0
 10
80.21078014487786
 20
-142.1349934540496
 30
0.0
 10
80.35685219345245
 20
-142.1349934540496
 30
0.0
 10
80.35685219345245
 20
-142.1349934540496
 30
0.0
 10
80.35685219345245
 20
-142.1349934540496
 30
0.0
 10
80.35685219345245
 20
-143.6794297600871
 30
0.0
 10
80.35685219345245
 20
-143.6794297600871
 30
0.0
 10
80.35685219345245
 20
-143.6794297600871
 30
0.0
 10
80.13257647736269
 20
-143.6794297600871
 30
0.0
 10
80.13257647736269
 20
-143.6794297600871
 30
0.0
  0
HATCH
  5
94
330
8F
100
AcDbEntity
  8
_U+30EC_U+30A4_U+30E4_U+30FC 1
 62
   179
420
  2234388
100
AcDbHatch
 10
0.0
 20
0.0
 30
0.0
210
0.0
220
0.0
230
1.0
  2
SOLID
 70
     1
 71
     0
 91
        1
 92
        1
 93
        1
 72
     4
 94
        3
 73
     0
 74
     1
 95
       26
 96
       22
 40
0.0
 40
0.0
 40
0.0
 40
0.0
 40
1.0
 40
1.0
 40
1.0
 40
2.0
 40
2.0
 40
2.0
 40
3.0
 40
3.0
 40
3.0
 40
4.0
 40
4.0
 40
4.0
 40
5.0
 40
5.0
 40
5.0
 40
6.0
 40
6.0
 40
6.0
 40
7.0
 40
7.0
 40
7.0
 40
7.0
 10
80.13257647736269
 20
-143.6794297600871
 10
80.13257647736269
 20
-143.6794297600871
 10
80.13257647736269
 20
-142.5752766570645
 10
80.13257647736269
 20
-142.5752766570645
 10
80.13257647736269
 20
-142.5752766570645
 10
79.80253632987576
 20
-142.5752766570645
 10
79.80253632987576
 20
-142.5752766570645
 10
79.80253632987576
 20
-142.5752766570645
 10
79.80253632987576
 20
-142.4271375511988
 10
79.80253632987576
 20
-142.4271375511988
 10
80.13464353465385
 20
-142.4123236406122
 10
80.18115232370472
 20
-142.2493706241599
 10
80.21078014487786
 20
-142.1349934540496
 10
80.21078014487786
 20
-142.1349934540496
 10
80.35685219345245
 20
-142.1349934540496
 10
80.35685219345245
 20
-142.1349934540496
 10
80.35685219345245
 20
-142.1349934540496
 10
80.35685219345245
 20
-143.6794297600871
 10
80.35685219345245
 20
-143.6794297600871
 10
80.35685219345245
 20
-143.6794297600871
 10
80.13257647736269
 20
-143.6794297600871
 10
80.13257647736269
 20
-143.6794297600871
 97
        0
 97
        0
 75
     2
 76
     1
 98
        0
  0
SPLINE
  5
95
330
8F
100
AcDbEntity
  8
_U+30EC_U+30A4_U+30E4_U+30FC 1
370
     0
100
AcDbSpline
210
0.0
220
0.0
230
1.0
 70
    11
 71
     3
 72
    29
 73
    25
 74
     0
 42
0.0000000001
 43
0.0000000001
 12
1.0
 22
0.0
 32
0.0
 13
1.0
 23
0.0
 33
0.0
 40
0.0
 40
0.0
 40
0.0
 40
0.0
 40
1.0
 40
1.0
 40
1.0
 40
2.0
 40
2.0
 40
2.0
 40
3.0
 40
3.0
 40
3.0
 40
4.0
 40
4.0
 40
4.0
 40
5.0
 40
5.0
 40
5.0
 40
6.0
 40
6.0
 40
6.0
 40
7.0
 40
7.0
 40
7.0
 40
8.0
 40
8.0
 40
8.0
 40
8.0
 10
81.75573321523815
 20
-143.5016628330482
 30
0.0
 10
81.64790172654983
 20
-143.7111246385514
 30
0.0
 10
81.4744411688675
 20
-143.7300726637203
 30
0.0
 10
81.35799694146606
 20
-143.7300726637203
 30
0.0
 10
81.19728323707916
 20
-143.7300726637203
 30
0.0
 10
81.05551755786112
 20
-143.6835638746694
 30
0.0
 10
80.96026066769397
 20
-143.5016628330482
 30
0.0
 10
80.85673554836221
 20
-143.3070149381316
 30
0.0
 10
80.83761526841907
 20
-143.0703368782949
 30
0.0
 10
80.83761526841907
 20
-142.9073838618426
 30
0.0
 10
80.83761526841907
 20
-142.7633788705592
 30
0.0
 10
80.8544962362968
 20
-142.5115423905874
 30
0.0
 10
80.96026066769397
 20
-142.3127603810885
 30
0.0
 10
81.06826441115655
 20
-142.1098442570073
 30
0.0
 10
81.22897811554346
 20
-142.0864176077076
 30
0.0
 10
81.35799694146606
 20
-142.0864176077076
 30
0.0
 10
81.51664358856182
 20
-142.0864176077076
 30
0.0
 10
81.660476325071
 20
-142.1308593394673
 30
0.0
 10
81.75573321523815
 20
-142.3127603810885
 30
0.0
 10
81.85512421998762
 20
-142.5053412187139
 30
0.0
 10
81.87837861451305
 20
-142.733751049386
 30
0.0
 10
81.87837861451305
 20
-142.9073838618426
 30
0.0
 10
81.87837861451305
 20
-143.0786051074595
 30
0.0
 10
81.85736353205303
 20
-143.3090819954227
 30
0.0
 10
81.75573321523815
 20
-143.5016628330482
 30
0.0
  0
SPLINE
  5
96
330
8F
100
AcDbEntity
  8
_U+30EC_U+30A4_U+30E4_U+30FC 1
370
     0
100
AcDbSpline
210
0.0
220
0.0
230
1.0
 70
    11
 71
     3
 72
    17
 73
    13
 74
     0
 42
0.0000000001
 43
0.0000000001
 12
1.0
 22
0.0
 32
0.0
 13
1.0
 23
0.0
 33
0.0
 40
0.0
 40
0.0
 40
0.0
 40
0.0
 40
1.0
 40
1.0
 40
1.0
 40
2.0
 40
2.0
 40
2.0
 40
3.0
 40
3.0
 40
3.0
 40
4.0
 40
4.0
 40
4.0
 40
4.0
 10
81.35799694146606
 20
-142.278998445333
 30
0.0
 10
81.10839977355971
 20
-142.278998445333
 30
0.0
 10
81.06189098450884
 20
-142.5625298037691
 30
0.0
 10
81.06189098450884
 20
-142.9073838618426
 30
0.0
 10
81.06189098450884
 20
-143.2267442133253
 30
0.0
 10
81.0978922323297
 20
-143.5354247688036
 30
0.0
 10
81.35799694146606
 20
-143.5354247688036
 30
0.0
 10
81.60552705208126
 20
-143.5354247688036
 30
0.0
 10
81.65427515319755
 20
-143.2543049772073
 30
0.0
 10
81.65427515319755
 20
-142.9073838618426
 30
0.0
 10
81.65427515319755
 20
-142.5876790008114
 30
0.0
 10
81.61620684808554
 20
-142.278998445333
 30
0.0
 10
81.35799694146606
 20
-142.278998445333
 30
0.0
  0
HATCH
  5
97
330
8F
100
AcDbEntity
  8
_U+30EC_U+30A4_U+30E4_U+30FC 1
 62
   179
420
  2234388
100
AcDbHatch
 10
0.0
 20
0.0
 30
0.0
210
0.0
220
0.0
230
1.0
  2
SOLID
 70
     1
 71
     0
 91
        2
 92
        1
 93
        1
 72
     4
 94
        3
 73
     0
 74
     1
 95
       29
 96
       25
 40
0.0
 40
0.0
 40
0.0
 40
0.0
 40
1.0
 40
1.0
 40
1.0
 40
2.0
 40
2.0
 40
2.0
 40
3.0
 40
3.0
 40
3.0
 40
4.0
 40
4.0
 40
4.0
 40
5.0
 40
5.0
 40
5.0
 40
6.0
 40
6.0
 40
6.0
 40
7.0
 40
7.0
 40
7.0
 40
8.0
 40
8.0
 40
8.0
 40
8.0
 10
81.75573321523815
 20
-143.5016628330482
 10
81.64790172654983
 20
-143.7111246385514
 10
81.4744411688675
 20
-143.7300726637203
 10
81.35799694146606
 20
-143.7300726637203
 10
81.19728323707916
 20
-143.7300726637203
 10
81.05551755786112
 20
-143.6835638746694
 10
80.96026066769397
 20
-143.5016628330482
 10
80.85673554836221
 20
-143.3070149381316
 10
80.83761526841907
 20
-143.0703368782949
 10
80.83761526841907
 20
-142.9073838618426
 10
80.83761526841907
 20
-142.7633788705592
 10
80.8544962362968
 20
-142.5115423905874
 10
80.96026066769397
 20
-142.3127603810885
 10
81.06826441115655
 20
-142.1098442570073
 10
81.22897811554346
 20
-142.0864176077076
 10
81.35799694146606
 20
-142.0864176077076
 10
81.51664358856182
 20
-142.0864176077076
 10
81.660476325071
 20
-142.1308593394673
 10
81.75573321523815
 20
-142.3127603810885
 10
81.85512421998762
 20
-142.5053412187139
 10
81.87837861451305
 20
-142.733751049386
 10
81.87837861451305
 20
-142.9073838618426
 10
81.87837861451305
 20
-143.0786051074595
 10
81.85736353205303
 20
-143.3090819954227
 10
81.75573321523815
 20
-143.5016628330482
 97
        0
 97
        0
 92
        1
 93
        1
 72
     4
 94
        3
 73
     0
 74
     1
 95
       17
 96
       13
 40
0.0
 40
0.0
 40
0.0
 40
0.0
 40
1.0
 40
1.0
 40
1.0
 40
2.0
 40
2.0
 40
2.0
 40
3.0
 40
3.0
 40
3.0
 40
4.0
 40
4.0
 40
4.0
 40
4.0
 10
81.35799694146606
 20
-142.278998445333
 10
81.10839977355971
 20
-142.278998445333
 10
81.06189098450884
 20
-142.5625298037691
 10
81.06189098450884
 20
-142.9073838618426
 10
81.06189098450884
 20
-143.2267442133253
 10
81.0978922323297
 20
-143.5354247688036
 10
81.35799694146606
 20
-143.5354247688036
 10
81.60552705208126
 20
-143.5354247688036
 10
81.65427515319755
 20
-143.2543049772073
 10
81.65427515319755
 20
-142.9073838618426
 10
81.65427515319755
 20
-142.5876790008114
 10
81.61620684808554
 20
-142.278998445333
 10
81.35799694146606
 20
-142.278998445333
 97
        0
 97
        0
 75
     2
 76
     1
 98
        0
  0
ENDBLK
  5
92
330
8F
100
AcDbEntity
  8
0
100
AcDbBlockEnd
  0
BLOCK
  5
A6
330
A4
100
AcDbEntity
  8
0
100
AcDbBlockBegin
  2
block 4
 70
     0
 10
0.0
 20
0.0
 30
0.0
  3
block 4
  1

  0
SPLINE
  5
A8
330
A4
100
AcDbEntity
  8
_U+30EC_U+30A4_U+30E4_U+30FC 1
370
     0
100
AcDbSpline
210
0.0
220
0.0
230
1.0
 70
    11
 71
     3
 72
    44
 73
    40
 74
     0
 42
0.0000000001
 43
0.0000000001
 12
1.0
 22
0.0
 32
0.0
 13
1.0
 23
0.0
 33
0.0
 40
0.0
 40
0.0
 40
0.0
 40
0.0
 40
1.0
 40
1.0
 40
1.0
 40
2.0
 40
2.0
 40
2.0
 40
3.0
 40
3.0
 40
3.0
 40
4.0
 40
4.0
 40
4.0
 40
5.0
 40
5.0
 40
5.0
 40
6.0
 40
6.0
 40
6.0
 40
7.0
 40
7.0
 40
7.0
 40
8.0
 40
8.0
 40
8.0
 40
9.0
 40
9.0
 40
9.0
 40
10.0
 40
10.0
 40
10.0
 40
11.0
 40
11.0
 40
11.0
 40
12.0
 40
12.0
 40
12.0
 40
13.0
 40
13.0
 40
13.0
 40
13.0
 10
85.27455374387233
 20
-114.0974283568923
 30
0.0
 10
85.05665145443028
 20
-114.2560750039881
 30
0.0
 10
84.96346162155427
 20
-114.3301445569209
 30
0.0
 10
84.91488577521226
 20
-114.4739772934301
 30
0.0
 10
84.91488577521226
 20
-114.4739772934301
 30
0.0
 10
85.69330510010445
 20
-114.4739772934301
 30
0.0
 10
85.69330510010445
 20
-114.4739772934301
 30
0.0
 10
85.69330510010445
 20
-114.4739772934301
 30
0.0
 10
85.69330510010445
 20
-114.6791327295768
 30
0.0
 10
85.69330510010445
 20
-114.6791327295768
 30
0.0
 10
85.69330510010445
 20
-114.6791327295768
 30
0.0
 10
84.66528860730591
 20
-114.6791327295768
 30
0.0
 10
84.66528860730591
 20
-114.6791327295768
 30
0.0
 10
84.6969834857702
 20
-114.3215318182078
 30
0.0
 10
84.76261255476422
 20
-114.2433281506926
 30
0.0
 10
85.14760197524087
 20
-113.94498288167
 30
0.0
 10
85.40357256979495
 20
-113.7462008721711
 30
0.0
 10
85.46902938401469
 20
-113.6785047458859
 30
0.0
 10
85.46902938401469
 20
-113.5410454360245
 30
0.0
 10
85.46902938401469
 20
-113.4225341513319
 30
0.0
 10
85.39719914314723
 20
-113.2914482681181
 30
0.0
 10
85.20048419093946
 20
-113.2914482681181
 30
0.0
 10
84.94020722702884
 20
-113.2914482681181
 30
0.0
 10
84.93176674308998
 20
-113.5219251560813
 30
0.0
 10
84.92746037373341
 20
-113.6383693834828
 30
0.0
 10
84.92746037373341
 20
-113.6383693834828
 30
0.0
 10
84.70335691241792
 20
-113.6383693834828
 30
0.0
 10
84.70335691241792
 20
-113.6383693834828
 30
0.0
 10
84.71179739635677
 20
-113.5114176148513
 30
0.0
 10
84.72230493758678
 20
-113.3992797568064
 30
0.0
 10
84.80274791716737
 20
-113.2807684721138
 30
0.0
 10
84.91264646314684
 20
-113.1200547677269
 30
0.0
 10
85.0988538741246
 20
-113.0861205771972
 30
0.0
 10
85.21529810152605
 20
-113.0861205771972
 30
0.0
 10
85.49245603331438
 20
-113.0861205771972
 30
0.0
 10
85.69967852675217
 20
-113.2702609308838
 30
0.0
 10
85.69967852675217
 20
-113.5431124933156
 30
0.0
 10
85.69967852675217
 20
-113.7715223239877
 30
0.0
 10
85.58340655412499
 20
-113.8710855835114
 30
0.0
 10
85.27455374387233
 20
-114.0974283568923
 30
0.0
  0
HATCH
  5
A9
330
A4
100
AcDbEntity
  8
_U+30EC_U+30A4_U+30E4_U+30FC 1
 62
   179
420
  2234388
100
AcDbHatch
 10
0.0
 20
0.0
 30
0.0
210
0.0
220
0.0
230
1.0
  2
SOLID
 70
     1
 71
     0
 91
        1
 92
        1
 93
        1
 72
     4
 94
        3
 73
     0
 74
     1
 95
       44
 96
       40
 40
0.0
 40
0.0
 40
0.0
 40
0.0
 40
1.0
 40
1.0
 40
1.0
 40
2.0
 40
2.0
 40
2.0
 40
3.0
 40
3.0
 40
3.0
 40
4.0
 40
4.0
 40
4.0
 40
5.0
 40
5.0
 40
5.0
 40
6.0
 40
6.0
 40
6.0
 40
7.0
 40
7.0
 40
7.0
 40
8.0
 40
8.0
 40
8.0
 40
9.0
 40
9.0
 40
9.0
 40
10.0
 40
10.0
 40
10.0
 40
11.0
 40
11.0
 40
11.0
 40
12.0
 40
12.0
 40
12.0
 40
13.0
 40
13.0
 40
13.0
 40
13.0
 10
85.27455374387233
 20
-114.0974283568923
 10
85.05665145443028
 20
-114.2560750039881
 10
84.96346162155427
 20
-114.3301445569209
 10
84.91488577521226
 20
-114.4739772934301
 10
84.91488577521226
 20
-114.4739772934301
 10
85.69330510010445
 20
-114.4739772934301
 10
85.69330510010445
 20
-114.4739772934301
 10
85.69330510010445
 20
-114.4739772934301
 10
85.69330510010445
 20
-114.6791327295768
 10
85.69330510010445
 20
-114.6791327295768
 10
85.69330510010445
 20
-114.6791327295768
 10
84.66528860730591
 20
-114.6791327295768
 10
84.66528860730591
 20
-114.6791327295768
 10
84.6969834857702
 20
-114.3215318182078
 10
84.76261255476422
 20
-114.2433281506926
 10
85.14760197524087
 20
-113.94498288167
 10
85.40357256979495
 20
-113.7462008721711
 10
85.46902938401469
 20
-113.6785047458859
 10
85.46902938401469
 20
-113.5410454360245
 10
85.46902938401469
 20
-113.4225341513319
 10
85.39719914314723
 20
-113.2914482681181
 10
85.20048419093946
 20
-113.2914482681181
 10
84.94020722702884
 20
-113.2914482681181
 10
84.93176674308998
 20
-113.5219251560813
 10
84.92746037373341
 20
-113.6383693834828
 10
84.92746037373341
 20
-113.6383693834828
 10
84.70335691241792
 20
-113.6383693834828
 10
84.70335691241792
 20
-113.6383693834828
 10
84.71179739635677
 20
-113.5114176148513
 10
84.72230493758678
 20
-113.3992797568064
 10
84.80274791716737
 20
-113.2807684721138
 10
84.91264646314684
 20
-113.1200547677269
 10
85.0988538741246
 20
-113.0861205771972
 10
85.21529810152605
 20
-113.0861205771972
 10
85.49245603331438
 20
-113.0861205771972
 10
85.69967852675217
 20
-113.2702609308838
 10
85.69967852675217
 20
-113.5431124933156
 10
85.69967852675217
 20
-113.7715223239877
 10
85.58340655412499
 20
-113.8710855835114
 10
85.27455374387233
 20
-114.0974283568923
 97
        0
 97
        0
 75
     2
 76
     1
 98
        0
  0
SPLINE
  5
AA
330
A4
100
AcDbEntity
  8
_U+30EC_U+30A4_U+30E4_U+30FC 1
370
     0
100
AcDbSpline
210
0.0
220
0.0
230
1.0
 70
    11
 71
     3
 72
    29
 73
    25
 74
     0
 42
0.0000000001
 43
0.0000000001
 12
1.0
 22
0.0
 32
0.0
 13
1.0
 23
0.0
 33
0.0
 40
0.0
 40
0.0
 40
0.0
 40
0.0
 40
1.0
 40
1.0
 40
1.0
 40
2.0
 40
2.0
 40
2.0
 40
3.0
 40
3.0
 40
3.0
 40
4.0
 40
4.0
 40
4.0
 40
5.0
 40
5.0
 40
5.0
 40
6.0
 40
6.0
 40
6.0
 40
7.0
 40
7.0
 40
7.0
 40
8.0
 40
8.0
 40
8.0
 40
8.0
 10
86.75594480252977
 20
-114.5013658025379
 30
0.0
 10
86.64811331384145
 20
-114.710827608041
 30
0.0
 10
86.47448050138486
 20
-114.7299478879842
 30
0.0
 10
86.35838078353194
 20
-114.7299478879842
 30
0.0
 10
86.19749482437076
 20
-114.7299478879842
 30
0.0
 10
86.05555689037847
 20
-114.6834390989333
 30
0.0
 10
85.96047225498558
 20
-114.5013658025379
 30
0.0
 10
85.85694713565383
 20
-114.3067179076212
 30
0.0
 10
85.83782685571069
 20
-114.0698675930103
 30
0.0
 10
85.83782685571069
 20
-113.906914576558
 30
0.0
 10
85.83782685571069
 20
-113.7630818400488
 30
0.0
 10
85.85470782358841
 20
-113.5114176148513
 30
0.0
 10
85.96047225498558
 20
-113.3124633505781
 30
0.0
 10
86.0683037436739
 20
-113.1093749717227
 30
0.0
 10
86.22918970283507
 20
-113.0861205771972
 30
0.0
 10
86.35838078353194
 20
-113.0861205771972
 30
0.0
 10
86.51685517585342
 20
-113.0861205771972
 30
0.0
 10
86.66086016713687
 20
-113.130562308957
 30
0.0
 10
86.75594480252977
 20
-113.3124633505781
 30
0.0
 10
86.85550806205349
 20
-113.5050441882036
 30
0.0
 10
86.87859020180466
 20
-113.7334540188757
 30
0.0
 10
86.87859020180466
 20
-113.906914576558
 30
0.0
 10
86.87859020180466
 20
-114.0783080769492
 30
0.0
 10
86.85757511934465
 20
-114.3089572196867
 30
0.0
 10
86.75594480252977
 20
-114.5013658025379
 30
0.0
  0
SPLINE
  5
AB
330
A4
100
AcDbEntity
  8
_U+30EC_U+30A4_U+30E4_U+30FC 1
370
     0
100
AcDbSpline
210
0.0
220
0.0
230
1.0
 70
    11
 71
     3
 72
    17
 73
    13
 74
     0
 42
0.0000000001
 43
0.0000000001
 12
1.0
 22
0.0
 32
0.0
 13
1.0
 23
0.0
 33
0.0
 40
0.0
 40
0.0
 40
0.0
 40
0.0
 40
1.0
 40
1.0
 40
1.0
 40
2.0
 40
2.0
 40
2.0
 40
3.0
 40
3.0
 40
3.0
 40
4.0
 40
4.0
 40
4.0
 40
4.0
 10
86.35838078353194
 20
-113.2787014148227
 30
0.0
 10
86.10861136085133
 20
-113.2787014148227
 30
0.0
 10
86.06210257180045
 20
-113.5622327732588
 30
0.0
 10
86.06210257180045
 20
-113.906914576558
 30
0.0
 10
86.06210257180045
 20
-114.2264471828149
 30
0.0
 10
86.09793156484704
 20
-114.5352999930676
 30
0.0
 10
86.35838078353194
 20
-114.5352999930676
 30
0.0
 10
86.60573863937287
 20
-114.5352999930676
 30
0.0
 10
86.65431448571489
 20
-114.2538356919227
 30
0.0
 10
86.65431448571489
 20
-113.906914576558
 30
0.0
 10
86.65431448571489
 20
-113.5875542250753
 30
0.0
 10
86.61641843537716
 20
-113.2787014148227
 30
0.0
 10
86.35838078353194
 20
-113.2787014148227
 30
0.0
  0
HATCH
  5
AC
330
A4
100
AcDbEntity
  8
_U+30EC_U+30A4_U+30E4_U+30FC 1
 62
   179
420
  2234388
100
AcDbHatch
 10
0.0
 20
0.0
 30
0.0
210
0.0
220
0.0
230
1.0
  2
SOLID
 70
     1
 71
     0
 91
        2
 92
        1
 93
        1
 72
     4
 94
        3
 73
     0
 74
     1
 95
       29
 96
       25
 40
0.0
 40
0.0
 40
0.0
 40
0.0
 40
1.0
 40
1.0
 40
1.0
 40
2.0
 40
2.0
 40
2.0
 40
3.0
 40
3.0
 40
3.0
 40
4.0
 40
4.0
 40
4.0
 40
5.0
 40
5.0
 40
5.0
 40
6.0
 40
6.0
 40
6.0
 40
7.0
 40
7.0
 40
7.0
 40
8.0
 40
8.0
 40
8.0
 40
8.0
 10
86.75594480252977
 20
-114.5013658025379
 10
86.64811331384145
 20
-114.710827608041
 10
86.47448050138486
 20
-114.7299478879842
 10
86.35838078353194
 20
-114.7299478879842
 10
86.19749482437076
 20
-114.7299478879842
 10
86.05555689037847
 20
-114.6834390989333
 10
85.96047225498558
 20
-114.5013658025379
 10
85.85694713565383
 20
-114.3067179076212
 10
85.83782685571069
 20
-114.0698675930103
 10
85.83782685571069
 20
-113.906914576558
 10
85.83782685571069
 20
-113.7630818400488
 10
85.85470782358841
 20
-113.5114176148513
 10
85.96047225498558
 20
-113.3124633505781
 10
86.0683037436739
 20
-113.1093749717227
 10
86.22918970283507
 20
-113.0861205771972
 10
86.35838078353194
 20
-113.0861205771972
 10
86.51685517585342
 20
-113.0861205771972
 10
86.66086016713687
 20
-113.130562308957
 10
86.75594480252977
 20
-113.3124633505781
 10
86.85550806205349
 20
-113.5050441882036
 10
86.87859020180466
 20
-113.7334540188757
 10
86.87859020180466
 20
-113.906914576558
 10
86.87859020180466
 20
-114.0783080769492
 10
86.85757511934465
 20
-114.3089572196867
 10
86.75594480252977
 20
-114.5013658025379
 97
        0
 97
        0
 92
        1
 93
        1
 72
     4
 94
        3
 73
     0
 74
     1
 95
       17
 96
       13
 40
0.0
 40
0.0
 40
0.0
 40
0.0
 40
1.0
 40
1.0
 40
1.0
 40
2.0
 40
2.0
 40
2.0
 40
3.0
 40
3.0
 40
3.0
 40
4.0
 40
4.0
 40
4.0
 40
4.0
 10
86.35838078353194
 20
-113.2787014148227
 10
86.10861136085133
 20
-113.2787014148227
 10
86.06210257180045
 20
-113.5622327732588
 10
86.06210257180045
 20
-113.906914576558
 10
86.06210257180045
 20
-114.2264471828149
 10
86.09793156484704
 20
-114.5352999930676
 10
86.35838078353194
 20
-114.5352999930676
 10
86.60573863937287
 20
-114.5352999930676
 10
86.65431448571489
 20
-114.2538356919227
 10
86.65431448571489
 20
-113.906914576558
 10
86.65431448571489
 20
-113.5875542250753
 10
86.61641843537716
 20
-113.2787014148227
 10
86.35838078353194
 20
-113.2787014148227
 97
        0
 97
        0
 75
     2
 76
     1
 98
        0
  0
ENDBLK
  5
A7
330
A4
100
AcDbEntity
  8
0
100
AcDbBlockEnd
  0
BLOCK
  5
BF
330
BD
100
AcDbEntity
  8
0
100
AcDbBlockBegin
  2
block 5
 70
     0
 10
0.0
 20
0.0
 30
0.0
  3
block 5
  1

  0
SPLINE
  5
C1
330
BD
100
AcDbEntity
  8
_U+30EC_U+30A4_U+30E4_U+30FC 1
370
     0
100
AcDbSpline
210
0.0
220
0.0
230
1.0
 70
    11
 71
     3
 72
    26
 73
    22
 74
     0
 42
0.0000000001
 43
0.0000000001
 12
1.0
 22
0.0
 32
0.0
 13
1.0
 23
0.0
 33
0.0
 40
0.0
 40
0.0
 40
0.0
 40
0.0
 40
1.0
 40
1.0
 40
1.0
 40
2.0
 40
2.0
 40
2.0
 40
3.0
 40
3.0
 40
3.0
 40
4.0
 40
4.0
 40
4.0
 40
5.0
 40
5.0
 40
5.0
 40
6.0
 40
6.0
 40
6.0
 40
7.0
 40
7.0
 40
7.0
 40
7.0
 10
103.9450764714096
 20
-119.9020697399898
 30
0.0
 10
103.9450764714096
 20
-119.9020697399898
 30
0.0
 10
102.840923368387
 20
-119.9020697399898
 30
0.0
 10
102.840923368387
 20
-119.9020697399898
 30
0.0
 10
102.840923368387
 20
-119.9020697399898
 30
0.0
 10
102.840923368387
 20
-120.2321098874767
 30
0.0
 10
102.840923368387
 20
-120.2321098874767
 30
0.0
 10
102.840923368387
 20
-120.2321098874767
 30
0.0
 10
102.6927842625213
 20
-120.2321098874767
 30
0.0
 10
102.6927842625213
 20
-120.2321098874767
 30
0.0
 10
102.6779703519347
 20
-119.9000026826986
 30
0.0
 10
102.5150173354824
 20
-119.8534938936477
 30
0.0
 10
102.4006401653721
 20
-119.8238660724746
 30
0.0
 10
102.4006401653721
 20
-119.8238660724746
 30
0.0
 10
102.4006401653721
 20
-119.6777940239
 30
0.0
 10
102.4006401653721
 20
-119.6777940239
 30
0.0
 10
102.4006401653721
 20
-119.6777940239
 30
0.0
 10
103.9450764714096
 20
-119.6777940239
 30
0.0
 10
103.9450764714096
 20
-119.6777940239
 30
0.0
 10
103.9450764714096
 20
-119.6777940239
 30
0.0
 10
103.9450764714096
 20
-119.9020697399898
 30
0.0
 10
103.9450764714096
 20
-119.9020697399898
 30
0.0
  0
HATCH
  5
C2
330
BD
100
AcDbEntity
  8
_U+30EC_U+30A4_U+30E4_U+30FC 1
 62
   179
420
  2234388
100
AcDbHatch
 10
0.0
 20
0.0
 30
0.0
210
0.0
220
0.0
230
1.0
  2
SOLID
 70
     1
 71
     0
 91
        1
 92
        1
 93
        1
 72
     4
 94
        3
 73
     0
 74
     1
 95
       26
 96
       22
 40
0.0
 40
0.0
 40
0.0
 40
0.0
 40
1.0
 40
1.0
 40
1.0
 40
2.0
 40
2.0
 40
2.0
 40
3.0
 40
3.0
 40
3.0
 40
4.0
 40
4.0
 40
4.0
 40
5.0
 40
5.0
 40
5.0
 40
6.0
 40
6.0
 40
6.0
 40
7.0
 40
7.0
 40
7.0
 40
7.0
 10
103.9450764714096
 20
-119.9020697399898
 10
103.9450764714096
 20
-119.9020697399898
 10
102.840923368387
 20
-119.9020697399898
 10
102.840923368387
 20
-119.9020697399898
 10
102.840923368387
 20
-119.9020697399898
 10
102.840923368387
 20
-120.2321098874767
 10
102.840923368387
 20
-120.2321098874767
 10
102.840923368387
 20
-120.2321098874767
 10
102.6927842625213
 20
-120.2321098874767
 10
102.6927842625213
 20
-120.2321098874767
 10
102.6779703519347
 20
-119.9000026826986
 10
102.5150173354824
 20
-119.8534938936477
 10
102.4006401653721
 20
-119.8238660724746
 10
102.4006401653721
 20
-119.8238660724746
 10
102.4006401653721
 20
-119.6777940239
 10
102.4006401653721
 20
-119.6777940239
 10
102.4006401653721
 20
-119.6777940239
 10
103.9450764714096
 20
-119.6777940239
 10
103.9450764714096
 20
-119.6777940239
 10
103.9450764714096
 20
-119.6777940239
 10
103.9450764714096
 20
-119.9020697399898
 10
103.9450764714096
 20
-119.9020697399898
 97
        0
 97
        0
 75
     2
 76
     1
 98
        0
  0
ENDBLK
  5
C0
330
BD
100
AcDbEntity
  8
0
100
AcDbBlockEnd
  0
BLOCK
  5
CD
330
CB
100
AcDbEntity
  8
0
100
AcDbBlockBegin
  2
block 6
 70
     0
 10
0.0
 20
0.0
 30
0.0
  3
block 6
  1

  0
SPLINE
  5
CF
330
CB
100
AcDbEntity
  8
_U+30EC_U+30A4_U+30E4_U+30FC 1
370
     0
100
AcDbSpline
210
0.0
220
0.0
230
1.0
 70
    11
 71
     3
 72
    26
 73
    22
 74
     0
 42
0.0000000001
 43
0.0000000001
 12
1.0
 22
0.0
 32
0.0
 13
1.0
 23
0.0
 33
0.0
 40
0.0
 40
0.0
 40
0.0
 40
0.0
 40
1.0
 40
1.0
 40
1.0
 40
2.0
 40
2.0
 40
2.0
 40
3.0
 40
3.0
 40
3.0
 40
4.0
 40
4.0
 40
4.0
 40
5.0
 40
5.0
 40
5.0
 40
6.0
 40
6.0
 40
6.0
 40
7.0
 40
7.0
 40
7.0
 40
7.0
 10
99.12366533980241
 20
-135.9631048922245
 30
0.0
 10
99.12366533980241
 20
-135.9631048922245
 30
0.0
 10
98.01951223677985
 20
-135.9631048922245
 30
0.0
 10
98.01951223677985
 20
-135.9631048922245
 30
0.0
 10
98.01951223677985
 20
-135.9631048922245
 30
0.0
 10
98.01951223677985
 20
-136.2931450397114
 30
0.0
 10
98.01951223677985
 20
-136.2931450397114
 30
0.0
 10
98.01951223677985
 20
-136.2931450397114
 30
0.0
 10
97.87137313091411
 20
-136.2931450397114
 30
0.0
 10
97.87137313091411
 20
-136.2931450397114
 30
0.0
 10
97.85655922032753
 20
-135.9610378349334
 30
0.0
 10
97.69360620387522
 20
-135.9145290458825
 30
0.0
 10
97.57922903376492
 20
-135.8849012247093
 30
0.0
 10
97.57922903376492
 20
-135.8849012247093
 30
0.0
 10
97.57922903376492
 20
-135.7388291761347
 30
0.0
 10
97.57922903376492
 20
-135.7388291761347
 30
0.0
 10
97.57922903376492
 20
-135.7388291761347
 30
0.0
 10
99.12366533980241
 20
-135.7388291761347
 30
0.0
 10
99.12366533980241
 20
-135.7388291761347
 30
0.0
 10
99.12366533980241
 20
-135.7388291761347
 30
0.0
 10
99.12366533980241
 20
-135.9631048922245
 30
0.0
 10
99.12366533980241
 20
-135.9631048922245
 30
0.0
  0
HATCH
  5
D0
330
CB
100
AcDbEntity
  8
_U+30EC_U+30A4_U+30E4_U+30FC 1
 62
   179
420
  2234388
100
AcDbHatch
 10
0.0
 20
0.0
 30
0.0
210
0.0
220
0.0
230
1.0
  2
SOLID
 70
     1
 71
     0
 91
        1
 92
        1
 93
        1
 72
     4
 94
        3
 73
     0
 74
     1
 95
       26
 96
       22
 40
0.0
 40
0.0
 40
0.0
 40
0.0
 40
1.0
 40
1.0
 40
1.0
 40
2.0
 40
2.0
 40
2.0
 40
3.0
 40
3.0
 40
3.0
 40
4.0
 40
4.0
 40
4.0
 40
5.0
 40
5.0
 40
5.0
 40
6.0
 40
6.0
 40
6.0
 40
7.0
 40
7.0
 40
7.0
 40
7.0
 10
99.12366533980241
 20
-135.9631048922245
 10
99.12366533980241
 20
-135.9631048922245
 10
98.01951223677985
 20
-135.9631048922245
 10
98.01951223677985
 20
-135.9631048922245
 10
98.01951223677985
 20
-135.9631048922245
 10
98.01951223677985
 20
-136.2931450397114
 10
98.01951223677985
 20
-136.2931450397114
 10
98.01951223677985
 20
-136.2931450397114
 10
97.87137313091411
 20
-136.2931450397114
 10
97.87137313091411
 20
-136.2931450397114
 10
97.85655922032753
 20
-135.9610378349334
 10
97.69360620387522
 20
-135.9145290458825
 10
97.57922903376492
 20
-135.8849012247093
 10
97.57922903376492
 20
-135.8849012247093
 10
97.57922903376492
 20
-135.7388291761347
 10
97.57922903376492
 20
-135.7388291761347
 10
97.57922903376492
 20
-135.7388291761347
 10
99.12366533980241
 20
-135.7388291761347
 10
99.12366533980241
 20
-135.7388291761347
 10
99.12366533980241
 20
-135.7388291761347
 10
99.12366533980241
 20
-135.9631048922245
 10
99.12366533980241
 20
-135.9631048922245
 97
        0
 97
        0
 75
     2
 76
     1
 98
        0
  0
SPLINE
  5
D1
330
CB
100
AcDbEntity
  8
_U+30EC_U+30A4_U+30E4_U+30FC 1
370
     0
100
AcDbSpline
210
0.0
220
0.0
230
1.0
 70
    11
 71
     3
 72
    29
 73
    25
 74
     0
 42
0.0000000001
 43
0.0000000001
 12
1.0
 22
0.0
 32
0.0
 13
1.0
 23
0.0
 33
0.0
 40
0.0
 40
0.0
 40
0.0
 40
0.0
 40
1.0
 40
1.0
 40
1.0
 40
2.0
 40
2.0
 40
2.0
 40
3.0
 40
3.0
 40
3.0
 40
4.0
 40
4.0
 40
4.0
 40
5.0
 40
5.0
 40
5.0
 40
6.0
 40
6.0
 40
6.0
 40
7.0
 40
7.0
 40
7.0
 40
8.0
 40
8.0
 40
8.0
 40
8.0
 10
98.94589841276353
 20
-134.3397758995748
 30
0.0
 10
99.15536021826672
 20
-134.4479518978116
 30
0.0
 10
99.17430824343559
 20
-134.6212402007197
 30
0.0
 10
99.17430824343559
 20
-134.7376844281211
 30
0.0
 10
99.17430824343559
 20
-134.8985703872823
 30
0.0
 10
99.12779945438471
 20
-135.0401638117261
 30
0.0
 10
98.94589841276353
 20
-135.135248447119
 30
0.0
 10
98.75125051784691
 20
-135.238945821225
 30
0.0
 10
98.51422794846172
 20
-135.2578938463939
 30
0.0
 10
98.35161944155793
 20
-135.2578938463939
 30
0.0
 10
98.20761445027449
 20
-135.2578938463939
 30
0.0
 10
97.95577797030273
 20
-135.2410128785161
 30
0.0
 10
97.7569959608038
 20
-135.135248447119
 30
0.0
 10
97.5540798367226
 20
-135.0274169584306
 30
0.0
 10
97.5306531874229
 20
-134.8665309992695
 30
0.0
 10
97.5306531874229
 20
-134.7376844281211
 30
0.0
 10
97.5306531874229
 20
-134.5788655262511
 30
0.0
 10
97.57509491918262
 20
-134.4352050445162
 30
0.0
 10
97.7569959608038
 20
-134.3397758995748
 30
0.0
 10
97.94957679842928
 20
-134.2405571495996
 30
0.0
 10
98.17798662910134
 20
-134.2171305002999
 30
0.0
 10
98.35161944155793
 20
-134.2171305002999
 30
0.0
 10
98.52284068717485
 20
-134.2171305002999
 30
0.0
 10
98.75331757513807
 20
-134.2384900923084
 30
0.0
 10
98.94589841276353
 20
-134.3397758995748
 30
0.0
  0
SPLINE
  5
D2
330
CB
100
AcDbEntity
  8
_U+30EC_U+30A4_U+30E4_U+30FC 1
370
     0
100
AcDbSpline
210
0.0
220
0.0
230
1.0
 70
    11
 71
     3
 72
    17
 73
    13
 74
     0
 42
0.0000000001
 43
0.0000000001
 12
1.0
 22
0.0
 32
0.0
 13
1.0
 23
0.0
 33
0.0
 40
0.0
 40
0.0
 40
0.0
 40
0.0
 40
1.0
 40
1.0
 40
1.0
 40
2.0
 40
2.0
 40
2.0
 40
3.0
 40
3.0
 40
3.0
 40
4.0
 40
4.0
 40
4.0
 40
4.0
 10
97.72323402504836
 20
-134.7376844281211
 30
0.0
 10
97.72323402504836
 20
-134.9871093412532
 30
0.0
 10
98.00676538348442
 20
-135.0339626398526
 30
0.0
 10
98.35161944155793
 20
-135.0339626398526
 30
0.0
 10
98.67097979304059
 20
-135.0339626398526
 30
0.0
 10
98.97966034851898
 20
-134.9977891372575
 30
0.0
 10
98.97966034851898
 20
-134.7376844281211
 30
0.0
 10
98.97966034851898
 20
-134.4899820627317
 30
0.0
 10
98.6985405569226
 20
-134.4414062163897
 30
0.0
 10
98.35161944155793
 20
-134.4414062163897
 30
0.0
 10
98.03191458052675
 20
-134.4414062163897
 30
0.0
 10
97.72323402504836
 20
-134.4796467762759
 30
0.0
 10
97.72323402504836
 20
-134.7376844281211
 30
0.0
  0
HATCH
  5
D3
330
CB
100
AcDbEntity
  8
_U+30EC_U+30A4_U+30E4_U+30FC 1
 62
   179
420
  2234388
100
AcDbHatch
 10
0.0
 20
0.0
 30
0.0
210
0.0
220
0.0
230
1.0
  2
SOLID
 70
     1
 71
     0
 91
        2
 92
        1
 93
        1
 72
     4
 94
        3
 73
     0
 74
     1
 95
       29
 96
       25
 40
0.0
 40
0.0
 40
0.0
 40
0.0
 40
1.0
 40
1.0
 40
1.0
 40
2.0
 40
2.0
 40
2.0
 40
3.0
 40
3.0
 40
3.0
 40
4.0
 40
4.0
 40
4.0
 40
5.0
 40
5.0
 40
5.0
 40
6.0
 40
6.0
 40
6.0
 40
7.0
 40
7.0
 40
7.0
 40
8.0
 40
8.0
 40
8.0
 40
8.0
 10
98.94589841276353
 20
-134.3397758995748
 10
99.15536021826672
 20
-134.4479518978116
 10
99.17430824343559
 20
-134.6212402007197
 10
99.17430824343559
 20
-134.7376844281211
 10
99.17430824343559
 20
-134.8985703872823
 10
99.12779945438471
 20
-135.0401638117261
 10
98.94589841276353
 20
-135.135248447119
 10
98.75125051784691
 20
-135.238945821225
 10
98.51422794846172
 20
-135.2578938463939
 10
98.35161944155793
 20
-135.2578938463939
 10
98.20761445027449
 20
-135.2578938463939
 10
97.95577797030273
 20
-135.2410128785161
 10
97.7569959608038
 20
-135.135248447119
 10
97.5540798367226
 20
-135.0274169584306
 10
97.5306531874229
 20
-134.8665309992695
 10
97.5306531874229
 20
-134.7376844281211
 10
97.5306531874229
 20
-134.5788655262511
 10
97.57509491918262
 20
-134.4352050445162
 10
97.7569959608038
 20
-134.3397758995748
 10
97.94957679842928
 20
-134.2405571495996
 10
98.17798662910134
 20
-134.2171305002999
 10
98.35161944155793
 20
-134.2171305002999
 10
98.52284068717485
 20
-134.2171305002999
 10
98.75331757513807
 20
-134.2384900923084
 10
98.94589841276353
 20
-134.3397758995748
 97
        0
 97
        0
 92
        1
 93
        1
 72
     4
 94
        3
 73
     0
 74
     1
 95
       17
 96
       13
 40
0.0
 40
0.0
 40
0.0
 40
0.0
 40
1.0
 40
1.0
 40
1.0
 40
2.0
 40
2.0
 40
2.0
 40
3.0
 40
3.0
 40
3.0
 40
4.0
 40
4.0
 40
4.0
 40
4.0
 10
97.72323402504836
 20
-134.7376844281211
 10
97.72323402504836
 20
-134.9871093412532
 10
98.00676538348442
 20
-135.0339626398526
 10
98.35161944155793
 20
-135.0339626398526
 10
98.67097979304059
 20
-135.0339626398526
 10
98.97966034851898
 20
-134.9977891372575
 10
98.97966034851898
 20
-134.7376844281211
 10
98.97966034851898
 20
-134.4899820627317
 10
98.6985405569226
 20
-134.4414062163897
 10
98.35161944155793
 20
-134.4414062163897
 10
98.03191458052675
 20
-134.4414062163897
 10
97.72323402504836
 20
-134.4796467762759
 10
97.72323402504836
 20
-134.7376844281211
 97
        0
 97
        0
 75
     2
 76
     1
 98
        0
  0
ENDBLK
  5
CE
330
CB
100
AcDbEntity
  8
0
100
AcDbBlockEnd
  0
BLOCK
  5
DE
330
DC
100
AcDbEntity
  8
0
100
AcDbBlockBegin
  2
block 7
 70
     0
 10
0.0
 20
0.0
 30
0.0
  3
block 7
  1

  0
SPLINE
  5
E0
330
DC
100
AcDbEntity
  8
_U+30EC_U+30A4_U+30E4_U+30FC 1
370
     0
100
AcDbSpline
210
0.0
220
0.0
230
1.0
 70
    11
 71
     3
 72
    26
 73
    22
 74
     0
 42
0.0000000001
 43
0.0000000001
 12
1.0
 22
0.0
 32
0.0
 13
1.0
 23
0.0
 33
0.0
 40
0.0
 40
0.0
 40
0.0
 40
0.0
 40
1.0
 40
1.0
 40
1.0
 40
2.0
 40
2.0
 40
2.0
 40
3.0
 40
3.0
 40
3.0
 40
4.0
 40
4.0
 40
4.0
 40
5.0
 40
5.0
 40
5.0
 40
6.0
 40
6.0
 40
6.0
 40
7.0
 40
7.0
 40
7.0
 40
7.0
 10
99.12435435889947
 20
-125.9637152462869
 30
0.0
 10
99.12435435889947
 20
-125.9637152462869
 30
0.0
 10
98.0202012558769
 20
-125.9637152462869
 30
0.0
 10
98.0202012558769
 20
-125.9637152462869
 30
0.0
 10
98.0202012558769
 20
-125.9637152462869
 30
0.0
 10
98.0202012558769
 20
-126.2937553937738
 30
0.0
 10
98.0202012558769
 20
-126.2937553937738
 30
0.0
 10
98.0202012558769
 20
-126.2937553937738
 30
0.0
 10
97.87206215001116
 20
-126.2937553937738
 30
0.0
 10
97.87206215001116
 20
-126.2937553937738
 30
0.0
 10
97.85724823942458
 20
-125.9616481889957
 30
0.0
 10
97.69429522297226
 20
-125.9151393999448
 30
0.0
 10
97.57991805286197
 20
-125.8855115787717
 30
0.0
 10
97.57991805286197
 20
-125.8855115787717
 30
0.0
 10
97.57991805286197
 20
-125.7394395301971
 30
0.0
 10
97.57991805286197
 20
-125.7394395301971
 30
0.0
 10
97.57991805286197
 20
-125.7394395301971
 30
0.0
 10
99.12435435889947
 20
-125.7394395301971
 30
0.0
 10
99.12435435889947
 20
-125.7394395301971
 30
0.0
 10
99.12435435889947
 20
-125.7394395301971
 30
0.0
 10
99.12435435889947
 20
-125.9637152462869
 30
0.0
 10
99.12435435889947
 20
-125.9637152462869
 30
0.0
  0
HATCH
  5
E1
330
DC
100
AcDbEntity
  8
_U+30EC_U+30A4_U+30E4_U+30FC 1
 62
   179
420
  2234388
100
AcDbHatch
 10
0.0
 20
0.0
 30
0.0
210
0.0
220
0.0
230
1.0
  2
SOLID
 70
     1
 71
     0
 91
        1
 92
        1
 93
        1
 72
     4
 94
        3
 73
     0
 74
     1
 95
       26
 96
       22
 40
0.0
 40
0.0
 40
0.0
 40
0.0
 40
1.0
 40
1.0
 40
1.0
 40
2.0
 40
2.0
 40
2.0
 40
3.0
 40
3.0
 40
3.0
 40
4.0
 40
4.0
 40
4.0
 40
5.0
 40
5.0
 40
5.0
 40
6.0
 40
6.0
 40
6.0
 40
7.0
 40
7.0
 40
7.0
 40
7.0
 10
99.12435435889947
 20
-125.9637152462869
 10
99.12435435889947
 20
-125.9637152462869
 10
98.0202012558769
 20
-125.9637152462869
 10
98.0202012558769
 20
-125.9637152462869
 10
98.0202012558769
 20
-125.9637152462869
 10
98.0202012558769
 20
-126.2937553937738
 10
98.0202012558769
 20
-126.2937553937738
 10
98.0202012558769
 20
-126.2937553937738
 10
97.87206215001116
 20
-126.2937553937738
 10
97.87206215001116
 20
-126.2937553937738
 10
97.85724823942458
 20
-125.9616481889957
 10
97.69429522297226
 20
-125.9151393999448
 10
97.57991805286197
 20
-125.8855115787717
 10
97.57991805286197
 20
-125.8855115787717
 10
97.57991805286197
 20
-125.7394395301971
 10
97.57991805286197
 20
-125.7394395301971
 10
97.57991805286197
 20
-125.7394395301971
 10
99.12435435889947
 20
-125.7394395301971
 10
99.12435435889947
 20
-125.7394395301971
 10
99.12435435889947
 20
-125.7394395301971
 10
99.12435435889947
 20
-125.9637152462869
 10
99.12435435889947
 20
-125.9637152462869
 97
        0
 97
        0
 75
     2
 76
     1
 98
        0
  0
SPLINE
  5
E2
330
DC
100
AcDbEntity
  8
_U+30EC_U+30A4_U+30E4_U+30FC 1
370
     0
100
AcDbSpline
210
0.0
220
0.0
230
1.0
 70
    11
 71
     3
 72
    29
 73
    25
 74
     0
 42
0.0000000001
 43
0.0000000001
 12
1.0
 22
0.0
 32
0.0
 13
1.0
 23
0.0
 33
0.0
 40
0.0
 40
0.0
 40
0.0
 40
0.0
 40
1.0
 40
1.0
 40
1.0
 40
2.0
 40
2.0
 40
2.0
 40
3.0
 40
3.0
 40
3.0
 40
4.0
 40
4.0
 40
4.0
 40
5.0
 40
5.0
 40
5.0
 40
6.0
 40
6.0
 40
6.0
 40
7.0
 40
7.0
 40
7.0
 40
8.0
 40
8.0
 40
8.0
 40
8.0
 10
98.94658743186058
 20
-124.3403862536371
 30
0.0
 10
99.15604923736377
 20
-124.448562251874
 30
0.0
 10
99.17499726253264
 20
-124.621850554782
 30
0.0
 10
99.17499726253264
 20
-124.7382947821835
 30
0.0
 10
99.17499726253264
 20
-124.8991807413447
 30
0.0
 10
99.12848847348177
 20
-125.0407741657884
 30
0.0
 10
98.94658743186058
 20
-125.1358588011813
 30
0.0
 10
98.75193953694396
 20
-125.2395561752873
 30
0.0
 10
98.51491696755878
 20
-125.2588487100047
 30
0.0
 10
98.35230846065498
 20
-125.2588487100047
 30
0.0
 10
98.20830346937154
 20
-125.2588487100047
 30
0.0
 10
97.95646698939977
 20
-125.2416232325785
 30
0.0
 10
97.75768497990086
 20
-125.1358588011813
 30
0.0
 10
97.55476885581965
 20
-125.028027312493
 30
0.0
 10
97.53134220651995
 20
-124.8671413533318
 30
0.0
 10
97.53134220651995
 20
-124.7382947821835
 30
0.0
 10
97.53134220651995
 20
-124.5794758803135
 30
0.0
 10
97.57578393827967
 20
-124.4358153985786
 30
0.0
 10
97.75768497990086
 20
-124.3403862536371
 30
0.0
 10
97.95026581752633
 20
-124.2411675036619
 30
0.0
 10
98.17867564819839
 20
-124.2177408543622
 30
0.0
 10
98.35230846065498
 20
-124.2177408543622
 30
0.0
 10
98.5235297062719
 20
-124.2177408543622
 30
0.0
 10
98.75400659423511
 20
-124.2391004463708
 30
0.0
 10
98.94658743186058
 20
-124.3403862536371
 30
0.0
  0
SPLINE
  5
E3
330
DC
100
AcDbEntity
  8
_U+30EC_U+30A4_U+30E4_U+30FC 1
370
     0
100
AcDbSpline
210
0.0
220
0.0
230
1.0
 70
    11
 71
     3
 72
    17
 73
    13
 74
     0
 42
0.0000000001
 43
0.0000000001
 12
1.0
 22
0.0
 32
0.0
 13
1.0
 23
0.0
 33
0.0
 40
0.0
 40
0.0
 40
0.0
 40
0.0
 40
1.0
 40
1.0
 40
1.0
 40
2.0
 40
2.0
 40
2.0
 40
3.0
 40
3.0
 40
3.0
 40
4.0
 40
4.0
 40
4.0
 40
4.0
 10
97.72392304414541
 20
-124.7382947821835
 30
0.0
 10
97.72392304414541
 20
-124.9880642048641
 30
0.0
 10
98.00745440258147
 20
-125.034572993915
 30
0.0
 10
98.35230846065498
 20
-125.034572993915
 30
0.0
 10
98.67166881213764
 20
-125.034572993915
 30
0.0
 10
98.98034936761603
 20
-124.9983994913198
 30
0.0
 10
98.98034936761603
 20
-124.7382947821835
 30
0.0
 10
98.98034936761603
 20
-124.490592416794
 30
0.0
 10
98.69922957601965
 20
-124.442016570452
 30
0.0
 10
98.35230846065498
 20
-124.442016570452
 30
0.0
 10
98.0326035996238
 20
-124.442016570452
 30
0.0
 10
97.72392304414541
 20
-124.4802571303383
 30
0.0
 10
97.72392304414541
 20
-124.7382947821835
 30
0.0
  0
HATCH
  5
E4
330
DC
100
AcDbEntity
  8
_U+30EC_U+30A4_U+30E4_U+30FC 1
 62
   179
420
  2234388
100
AcDbHatch
 10
0.0
 20
0.0
 30
0.0
210
0.0
220
0.0
230
1.0
  2
SOLID
 70
     1
 71
     0
 91
        2
 92
        1
 93
        1
 72
     4
 94
        3
 73
     0
 74
     1
 95
       29
 96
       25
 40
0.0
 40
0.0
 40
0.0
 40
0.0
 40
1.0
 40
1.0
 40
1.0
 40
2.0
 40
2.0
 40
2.0
 40
3.0
 40
3.0
 40
3.0
 40
4.0
 40
4.0
 40
4.0
 40
5.0
 40
5.0
 40
5.0
 40
6.0
 40
6.0
 40
6.0
 40
7.0
 40
7.0
 40
7.0
 40
8.0
 40
8.0
 40
8.0
 40
8.0
 10
98.94658743186058
 20
-124.3403862536371
 10
99.15604923736377
 20
-124.448562251874
 10
99.17499726253264
 20
-124.621850554782
 10
99.17499726253264
 20
-124.7382947821835
 10
99.17499726253264
 20
-124.8991807413447
 10
99.12848847348177
 20
-125.0407741657884
 10
98.94658743186058
 20
-125.1358588011813
 10
98.75193953694396
 20
-125.2395561752873
 10
98.51491696755878
 20
-125.2588487100047
 10
98.35230846065498
 20
-125.2588487100047
 10
98.20830346937154
 20
-125.2588487100047
 10
97.95646698939977
 20
-125.2416232325785
 10
97.75768497990086
 20
-125.1358588011813
 10
97.55476885581965
 20
-125.028027312493
 10
97.53134220651995
 20
-124.8671413533318
 10
97.53134220651995
 20
-124.7382947821835
 10
97.53134220651995
 20
-124.5794758803135
 10
97.57578393827967
 20
-124.4358153985786
 10
97.75768497990086
 20
-124.3403862536371
 10
97.95026581752633
 20
-124.2411675036619
 10
98.17867564819839
 20
-124.2177408543622
 10
98.35230846065498
 20
-124.2177408543622
 10
98.5235297062719
 20
-124.2177408543622
 10
98.75400659423511
 20
-124.2391004463708
 10
98.94658743186058
 20
-124.3403862536371
 97
        0
 97
        0
 92
        1
 93
        1
 72
     4
 94
        3
 73
     0
 74
     1
 95
       17
 96
       13
 40
0.0
 40
0.0
 40
0.0
 40
0.0
 40
1.0
 40
1.0
 40
1.0
 40
2.0
 40
2.0
 40
2.0
 40
3.0
 40
3.0
 40
3.0
 40
4.0
 40
4.0
 40
4.0
 40
4.0
 10
97.72392304414541
 20
-124.7382947821835
 10
97.72392304414541
 20
-124.9880642048641
 10
98.00745440258147
 20
-125.034572993915
 10
98.35230846065498
 20
-125.034572993915
 10
98.67166881213764
 20
-125.034572993915
 10
98.98034936761603
 20
-124.9983994913198
 10
98.98034936761603
 20
-124.7382947821835
 10
98.98034936761603
 20
-124.490592416794
 10
98.69922957601965
 20
-124.442016570452
 10
98.35230846065498
 20
-124.442016570452
 10
98.0326035996238
 20
-124.442016570452
 10
97.72392304414541
 20
-124.4802571303383
 10
97.72392304414541
 20
-124.7382947821835
 97
        0
 97
        0
 75
     2
 76
     1
 98
        0
  0
ENDBLK
  5
DF
330
DC
100
AcDbEntity
  8
0
100
AcDbBlockEnd
  0
ENDSEC
  0
SECTION
  2
ENTITIES
  0
INSERT
  5
42
330
1F
100
AcDbEntity
  8
_U+30EC_U+30A4_U+30E4_U+30FC 1
100
AcDbBlockReference
  2
block 2
 10
0.0
 20
0.0
 30
0.0
  0
ENDSEC
  0
SECTION
  2
OBJECTS
  0
DICTIONARY
  5
C
330
0
100
AcDbDictionary
281
     1
  3
ACAD_GROUP
350
D
  3
ACAD_LAYOUT
350
1A
  3
ACAD_MATERIAL
350
3B
  3
ACAD_MLEADERSTYLE
350
E6
  3
ACAD_MLINESTYLE
350
17
  3
ACAD_PLOTSETTINGS
350
19
  3
ACAD_PLOTSTYLENAME
350
E
  3
ACAD_TABLESTYLE
350
E5
  3
ACAD_VISUALSTYLE
350
2A
  0
SUN
  5
3F
330
29
100
AcDbSun
 90
        1
290
     0
 63
     7
421
 16777215
 40
1.0
291
     1
 91
  2455826
 92
 54000000
292
     0
 70
     2
 71
   256
280
     1
  0
DICTIONARY
  5
D
102
{ACAD_REACTORS
330
C
102
}
330
C
100
AcDbDictionary
281
     1
  0
DICTIONARY
  5
1A
102
{ACAD_REACTORS
330
C
102
}
330
C
100
AcDbDictionary
281
     1
  3
Layout1
350
1E
  3
Layout2
350
26
  3
Model
350
22
  0
DICTIONARY
  5
3B
102
{ACAD_REACTORS
330
C
102
}
330
C
100
AcDbDictionary
281
     1
  3
ByBlock
350
3D
  3
ByLayer
350
3C
  3
Global
350
3E
  0
DICTIONARY
  5
E6
102
{ACAD_REACTORS
330
C
102
}
330
C
100
AcDbDictionary
281
     1
  0
DICTIONARY
  5
17
102
{ACAD_REACTORS
330
C
102
}
330
C
100
AcDbDictionary
281
     1
  3
Standard
350
18
  0
DICTIONARY
  5
19
102
{ACAD_REACTORS
330
C
102
}
330
C
100
AcDbDictionary
281
     1
  0
ACDBDICTIONARYWDFLT
  5
E
102
{ACAD_REACTORS
330
C
102
}
330
C
100
AcDbDictionary
281
     1
  3
Normal
350
F
100
AcDbDictionaryWithDefault
340
F
  0
DICTIONARY
  5
E5
102
{ACAD_REACTORS
330
C
102
}
330
C
100
AcDbDictionary
281
     1
  0
DICTIONARY
  5
2A
102
{ACAD_REACTORS
330
C
102
}
330
C
100
AcDbDictionary
281
     1
  3
2dWireframe
350
2F
  3
3D Hidden
350
31
  3
3dWireframe
350
30
  3
Basic
350
32
  3
Brighten
350
36
  3
ColorChange
350
3A
  3
Conceptual
350
34
  3
Dim
350
35
  3
Facepattern
350
39
  3
Flat
350
2B
  3
FlatWithEdges
350
2C
  3
Gouraud
350
2D
  3
GouraudWithEdges
350
2E
  3
Linepattern
350
38
  3
Realistic
350
33
  3
Thicken
350
37
  0
LAYOUT
  5
1E
102
{ACAD_REACTORS
330
1A
102
}
330
1A
100
AcDbPlotSettings
  1

  2
none_device
  4

  6

 40
0.0
 41
0.0
 42
0.0
 43
0.0
 44
0.0
 45
0.0
 46
0.0
 47
0.0
 48
0.0
 49
0.0
140
0.0
141
0.0
142
1.0
143
1.0
 70
   688
 72
     0
 73
     0
 74
     5
  7

 75
    16
 76
     0
 77
     2
 78
   300
147
1.0
148
0.0
149
0.0
100
AcDbLayout
  1
Layout1
 70
     1
 71
     1
 10
0.0
 20
0.0
 11
12.0
 21
9.0
 12
0.0
 22
0.0
 32
0.0
 14
1.000000000000000E+20
 24
1.000000000000000E+20
 34
1.000000000000000E+20
 15
-1.000000000000000E+20
 25
-1.000000000000000E+20
 35
-1.000000000000000E+20
146
0.0
 13
0.0
 23
0.0
 33
0.0
 16
1.0
 26
0.0
 36
0.0
 17
0.0
 27
1.0
 37
0.0
 76
     0
330
1B
  0
LAYOUT
  5
26
102
{ACAD_REACTORS
330
1A
102
}
330
1A
100
AcDbPlotSettings
  1

  2
none_device
  4

  6

 40
0.0
 41
0.0
 42
0.0
 43
0.0
 44
0.0
 45
0.0
 46
0.0
 47
0.0
 48
0.0
 49
0.0
140
0.0
141
0.0
142
1.0
143
1.0
 70
   688
 72
     0
 73
     0
 74
     5
  7

 75
    16
 76
     0
 77
     2
 78
   300
147
1.0
148
0.0
149
0.0
100
AcDbLayout
  1
Layout2
 70
     1
 71
     2
 10
0.0
 20
0.0
 11
0.0
 21
0.0
 12
0.0
 22
0.0
 32
0.0
 14
0.0
 24
0.0
 34
0.0
 15
0.0
 25
0.0
 35
0.0
146
0.0
 13
0.0
 23
0.0
 33
0.0
 16
1.0
 26
0.0
 36
0.0
 17
0.0
 27
1.0
 37
0.0
 76
     0
330
23
  0
LAYOUT
  5
22
102
{ACAD_REACTORS
330
1A
102
}
330
1A
100
AcDbPlotSettings
  1

  2
none_device
  4

  6

 40
0.0
 41
0.0
 42
0.0
 43
0.0
 44
0.0
 45
0.0
 46
0.0
 47
0.0
 48
0.0
 49
0.0
140
0.0
141
0.0
142
1.0
143
1.0
 70
  1712
 72
     0
 73
     0
 74
     0
  7

 75
     0
 76
     0
 77
     2
 78
   300
147
1.0
148
0.0
149
0.0
100
AcDbLayout
  1
Model
 70
     1
 71
     0
 10
0.0
 20
0.0
 11
12.0
 21
9.0
 12
0.0
 22
0.0
 32
0.0
 14
1.000000000000000E+20
 24
1.000000000000000E+20
 34
1.000000000000000E+20
 15
-1.000000000000000E+20
 25
-1.000000000000000E+20
 35
-1.000000000000000E+20
146
0.0
 13
0.0
 23
0.0
 33
0.0
 16
1.0
 26
0.0
 36
0.0
 17
0.0
 27
1.0
 37
0.0
 76
     0
330
1F
331
29
  0
MATERIAL
  5
3D
102
{ACAD_REACTORS
330
3B
102
}
330
3B
100
AcDbMaterial
  1
ByBlock
 72
     1
 94
      127
  0
MATERIAL
  5
3C
102
{ACAD_REACTORS
330
3B
102
}
330
3B
100
AcDbMaterial
  1
ByLayer
 72
     1
 94
      127
  0
MATERIAL
  5
3E
102
{ACAD_REACTORS
330
3B
102
}
330
3B
100
AcDbMaterial
  1
Global
 72
     1
 94
      127
  0
MLINESTYLE
  5
18
102
{ACAD_REACTORS
330
17
102
}
330
17
100
AcDbMlineStyle
  2
Standard
 70
     0
  3

 62
   256
 51
90.0
 52
90.0
 71
     2
 49
0.5
 62
   256
  6
BYLAYER
 49
-0.5
 62
   256
  6
BYLAYER
  0
ACDBPLACEHOLDER
  5
F
102
{ACAD_REACTORS
330
E
102
}
330
E
  0
VISUALSTYLE
  5
2F
102
{ACAD_REACTORS
330
2A
102
}
330
2A
100
AcDbVisualStyle
  2
2dWireframe
 70
     4
177
     2
291
     0
 71
     0
176
     1
 72
     2
176
     1
 73
     0
176
     1
 90
        0
176
     1
 40
-0.6
176
     1
 41
-30.0
176
     1
 62
     5
 63
     7
421
 16777215
176
     1
 74
     1
176
     1
 91
        4
176
     1
 64
     7
176
     1
 65
   257
176
     1
 75
     1
176
     1
175
     1
176
     1
 42
1.0
176
     1
 92
        0
176
     1
 66
   257
176
     1
 43
1.0
176
     1
 76
     1
176
     1
 77
     6
176
     1
 78
     2
176
     1
 67
     7
176
     1
 79
     5
176
     1
170
     0
176
     1
171
     0
176
     1
290
     0
176
     1
 93
        1
176
     1
 44
0.0
176
     1
173
     0
176
     1
  0
VISUALSTYLE
  5
31
102
{ACAD_REACTORS
330
2A
102
}
330
2A
100
AcDbVisualStyle
  2
3D Hidden
 70
     6
177
     2
291
     0
 71
     1
176
     1
 72
     2
176
     1
 73
     2
176
     1
 90
        0
176
     1
 40
-0.6
176
     1
 41
-30.0
176
     1
 62
     5
 63
     7
421
 16777215
176
     1
 74
     2
176
     1
 91
        2
176
     1
 64
     7
176
     1
 65
   257
176
     1
 75
     2
176
     1
175
     1
176
     1
 42
40.0
176
     1
 92
        0
176
     1
 66
   257
176
     1
 43
1.0
176
     1
 76
     1
176
     1
 77
     6
176
     1
 78
     2
176
     1
 67
     7
176
     1
 79
     3
176
     1
170
     0
176
     1
171
     0
176
     1
290
     0
176
     1
 93
        1
176
     1
 44
0.0
176
     1
173
     0
176
     1
  0
VISUALSTYLE
  5
30
102
{ACAD_REACTORS
330
2A
102
}
330
2A
100
AcDbVisualStyle
  2
3dWireframe
 70
     5
177
     2
291
     0
 71
     0
176
     1
 72
     2
176
     1
 73
     0
176
     1
 90
        0
176
     1
 40
-0.6
176
     1
 41
-30.0
176
     1
 62
     5
 63
     7
421
 16777215
176
     1
 74
     1
176
     1
 91
        4
176
     1
 64
     7
176
     1
 65
   257
176
     1
 75
     1
176
     1
175
     1
176
     1
 42
1.0
176
     1
 92
        0
176
     1
 66
   257
176
     1
 43
1.0
176
     1
 76
     1
176
     1
 77
     6
176
     1
 78
     2
176
     1
 67
     7
176
     1
 79
     5
176
     1
170
     0
176
     1
171
     0
176
     1
290
     0
176
     1
 93
        1
176
     1
 44
0.0
176
     1
173
     0
176
     1
  0
VISUALSTYLE
  5
32
102
{ACAD_REACTORS
330
2A
102
}
330
2A
100
AcDbVisualStyle
  2
Basic
 70
     7
177
     2
291
     1
 71
     1
176
     1
 72
     0
176
     1
 73
     1
176
     1
 90
        0
176
     1
 40
-0.6
176
     1
 41
-30.0
176
     1
 62
     5
 63
     7
421
 16777215
176
     1
 74
     0
176
     1
 91
        4
176
     1
 64
     7
176
     1
 65
   257
176
     1
 75
     1
176
     1
175
     1
176
     1
 42
1.0
176
     1
 92
        8
176
     1
 66
     7
176
     1
 43
1.0
176
     1
 76
     1
176
     1
 77
     6
176
     1
 78
     2
176
     1
 67
     7
176
     1
 79
     5
176
     1
170
     0
176
     1
171
     0
176
     1
290
     0
176
     1
 93
        1
176
     1
 44
0.0
176
     1
173
     0
176
     1
  0
VISUALSTYLE
  5
36
102
{ACAD_REACTORS
330
2A
102
}
330
2A
100
AcDbVisualStyle
  2
Brighten
 70
    12
177
     2
291
     1
 71
     2
176
     1
 72
     2
176
     1
 73
     0
176
     1
 90
        0
176
     1
 40
-0.6
176
     1
 41
-30.0
176
     1
 62
     5
 63
     7
421
 16777215
176
     1
 74
     1
176
     1
 91
        4
176
     1
 64
     7
176
     1
 65
   257
176
     1
 75
     1
176
     1
175
     1
176
     1
 42
1.0
176
     1
 92
        8
176
     1
 66
     7
176
     1
 43
1.0
176
     1
 76
     1
176
     1
 77
     6
176
     1
 78
     2
176
     1
 67
     7
176
     1
 79
     5
176
     1
170
     0
176
     1
171
     0
176
     1
290
     0
176
     1
 93
        1
176
     1
 44
50.0
176
     1
173
     0
176
     1
  0
VISUALSTYLE
  5
3A
102
{ACAD_REACTORS
330
2A
102
}
330
2A
100
AcDbVisualStyle
  2
ColorChange
 70
    16
177
     2
291
     1
 71
     2
176
     1
 72
     2
176
     1
 73
     3
176
     1
 90
        0
176
     1
 40
-0.6
176
     1
 41
-30.0
176
     1
 62
     5
 63
     8
421
  8421504
176
     1
 74
     1
176
     1
 91
        4
176
     1
 64
     7
176
     1
 65
   257
176
     1
 75
     1
176
     1
175
     1
176
     1
 42
1.0
176
     1
 92
        8
176
     1
 66
     8
424
  8421504
176
     1
 43
1.0
176
     1
 76
     1
176
     1
 77
     6
176
     1
 78
     2
176
     1
 67
     7
176
     1
 79
     5
176
     1
170
     0
176
     1
171
     0
176
     1
290
     0
176
     1
 93
        1
176
     1
 44
0.0
176
     1
173
     0
176
     1
  0
VISUALSTYLE
  5
34
102
{ACAD_REACTORS
330
2A
102
}
330
2A
100
AcDbVisualStyle
  2
Conceptual
 70
     9
177
     2
291
     0
 71
     3
176
     1
 72
     2
176
     1
 73
     0
176
     1
 90
        0
176
     1
 40
-0.6
176
     1
 41
-30.0
176
     1
 62
     5
 63
     7
421
 16777215
176
     1
 74
     2
176
     1
 91
        2
176
     1
 64
     7
176
     1
 65
   257
176
     1
 75
     1
176
     1
175
     1
176
     1
 42
40.0
176
     1
 92
        8
176
     1
 66
     7
176
     1
 43
1.0
176
     1
 76
     1
176
     1
 77
     6
176
     1
 78
     2
176
     1
 67
     7
176
     1
 79
     3
176
     1
170
     0
176
     1
171
     0
176
     1
290
     0
176
     1
 93
        1
176
     1
 44
0.0
176
     1
173
     0
176
     1
  0
VISUALSTYLE
  5
35
102
{ACAD_REACTORS
330
2A
102
}
330
2A
100
AcDbVisualStyle
  2
Dim
 70
    11
177
     2
291
     1
 71
     2
176
     1
 72
     2
176
     1
 73
     0
176
     1
 90
        0
176
     1
 40
-0.6
176
     1
 41
-30.0
176
     1
 62
     5
 63
     7
421
 16777215
176
     1
 74
     1
176
     1
 91
        4
176
     1
 64
     7
176
     1
 65
   257
176
     1
 75
     1
176
     1
175
     1
176
     1
 42
1.0
176
     1
 92
        8
176
     1
 66
     7
176
     1
 43
1.0
176
     1
 76
     1
176
     1
 77
     6
176
     1
 78
     2
176
     1
 67
     7
176
     1
 79
     5
176
     1
170
     0
176
     1
171
     0
176
     1
290
     0
176
     1
 93
        1
176
     1
 44
-50.0
176
     1
173
     0
176
     1
  0
VISUALSTYLE
  5
39
102
{ACAD_REACTORS
330
2A
102
}
330
2A
100
AcDbVisualStyle
  2
Facepattern
 70
    15
177
     2
291
     1
 71
     2
176
     1
 72
     2
176
     1
 73
     0
176
     1
 90
        0
176
     1
 40
-0.6
176
     1
 41
-30.0
176
     1
 62
     5
 63
     7
421
 16777215
176
     1
 74
     1
176
     1
 91
        4
176
     1
 64
     7
176
     1
 65
   257
176
     1
 75
     1
176
     1
175
     1
176
     1
 42
1.0
176
     1
 92
        8
176
     1
 66
     7
176
     1
 43
1.0
176
     1
 76
     1
176
     1
 77
     6
176
     1
 78
     2
176
     1
 67
     7
176
     1
 79
     5
176
     1
170
     0
176
     1
171
     0
176
     1
290
     0
176
     1
 93
        1
176
     1
 44
0.0
176
     1
173
     0
176
     1
  0
VISUALSTYLE
  5
2B
102
{ACAD_REACTORS
330
2A
102
}
330
2A
100
AcDbVisualStyle
  2
Flat
 70
     0
177
     2
291
     1
 71
     2
176
     1
 72
     1
176
     1
 73
     1
176
     1
 90
        2
176
     1
 40
-0.6
176
     1
 41
30.0
176
     1
 62
     5
 63
     7
421
 16777215
176
     1
 74
     0
176
     1
 91
        4
176
     1
 64
     7
176
     1
 65
   257
176
     1
 75
     1
176
     1
175
     1
176
     1
 42
1.0
176
     1
 92
        8
176
     1
 66
     7
176
     1
 43
1.0
176
     1
 76
     1
176
     1
 77
     6
176
     1
 78
     2
176
     1
 67
     7
176
     1
 79
     5
176
     1
170
     0
176
     1
171
     0
176
     1
290
     0
176
     1
 93
       13
176
     1
 44
0.0
176
     1
173
     0
176
     1
  0
VISUALSTYLE
  5
2C
102
{ACAD_REACTORS
330
2A
102
}
330
2A
100
AcDbVisualStyle
  2
FlatWithEdges
 70
     1
177
     2
291
     1
 71
     2
176
     1
 72
     1
176
     1
 73
     1
176
     1
 90
        2
176
     1
 40
-0.6
176
     1
 41
30.0
176
     1
 62
     5
 63
     7
421
 16777215
176
     1
 74
     1
176
     1
 91
        4
176
     1
 64
     7
176
     1
 65
   257
176
     1
 75
     1
176
     1
175
     1
176
     1
 42
1.0
176
     1
 92
        0
176
     1
 66
   257
176
     1
 43
1.0
176
     1
 76
     1
176
     1
 77
     6
176
     1
 78
     2
176
     1
 67
     7
176
     1
 79
     5
176
     1
170
     0
176
     1
171
     0
176
     1
290
     0
176
     1
 93
       13
176
     1
 44
0.0
176
     1
173
     0
176
     1
  0
VISUALSTYLE
  5
2D
102
{ACAD_REACTORS
330
2A
102
}
330
2A
100
AcDbVisualStyle
  2
Gouraud
 70
     2
177
     2
291
     1
 71
     2
176
     1
 72
     2
176
     1
 73
     1
176
     1
 90
        2
176
     1
 40
-0.6
176
     1
 41
30.0
176
     1
 62
     5
 63
     7
421
 16777215
176
     1
 74
     0
176
     1
 91
        4
176
     1
 64
     7
176
     1
 65
   257
176
     1
 75
     1
176
     1
175
     1
176
     1
 42
1.0
176
     1
 92
        0
176
     1
 66
     7
176
     1
 43
1.0
176
     1
 76
     1
176
     1
 77
     6
176
     1
 78
     2
176
     1
 67
     7
176
     1
 79
     5
176
     1
170
     0
176
     1
171
     0
176
     1
290
     0
176
     1
 93
       13
176
     1
 44
0.0
176
     1
173
     0
176
     1
  0
VISUALSTYLE
  5
2E
102
{ACAD_REACTORS
330
2A
102
}
330
2A
100
AcDbVisualStyle
  2
GouraudWithEdges
 70
     3
177
     2
291
     1
 71
     2
176
     1
 72
     2
176
     1
 73
     1
176
     1
 90
        2
176
     1
 40
-0.6
176
     1
 41
30.0
176
     1
 62
     5
 63
     7
421
 16777215
176
     1
 74
     1
176
     1
 91
        4
176
     1
 64
     7
176
     1
 65
   257
176
     1
 75
     1
176
     1
175
     1
176
     1
 42
1.0
176
     1
 92
        0
176
     1
 66
   257
176
     1
 43
1.0
176
     1
 76
     1
176
     1
 77
     6
176
     1
 78
     2
176
     1
 67
     7
176
     1
 79
     5
176
     1
170
     0
176
     1
171
     0
176
     1
290
     0
176
     1
 93
       13
176
     1
 44
0.0
176
     1
173
     0
176
     1
  0
VISUALSTYLE
  5
38
102
{ACAD_REACTORS
330
2A
102
}
330
2A
100
AcDbVisualStyle
  2
Linepattern
 70
    14
177
     2
291
     1
 71
     2
176
     1
 72
     2
176
     1
 73
     0
176
     1
 90
        0
176
     1
 40
-0.6
176
     1
 41
-30.0
176
     1
 62
     5
 63
     7
421
 16777215
176
     1
 74
     1
176
     1
 91
        4
176
     1
 64
     7
176
     1
 65
   257
176
     1
 75
     7
176
     1
175
     7
176
     1
 42
1.0
176
     1
 92
        8
176
     1
 66
     7
176
     1
 43
1.0
176
     1
 76
     1
176
     1
 77
     6
176
     1
 78
     2
176
     1
 67
     7
176
     1
 79
     5
176
     1
170
     0
176
     1
171
     0
176
     1
290
     0
176
     1
 93
        1
176
     1
 44
0.0
176
     1
173
     0
176
     1
  0
VISUALSTYLE
  5
33
102
{ACAD_REACTORS
330
2A
102
}
330
2A
100
AcDbVisualStyle
  2
Realistic
 70
     8
177
     2
291
     0
 71
     2
176
     1
 72
     2
176
     1
 73
     0
176
     1
 90
        0
176
     1
 40
-0.6
176
     1
 41
-30.0
176
     1
 62
     5
 63
     7
421
 16777215
176
     1
 74
     1
176
     1
 91
        0
176
     1
 64
     7
176
     1
 65
   257
176
     1
 75
     1
176
     1
175
     1
176
     1
 42
1.0
176
     1
 92
        8
176
     1
 66
     8
424
  7895160
176
     1
 43
1.0
176
     1
 76
     1
176
     1
 77
     6
176
     1
 78
     2
176
     1
 67
     7
176
     1
 79
     5
176
     1
170
     0
176
     1
171
     0
176
     1
290
     0
176
     1
 93
       13
176
     1
 44
0.0
176
     1
173
     0
176
     1
  0
VISUALSTYLE
  5
37
102
{ACAD_REACTORS
330
2A
102
}
330
2A
100
AcDbVisualStyle
  2
Thicken
 70
    13
177
     2
291
     1
 71
     2
176
     1
 72
     2
176
     1
 73
     0
176
     1
 90
        0
176
     1
 40
-0.6
176
     1
 41
-30.0
176
     1
 62
     5
 63
     7
421
 16777215
176
     1
 74
     1
176
     1
 91
        4
176
     1
 64
     7
176
     1
 65
   257
176
     1
 75
     1
176
     1
175
     1
176
     1
 42
1.0
176
     1
 92
       12
176
     1
 66
     7
176
     1
 43
1.0
176
     1
 76
     1
176
     1
 77
     6
176
     1
 78
     2
176
     1
 67
     7
176
     1
 79
     5
176
     1
170
     0
176
     1
171
     0
176
     1
290
     0
176
     1
 93
        1
176
     1
 44
0.0
176
     1
173
     0
176
     1
  0
ENDSEC
  0
EOF
