  0
SECTION
  2
HEADER
  9
$ACADVER
  1
AC1024
  9
$ACADMAINTVER
 70
     6
  9
$DWGCODEPAGE
  3
UNDEFINED
  9
$INSBASE
 10
0.0
 20
0.0
 30
0.0
  9
$EXTMIN
 10
1.000000000000000E+20
 20
1.000000000000000E+20
 30
1.000000000000000E+20
  9
$EXTMAX
 10
-1.000000000000000E+20
 20
-1.000000000000000E+20
 30
-1.000000000000000E+20
  9
$LIMMIN
 10
0.0
 20
0.0
  9
$LIMMAX
 10
12.0
 20
9.0
  9
$ORTHOMODE
 70
     0
  9
$REGENMODE
 70
     1
  9
$FILLMODE
 70
     1
  9
$QTEXTMODE
 70
     0
  9
$MIRRTEXT
 70
     1
  9
$LTSCALE
 40
1.0
  9
$ATTMODE
 70
     1
  9
$TEXTSIZE
 40
0.2
  9
$TRACEWID
 40
0.05
  9
$TEXTSTYLE
  7
Standard
  9
$CLAYER
  8
0
  9
$CELTYPE
  6
ByLayer
  9
$CECOLOR
 62
   256
  9
$CELTSCALE
 40
1.0
  9
$DISPSILH
 70
     0
  9
$DIMSCALE
 40
1.0
  9
$DIMASZ
 40
0.18
  9
$DIMEXO
 40
0.0625
  9
$DIMDLI
 40
0.38
  9
$DIMRND
 40
0.0
  9
$DIMDLE
 40
0.0
  9
$DIMEXE
 40
0.18
  9
$DIMTP
 40
0.0
  9
$DIMTM
 40
0.0
  9
$DIMTXT
 40
0.18
  9
$DIMCEN
 40
0.09
  9
$DIMTSZ
 40
0.0
  9
$DIMTOL
 70
     0
  9
$DIMLIM
 70
     0
  9
$DIMTIH
 70
     1
  9
$DIMTOH
 70
     1
  9
$DIMSE1
 70
     0
  9
$DIMSE2
 70
     0
  9
$DIMTAD
 70
     0
  9
$DIMZIN
 70
     0
  9
$DIMBLK
  1

  9
$DIMASO
 70
     1
  9
$DIMSHO
 70
     1
  9
$DIMPOST
  1

  9
$DIMAPOST
  1

  9
$DIMALT
 70
     0
  9
$DIMALTD
 70
     2
  9
$DIMALTF
 40
25.4
  9
$DIMLFAC
 40
1.0
  9
$DIMTOFL
 70
     0
  9
$DIMTVP
 40
0.0
  9
$DIMTIX
 70
     0
  9
$DIMSOXD
 70
     0
  9
$DIMSAH
 70
     0
  9
$DIMBLK1
  1

  9
$DIMBLK2
  1

  9
$DIMSTYLE
  2
Standard
  9
$DIMCLRD
 70
     0
  9
$DIMCLRE
 70
     0
  9
$DIMCLRT
 70
     0
  9
$DIMTFAC
 40
1.0
  9
$DIMGAP
 40
0.09
  9
$DIMJUST
 70
     0
  9
$DIMSD1
 70
     0
  9
$DIMSD2
 70
     0
  9
$DIMTOLJ
 70
     1
  9
$DIMTZIN
 70
     0
  9
$DIMALTZ
 70
     0
  9
$DIMALTTZ
 70
     0
  9
$DIMUPT
 70
     0
  9
$DIMDEC
 70
     4
  9
$DIMTDEC
 70
     4
  9
$DIMALTU
 70
     2
  9
$DIMALTTD
 70
     2
  9
$DIMTXSTY
  7
Standard
  9
$DIMAUNIT
 70
     0
  9
$DIMADEC
 70
     0
  9
$DIMALTRND
 40
0.0
  9
$DIMAZIN
 70
     0
  9
$DIMDSEP
 70
    46
  9
$DIMATFIT
 70
     3
  9
$DIMFRAC
 70
     0
  9
$DIMLDRBLK
  1

  9
$DIMLUNIT
 70
     2
  9
$DIMLWD
 70
    -2
  9
$DIMLWE
 70
    -2
  9
$DIMTMOVE
 70
     0
  9
$DIMFXL
 40
1.0
  9
$DIMFXLON
 70
     0
  9
$DIMJOGANG
 40
0.7853981633974483
  9
$DIMTFILL
 70
     0
  9
$DIMTFILLCLR
 70
     0
  9
$DIMARCSYM
 70
     0
  9
$DIMLTYPE
  6

  9
$DIMLTEX1
  6

  9
$DIMLTEX2
  6

  9
$DIMTXTDIRECTION
 70
     0
  9
$LUNITS
 70
     2
  9
$LUPREC
 70
     4
  9
$SKETCHINC
 40
0.1
  9
$FILLETRAD
 40
0.5
  9
$AUNITS
 70
     0
  9
$AUPREC
 70
     0
  9
$MENU
  1
.
  9
$ELEVATION
 40
0.0
  9
$PELEVATION
 40
0.0
  9
$THICKNESS
 40
0.0
  9
$LIMCHECK
 70
     0
  9
$CHAMFERA
 40
0.5
  9
$CHAMFERB
 40
0.5
  9
$CHAMFERC
 40
1.0
  9
$CHAMFERD
 40
0.0
  9
$SKPOLY
 70
     0
  9
$TDCREATE
 40
2457917.61679397
  9
$TDUCREATE
 40
2457917.241793981
  9
$TDUPDATE
 40
2457917.61679397
  9
$TDUUPDATE
 40
2457917.241793981
  9
$TDINDWG
 40
0.0000000116
  9
$TDUSRTIMER
 40
0.0000000116
  9
$USRTIMER
 70
     1
  9
$ANGBASE
 50
0.0
  9
$ANGDIR
 70
     0
  9
$PDMODE
 70
     0
  9
$PDSIZE
 40
0.0
  9
$PLINEWID
 40
0.0
  9
$SPLFRAME
 70
     0
  9
$SPLINETYPE
 70
     6
  9
$SPLINESEGS
 70
     8
  9
$HANDSEED
  5
EF
  9
$SURFTAB1
 70
     6
  9
$SURFTAB2
 70
     6
  9
$SURFTYPE
 70
     6
  9
$SURFU
 70
     6
  9
$SURFV
 70
     6
  9
$UCSBASE
  2

  9
$UCSNAME
  2

  9
$UCSORG
 10
0.0
 20
0.0
 30
0.0
  9
$UCSXDIR
 10
1.0
 20
0.0
 30
0.0
  9
$UCSYDIR
 10
0.0
 20
1.0
 30
0.0
  9
$UCSORTHOREF
  2

  9
$UCSORTHOVIEW
 70
     0
  9
$UCSORGTOP
 10
0.0
 20
0.0
 30
0.0
  9
$UCSORGBOTTOM
 10
0.0
 20
0.0
 30
0.0
  9
$UCSORGLEFT
 10
0.0
 20
0.0
 30
0.0
  9
$UCSORGRIGHT
 10
0.0
 20
0.0
 30
0.0
  9
$UCSORGFRONT
 10
0.0
 20
0.0
 30
0.0
  9
$UCSORGBACK
 10
0.0
 20
0.0
 30
0.0
  9
$PUCSBASE
  2

  9
$PUCSNAME
  2

  9
$PUCSORG
 10
0.0
 20
0.0
 30
0.0
  9
$PUCSXDIR
 10
1.0
 20
0.0
 30
0.0
  9
$PUCSYDIR
 10
0.0
 20
1.0
 30
0.0
  9
$PUCSORTHOREF
  2

  9
$PUCSORTHOVIEW
 70
     0
  9
$PUCSORGTOP
 10
0.0
 20
0.0
 30
0.0
  9
$PUCSORGBOTTOM
 10
0.0
 20
0.0
 30
0.0
  9
$PUCSORGLEFT
 10
0.0
 20
0.0
 30
0.0
  9
$PUCSORGRIGHT
 10
0.0
 20
0.0
 30
0.0
  9
$PUCSORGFRONT
 10
0.0
 20
0.0
 30
0.0
  9
$PUCSORGBACK
 10
0.0
 20
0.0
 30
0.0
  9
$USERI1
 70
     0
  9
$USERI2
 70
     0
  9
$USERI3
 70
     0
  9
$USERI4
 70
     0
  9
$USERI5
 70
     0
  9
$USERR1
 40
0.0
  9
$USERR2
 40
0.0
  9
$USERR3
 40
0.0
  9
$USERR4
 40
0.0
  9
$USERR5
 40
0.0
  9
$WORLDVIEW
 70
     1
  9
$SHADEDGE
 70
     3
  9
$SHADEDIF
 70
    70
  9
$TILEMODE
 70
     1
  9
$MAXACTVP
 70
    64
  9
$PINSBASE
 10
0.0
 20
0.0
 30
0.0
  9
$PLIMCHECK
 70
     0
  9
$PEXTMIN
 10
1.000000000000000E+20
 20
1.000000000000000E+20
 30
1.000000000000000E+20
  9
$PEXTMAX
 10
-1.000000000000000E+20
 20
-1.000000000000000E+20
 30
-1.000000000000000E+20
  9
$PLIMMIN
 10
0.0
 20
0.0
  9
$PLIMMAX
 10
12.0
 20
9.0
  9
$UNITMODE
 70
     0
  9
$VISRETAIN
 70
     1
  9
$PLINEGEN
 70
     0
  9
$PSLTSCALE
 70
     1
  9
$TREEDEPTH
 70
  3020
  9
$CMLSTYLE
  2
Standard
  9
$CMLJUST
 70
     0
  9
$CMLSCALE
 40
1.0
  9
$PROXYGRAPHICS
 70
     1
  9
$MEASUREMENT
 70
     0
  9
$CELWEIGHT
370
    -1
  9
$ENDCAPS
280
     0
  9
$JOINSTYLE
280
     0
  9
$LWDISPLAY
290
     1
  9
$INSUNITS
 70
     1
  9
$HYPERLINKBASE
  1

  9
$STYLESHEET
  1

  9
$XEDIT
290
     1
  9
$CEPSNTYPE
380
     0
  9
$PSTYLEMODE
290
     1
  9
$FINGERPRINTGUID
  2
{6133007E-238C-E068-8B36-F404E5CF0013}
  9
$VERSIONGUID
  2
{FAEB1C32-E019-11D5-929B-00C0DF256EC4}
  9
$EXTNAMES
290
     1
  9
$PSVPSCALE
 40
0.0
  9
$OLESTARTUP
290
     0
  9
$SORTENTS
280
   127
  9
$INDEXCTL
280
     0
  9
$HIDETEXT
280
     1
  9
$XCLIPFRAME
280
     2
  9
$HALOGAP
280
     0
  9
$OBSCOLOR
 70
   257
  9
$OBSLTYPE
280
     0
  9
$INTERSECTIONDISPLAY
280
     0
  9
$INTERSECTIONCOLOR
 70
   257
  9
$DIMASSOC
280
     2
  9
$PROJECTNAME
  1

  9
$CAMERADISPLAY
290
     0
  9
$LENSLENGTH
 40
50.0
  9
$CAMERAHEIGHT
 40
0.0
  9
$STEPSPERSEC
 40
2.0
  9
$STEPSIZE
 40
6.0
  9
$3DDWFPREC
 40
2.0
  9
$PSOLWIDTH
 40
0.25
  9
$PSOLHEIGHT
 40
4.0
  9
$LOFTANG1
 40
1.570796326794897
  9
$LOFTANG2
 40
1.570796326794897
  9
$LOFTMAG1
 40
0.0
  9
$LOFTMAG2
 40
0.0
  9
$LOFTPARAM
 70
     7
  9
$LOFTNORMALS
280
     1
  9
$LATITUDE
 40
37.795
  9
$LONGITUDE
 40
-122.394
  9
$NORTHDIRECTION
 40
0.0
  9
$TIMEZONE
 70
 -8000
  9
$LIGHTGLYPHDISPLAY
280
     1
  9
$TILEMODELIGHTSYNCH
280
     1
  9
$CMATERIAL
347
3C
  9
$SOLIDHIST
280
     1
  9
$SHOWHIST
280
     1
  9
$DWFFRAME
280
     2
  9
$DGNFRAME
280
     2
  9
$REALWORLDSCALE
290
     1
  9
$INTERFERECOLOR
 62
   256
  9
$CSHADOW
280
     0
  9
$SHADOWPLANELOCATION
 40
0.0
  0
ENDSEC
  0
SECTION
  2
CLASSES
  0
CLASS
  1
ACDBDICTIONARYWDFLT
  2
AcDbDictionaryWithDefault
  3
ObjectDBX Classes
 90
        0
 91
        4
280
     0
281
     0
  0
CLASS
  1
VISUALSTYLE
  2
AcDbVisualStyle
  3
ObjectDBX Classes
 90
     4095
 91
        4
280
     0
281
     0
  0
CLASS
  1
MATERIAL
  2
AcDbMaterial
  3
ObjectDBX Classes
 90
     1153
 91
        4
280
     0
281
     0
  0
CLASS
  1
SUN
  2
AcDbSun
  3
SCENEOE
 90
     1024
 91
        4
280
     0
281
     0
  0
ENDSEC
  0
SECTION
  2
TABLES
  0
TABLE
  2
VPORT
  5
8
330
0
100
AcDbSymbolTable
 70
     1
  0
VPORT
  5
29
330
8
100
AcDbSymbolTableRecord
100
AcDbViewportTableRecord
  2
*Active
 70
     0
 10
0.0
 20
0.0
 11
1.0
 21
1.0
 12
0.0
 22
0.0
 13
0.0
 23
0.0
 14
0.5
 24
0.5
 15
0.5
 25
0.5
 16
0.0
 26
0.0
 36
1.0
 17
91.00082462281999
 27
-128.4993055234307
 37
0.0
 40
256.9986110468615
 41
0.7081814508812795
 42
50.0
 43
0.0
 44
0.0
 50
0.0
 51
0.0
 71
     0
 72
   100
 73
     1
 74
     3
 75
     0
 76
     0
 77
     0
 78
     0
281
     0
 65
     1
110
0.0
120
0.0
130
0.0
111
1.0
121
0.0
131
0.0
112
0.0
122
1.0
132
0.0
 79
     0
146
0.0
 60
     3
 61
     5
292
     1
282
     1
141
0.0
142
0.0
 63
   250
361
3F
  0
ENDTAB
  0
TABLE
  2
LTYPE
  5
5
330
0
100
AcDbSymbolTable
 70
     1
  0
LTYPE
  5
14
330
5
100
AcDbSymbolTableRecord
100
AcDbLinetypeTableRecord
  2
ByBlock
 70
     0
  3

 72
    65
 73
     0
 40
0.0
  0
LTYPE
  5
15
330
5
100
AcDbSymbolTableRecord
100
AcDbLinetypeTableRecord
  2
ByLayer
 70
     0
  3

 72
    65
 73
     0
 40
0.0
  0
LTYPE
  5
16
330
5
100
AcDbSymbolTableRecord
100
AcDbLinetypeTableRecord
  2
Continuous
 70
     0
  3
Solid line
 72
    65
 73
     0
 40
0.0
  0
ENDTAB
  0
TABLE
  2
LAYER
  5
2
330
0
100
AcDbSymbolTable
 70
     2
  0
LAYER
  5
10
330
2
100
AcDbSymbolTableRecord
100
AcDbLayerTableRecord
  2
0
 70
     0
 62
     7
  6
Continuous
370
    -3
390
F
347
3E
  0
LAYER
  5
40
330
2
100
AcDbSymbolTableRecord
100
AcDbLayerTableRecord
  2
_U+30EC_U+30A4_U+30E4_U+30FC 1
 70
     0
 62
     7
  6
Continuous
370
    -3
390
F
347
3E
  0
ENDTAB
  0
TABLE
  2
STYLE
  5
3
330
0
100
AcDbSymbolTable
 70
     1
  0
STYLE
  5
11
330
3
100
AcDbSymbolTableRecord
100
AcDbTextStyleTableRecord
  2
Standard
 70
     0
 40
0.0
 41
1.0
 50
0.0
 71
     0
 42
0.2
  3
txt
  4

  0
ENDTAB
  0
TABLE
  2
VIEW
  5
6
330
0
100
AcDbSymbolTable
 70
     0
  0
ENDTAB
  0
TABLE
  2
UCS
  5
7
330
0
100
AcDbSymbolTable
 70
     0
  0
ENDTAB
  0
TABLE
  2
APPID
  5
9
330
0
100
AcDbSymbolTable
 70
     1
  0
APPID
  5
12
330
9
100
AcDbSymbolTableRecord
100
AcDbRegAppTableRecord
  2
ACAD
 70
     0
  0
ENDTAB
  0
TABLE
  2
DIMSTYLE
  5
A
330
0
100
AcDbSymbolTable
 70
     1
100
AcDbDimStyleTable
  0
DIMSTYLE
105
27
330
A
100
AcDbSymbolTableRecord
100
AcDbDimStyleTableRecord
  2
Standard
 70
     0
178
     0
340
11
  0
ENDTAB
  0
TABLE
  2
BLOCK_RECORD
  5
1
330
0
100
AcDbSymbolTable
 70
     7
  0
BLOCK_RECORD
  5
1F
330
1
100
AcDbSymbolTableRecord
100
AcDbBlockTableRecord
  2
*Model_Space
340
22
 70
     0
280
     1
281
     0
  0
BLOCK_RECORD
  5
1B
330
1
100
AcDbSymbolTableRecord
100
AcDbBlockTableRecord
  2
*Paper_Space
340
1E
 70
     0
280
     1
281
     0
  0
BLOCK_RECORD
  5
23
330
1
100
AcDbSymbolTableRecord
100
AcDbBlockTableRecord
  2
*Paper_Space0
340
26
 70
     0
280
     1
281
     0
  0
BLOCK_RECORD
  5
41
330
1
100
AcDbSymbolTableRecord
100
AcDbBlockTableRecord
  2
block 2
340
0
102
{BLKREFS
331
42
102
}
 70
     0
280
     1
281
     0
  0
BLOCK_RECORD
  5
8F
330
1
100
AcDbSymbolTableRecord
100
AcDbBlockTableRecord
  2
block 3
340
0
102
{BLKREFS
331
90
102
}
 70
     0
280
     1
281
     0
  0
BLOCK_RECORD
  5
A4
330
1
100
AcDbSymbolTableRecord
100
AcDbBlockTableRecord
  2
block 4
340
0
102
{BLKREFS
331
A5
102
}
 70
     0
280
     1
281
     0
  0
BLOCK_RECORD
  5
BD
330
1
100
AcDbSymbolTableRecord
100
AcDbBlockTableRecord
  2
block 5
340
0
102
{BLKREFS
331
BE
102
}
 70
     0
280
     1
281
     0
  0
BLOCK_RECORD
  5
CB
330
1
100
AcDbSymbolTableRecord
100
AcDbBlockTableRecord
  2
block 6
340
0
102
{BLKREFS
331
CC
102
}
 70
     0
280
     1
281
     0
  0
BLOCK_RECORD
  5
DC
330
1
100
AcDbSymbolTableRecord
100
AcDbBlockTableRecord
  2
block 7
340
0
102
{BLKREFS
331
DD
102
}
 70
     0
280
     1
281
     0
  0
ENDTAB
  0
ENDSEC
  0
SECTION
  2
BLOCKS
  0
BLOCK
  5
20
330
1F
100
AcDbEntity
  8
0
100
AcDbBlockBegin
  2
*Model_Space
 70
     0
 10
0.0
 20
0.0
 30
0.0
  3
*Model_Space
  1

  0
ENDBLK
  5
21
330
1F
100
AcDbEntity
  8
0
100
AcDbBlockEnd
  0
BLOCK
  5
1C
330
1B
100
AcDbEntity
 67
     1
  8
0
100
AcDbBlockBegin
  2
*Paper_Space
 70
     0
 10
0.0
 20
0.0
 30
0.0
  3
*Paper_Space
  1

  0
ENDBLK
  5
1D
330
1B
100
AcDbEntity
 67
     1
  8
0
100
AcDbBlockEnd
  0
BLOCK
  5
24
330
23
100
AcDbEntity
  8
0
100
AcDbBlockBegin
  2
*Paper_Space0
 70
     0
 10
0.0
 20
0.0
 30
0.0
  3
*Paper_Space0
  1

  0
ENDBLK
  5
25
330
23
100
AcDbEntity
  8
0
100
AcDbBlockEnd
  0
BLOCK
  5
43
330
41
100
AcDbEntity
  8
0
100
AcDbBlockBegin
  2
block 2
 70
     0
 10
0.0
 20
0.0
 30
0.0
  3
block 2
  1

  0
POLYLINE
  5
45
330
41
100
AcDbEntity
  8
_U+30EC_U+30A4_U+30E4_U+30FC 1
370
     0
100
AcDb2dPolyline
 66
     1
 10
0.0
 20
0.0
 30
0.0
  0
VERTEX
  5
46
330
45
100
AcDbEntity
  8
_U+30EC_U+30A4_U+30E4_U+30FC 1
370
     0
100
AcDbVertex
100
AcDb2dVertex
 10
75.71940890157028
 20
-138.5610569098044
 30
0.0
  0
VERTEX
  5
47
330
45
100
AcDbEntity
  8
_U+30EC_U+30A4_U+30E4_U+30FC 1
370
     0
100
AcDbVertex
100
AcDb2dVertex
 10
85.7191417020114
 20
-138.5610569098044
 30
0.0
  0
VERTEX
  5
48
330
45
100
AcDbEntity
  8
_U+30EC_U+30A4_U+30E4_U+30FC 1
370
     0
100
AcDbVertex
100
AcDb2dVertex
 10
85.7191417020114
 20
-128.5611474678597
 30
0.0
  0
VERTEX
  5
49
330
45
100
AcDbEntity
  8
_U+30EC_U+30A4_U+30E4_U+30FC 1
370
     0
100
AcDbVertex
100
AcDb2dVertex
 10
84.71936950529549
 20
-128.5611474678597
 30
0.0
  0
VERTEX
  5
4A
330
45
100
AcDbEntity
  8
_U+30EC_U+30A4_U+30E4_U+30FC 1
370
     0
100
AcDbVertex
100
AcDb2dVertex
 10
84.71936950529549
 20
-137.5605791322764
 30
0.0
  0
VERTEX
  5
4B
330
45
100
AcDbEntity
  8
_U+30EC_U+30A4_U+30E4_U+30FC 1
370
     0
100
AcDbVertex
100
AcDb2dVertex
 10
76.71918109828619
 20
-137.5605791322764
 30
0.0
  0
VERTEX
  5
4C
330
45
100
AcDbEntity
  8
_U+30EC_U+30A4_U+30E4_U+30FC 1
370
     0
100
AcDbVertex
100
AcDb2dVertex
 10
76.71918109828619
 20
-122.0607583028181
 30
0.0
  0
VERTEX
  5
4D
330
45
100
AcDbEntity
  8
_U+30EC_U+30A4_U+30E4_U+30FC 1
370
     0
100
AcDbVertex
100
AcDb2dVertex
 10
95.71989997607015
 20
-122.0607583028181
 30
0.0
  0
VERTEX
  5
4E
330
45
100
AcDbEntity
  8
_U+30EC_U+30A4_U+30E4_U+30FC 1
370
     0
100
AcDbVertex
100
AcDb2dVertex
 10
95.71989997607015
 20
-121.0609860808459
 30
0.0
  0
VERTEX
  5
4F
330
45
100
AcDbEntity
  8
_U+30EC_U+30A4_U+30E4_U+30FC 1
370
     0
100
AcDbVertex
100
AcDb2dVertex
 10
75.71940890157028
 20
-121.0609860808459
 30
0.0
  0
VERTEX
  5
50
330
45
100
AcDbEntity
  8
_U+30EC_U+30A4_U+30E4_U+30FC 1
370
     0
100
AcDbVertex
100
AcDb2dVertex
 10
75.71940890157028
 20
-138.5610569098044
 30
0.0
  0
SEQEND
  5
52
330
45
100
AcDbEntity
  8
_U+30EC_U+30A4_U+30E4_U+30FC 1
370
     0
  0
HATCH
  5
51
330
41
100
AcDbEntity
  8
_U+30EC_U+30A4_U+30E4_U+30FC 1
 62
     9
420
 13224394
100
AcDbHatch
 10
0.0
 20
0.0
 30
0.0
210
0.0
220
0.0
230
1.0
  2
SOLID
 70
     1
 71
     0
 91
        1
 92
        1
 93
       10
 72
     1
 10
75.71940890157028
 20
-138.5610569098044
 11
85.7191417020114
 21
-138.5610569098044
 72
     1
 10
85.7191417020114
 20
-138.5610569098044
 11
85.7191417020114
 21
-128.5611474678597
 72
     1
 10
85.7191417020114
 20
-128.5611474678597
 11
84.71936950529549
 21
-128.5611474678597
 72
     1
 10
84.71936950529549
 20
-128.5611474678597
 11
84.71936950529549
 21
-137.5605791322764
 72
     1
 10
84.71936950529549
 20
-137.5605791322764
 11
76.71918109828619
 21
-137.5605791322764
 72
     1
 10
76.71918109828619
 20
-137.5605791322764
 11
76.71918109828619
 21
-122.0607583028181
 72
     1
 10
76.71918109828619
 20
-122.0607583028181
 11
95.71989997607015
 21
-122.0607583028181
 72
     1
 10
95.71989997607015
 20
-122.0607583028181
 11
95.71989997607015
 21
-121.0609860808459
 72
     1
 10
95.71989997607015
 20
-121.0609860808459
 11
75.71940890157028
 21
-121.0609860808459
 72
     1
 10
75.71940890157028
 20
-121.0609860808459
 11
75.71940890157028
 21
-138.5610569098044
 97
        0
 75
     2
 76
     1
 98
        0
  0
POLYLINE
  5
53
330
41
100
AcDbEntity
  8
_U+30EC_U+30A4_U+30E4_U+30FC 1
 62
   179
420
  2234388
370
    25
100
AcDb2dPolyline
 66
     1
 10
0.0
 20
0.0
 30
0.0
  0
VERTEX
  5
54
330
53
100
AcDbEntity
  8
_U+30EC_U+30A4_U+30E4_U+30FC 1
 62
   179
420
  2234388
370
    25
100
AcDbVertex
100
AcDb2dVertex
 10
75.71940890157028
 20
-121.0611624697347
 30
0.0
  0
VERTEX
  5
55
330
53
100
AcDbEntity
  8
_U+30EC_U+30A4_U+30E4_U+30FC 1
 62
   179
420
  2234388
370
    25
100
AcDbVertex
100
AcDb2dVertex
 10
95.71958005799007
 20
-121.0611624697347
 30
0.0
  0
SEQEND
  5
56
330
53
100
AcDbEntity
  8
_U+30EC_U+30A4_U+30E4_U+30FC 1
 62
   179
420
  2234388
370
    25
  0
POLYLINE
  5
57
330
41
100
AcDbEntity
  8
_U+30EC_U+30A4_U+30E4_U+30FC 1
 62
   179
420
  2234388
370
    25
100
AcDb2dPolyline
 66
     1
 10
0.0
 20
0.0
 30
0.0
  0
VERTEX
  5
58
330
57
100
AcDbEntity
  8
_U+30EC_U+30A4_U+30E4_U+30FC 1
 62
   179
420
  2234388
370
    25
100
AcDbVertex
100
AcDb2dVertex
 10
75.71940890157028
 20
-121.0611624697347
 30
0.0
  0
VERTEX
  5
59
330
57
100
AcDbEntity
  8
_U+30EC_U+30A4_U+30E4_U+30FC 1
 62
   179
420
  2234388
370
    25
100
AcDbVertex
100
AcDb2dVertex
 10
75.71940890157028
 20
-138.5610569098044
 30
0.0
  0
SEQEND
  5
5A
330
57
100
AcDbEntity
  8
_U+30EC_U+30A4_U+30E4_U+30FC 1
 62
   179
420
  2234388
370
    25
  0
POLYLINE
  5
5B
330
41
100
AcDbEntity
  8
_U+30EC_U+30A4_U+30E4_U+30FC 1
 62
   179
420
  2234388
370
    25
100
AcDb2dPolyline
 66
     1
 10
0.0
 20
0.0
 30
0.0
  0
VERTEX
  5
5C
330
5B
100
AcDbEntity
  8
_U+30EC_U+30A4_U+30E4_U+30FC 1
 62
   179
420
  2234388
370
    25
100
AcDbVertex
100
AcDb2dVertex
 10
95.71958005799007
 20
-121.0611624697347
 30
0.0
  0
VERTEX
  5
5D
330
5B
100
AcDbEntity
  8
_U+30EC_U+30A4_U+30E4_U+30FC 1
 62
   179
420
  2234388
370
    25
100
AcDbVertex
100
AcDb2dVertex
 10
95.71958005799007
 20
-122.060934691707
 30
0.0
  0
SEQEND
  5
5E
330
5B
100
AcDbEntity
  8
_U+30EC_U+30A4_U+30E4_U+30FC 1
 62
   179
420
  2234388
370
    25
  0
POLYLINE
  5
5F
330
41
100
AcDbEntity
  8
_U+30EC_U+30A4_U+30E4_U+30FC 1
 62
   179
420
  2234388
370
    25
100
AcDb2dPolyline
 66
     1
 10
0.0
 20
0.0
 30
0.0
  0
VERTEX
  5
60
330
5F
100
AcDbEntity
  8
_U+30EC_U+30A4_U+30E4_U+30FC 1
 62
   179
420
  2234388
370
    25
100
AcDbVertex
100
AcDb2dVertex
 10
76.71918109828619
 20
-122.060934691707
 30
0.0
  0
VERTEX
  5
61
330
5F
100
AcDbEntity
  8
_U+30EC_U+30A4_U+30E4_U+30FC 1
 62
   179
420
  2234388
370
    25
100
AcDbVertex
100
AcDb2dVertex
 10
95.71958005799007
 20
-122.060934691707
 30
0.0
  0
SEQEND
  5
62
330
5F
100
AcDbEntity
  8
_U+30EC_U+30A4_U+30E4_U+30FC 1
 62
   179
420
  2234388
370
    25
  0
POLYLINE
  5
63
330
41
100
AcDbEntity
  8
_U+30EC_U+30A4_U+30E4_U+30FC 1
 62
   179
420
  2234388
370
    25
100
AcDb2dPolyline
 66
     1
 10
0.0
 20
0.0
 30
0.0
  0
VERTEX
  5
64
330
63
100
AcDbEntity
  8
_U+30EC_U+30A4_U+30E4_U+30FC 1
 62
   179
420
  2234388
370
    25
100
AcDbVertex
100
AcDb2dVertex
 10
85.7191417020114
 20
-128.5611474678597
 30
0.0
  0
VERTEX
  5
65
330
63
100
AcDbEntity
  8
_U+30EC_U+30A4_U+30E4_U+30FC 1
 62
   179
420
  2234388
370
    25
100
AcDbVertex
100
AcDb2dVertex
 10
85.7191417020114
 20
-138.5610569098044
 30
0.0
  0
SEQEND
  5
66
330
63
100
AcDbEntity
  8
_U+30EC_U+30A4_U+30E4_U+30FC 1
 62
   179
420
  2234388
370
    25
  0
POLYLINE
  5
67
330
41
100
AcDbEntity
  8
_U+30EC_U+30A4_U+30E4_U+30FC 1
 62
   179
420
  2234388
370
    25
100
AcDb2dPolyline
 66
     1
 10
0.0
 20
0.0
 30
0.0
  0
VERTEX
  5
68
330
67
100
AcDbEntity
  8
_U+30EC_U+30A4_U+30E4_U+30FC 1
 62
   179
420
  2234388
370
    25
100
AcDbVertex
100
AcDb2dVertex
 10
84.71936950529549
 20
-128.5611474678597
 30
0.0
  0
VERTEX
  5
69
330
67
100
AcDbEntity
  8
_U+30EC_U+30A4_U+30E4_U+30FC 1
 62
   179
420
  2234388
370
    25
100
AcDbVertex
100
AcDb2dVertex
 10
84.71936950529549
 20
-137.5605791322764
 30
0.0
  0
SEQEND
  5
6A
330
67
100
AcDbEntity
  8
_U+30EC_U+30A4_U+30E4_U+30FC 1
 62
   179
420
  2234388
370
    25
  0
POLYLINE
  5
6B
330
41
100
AcDbEntity
  8
_U+30EC_U+30A4_U+30E4_U+30FC 1
 62
   179
420
  2234388
370
    25
100
AcDb2dPolyline
 66
     1
 10
0.0
 20
0.0
 30
0.0
  0
VERTEX
  5
6C
330
6B
100
AcDbEntity
  8
_U+30EC_U+30A4_U+30E4_U+30FC 1
 62
   179
420
  2234388
370
    25
100
AcDbVertex
100
AcDb2dVertex
 10
76.71918109828619
 20
-122.060934691707
 30
0.0
  0
VERTEX
  5
6D
330
6B
100
AcDbEntity
  8
_U+30EC_U+30A4_U+30E4_U+30FC 1
 62
   179
420
  2234388
370
    25
100
AcDbVertex
100
AcDb2dVertex
 10
76.71918109828619
 20
-137.5605791322764
 30
0.0
  0
SEQEND
  5
6E
330
6B
100
AcDbEntity
  8
_U+30EC_U+30A4_U+30E4_U+30FC 1
 62
   179
420
  2234388
370
    25
  0
POLYLINE
  5
6F
330
41
100
AcDbEntity
  8
_U+30EC_U+30A4_U+30E4_U+30FC 1
 62
   179
420
  2234388
370
    25
100
AcDb2dPolyline
 66
     1
 10
0.0
 20
0.0
 30
0.0
  0
VERTEX
  5
70
330
6F
100
AcDbEntity
  8
_U+30EC_U+30A4_U+30E4_U+30FC 1
 62
   179
420
  2234388
370
    25
100
AcDbVertex
100
AcDb2dVertex
 10
84.71936950529549
 20
-128.5611474678597
 30
0.0
  0
VERTEX
  5
71
330
6F
100
AcDbEntity
  8
_U+30EC_U+30A4_U+30E4_U+30FC 1
 62
   179
420
  2234388
370
    25
100
AcDbVertex
100
AcDb2dVertex
 10
85.7191417020114
 20
-128.5611474678597
 30
0.0
  0
SEQEND
  5
72
330
6F
100
AcDbEntity
  8
_U+30EC_U+30A4_U+30E4_U+30FC 1
 62
   179
420
  2234388
370
    25
  0
POLYLINE
  5
73
330
41
100
AcDbEntity
  8
_U+30EC_U+30A4_U+30E4_U+30FC 1
 62
   179
420
  2234388
370
    25
100
AcDb2dPolyline
 66
     1
 10
0.0
 20
0.0
 30
0.0
  0
VERTEX
  5
74
330
73
100
AcDbEntity
  8
_U+30EC_U+30A4_U+30E4_U+30FC 1
 62
   179
420
  2234388
370
    25
100
AcDbVertex
100
AcDb2dVertex
 10
75.71940890157028
 20
-138.5610569098044
 30
0.0
  0
VERTEX
  5
75
330
73
100
AcDbEntity
  8
_U+30EC_U+30A4_U+30E4_U+30FC 1
 62
   179
420
  2234388
370
    25
100
AcDbVertex
100
AcDb2dVertex
 10
85.7191417020114
 20
-138.5610569098044
 30
0.0
  0
SEQEND
  5
76
330
73
100
AcDbEntity
  8
_U+30EC_U+30A4_U+30E4_U+30FC 1
 62
   179
420
  2234388
370
    25
  0
POLYLINE
  5
77
330
41
100
AcDbEntity
  8
_U+30EC_U+30A4_U+30E4_U+30FC 1
 62
   179
420
  2234388
370
    25
100
AcDb2dPolyline
 66
     1
 10
0.0
 20
0.0
 30
0.0
  0
VERTEX
  5
78
330
77
100
AcDbEntity
  8
_U+30EC_U+30A4_U+30E4_U+30FC 1
 62
   179
420
  2234388
370
    25
100
AcDbVertex
100
AcDb2dVertex
 10
76.71918109828619
 20
-137.5605791322764
 30
0.0
  0
VERTEX
  5
79
330
77
100
AcDbEntity
  8
_U+30EC_U+30A4_U+30E4_U+30FC 1
 62
   179
420
  2234388
370
    25
100
AcDbVertex
100
AcDb2dVertex
 10
84.71936950529549
 20
-137.5605791322764
 30
0.0
  0
SEQEND
  5
7A
330
77
100
AcDbEntity
  8
_U+30EC_U+30A4_U+30E4_U+30FC 1
 62
   179
420
  2234388
370
    25
  0
SPLINE
  5
7B
330
41
100
AcDbEntity
  8
_U+30EC_U+30A4_U+30E4_U+30FC 1
 62
   179
420
  2234388
370
     9
100
AcDbSpline
210
0.0
220
0.0
230
1.0
 70
    11
 71
     3
 72
    17
 73
    13
 74
     0
 42
0.0000000001
 43
0.0000000001
 12
1.0
 22
0.0
 32
0.0
 13
1.0
 23
0.0
 33
0.0
 40
0.0
 40
0.0
 40
0.0
 40
0.0
 40
1.0
 40
1.0
 40
1.0
 40
2.0
 40
2.0
 40
2.0
 40
3.0
 40
3.0
 40
3.0
 40
4.0
 40
4.0
 40
4.0
 40
4.0
 10
75.81931556568811
 20
-117.0607330262905
 30
0.0
 10
75.81931556568811
 20
-117.0055938596374
 30
0.0
 10
75.77451278905335
 20
-116.9608263596485
 30
0.0
 10
75.71940890157028
 20
-116.9608263596485
 30
0.0
 10
75.66426973631033
 20
-116.9608263596485
 30
0.0
 10
75.61950223745244
 20
-117.0055938596374
 30
0.0
 10
75.61950223745244
 20
-117.0607330262905
 30
0.0
 10
75.61950223745244
 20
-117.1161896929432
 30
0.0
 10
75.66426973631033
 20
-117.1609924707099
 30
0.0
 10
75.71940890157028
 20
-117.1609924707099
 30
0.0
 10
75.77451278905335
 20
-117.1609924707099
 30
0.0
 10
75.81931556568811
 20
-117.1161896929432
 30
0.0
 10
75.81931556568811
 20
-117.0607330262905
 30
0.0
  0
SPLINE
  5
7C
330
41
100
AcDbEntity
  8
_U+30EC_U+30A4_U+30E4_U+30FC 1
 62
   179
420
  2234388
370
     9
100
AcDbSpline
210
0.0
220
0.0
230
1.0
 70
    11
 71
     3
 72
    17
 73
    13
 74
     0
 42
0.0000000001
 43
0.0000000001
 12
1.0
 22
0.0
 32
0.0
 13
1.0
 23
0.0
 33
0.0
 40
0.0
 40
0.0
 40
0.0
 40
0.0
 40
1.0
 40
1.0
 40
1.0
 40
2.0
 40
2.0
 40
2.0
 40
3.0
 40
3.0
 40
3.0
 40
4.0
 40
4.0
 40
4.0
 40
4.0
 10
95.8194867221079
 20
-117.0607330262905
 30
0.0
 10
95.8194867221079
 20
-117.0055938596374
 30
0.0
 10
95.77468394547314
 20
-116.9608263596485
 30
0.0
 10
95.71958005799007
 20
-116.9608263596485
 30
0.0
 10
95.66408811496134
 20
-116.9608263596485
 30
0.0
 10
95.61932061610345
 20
-117.0055938596374
 30
0.0
 10
95.61932061610345
 20
-117.0607330262905
 30
0.0
 10
95.61932061610345
 20
-117.1161896929432
 30
0.0
 10
95.66408811496134
 20
-117.1609924707099
 30
0.0
 10
95.71958005799007
 20
-117.1609924707099
 30
0.0
 10
95.77468394547314
 20
-117.1609924707099
 30
0.0
 10
95.8194867221079
 20
-117.1161896929432
 30
0.0
 10
95.8194867221079
 20
-117.0607330262905
 30
0.0
  0
SPLINE
  5
7D
330
41
100
AcDbEntity
  8
_U+30EC_U+30A4_U+30E4_U+30FC 1
 62
   179
420
  2234388
370
     9
100
AcDbSpline
210
0.0
220
0.0
230
1.0
 70
    11
 71
     3
 72
    17
 73
    13
 74
     0
 42
0.0000000001
 43
0.0000000001
 12
1.0
 22
0.0
 32
0.0
 13
1.0
 23
0.0
 33
0.0
 40
0.0
 40
0.0
 40
0.0
 40
0.0
 40
1.0
 40
1.0
 40
1.0
 40
2.0
 40
2.0
 40
2.0
 40
3.0
 40
3.0
 40
3.0
 40
4.0
 40
4.0
 40
4.0
 40
4.0
 10
99.81956328672412
 20
-121.0611624697347
 30
0.0
 10
99.81956328672412
 20
-121.0057058030821
 30
0.0
 10
99.77479578786622
 20
-120.9609030253153
 30
0.0
 10
99.7193038448375
 20
-120.9609030253153
 30
0.0
 10
99.66419995735443
 20
-120.9609030253153
 30
0.0
 10
99.61939718071966
 20
-121.0057058030821
 30
0.0
 10
99.61939718071966
 20
-121.0611624697347
 30
0.0
 10
99.61939718071966
 20
-121.1163016363875
 30
0.0
 10
99.66419995735443
 20
-121.1610691363764
 30
0.0
 10
99.7193038448375
 20
-121.1610691363764
 30
0.0
 10
99.77479578786622
 20
-121.1610691363764
 30
0.0
 10
99.81956328672412
 20
-121.1163016363875
 30
0.0
 10
99.81956328672412
 20
-121.0611624697347
 30
0.0
  0
SPLINE
  5
7E
330
41
100
AcDbEntity
  8
_U+30EC_U+30A4_U+30E4_U+30FC 1
 62
   179
420
  2234388
370
     9
100
AcDbSpline
210
0.0
220
0.0
230
1.0
 70
    11
 71
     3
 72
    17
 73
    13
 74
     0
 42
0.0000000001
 43
0.0000000001
 12
1.0
 22
0.0
 32
0.0
 13
1.0
 23
0.0
 33
0.0
 40
0.0
 40
0.0
 40
0.0
 40
0.0
 40
1.0
 40
1.0
 40
1.0
 40
2.0
 40
2.0
 40
2.0
 40
3.0
 40
3.0
 40
3.0
 40
4.0
 40
4.0
 40
4.0
 40
4.0
 10
99.81956328672412
 20
-122.060934691707
 30
0.0
 10
99.81956328672412
 20
-122.005830802832
 30
0.0
 10
99.77479578786622
 20
-121.9610280250653
 30
0.0
 10
99.7193038448375
 20
-121.9610280250653
 30
0.0
 10
99.66419995735443
 20
-121.9610280250653
 30
0.0
 10
99.61939718071966
 20
-122.005830802832
 30
0.0
 10
99.61939718071966
 20
-122.060934691707
 30
0.0
 10
99.61939718071966
 20
-122.11607385836
 30
0.0
 10
99.66419995735443
 20
-122.1608413583486
 30
0.0
 10
99.7193038448375
 20
-122.1608413583486
 30
0.0
 10
99.77479578786622
 20
-122.1608413583486
 30
0.0
 10
99.81956328672412
 20
-122.11607385836
 30
0.0
 10
99.81956328672412
 20
-122.060934691707
 30
0.0
  0
SPLINE
  5
7F
330
41
100
AcDbEntity
  8
_U+30EC_U+30A4_U+30E4_U+30FC 1
 62
   179
420
  2234388
370
     9
100
AcDbSpline
210
0.0
220
0.0
230
1.0
 70
    11
 71
     3
 72
    17
 73
    13
 74
     0
 42
0.0000000001
 43
0.0000000001
 12
1.0
 22
0.0
 32
0.0
 13
1.0
 23
0.0
 33
0.0
 40
0.0
 40
0.0
 40
0.0
 40
0.0
 40
1.0
 40
1.0
 40
1.0
 40
2.0
 40
2.0
 40
2.0
 40
3.0
 40
3.0
 40
3.0
 40
4.0
 40
4.0
 40
4.0
 40
4.0
 10
99.81956328672412
 20
-128.5611474678597
 30
0.0
 10
99.81956328672412
 20
-128.5060083012069
 30
0.0
 10
99.77479578786622
 20
-128.461240801218
 30
0.0
 10
99.7193038448375
 20
-128.461240801218
 30
0.0
 10
99.66419995735443
 20
-128.461240801218
 30
0.0
 10
99.61939718071966
 20
-128.5060083012069
 30
0.0
 10
99.61939718071966
 20
-128.5611474678597
 30
0.0
 10
99.61939718071966
 20
-128.6162513567349
 30
0.0
 10
99.66419995735443
 20
-128.6610541345013
 30
0.0
 10
99.7193038448375
 20
-128.6610541345013
 30
0.0
 10
99.77479578786622
 20
-128.6610541345013
 30
0.0
 10
99.81956328672412
 20
-128.6162513567349
 30
0.0
 10
99.81956328672412
 20
-128.5611474678597
 30
0.0
  0
SPLINE
  5
80
330
41
100
AcDbEntity
  8
_U+30EC_U+30A4_U+30E4_U+30FC 1
 62
   179
420
  2234388
370
     9
100
AcDbSpline
210
0.0
220
0.0
230
1.0
 70
    11
 71
     3
 72
    17
 73
    13
 74
     0
 42
0.0000000001
 43
0.0000000001
 12
1.0
 22
0.0
 32
0.0
 13
1.0
 23
0.0
 33
0.0
 40
0.0
 40
0.0
 40
0.0
 40
0.0
 40
1.0
 40
1.0
 40
1.0
 40
2.0
 40
2.0
 40
2.0
 40
3.0
 40
3.0
 40
3.0
 40
4.0
 40
4.0
 40
4.0
 40
4.0
 10
99.81956328672412
 20
-138.5610569098044
 30
0.0
 10
99.81956328672412
 20
-138.5059177431514
 30
0.0
 10
99.77479578786622
 20
-138.4611502431628
 30
0.0
 10
99.7193038448375
 20
-138.4611502431628
 30
0.0
 10
99.66419995735443
 20
-138.4611502431628
 30
0.0
 10
99.61939718071966
 20
-138.5059177431514
 30
0.0
 10
99.61939718071966
 20
-138.5610569098044
 30
0.0
 10
99.61939718071966
 20
-138.6161607986794
 30
0.0
 10
99.66419995735443
 20
-138.6609635764461
 30
0.0
 10
99.7193038448375
 20
-138.6609635764461
 30
0.0
 10
99.77479578786622
 20
-138.6609635764461
 30
0.0
 10
99.81956328672412
 20
-138.6161607986794
 30
0.0
 10
99.81956328672412
 20
-138.5610569098044
 30
0.0
  0
SPLINE
  5
81
330
41
100
AcDbEntity
  8
_U+30EC_U+30A4_U+30E4_U+30FC 1
 62
   179
420
  2234388
370
     9
100
AcDbSpline
210
0.0
220
0.0
230
1.0
 70
    11
 71
     3
 72
    17
 73
    13
 74
     0
 42
0.0000000001
 43
0.0000000001
 12
1.0
 22
0.0
 32
0.0
 13
1.0
 23
0.0
 33
0.0
 40
0.0
 40
0.0
 40
0.0
 40
0.0
 40
1.0
 40
1.0
 40
1.0
 40
2.0
 40
2.0
 40
2.0
 40
3.0
 40
3.0
 40
3.0
 40
4.0
 40
4.0
 40
4.0
 40
4.0
 10
85.81904836612922
 20
-142.5608160754707
 30
0.0
 10
85.81904836612922
 20
-142.5056769088183
 30
0.0
 10
85.77424558949447
 20
-142.4609094088291
 30
0.0
 10
85.7191417020114
 20
-142.4609094088291
 30
0.0
 10
85.66400253675144
 20
-142.4609094088291
 30
0.0
 10
85.61923503789356
 20
-142.5056769088183
 30
0.0
 10
85.61923503789356
 20
-142.5608160754707
 30
0.0
 10
85.61923503789356
 20
-142.6159199643463
 30
0.0
 10
85.66400253675144
 20
-142.6607227421123
 30
0.0
 10
85.7191417020114
 20
-142.6607227421123
 30
0.0
 10
85.77424558949447
 20
-142.6607227421123
 30
0.0
 10
85.81904836612922
 20
-142.6159199643463
 30
0.0
 10
85.81904836612922
 20
-142.5608160754707
 30
0.0
  0
SPLINE
  5
82
330
41
100
AcDbEntity
  8
_U+30EC_U+30A4_U+30E4_U+30FC 1
 62
   179
420
  2234388
370
     9
100
AcDbSpline
210
0.0
220
0.0
230
1.0
 70
    11
 71
     3
 72
    17
 73
    13
 74
     0
 42
0.0000000001
 43
0.0000000001
 12
1.0
 22
0.0
 32
0.0
 13
1.0
 23
0.0
 33
0.0
 40
0.0
 40
0.0
 40
0.0
 40
0.0
 40
1.0
 40
1.0
 40
1.0
 40
2.0
 40
2.0
 40
2.0
 40
3.0
 40
3.0
 40
3.0
 40
4.0
 40
4.0
 40
4.0
 40
4.0
 10
75.81931556568811
 20
-142.5608160754707
 30
0.0
 10
75.81931556568811
 20
-142.5056769088183
 30
0.0
 10
75.77451278905335
 20
-142.4609094088291
 30
0.0
 10
75.71940890157028
 20
-142.4609094088291
 30
0.0
 10
75.66426973631033
 20
-142.4609094088291
 30
0.0
 10
75.61950223745244
 20
-142.5056769088183
 30
0.0
 10
75.61950223745244
 20
-142.5608160754707
 30
0.0
 10
75.61950223745244
 20
-142.6159199643463
 30
0.0
 10
75.66426973631033
 20
-142.6607227421123
 30
0.0
 10
75.71940890157028
 20
-142.6607227421123
 30
0.0
 10
75.77451278905335
 20
-142.6607227421123
 30
0.0
 10
75.81931556568811
 20
-142.6159199643463
 30
0.0
 10
75.81931556568811
 20
-142.5608160754707
 30
0.0
  0
POLYLINE
  5
83
330
41
100
AcDbEntity
  8
_U+30EC_U+30A4_U+30E4_U+30FC 1
 62
   179
420
  2234388
370
     9
100
AcDb2dPolyline
 66
     1
 10
0.0
 20
0.0
 30
0.0
  0
VERTEX
  5
84
330
83
100
AcDbEntity
  8
_U+30EC_U+30A4_U+30E4_U+30FC 1
 62
   179
420
  2234388
370
     9
100
AcDbVertex
100
AcDb2dVertex
 10
75.71940890157028
 20
-142.5608160754707
 30
0.0
  0
VERTEX
  5
85
330
83
100
AcDbEntity
  8
_U+30EC_U+30A4_U+30E4_U+30FC 1
 62
   179
420
  2234388
370
     9
100
AcDbVertex
100
AcDb2dVertex
 10
85.7191417020114
 20
-142.5608160754707
 30
0.0
  0
SEQEND
  5
86
330
83
100
AcDbEntity
  8
_U+30EC_U+30A4_U+30E4_U+30FC 1
 62
   179
420
  2234388
370
     9
  0
POLYLINE
  5
87
330
41
100
AcDbEntity
  8
_U+30EC_U+30A4_U+30E4_U+30FC 1
 62
   179
420
  2234388
370
     9
100
AcDb2dPolyline
 66
     1
 10
0.0
 20
0.0
 30
0.0
  0
VERTEX
  5
88
330
87
100
AcDbEntity
  8
_U+30EC_U+30A4_U+30E4_U+30FC 1
 62
   179
420
  2234388
370
     9
100
AcDbVertex
100
AcDb2dVertex
 10
75.71940890157028
 20
-141.100774686947
 30
0.0
  0
VERTEX
  5
89
330
87
100
AcDbEntity
  8
_U+30EC_U+30A4_U+30E4_U+30FC 1
 62
   179
420
  2234388
370
     9
100
AcDbVertex
100
AcDb2dVertex
 10
75.71940890157028
 20
-143.5605882974432
 30
0.0
  0
SEQEND
  5
8A
330
87
100
AcDbEntity
  8
_U+30EC_U+30A4_U+30E4_U+30FC 1
 62
   179
420
  2234388
370
     9
  0
POLYLINE
  5
8B
330
41
100
AcDbEntity
  8
_U+30EC_U+30A4_U+30E4_U+30FC 1
 62
   179
420
  2234388
370
     9
100
AcDb2dPolyline
 66
     1
 10
0.0
 20
0.0
 30
0.0
  0
VERTEX
  5
8C
330
8B
100
AcDbEntity
  8
_U+30EC_U+30A4_U+30E4_U+30FC 1
 62
   179
420
  2234388
370
     9
100
AcDbVertex
100
AcDb2dVertex
 10
85.7191417020114
 20
-141.100774686947
 30
0.0
  0
VERTEX
  5
8D
330
8B
100
AcDbEntity
  8
_U+30EC_U+30A4_U+30E4_U+30FC 1
 62
   179
420
  2234388
370
     9
100
AcDbVertex
100
AcDb2dVertex
 10
85.7191417020114
 20
-143.5605882974432
 30
0.0
  0
SEQEND
  5
8E
330
8B
100
AcDbEntity
  8
_U+30EC_U+30A4_U+30E4_U+30FC 1
 62
   179
420
  2234388
370
     9
  0
INSERT
  5
90
330
41
100
AcDbEntity
  8
_U+30EC_U+30A4_U+30E4_U+30FC 1
100
AcDbBlockReference
  2
block 3
 10
0.0
 20
0.0
 30
0.0
  0
POLYLINE
  5
98
330
41
100
AcDbEntity
  8
_U+30EC_U+30A4_U+30E4_U+30FC 1
 62
   179
420
  2234388
370
     9
100
AcDb2dPolyline
 66
     1
 10
0.0
 20
0.0
 30
0.0
  0
VERTEX
  5
99
330
98
100
AcDbEntity
  8
_U+30EC_U+30A4_U+30E4_U+30FC 1
 62
   179
420
  2234388
370
     9
100
AcDbVertex
100
AcDb2dVertex
 10
75.71940890157028
 20
-117.0607330262905
 30
0.0
  0
VERTEX
  5
9A
330
98
100
AcDbEntity
  8
_U+30EC_U+30A4_U+30E4_U+30FC 1
 62
   179
420
  2234388
370
     9
100
AcDbVertex
100
AcDb2dVertex
 10
95.71958005799007
 20
-117.0607330262905
 30
0.0
  0
SEQEND
  5
9B
330
98
100
AcDbEntity
  8
_U+30EC_U+30A4_U+30E4_U+30FC 1
 62
   179
420
  2234388
370
     9
  0
POLYLINE
  5
9C
330
41
100
AcDbEntity
  8
_U+30EC_U+30A4_U+30E4_U+30FC 1
 62
   179
420
  2234388
370
     9
100
AcDb2dPolyline
 66
     1
 10
0.0
 20
0.0
 30
0.0
  0
VERTEX
  5
9D
330
9C
100
AcDbEntity
  8
_U+30EC_U+30A4_U+30E4_U+30FC 1
 62
   179
420
  2234388
370
     9
100
AcDbVertex
100
AcDb2dVertex
 10
75.71940890157028
 20
-118.5207744148142
 30
0.0
  0
VERTEX
  5
9E
330
9C
100
AcDbEntity
  8
_U+30EC_U+30A4_U+30E4_U+30FC 1
 62
   179
420
  2234388
370
     9
100
AcDbVertex
100
AcDb2dVertex
 10
75.71940890157028
 20
-116.0609608043183
 30
0.0
  0
SEQEND
  5
9F
330
9C
100
AcDbEntity
  8
_U+30EC_U+30A4_U+30E4_U+30FC 1
 62
   179
420
  2234388
370
     9
  0
POLYLINE
  5
A0
330
41
100
AcDbEntity
  8
_U+30EC_U+30A4_U+30E4_U+30FC 1
 62
   179
420
  2234388
370
     9
100
AcDb2dPolyline
 66
     1
 10
0.0
 20
0.0
 30
0.0
  0
VERTEX
  5
A1
330
A0
100
AcDbEntity
  8
_U+30EC_U+30A4_U+30E4_U+30FC 1
 62
   179
420
  2234388
370
     9
100
AcDbVertex
100
AcDb2dVertex
 10
95.71958005799007
 20
-118.5207744148142
 30
0.0
  0
VERTEX
  5
A2
330
A0
100
AcDbEntity
  8
_U+30EC_U+30A4_U+30E4_U+30FC 1
 62
   179
420
  2234388
370
     9
100
AcDbVertex
100
AcDb2dVertex
 10
95.71958005799007
 20
-116.0609608043183
 30
0.0
  0
SEQEND
  5
A3
330
A0
100
AcDbEntity
  8
_U+30EC_U+30A4_U+30E4_U+30FC 1
 62
   179
420
  2234388
370
     9
  0
INSERT
  5
A5
330
41
100
AcDbEntity
  8
_U+30EC_U+30A4_U+30E4_U+30FC 1
100
AcDbBlockReference
  2
block 4
 10
0.0
 20
0.0
 30
0.0
  0
POLYLINE
  5
AD
330
41
100
AcDbEntity
  8
_U+30EC_U+30A4_U+30E4_U+30FC 1
 62
   179
420
  2234388
370
     9
100
AcDb2dPolyline
 66
     1
 10
0.0
 20
0.0
 30
0.0
  0
VERTEX
  5
AE
330
AD
100
AcDbEntity
  8
_U+30EC_U+30A4_U+30E4_U+30FC 1
 62
   179
420
  2234388
370
     9
100
AcDbVertex
100
AcDb2dVertex
 10
99.7193038448375
 20
-121.0611624697347
 30
0.0
  0
VERTEX
  5
AF
330
AD
100
AcDbEntity
  8
_U+30EC_U+30A4_U+30E4_U+30FC 1
 62
   179
420
  2234388
370
     9
100
AcDbVertex
100
AcDb2dVertex
 10
99.7193038448375
 20
-117.2908499706773
 30
0.0
  0
SEQEND
  5
B0
330
AD
100
AcDbEntity
  8
_U+30EC_U+30A4_U+30E4_U+30FC 1
 62
   179
420
  2234388
370
     9
  0
POLYLINE
  5
B1
330
41
100
AcDbEntity
  8
_U+30EC_U+30A4_U+30E4_U+30FC 1
 62
   179
420
  2234388
370
     9
100
AcDb2dPolyline
 66
     1
 10
0.0
 20
0.0
 30
0.0
  0
VERTEX
  5
B2
330
B1
100
AcDbEntity
  8
_U+30EC_U+30A4_U+30E4_U+30FC 1
 62
   179
420
  2234388
370
     9
100
AcDbVertex
100
AcDb2dVertex
 10
99.7193038448375
 20
-121.0611624697347
 30
0.0
  0
VERTEX
  5
B3
330
B1
100
AcDbEntity
  8
_U+30EC_U+30A4_U+30E4_U+30FC 1
 62
   179
420
  2234388
370
     9
100
AcDbVertex
100
AcDb2dVertex
 10
99.7193038448375
 20
-122.060934691707
 30
0.0
  0
SEQEND
  5
B4
330
B1
100
AcDbEntity
  8
_U+30EC_U+30A4_U+30E4_U+30FC 1
 62
   179
420
  2234388
370
     9
  0
POLYLINE
  5
B5
330
41
100
AcDbEntity
  8
_U+30EC_U+30A4_U+30E4_U+30FC 1
 62
   179
420
  2234388
370
     9
100
AcDb2dPolyline
 66
     1
 10
0.0
 20
0.0
 30
0.0
  0
VERTEX
  5
B6
330
B5
100
AcDbEntity
  8
_U+30EC_U+30A4_U+30E4_U+30FC 1
 62
   179
420
  2234388
370
     9
100
AcDbVertex
100
AcDb2dVertex
 10
98.25929777097424
 20
-121.0611624697347
 30
0.0
  0
VERTEX
  5
B7
330
B5
100
AcDbEntity
  8
_U+30EC_U+30A4_U+30E4_U+30FC 1
 62
   179
420
  2234388
370
     9
100
AcDbVertex
100
AcDb2dVertex
 10
100.7194288193222
 20
-121.0611624697347
 30
0.0
  0
SEQEND
  5
B8
330
B5
100
AcDbEntity
  8
_U+30EC_U+30A4_U+30E4_U+30FC 1
 62
   179
420
  2234388
370
     9
  0
POLYLINE
  5
B9
330
41
100
AcDbEntity
  8
_U+30EC_U+30A4_U+30E4_U+30FC 1
 62
   179
420
  2234388
370
     9
100
AcDb2dPolyline
 66
     1
 10
0.0
 20
0.0
 30
0.0
  0
VERTEX
  5
BA
330
B9
100
AcDbEntity
  8
_U+30EC_U+30A4_U+30E4_U+30FC 1
 62
   179
420
  2234388
370
     9
100
AcDbVertex
100
AcDb2dVertex
 10
98.25929777097424
 20
-122.060934691707
 30
0.0
  0
VERTEX
  5
BB
330
B9
100
AcDbEntity
  8
_U+30EC_U+30A4_U+30E4_U+30FC 1
 62
   179
420
  2234388
370
     9
100
AcDbVertex
100
AcDb2dVertex
 10
100.7194288193222
 20
-122.060934691707
 30
0.0
  0
SEQEND
  5
BC
330
B9
100
AcDbEntity
  8
_U+30EC_U+30A4_U+30E4_U+30FC 1
 62
   179
420
  2234388
370
     9
  0
INSERT
  5
BE
330
41
100
AcDbEntity
  8
_U+30EC_U+30A4_U+30E4_U+30FC 1
100
AcDbBlockReference
  2
block 5
 10
0.0
 20
0.0
 30
0.0
  0
POLYLINE
  5
C3
330
41
100
AcDbEntity
  8
_U+30EC_U+30A4_U+30E4_U+30FC 1
 62
   179
420
  2234388
370
     9
100
AcDb2dPolyline
 66
     1
 10
0.0
 20
0.0
 30
0.0
  0
VERTEX
  5
C4
330
C3
100
AcDbEntity
  8
_U+30EC_U+30A4_U+30E4_U+30FC 1
 62
   179
420
  2234388
370
     9
100
AcDbVertex
100
AcDb2dVertex
 10
99.7193038448375
 20
-128.5611474678597
 30
0.0
  0
VERTEX
  5
C5
330
C3
100
AcDbEntity
  8
_U+30EC_U+30A4_U+30E4_U+30FC 1
 62
   179
420
  2234388
370
     9
100
AcDbVertex
100
AcDb2dVertex
 10
99.7193038448375
 20
-138.5610569098044
 30
0.0
  0
SEQEND
  5
C6
330
C3
100
AcDbEntity
  8
_U+30EC_U+30A4_U+30E4_U+30FC 1
 62
   179
420
  2234388
370
     9
  0
POLYLINE
  5
C7
330
41
100
AcDbEntity
  8
_U+30EC_U+30A4_U+30E4_U+30FC 1
 62
   179
420
  2234388
370
     9
100
AcDb2dPolyline
 66
     1
 10
0.0
 20
0.0
 30
0.0
  0
VERTEX
  5
C8
330
C7
100
AcDbEntity
  8
_U+30EC_U+30A4_U+30E4_U+30FC 1
 62
   179
420
  2234388
370
     9
100
AcDbVertex
100
AcDb2dVertex
 10
88.25921219276435
 20
-138.5610569098044
 30
0.0
  0
VERTEX
  5
C9
330
C7
100
AcDbEntity
  8
_U+30EC_U+30A4_U+30E4_U+30FC 1
 62
   179
420
  2234388
370
     9
100
AcDbVertex
100
AcDb2dVertex
 10
100.7194288193222
 20
-138.5610569098044
 30
0.0
  0
SEQEND
  5
CA
330
C7
100
AcDbEntity
  8
_U+30EC_U+30A4_U+30E4_U+30FC 1
 62
   179
420
  2234388
370
     9
  0
INSERT
  5
CC
330
41
100
AcDbEntity
  8
_U+30EC_U+30A4_U+30E4_U+30FC 1
100
AcDbBlockReference
  2
block 6
 10
0.0
 20
0.0
 30
0.0
  0
POLYLINE
  5
D4
330
41
100
AcDbEntity
  8
_U+30EC_U+30A4_U+30E4_U+30FC 1
 62
   179
420
  2234388
370
     9
100
AcDb2dPolyline
 66
     1
 10
0.0
 20
0.0
 30
0.0
  0
VERTEX
  5
D5
330
D4
100
AcDbEntity
  8
_U+30EC_U+30A4_U+30E4_U+30FC 1
 62
   179
420
  2234388
370
     9
100
AcDbVertex
100
AcDb2dVertex
 10
99.7193038448375
 20
-128.5611474678597
 30
0.0
  0
VERTEX
  5
D6
330
D4
100
AcDbEntity
  8
_U+30EC_U+30A4_U+30E4_U+30FC 1
 62
   179
420
  2234388
370
     9
100
AcDbVertex
100
AcDb2dVertex
 10
99.7193038448375
 20
-122.060934691707
 30
0.0
  0
SEQEND
  5
D7
330
D4
100
AcDbEntity
  8
_U+30EC_U+30A4_U+30E4_U+30FC 1
 62
   179
420
  2234388
370
     9
  0
POLYLINE
  5
D8
330
41
100
AcDbEntity
  8
_U+30EC_U+30A4_U+30E4_U+30FC 1
 62
   179
420
  2234388
370
     9
100
AcDb2dPolyline
 66
     1
 10
0.0
 20
0.0
 30
0.0
  0
VERTEX
  5
D9
330
D8
100
AcDbEntity
  8
_U+30EC_U+30A4_U+30E4_U+30FC 1
 62
   179
420
  2234388
370
     9
100
AcDbVertex
100
AcDb2dVertex
 10
88.25921219276435
 20
-128.5611474678597
 30
0.0
  0
VERTEX
  5
DA
330
D8
100
AcDbEntity
  8
_U+30EC_U+30A4_U+30E4_U+30FC 1
 62
   179
420
  2234388
370
     9
100
AcDbVertex
100
AcDb2dVertex
 10
100.7194288193222
 20
-128.5611474678597
 30
0.0
  0
SEQEND
  5
DB
330
D8
100
AcDbEntity
  8
_U+30EC_U+30A4_U+30E4_U+30FC 1
 62
   179
420
  2234388
370
     9
  0
INSERT
  5
DD
330
41
100
AcDbEntity
  8
_U+30EC_U+30A4_U+30E4_U+30FC 1
100
AcDbBlockReference
  2
block 7
 10
0.0
 20
0.0
 30
0.0
  0
ENDBLK
  5
44
330
41
100
AcDbEntity
  8
0
100
AcDbBlockEnd
  0
BLOCK
  5
91
330
8F
100
AcDbEntity
  8
0
100
AcDbBlockBegin
  2
block 3
 70
     0
 10
0.0
 20
0.0
 30
0.0
  3
block 3
  1

  0
SPLINE
  5
93
330
8F
100
AcDbEntity
  8
_U+30EC_U+30A4_U+30E4_U+30FC 1
370
     0
100
AcDbSpline
210
0.0
220
0.0
230
1.0
 70
    11
 71
     3
 72
    26
 73
    22
 74
     0
 42
0.0000000001
 43
0.0000000001
 12
1.0
 22
0.0
 32
0.0
 13
1.0
 23
0.0
 33
0.0
 40
0.0
 40
0.0
 40
0.0
 40
0.0
 40
1.0
 40
1.0
 40
1.0
 40
2.0
 40
2.0
 40
2.0
 40
3.0
 40
3.0
 40
3.0
 40
4.0
 40
4.0
 40
4.0
 40
5.0
 40
5.0
 40
5.0
 40
6.0
 40
6.0
 40
6.0
 40
7.0
 40
7.0
 40
7.0
 40
7.0
 10
80.08193357372951
 20
-141.9155408716392
 30
0.0
 10
80.08193357372951
 20
-141.9155408716392
 30
0.0
 10
80.08193357372951
 20
-140.8113877686166
 30
0.0
 10
80.08193357372951
 20
-140.8113877686166
 30
0.0
 10
80.08193357372951
 20
-140.8113877686166
 30
0.0
 10
79.75189342624259
 20
-140.8113877686166
 30
0.0
 10
79.75189342624259
 20
-140.8113877686166
 30
0.0
 10
79.75189342624259
 20
-140.8113877686166
 30
0.0
 10
79.75189342624259
 20
-140.6632486627509
 30
0.0
 10
79.75189342624259
 20
-140.6632486627509
 30
0.0
 10
80.08400063102067
 20
-140.6484347521643
 30
0.0
 10
80.13050942007155
 20
-140.485481735712
 30
0.0
 10
80.1601372412447
 20
-140.3711045656017
 30
0.0
 10
80.1601372412447
 20
-140.3711045656017
 30
0.0
 10
80.30620928981928
 20
-140.3711045656017
 30
0.0
 10
80.30620928981928
 20
-140.3711045656017
 30
0.0
 10
80.30620928981928
 20
-140.3711045656017
 30
0.0
 10
80.30620928981928
 20
-141.9155408716392
 30
0.0
 10
80.30620928981928
 20
-141.9155408716392
 30
0.0
 10
80.30620928981928
 20
-141.9155408716392
 30
0.0
 10
80.08193357372951
 20
-141.9155408716392
 30
0.0
 10
80.08193357372951
 20
-141.9155408716392
 30
0.0
  0
HATCH
  5
94
330
8F
100
AcDbEntity
  8
_U+30EC_U+30A4_U+30E4_U+30FC 1
 62
   179
420
  2234388
100
AcDbHatch
 10
0.0
 20
0.0
 30
0.0
210
0.0
220
0.0
230
1.0
  2
SOLID
 70
     1
 71
     0
 91
        1
 92
        1
 93
        1
 72
     4
 94
        3
 73
     0
 74
     1
 95
       26
 96
       22
 40
0.0
 40
0.0
 40
0.0
 40
0.0
 40
1.0
 40
1.0
 40
1.0
 40
2.0
 40
2.0
 40
2.0
 40
3.0
 40
3.0
 40
3.0
 40
4.0
 40
4.0
 40
4.0
 40
5.0
 40
5.0
 40
5.0
 40
6.0
 40
6.0
 40
6.0
 40
7.0
 40
7.0
 40
7.0
 40
7.0
 10
80.08193357372951
 20
-141.9155408716392
 10
80.08193357372951
 20
-141.9155408716392
 10
80.08193357372951
 20
-140.8113877686166
 10
80.08193357372951
 20
-140.8113877686166
 10
80.08193357372951
 20
-140.8113877686166
 10
79.75189342624259
 20
-140.8113877686166
 10
79.75189342624259
 20
-140.8113877686166
 10
79.75189342624259
 20
-140.8113877686166
 10
79.75189342624259
 20
-140.6632486627509
 10
79.75189342624259
 20
-140.6632486627509
 10
80.08400063102067
 20
-140.6484347521643
 10
80.13050942007155
 20
-140.485481735712
 10
80.1601372412447
 20
-140.3711045656017
 10
80.1601372412447
 20
-140.3711045656017
 10
80.30620928981928
 20
-140.3711045656017
 10
80.30620928981928
 20
-140.3711045656017
 10
80.30620928981928
 20
-140.3711045656017
 10
80.30620928981928
 20
-141.9155408716392
 10
80.30620928981928
 20
-141.9155408716392
 10
80.30620928981928
 20
-141.9155408716392
 10
80.08193357372951
 20
-141.9155408716392
 10
80.08193357372951
 20
-141.9155408716392
 97
        0
 97
        0
 75
     2
 76
     1
 98
        0
  0
SPLINE
  5
95
330
8F
100
AcDbEntity
  8
_U+30EC_U+30A4_U+30E4_U+30FC 1
370
     0
100
AcDbSpline
210
0.0
220
0.0
230
1.0
 70
    11
 71
     3
 72
    29
 73
    25
 74
     0
 42
0.0000000001
 43
0.0000000001
 12
1.0
 22
0.0
 32
0.0
 13
1.0
 23
0.0
 33
0.0
 40
0.0
 40
0.0
 40
0.0
 40
0.0
 40
1.0
 40
1.0
 40
1.0
 40
2.0
 40
2.0
 40
2.0
 40
3.0
 40
3.0
 40
3.0
 40
4.0
 40
4.0
 40
4.0
 40
5.0
 40
5.0
 40
5.0
 40
6.0
 40
6.0
 40
6.0
 40
7.0
 40
7.0
 40
7.0
 40
8.0
 40
8.0
 40
8.0
 40
8.0
 10
81.70509031160498
 20
-141.7377739446003
 30
0.0
 10
81.59725882291666
 20
-141.9472357501035
 30
0.0
 10
81.42379826523432
 20
-141.9661837752724
 30
0.0
 10
81.3073540378329
 20
-141.9661837752724
 30
0.0
 10
81.14664033344599
 20
-141.9661837752724
 30
0.0
 10
81.00487465422795
 20
-141.9196749862215
 30
0.0
 10
80.9096177640608
 20
-141.7377739446003
 30
0.0
 10
80.80609264472903
 20
-141.5431260496837
 30
0.0
 10
80.7869723647859
 20
-141.306447989847
 30
0.0
 10
80.7869723647859
 20
-141.1434949733947
 30
0.0
 10
80.7869723647859
 20
-140.9994899821112
 30
0.0
 10
80.80385333266362
 20
-140.7476535021395
 30
0.0
 10
80.9096177640608
 20
-140.5488714926406
 30
0.0
 10
81.01762150752337
 20
-140.3459553685593
 30
0.0
 10
81.17833521191028
 20
-140.3225287192597
 30
0.0
 10
81.3073540378329
 20
-140.3225287192597
 30
0.0
 10
81.46600068492864
 20
-140.3225287192597
 30
0.0
 10
81.60983342143783
 20
-140.3669704510194
 30
0.0
 10
81.70509031160498
 20
-140.5488714926406
 30
0.0
 10
81.80448131635444
 20
-140.741452330266
 30
0.0
 10
81.82773571087988
 20
-140.9698621609381
 30
0.0
 10
81.82773571087988
 20
-141.1434949733947
 30
0.0
 10
81.82773571087988
 20
-141.3147162190116
 30
0.0
 10
81.80672062841985
 20
-141.5451931069748
 30
0.0
 10
81.70509031160498
 20
-141.7377739446003
 30
0.0
  0
SPLINE
  5
96
330
8F
100
AcDbEntity
  8
_U+30EC_U+30A4_U+30E4_U+30FC 1
370
     0
100
AcDbSpline
210
0.0
220
0.0
230
1.0
 70
    11
 71
     3
 72
    17
 73
    13
 74
     0
 42
0.0000000001
 43
0.0000000001
 12
1.0
 22
0.0
 32
0.0
 13
1.0
 23
0.0
 33
0.0
 40
0.0
 40
0.0
 40
0.0
 40
0.0
 40
1.0
 40
1.0
 40
1.0
 40
2.0
 40
2.0
 40
2.0
 40
3.0
 40
3.0
 40
3.0
 40
4.0
 40
4.0
 40
4.0
 40
4.0
 10
81.3073540378329
 20
-140.5151095568851
 30
0.0
 10
81.05775686992654
 20
-140.5151095568851
 30
0.0
 10
81.01124808087566
 20
-140.7986409153212
 30
0.0
 10
81.01124808087566
 20
-141.1434949733947
 30
0.0
 10
81.01124808087566
 20
-141.4628553248774
 30
0.0
 10
81.04724932869652
 20
-141.7715358803557
 30
0.0
 10
81.3073540378329
 20
-141.7715358803557
 30
0.0
 10
81.55488414844808
 20
-141.7715358803557
 30
0.0
 10
81.60363224956437
 20
-141.4904160887594
 30
0.0
 10
81.60363224956437
 20
-141.1434949733947
 30
0.0
 10
81.60363224956437
 20
-140.8237901123635
 30
0.0
 10
81.56556394445236
 20
-140.5151095568851
 30
0.0
 10
81.3073540378329
 20
-140.5151095568851
 30
0.0
  0
HATCH
  5
97
330
8F
100
AcDbEntity
  8
_U+30EC_U+30A4_U+30E4_U+30FC 1
 62
   179
420
  2234388
100
AcDbHatch
 10
0.0
 20
0.0
 30
0.0
210
0.0
220
0.0
230
1.0
  2
SOLID
 70
     1
 71
     0
 91
        2
 92
        1
 93
        1
 72
     4
 94
        3
 73
     0
 74
     1
 95
       29
 96
       25
 40
0.0
 40
0.0
 40
0.0
 40
0.0
 40
1.0
 40
1.0
 40
1.0
 40
2.0
 40
2.0
 40
2.0
 40
3.0
 40
3.0
 40
3.0
 40
4.0
 40
4.0
 40
4.0
 40
5.0
 40
5.0
 40
5.0
 40
6.0
 40
6.0
 40
6.0
 40
7.0
 40
7.0
 40
7.0
 40
8.0
 40
8.0
 40
8.0
 40
8.0
 10
81.70509031160498
 20
-141.7377739446003
 10
81.59725882291666
 20
-141.9472357501035
 10
81.42379826523432
 20
-141.9661837752724
 10
81.3073540378329
 20
-141.9661837752724
 10
81.14664033344599
 20
-141.9661837752724
 10
81.00487465422795
 20
-141.9196749862215
 10
80.9096177640608
 20
-141.7377739446003
 10
80.80609264472903
 20
-141.5431260496837
 10
80.7869723647859
 20
-141.306447989847
 10
80.7869723647859
 20
-141.1434949733947
 10
80.7869723647859
 20
-140.9994899821112
 10
80.80385333266362
 20
-140.7476535021395
 10
80.9096177640608
 20
-140.5488714926406
 10
81.01762150752337
 20
-140.3459553685593
 10
81.17833521191028
 20
-140.3225287192597
 10
81.3073540378329
 20
-140.3225287192597
 10
81.46600068492864
 20
-140.3225287192597
 10
81.60983342143783
 20
-140.3669704510194
 10
81.70509031160498
 20
-140.5488714926406
 10
81.80448131635444
 20
-140.741452330266
 10
81.82773571087988
 20
-140.9698621609381
 10
81.82773571087988
 20
-141.1434949733947
 10
81.82773571087988
 20
-141.3147162190116
 10
81.80672062841985
 20
-141.5451931069748
 10
81.70509031160498
 20
-141.7377739446003
 97
        0
 97
        0
 92
        1
 93
        1
 72
     4
 94
        3
 73
     0
 74
     1
 95
       17
 96
       13
 40
0.0
 40
0.0
 40
0.0
 40
0.0
 40
1.0
 40
1.0
 40
1.0
 40
2.0
 40
2.0
 40
2.0
 40
3.0
 40
3.0
 40
3.0
 40
4.0
 40
4.0
 40
4.0
 40
4.0
 10
81.3073540378329
 20
-140.5151095568851
 10
81.05775686992654
 20
-140.5151095568851
 10
81.01124808087566
 20
-140.7986409153212
 10
81.01124808087566
 20
-141.1434949733947
 10
81.01124808087566
 20
-141.4628553248774
 10
81.04724932869652
 20
-141.7715358803557
 10
81.3073540378329
 20
-141.7715358803557
 10
81.55488414844808
 20
-141.7715358803557
 10
81.60363224956437
 20
-141.4904160887594
 10
81.60363224956437
 20
-141.1434949733947
 10
81.60363224956437
 20
-140.8237901123635
 10
81.56556394445236
 20
-140.5151095568851
 10
81.3073540378329
 20
-140.5151095568851
 97
        0
 97
        0
 75
     2
 76
     1
 98
        0
  0
ENDBLK
  5
92
330
8F
100
AcDbEntity
  8
0
100
AcDbBlockEnd
  0
BLOCK
  5
A6
330
A4
100
AcDbEntity
  8
0
100
AcDbBlockBegin
  2
block 4
 70
     0
 10
0.0
 20
0.0
 30
0.0
  3
block 4
  1

  0
SPLINE
  5
A8
330
A4
100
AcDbEntity
  8
_U+30EC_U+30A4_U+30E4_U+30FC 1
370
     0
100
AcDbSpline
210
0.0
220
0.0
230
1.0
 70
    11
 71
     3
 72
    44
 73
    40
 74
     0
 42
0.0000000001
 43
0.0000000001
 12
1.0
 22
0.0
 32
0.0
 13
1.0
 23
0.0
 33
0.0
 40
0.0
 40
0.0
 40
0.0
 40
0.0
 40
1.0
 40
1.0
 40
1.0
 40
2.0
 40
2.0
 40
2.0
 40
3.0
 40
3.0
 40
3.0
 40
4.0
 40
4.0
 40
4.0
 40
5.0
 40
5.0
 40
5.0
 40
6.0
 40
6.0
 40
6.0
 40
7.0
 40
7.0
 40
7.0
 40
8.0
 40
8.0
 40
8.0
 40
9.0
 40
9.0
 40
9.0
 40
10.0
 40
10.0
 40
10.0
 40
11.0
 40
11.0
 40
11.0
 40
12.0
 40
12.0
 40
12.0
 40
13.0
 40
13.0
 40
13.0
 40
13.0
 10
85.22391084023917
 20
-115.833584226684
 30
0.0
 10
85.00600855079712
 20
-115.9922308737797
 30
0.0
 10
84.9128187179211
 20
-116.0663004267126
 30
0.0
 10
84.86424287157908
 20
-116.2101331632218
 30
0.0
 10
84.86424287157908
 20
-116.2101331632218
 30
0.0
 10
85.64266219647128
 20
-116.2101331632218
 30
0.0
 10
85.64266219647128
 20
-116.2101331632218
 30
0.0
 10
85.64266219647128
 20
-116.2101331632218
 30
0.0
 10
85.64266219647128
 20
-116.4152885993684
 30
0.0
 10
85.64266219647128
 20
-116.4152885993684
 30
0.0
 10
85.64266219647128
 20
-116.4152885993684
 30
0.0
 10
84.61464570367274
 20
-116.4152885993684
 30
0.0
 10
84.61464570367274
 20
-116.4152885993684
 30
0.0
 10
84.64634058213703
 20
-116.0576876879995
 30
0.0
 10
84.71196965113104
 20
-115.9794840204843
 30
0.0
 10
85.09695907160771
 20
-115.6811387514617
 30
0.0
 10
85.35292966616177
 20
-115.4823567419627
 30
0.0
 10
85.41838648038151
 20
-115.4146606156776
 30
0.0
 10
85.41838648038151
 20
-115.2772013058161
 30
0.0
 10
85.41838648038151
 20
-115.1586900211235
 30
0.0
 10
85.34655623951406
 20
-115.0276041379098
 30
0.0
 10
85.14984128730629
 20
-115.0276041379098
 30
0.0
 10
84.88956432339567
 20
-115.0276041379098
 30
0.0
 10
84.8811238394568
 20
-115.258081025873
 30
0.0
 10
84.87681747010025
 20
-115.3745252532744
 30
0.0
 10
84.87681747010025
 20
-115.3745252532744
 30
0.0
 10
84.65271400878474
 20
-115.3745252532744
 30
0.0
 10
84.65271400878474
 20
-115.3745252532744
 30
0.0
 10
84.66115449272361
 20
-115.247573484643
 30
0.0
 10
84.67166203395361
 20
-115.1354356265981
 30
0.0
 10
84.7521050135342
 20
-115.0169243419055
 30
0.0
 10
84.86200355951367
 20
-114.8562106375186
 30
0.0
 10
85.04821097049143
 20
-114.8222764469889
 30
0.0
 10
85.16465519789287
 20
-114.8222764469889
 30
0.0
 10
85.44181312968122
 20
-114.8222764469889
 30
0.0
 10
85.64903562311899
 20
-115.0064168006755
 30
0.0
 10
85.64903562311899
 20
-115.2792683631073
 30
0.0
 10
85.64903562311899
 20
-115.5076781937793
 30
0.0
 10
85.53276365049182
 20
-115.6072414533031
 30
0.0
 10
85.22391084023917
 20
-115.833584226684
 30
0.0
  0
HATCH
  5
A9
330
A4
100
AcDbEntity
  8
_U+30EC_U+30A4_U+30E4_U+30FC 1
 62
   179
420
  2234388
100
AcDbHatch
 10
0.0
 20
0.0
 30
0.0
210
0.0
220
0.0
230
1.0
  2
SOLID
 70
     1
 71
     0
 91
        1
 92
        1
 93
        1
 72
     4
 94
        3
 73
     0
 74
     1
 95
       44
 96
       40
 40
0.0
 40
0.0
 40
0.0
 40
0.0
 40
1.0
 40
1.0
 40
1.0
 40
2.0
 40
2.0
 40
2.0
 40
3.0
 40
3.0
 40
3.0
 40
4.0
 40
4.0
 40
4.0
 40
5.0
 40
5.0
 40
5.0
 40
6.0
 40
6.0
 40
6.0
 40
7.0
 40
7.0
 40
7.0
 40
8.0
 40
8.0
 40
8.0
 40
9.0
 40
9.0
 40
9.0
 40
10.0
 40
10.0
 40
10.0
 40
11.0
 40
11.0
 40
11.0
 40
12.0
 40
12.0
 40
12.0
 40
13.0
 40
13.0
 40
13.0
 40
13.0
 10
85.22391084023917
 20
-115.833584226684
 10
85.00600855079712
 20
-115.9922308737797
 10
84.9128187179211
 20
-116.0663004267126
 10
84.86424287157908
 20
-116.2101331632218
 10
84.86424287157908
 20
-116.2101331632218
 10
85.64266219647128
 20
-116.2101331632218
 10
85.64266219647128
 20
-116.2101331632218
 10
85.64266219647128
 20
-116.2101331632218
 10
85.64266219647128
 20
-116.4152885993684
 10
85.64266219647128
 20
-116.4152885993684
 10
85.64266219647128
 20
-116.4152885993684
 10
84.61464570367274
 20
-116.4152885993684
 10
84.61464570367274
 20
-116.4152885993684
 10
84.64634058213703
 20
-116.0576876879995
 10
84.71196965113104
 20
-115.9794840204843
 10
85.09695907160771
 20
-115.6811387514617
 10
85.35292966616177
 20
-115.4823567419627
 10
85.41838648038151
 20
-115.4146606156776
 10
85.41838648038151
 20
-115.2772013058161
 10
85.41838648038151
 20
-115.1586900211235
 10
85.34655623951406
 20
-115.0276041379098
 10
85.14984128730629
 20
-115.0276041379098
 10
84.88956432339567
 20
-115.0276041379098
 10
84.8811238394568
 20
-115.258081025873
 10
84.87681747010025
 20
-115.3745252532744
 10
84.87681747010025
 20
-115.3745252532744
 10
84.65271400878474
 20
-115.3745252532744
 10
84.65271400878474
 20
-115.3745252532744
 10
84.66115449272361
 20
-115.247573484643
 10
84.67166203395361
 20
-115.1354356265981
 10
84.7521050135342
 20
-115.0169243419055
 10
84.86200355951367
 20
-114.8562106375186
 10
85.04821097049143
 20
-114.8222764469889
 10
85.16465519789287
 20
-114.8222764469889
 10
85.44181312968122
 20
-114.8222764469889
 10
85.64903562311899
 20
-115.0064168006755
 10
85.64903562311899
 20
-115.2792683631073
 10
85.64903562311899
 20
-115.5076781937793
 10
85.53276365049182
 20
-115.6072414533031
 10
85.22391084023917
 20
-115.833584226684
 97
        0
 97
        0
 75
     2
 76
     1
 98
        0
  0
SPLINE
  5
AA
330
A4
100
AcDbEntity
  8
_U+30EC_U+30A4_U+30E4_U+30FC 1
370
     0
100
AcDbSpline
210
0.0
220
0.0
230
1.0
 70
    11
 71
     3
 72
    29
 73
    25
 74
     0
 42
0.0000000001
 43
0.0000000001
 12
1.0
 22
0.0
 32
0.0
 13
1.0
 23
0.0
 33
0.0
 40
0.0
 40
0.0
 40
0.0
 40
0.0
 40
1.0
 40
1.0
 40
1.0
 40
2.0
 40
2.0
 40
2.0
 40
3.0
 40
3.0
 40
3.0
 40
4.0
 40
4.0
 40
4.0
 40
5.0
 40
5.0
 40
5.0
 40
6.0
 40
6.0
 40
6.0
 40
7.0
 40
7.0
 40
7.0
 40
8.0
 40
8.0
 40
8.0
 40
8.0
 10
86.7053018988966
 20
-116.2375216723295
 30
0.0
 10
86.59747041020827
 20
-116.4469834778327
 30
0.0
 10
86.42383759775169
 20
-116.4661037577758
 30
0.0
 10
86.30773787989877
 20
-116.4661037577758
 30
0.0
 10
86.1468519207376
 20
-116.4661037577758
 30
0.0
 10
86.00491398674531
 20
-116.419594968725
 30
0.0
 10
85.90982935135241
 20
-116.2375216723295
 30
0.0
 10
85.80630423202065
 20
-116.0428737774129
 30
0.0
 10
85.78718395207751
 20
-115.806023462802
 30
0.0
 10
85.78718395207751
 20
-115.6430704463497
 30
0.0
 10
85.78718395207751
 20
-115.4992377098405
 30
0.0
 10
85.80406491995524
 20
-115.247573484643
 30
0.0
 10
85.90982935135241
 20
-115.0486192203698
 30
0.0
 10
86.01766084004073
 20
-114.8455308415143
 30
0.0
 10
86.1785467992019
 20
-114.8222764469889
 30
0.0
 10
86.30773787989877
 20
-114.8222764469889
 30
0.0
 10
86.46621227222026
 20
-114.8222764469889
 30
0.0
 10
86.6102172635037
 20
-114.8667181787486
 30
0.0
 10
86.7053018988966
 20
-115.0486192203698
 30
0.0
 10
86.80486515842031
 20
-115.2412000579953
 30
0.0
 10
86.8279472981715
 20
-115.4696098886673
 30
0.0
 10
86.8279472981715
 20
-115.6430704463497
 30
0.0
 10
86.8279472981715
 20
-115.8144639467408
 30
0.0
 10
86.80693221571147
 20
-116.0451130894783
 30
0.0
 10
86.7053018988966
 20
-116.2375216723295
 30
0.0
  0
SPLINE
  5
AB
330
A4
100
AcDbEntity
  8
_U+30EC_U+30A4_U+30E4_U+30FC 1
370
     0
100
AcDbSpline
210
0.0
220
0.0
230
1.0
 70
    11
 71
     3
 72
    17
 73
    13
 74
     0
 42
0.0000000001
 43
0.0000000001
 12
1.0
 22
0.0
 32
0.0
 13
1.0
 23
0.0
 33
0.0
 40
0.0
 40
0.0
 40
0.0
 40
0.0
 40
1.0
 40
1.0
 40
1.0
 40
2.0
 40
2.0
 40
2.0
 40
3.0
 40
3.0
 40
3.0
 40
4.0
 40
4.0
 40
4.0
 40
4.0
 10
86.30773787989877
 20
-115.0148572846144
 30
0.0
 10
86.05796845721815
 20
-115.0148572846144
 30
0.0
 10
86.01145966816728
 20
-115.2983886430504
 30
0.0
 10
86.01145966816728
 20
-115.6430704463497
 30
0.0
 10
86.01145966816728
 20
-115.9626030526066
 30
0.0
 10
86.04728866121387
 20
-116.2714558628592
 30
0.0
 10
86.30773787989877
 20
-116.2714558628592
 30
0.0
 10
86.5550957357397
 20
-116.2714558628592
 30
0.0
 10
86.60367158208173
 20
-115.9899915617143
 30
0.0
 10
86.60367158208173
 20
-115.6430704463497
 30
0.0
 10
86.60367158208173
 20
-115.323710094867
 30
0.0
 10
86.56577553174398
 20
-115.0148572846144
 30
0.0
 10
86.30773787989877
 20
-115.0148572846144
 30
0.0
  0
HATCH
  5
AC
330
A4
100
AcDbEntity
  8
_U+30EC_U+30A4_U+30E4_U+30FC 1
 62
   179
420
  2234388
100
AcDbHatch
 10
0.0
 20
0.0
 30
0.0
210
0.0
220
0.0
230
1.0
  2
SOLID
 70
     1
 71
     0
 91
        2
 92
        1
 93
        1
 72
     4
 94
        3
 73
     0
 74
     1
 95
       29
 96
       25
 40
0.0
 40
0.0
 40
0.0
 40
0.0
 40
1.0
 40
1.0
 40
1.0
 40
2.0
 40
2.0
 40
2.0
 40
3.0
 40
3.0
 40
3.0
 40
4.0
 40
4.0
 40
4.0
 40
5.0
 40
5.0
 40
5.0
 40
6.0
 40
6.0
 40
6.0
 40
7.0
 40
7.0
 40
7.0
 40
8.0
 40
8.0
 40
8.0
 40
8.0
 10
86.7053018988966
 20
-116.2375216723295
 10
86.59747041020827
 20
-116.4469834778327
 10
86.42383759775169
 20
-116.4661037577758
 10
86.30773787989877
 20
-116.4661037577758
 10
86.1468519207376
 20
-116.4661037577758
 10
86.00491398674531
 20
-116.419594968725
 10
85.90982935135241
 20
-116.2375216723295
 10
85.80630423202065
 20
-116.0428737774129
 10
85.78718395207751
 20
-115.806023462802
 10
85.78718395207751
 20
-115.6430704463497
 10
85.78718395207751
 20
-115.4992377098405
 10
85.80406491995524
 20
-115.247573484643
 10
85.90982935135241
 20
-115.0486192203698
 10
86.01766084004073
 20
-114.8455308415143
 10
86.1785467992019
 20
-114.8222764469889
 10
86.30773787989877
 20
-114.8222764469889
 10
86.46621227222026
 20
-114.8222764469889
 10
86.6102172635037
 20
-114.8667181787486
 10
86.7053018988966
 20
-115.0486192203698
 10
86.80486515842031
 20
-115.2412000579953
 10
86.8279472981715
 20
-115.4696098886673
 10
86.8279472981715
 20
-115.6430704463497
 10
86.8279472981715
 20
-115.8144639467408
 10
86.80693221571147
 20
-116.0451130894783
 10
86.7053018988966
 20
-116.2375216723295
 97
        0
 97
        0
 92
        1
 93
        1
 72
     4
 94
        3
 73
     0
 74
     1
 95
       17
 96
       13
 40
0.0
 40
0.0
 40
0.0
 40
0.0
 40
1.0
 40
1.0
 40
1.0
 40
2.0
 40
2.0
 40
2.0
 40
3.0
 40
3.0
 40
3.0
 40
4.0
 40
4.0
 40
4.0
 40
4.0
 10
86.30773787989877
 20
-115.0148572846144
 10
86.05796845721815
 20
-115.0148572846144
 10
86.01145966816728
 20
-115.2983886430504
 10
86.01145966816728
 20
-115.6430704463497
 10
86.01145966816728
 20
-115.9626030526066
 10
86.04728866121387
 20
-116.2714558628592
 10
86.30773787989877
 20
-116.2714558628592
 10
86.5550957357397
 20
-116.2714558628592
 10
86.60367158208173
 20
-115.9899915617143
 10
86.60367158208173
 20
-115.6430704463497
 10
86.60367158208173
 20
-115.323710094867
 10
86.56577553174398
 20
-115.0148572846144
 10
86.30773787989877
 20
-115.0148572846144
 97
        0
 97
        0
 75
     2
 76
     1
 98
        0
  0
ENDBLK
  5
A7
330
A4
100
AcDbEntity
  8
0
100
AcDbBlockEnd
  0
BLOCK
  5
BF
330
BD
100
AcDbEntity
  8
0
100
AcDbBlockBegin
  2
block 5
 70
     0
 10
0.0
 20
0.0
 30
0.0
  3
block 5
  1

  0
SPLINE
  5
C1
330
BD
100
AcDbEntity
  8
_U+30EC_U+30A4_U+30E4_U+30FC 1
370
     0
100
AcDbSpline
210
0.0
220
0.0
230
1.0
 70
    11
 71
     3
 72
    26
 73
    22
 74
     0
 42
0.0000000001
 43
0.0000000001
 12
1.0
 22
0.0
 32
0.0
 13
1.0
 23
0.0
 33
0.0
 40
0.0
 40
0.0
 40
0.0
 40
0.0
 40
1.0
 40
1.0
 40
1.0
 40
2.0
 40
2.0
 40
2.0
 40
3.0
 40
3.0
 40
3.0
 40
4.0
 40
4.0
 40
4.0
 40
5.0
 40
5.0
 40
5.0
 40
6.0
 40
6.0
 40
6.0
 40
7.0
 40
7.0
 40
7.0
 40
7.0
 10
103.8944335677764
 20
-121.6383978645557
 30
0.0
 10
103.8944335677764
 20
-121.6383978645557
 30
0.0
 10
102.7902804647538
 20
-121.6383978645557
 30
0.0
 10
102.7902804647538
 20
-121.6383978645557
 30
0.0
 10
102.7902804647538
 20
-121.6383978645557
 30
0.0
 10
102.7902804647538
 20
-121.9684380120426
 30
0.0
 10
102.7902804647538
 20
-121.9684380120426
 30
0.0
 10
102.7902804647538
 20
-121.9684380120426
 30
0.0
 10
102.6421413588881
 20
-121.9684380120426
 30
0.0
 10
102.6421413588881
 20
-121.9684380120426
 30
0.0
 10
102.6273274483015
 20
-121.6363308072645
 30
0.0
 10
102.4643744318492
 20
-121.5898220182137
 30
0.0
 10
102.3499972617389
 20
-121.5601941970405
 30
0.0
 10
102.3499972617389
 20
-121.5601941970405
 30
0.0
 10
102.3499972617389
 20
-121.4141221484659
 30
0.0
 10
102.3499972617389
 20
-121.4141221484659
 30
0.0
 10
102.3499972617389
 20
-121.4141221484659
 30
0.0
 10
103.8944335677764
 20
-121.4141221484659
 30
0.0
 10
103.8944335677764
 20
-121.4141221484659
 30
0.0
 10
103.8944335677764
 20
-121.4141221484659
 30
0.0
 10
103.8944335677764
 20
-121.6383978645557
 30
0.0
 10
103.8944335677764
 20
-121.6383978645557
 30
0.0
  0
HATCH
  5
C2
330
BD
100
AcDbEntity
  8
_U+30EC_U+30A4_U+30E4_U+30FC 1
 62
   179
420
  2234388
100
AcDbHatch
 10
0.0
 20
0.0
 30
0.0
210
0.0
220
0.0
230
1.0
  2
SOLID
 70
     1
 71
     0
 91
        1
 92
        1
 93
        1
 72
     4
 94
        3
 73
     0
 74
     1
 95
       26
 96
       22
 40
0.0
 40
0.0
 40
0.0
 40
0.0
 40
1.0
 40
1.0
 40
1.0
 40
2.0
 40
2.0
 40
2.0
 40
3.0
 40
3.0
 40
3.0
 40
4.0
 40
4.0
 40
4.0
 40
5.0
 40
5.0
 40
5.0
 40
6.0
 40
6.0
 40
6.0
 40
7.0
 40
7.0
 40
7.0
 40
7.0
 10
103.8944335677764
 20
-121.6383978645557
 10
103.8944335677764
 20
-121.6383978645557
 10
102.7902804647538
 20
-121.6383978645557
 10
102.7902804647538
 20
-121.6383978645557
 10
102.7902804647538
 20
-121.6383978645557
 10
102.7902804647538
 20
-121.9684380120426
 10
102.7902804647538
 20
-121.9684380120426
 10
102.7902804647538
 20
-121.9684380120426
 10
102.6421413588881
 20
-121.9684380120426
 10
102.6421413588881
 20
-121.9684380120426
 10
102.6273274483015
 20
-121.6363308072645
 10
102.4643744318492
 20
-121.5898220182137
 10
102.3499972617389
 20
-121.5601941970405
 10
102.3499972617389
 20
-121.5601941970405
 10
102.3499972617389
 20
-121.4141221484659
 10
102.3499972617389
 20
-121.4141221484659
 10
102.3499972617389
 20
-121.4141221484659
 10
103.8944335677764
 20
-121.4141221484659
 10
103.8944335677764
 20
-121.4141221484659
 10
103.8944335677764
 20
-121.4141221484659
 10
103.8944335677764
 20
-121.6383978645557
 10
103.8944335677764
 20
-121.6383978645557
 97
        0
 97
        0
 75
     2
 76
     1
 98
        0
  0
ENDBLK
  5
C0
330
BD
100
AcDbEntity
  8
0
100
AcDbBlockEnd
  0
BLOCK
  5
CD
330
CB
100
AcDbEntity
  8
0
100
AcDbBlockBegin
  2
block 6
 70
     0
 10
0.0
 20
0.0
 30
0.0
  3
block 6
  1

  0
SPLINE
  5
CF
330
CB
100
AcDbEntity
  8
_U+30EC_U+30A4_U+30E4_U+30FC 1
370
     0
100
AcDbSpline
210
0.0
220
0.0
230
1.0
 70
    11
 71
     3
 72
    26
 73
    22
 74
     0
 42
0.0000000001
 43
0.0000000001
 12
1.0
 22
0.0
 32
0.0
 13
1.0
 23
0.0
 33
0.0
 40
0.0
 40
0.0
 40
0.0
 40
0.0
 40
1.0
 40
1.0
 40
1.0
 40
2.0
 40
2.0
 40
2.0
 40
3.0
 40
3.0
 40
3.0
 40
4.0
 40
4.0
 40
4.0
 40
5.0
 40
5.0
 40
5.0
 40
6.0
 40
6.0
 40
6.0
 40
7.0
 40
7.0
 40
7.0
 40
7.0
 10
99.07302243616925
 20
-134.1992160037766
 30
0.0
 10
99.07302243616925
 20
-134.1992160037766
 30
0.0
 10
97.96886933314667
 20
-134.1992160037766
 30
0.0
 10
97.96886933314667
 20
-134.1992160037766
 30
0.0
 10
97.96886933314667
 20
-134.1992160037766
 30
0.0
 10
97.96886933314667
 20
-134.5292561512635
 30
0.0
 10
97.96886933314667
 20
-134.5292561512635
 30
0.0
 10
97.96886933314667
 20
-134.5292561512635
 30
0.0
 10
97.82073022728093
 20
-134.5292561512635
 30
0.0
 10
97.82073022728093
 20
-134.5292561512635
 30
0.0
 10
97.80591631669436
 20
-134.1971489464854
 30
0.0
 10
97.64296330024204
 20
-134.1506401574346
 30
0.0
 10
97.52858613013174
 20
-134.1210123362614
 30
0.0
 10
97.52858613013174
 20
-134.1210123362614
 30
0.0
 10
97.52858613013174
 20
-133.9749402876868
 30
0.0
 10
97.52858613013174
 20
-133.9749402876868
 30
0.0
 10
97.52858613013174
 20
-133.9749402876868
 30
0.0
 10
99.07302243616925
 20
-133.9749402876868
 30
0.0
 10
99.07302243616925
 20
-133.9749402876868
 30
0.0
 10
99.07302243616925
 20
-133.9749402876868
 30
0.0
 10
99.07302243616925
 20
-134.1992160037766
 30
0.0
 10
99.07302243616925
 20
-134.1992160037766
 30
0.0
  0
HATCH
  5
D0
330
CB
100
AcDbEntity
  8
_U+30EC_U+30A4_U+30E4_U+30FC 1
 62
   179
420
  2234388
100
AcDbHatch
 10
0.0
 20
0.0
 30
0.0
210
0.0
220
0.0
230
1.0
  2
SOLID
 70
     1
 71
     0
 91
        1
 92
        1
 93
        1
 72
     4
 94
        3
 73
     0
 74
     1
 95
       26
 96
       22
 40
0.0
 40
0.0
 40
0.0
 40
0.0
 40
1.0
 40
1.0
 40
1.0
 40
2.0
 40
2.0
 40
2.0
 40
3.0
 40
3.0
 40
3.0
 40
4.0
 40
4.0
 40
4.0
 40
5.0
 40
5.0
 40
5.0
 40
6.0
 40
6.0
 40
6.0
 40
7.0
 40
7.0
 40
7.0
 40
7.0
 10
99.07302243616925
 20
-134.1992160037766
 10
99.07302243616925
 20
-134.1992160037766
 10
97.96886933314667
 20
-134.1992160037766
 10
97.96886933314667
 20
-134.1992160037766
 10
97.96886933314667
 20
-134.1992160037766
 10
97.96886933314667
 20
-134.5292561512635
 10
97.96886933314667
 20
-134.5292561512635
 10
97.96886933314667
 20
-134.5292561512635
 10
97.82073022728093
 20
-134.5292561512635
 10
97.82073022728093
 20
-134.5292561512635
 10
97.80591631669436
 20
-134.1971489464854
 10
97.64296330024204
 20
-134.1506401574346
 10
97.52858613013174
 20
-134.1210123362614
 10
97.52858613013174
 20
-134.1210123362614
 10
97.52858613013174
 20
-133.9749402876868
 10
97.52858613013174
 20
-133.9749402876868
 10
97.52858613013174
 20
-133.9749402876868
 10
99.07302243616925
 20
-133.9749402876868
 10
99.07302243616925
 20
-133.9749402876868
 10
99.07302243616925
 20
-133.9749402876868
 10
99.07302243616925
 20
-134.1992160037766
 10
99.07302243616925
 20
-134.1992160037766
 97
        0
 97
        0
 75
     2
 76
     1
 98
        0
  0
SPLINE
  5
D1
330
CB
100
AcDbEntity
  8
_U+30EC_U+30A4_U+30E4_U+30FC 1
370
     0
100
AcDbSpline
210
0.0
220
0.0
230
1.0
 70
    11
 71
     3
 72
    29
 73
    25
 74
     0
 42
0.0000000001
 43
0.0000000001
 12
1.0
 22
0.0
 32
0.0
 13
1.0
 23
0.0
 33
0.0
 40
0.0
 40
0.0
 40
0.0
 40
0.0
 40
1.0
 40
1.0
 40
1.0
 40
2.0
 40
2.0
 40
2.0
 40
3.0
 40
3.0
 40
3.0
 40
4.0
 40
4.0
 40
4.0
 40
5.0
 40
5.0
 40
5.0
 40
6.0
 40
6.0
 40
6.0
 40
7.0
 40
7.0
 40
7.0
 40
8.0
 40
8.0
 40
8.0
 40
8.0
 10
98.89525550913035
 20
-132.5758870111269
 30
0.0
 10
99.10471731463355
 20
-132.6840630093637
 30
0.0
 10
99.12366533980241
 20
-132.8573513122718
 30
0.0
 10
99.12366533980241
 20
-132.9737955396732
 30
0.0
 10
99.12366533980241
 20
-133.1346814988344
 30
0.0
 10
99.07715655075155
 20
-133.2762749232782
 30
0.0
 10
98.89525550913035
 20
-133.3713595586711
 30
0.0
 10
98.70060761421374
 20
-133.4750569327771
 30
0.0
 10
98.46358504482855
 20
-133.4940049579459
 30
0.0
 10
98.30097653792475
 20
-133.4940049579459
 30
0.0
 10
98.15697154664132
 20
-133.4940049579459
 30
0.0
 10
97.90513506666956
 20
-133.4771239900682
 30
0.0
 10
97.70635305717065
 20
-133.3713595586711
 30
0.0
 10
97.50343693308942
 20
-133.2635280699827
 30
0.0
 10
97.48001028378972
 20
-133.1026421108216
 30
0.0
 10
97.48001028378972
 20
-132.9737955396732
 30
0.0
 10
97.48001028378972
 20
-132.8149766378032
 30
0.0
 10
97.52445201554944
 20
-132.6713161560683
 30
0.0
 10
97.70635305717065
 20
-132.5758870111269
 30
0.0
 10
97.8989338947961
 20
-132.4766682611517
 30
0.0
 10
98.12734372546817
 20
-132.453241611852
 30
0.0
 10
98.30097653792475
 20
-132.453241611852
 30
0.0
 10
98.47219778354167
 20
-132.453241611852
 30
0.0
 10
98.7026746715049
 20
-132.4746012038605
 30
0.0
 10
98.89525550913035
 20
-132.5758870111269
 30
0.0
  0
SPLINE
  5
D2
330
CB
100
AcDbEntity
  8
_U+30EC_U+30A4_U+30E4_U+30FC 1
370
     0
100
AcDbSpline
210
0.0
220
0.0
230
1.0
 70
    11
 71
     3
 72
    17
 73
    13
 74
     0
 42
0.0000000001
 43
0.0000000001
 12
1.0
 22
0.0
 32
0.0
 13
1.0
 23
0.0
 33
0.0
 40
0.0
 40
0.0
 40
0.0
 40
0.0
 40
1.0
 40
1.0
 40
1.0
 40
2.0
 40
2.0
 40
2.0
 40
3.0
 40
3.0
 40
3.0
 40
4.0
 40
4.0
 40
4.0
 40
4.0
 10
97.6725911214152
 20
-132.9737955396732
 30
0.0
 10
97.6725911214152
 20
-133.2232204528053
 30
0.0
 10
97.95612247985125
 20
-133.2700737514047
 30
0.0
 10
98.30097653792475
 20
-133.2700737514047
 30
0.0
 10
98.62033688940743
 20
-133.2700737514047
 30
0.0
 10
98.9290174448858
 20
-133.2339002488096
 30
0.0
 10
98.9290174448858
 20
-132.9737955396732
 30
0.0
 10
98.9290174448858
 20
-132.7260931742838
 30
0.0
 10
98.64789765328942
 20
-132.6775173279417
 30
0.0
 10
98.30097653792475
 20
-132.6775173279417
 30
0.0
 10
97.98127167689357
 20
-132.6775173279417
 30
0.0
 10
97.6725911214152
 20
-132.715757887828
 30
0.0
 10
97.6725911214152
 20
-132.9737955396732
 30
0.0
  0
HATCH
  5
D3
330
CB
100
AcDbEntity
  8
_U+30EC_U+30A4_U+30E4_U+30FC 1
 62
   179
420
  2234388
100
AcDbHatch
 10
0.0
 20
0.0
 30
0.0
210
0.0
220
0.0
230
1.0
  2
SOLID
 70
     1
 71
     0
 91
        2
 92
        1
 93
        1
 72
     4
 94
        3
 73
     0
 74
     1
 95
       29
 96
       25
 40
0.0
 40
0.0
 40
0.0
 40
0.0
 40
1.0
 40
1.0
 40
1.0
 40
2.0
 40
2.0
 40
2.0
 40
3.0
 40
3.0
 40
3.0
 40
4.0
 40
4.0
 40
4.0
 40
5.0
 40
5.0
 40
5.0
 40
6.0
 40
6.0
 40
6.0
 40
7.0
 40
7.0
 40
7.0
 40
8.0
 40
8.0
 40
8.0
 40
8.0
 10
98.89525550913035
 20
-132.5758870111269
 10
99.10471731463355
 20
-132.6840630093637
 10
99.12366533980241
 20
-132.8573513122718
 10
99.12366533980241
 20
-132.9737955396732
 10
99.12366533980241
 20
-133.1346814988344
 10
99.07715655075155
 20
-133.2762749232782
 10
98.89525550913035
 20
-133.3713595586711
 10
98.70060761421374
 20
-133.4750569327771
 10
98.46358504482855
 20
-133.4940049579459
 10
98.30097653792475
 20
-133.4940049579459
 10
98.15697154664132
 20
-133.4940049579459
 10
97.90513506666956
 20
-133.4771239900682
 10
97.70635305717065
 20
-133.3713595586711
 10
97.50343693308942
 20
-133.2635280699827
 10
97.48001028378972
 20
-133.1026421108216
 10
97.48001028378972
 20
-132.9737955396732
 10
97.48001028378972
 20
-132.8149766378032
 10
97.52445201554944
 20
-132.6713161560683
 10
97.70635305717065
 20
-132.5758870111269
 10
97.8989338947961
 20
-132.4766682611517
 10
98.12734372546817
 20
-132.453241611852
 10
98.30097653792475
 20
-132.453241611852
 10
98.47219778354167
 20
-132.453241611852
 10
98.7026746715049
 20
-132.4746012038605
 10
98.89525550913035
 20
-132.5758870111269
 97
        0
 97
        0
 92
        1
 93
        1
 72
     4
 94
        3
 73
     0
 74
     1
 95
       17
 96
       13
 40
0.0
 40
0.0
 40
0.0
 40
0.0
 40
1.0
 40
1.0
 40
1.0
 40
2.0
 40
2.0
 40
2.0
 40
3.0
 40
3.0
 40
3.0
 40
4.0
 40
4.0
 40
4.0
 40
4.0
 10
97.6725911214152
 20
-132.9737955396732
 10
97.6725911214152
 20
-133.2232204528053
 10
97.95612247985125
 20
-133.2700737514047
 10
98.30097653792475
 20
-133.2700737514047
 10
98.62033688940743
 20
-133.2700737514047
 10
98.9290174448858
 20
-133.2339002488096
 10
98.9290174448858
 20
-132.9737955396732
 10
98.9290174448858
 20
-132.7260931742838
 10
98.64789765328942
 20
-132.6775173279417
 10
98.30097653792475
 20
-132.6775173279417
 10
97.98127167689357
 20
-132.6775173279417
 10
97.6725911214152
 20
-132.715757887828
 10
97.6725911214152
 20
-132.9737955396732
 97
        0
 97
        0
 75
     2
 76
     1
 98
        0
  0
ENDBLK
  5
CE
330
CB
100
AcDbEntity
  8
0
100
AcDbBlockEnd
  0
BLOCK
  5
DE
330
DC
100
AcDbEntity
  8
0
100
AcDbBlockBegin
  2
block 7
 70
     0
 10
0.0
 20
0.0
 30
0.0
  3
block 7
  1

  0
SPLINE
  5
E0
330
DC
100
AcDbEntity
  8
_U+30EC_U+30A4_U+30E4_U+30FC 1
370
     0
100
AcDbSpline
210
0.0
220
0.0
230
1.0
 70
    11
 71
     3
 72
    32
 73
    28
 74
     0
 42
0.0000000001
 43
0.0000000001
 12
1.0
 22
0.0
 32
0.0
 13
1.0
 23
0.0
 33
0.0
 40
0.0
 40
0.0
 40
0.0
 40
0.0
 40
1.0
 40
1.0
 40
1.0
 40
2.0
 40
2.0
 40
2.0
 40
3.0
 40
3.0
 40
3.0
 40
4.0
 40
4.0
 40
4.0
 40
5.0
 40
5.0
 40
5.0
 40
6.0
 40
6.0
 40
6.0
 40
7.0
 40
7.0
 40
7.0
 40
8.0
 40
8.0
 40
8.0
 40
9.0
 40
9.0
 40
9.0
 40
9.0
 10
99.12435435889947
 20
-126.1714545040474
 30
0.0
 10
99.12435435889947
 20
-126.6875298077378
 30
0.0
 10
98.5703830048713
 20
-126.696142546451
 30
0.0
 10
98.35644257523728
 20
-126.696142546451
 30
0.0
 10
98.12596568727407
 20
-126.696142546451
 30
0.0
 10
97.47863224559562
 20
-126.6768500117336
 30
0.0
 10
97.47863224559562
 20
-126.1332139441611
 30
0.0
 10
97.47863224559562
 20
-125.9599256412531
 30
0.0
 10
97.54856768394619
 20
-125.7142903331548
 30
0.0
 10
97.88067488872429
 20
-125.676394282817
 30
0.0
 10
97.88067488872429
 20
-125.676394282817
 30
0.0
 10
97.88067488872429
 20
-125.8899902029025
 30
0.0
 10
97.88067488872429
 20
-125.8899902029025
 30
0.0
 10
97.82348630366913
 20
-125.9006699989068
 30
0.0
 10
97.67534719780339
 20
-125.9323648773711
 30
0.0
 10
97.67534719780339
 20
-126.1352810014523
 30
0.0
 10
97.67534719780339
 20
-126.4274250986015
 30
0.0
 10
98.00332028799917
 20
-126.4673882062304
 30
0.0
 10
98.20830346937154
 20
-126.4801350595258
 30
0.0
 10
98.13009980185637
 20
-126.3871174814241
 30
0.0
 10
98.07084415951007
 20
-126.3192491003646
 30
0.0
 10
98.07084415951007
 20
-126.1373480587434
 30
0.0
 10
98.07084415951007
 20
-125.9575140744134
 30
0.0
 10
98.17902015774692
 20
-125.6550346908085
 30
0.0
 10
98.58519691545787
 20
-125.6550346908085
 30
0.0
 10
98.90455726694053
 20
-125.6550346908085
 30
0.0
 10
99.12435435889947
 20
-125.8541612098559
 30
0.0
 10
99.12435435889947
 20
-126.1714545040474
 30
0.0
  0
SPLINE
  5
E1
330
DC
100
AcDbEntity
  8
_U+30EC_U+30A4_U+30E4_U+30FC 1
370
     0
100
AcDbSpline
210
0.0
220
0.0
230
1.0
 70
    11
 71
     3
 72
    17
 73
    13
 74
     0
 42
0.0000000001
 43
0.0000000001
 12
1.0
 22
0.0
 32
0.0
 13
1.0
 23
0.0
 33
0.0
 40
0.0
 40
0.0
 40
0.0
 40
0.0
 40
1.0
 40
1.0
 40
1.0
 40
2.0
 40
2.0
 40
2.0
 40
3.0
 40
3.0
 40
3.0
 40
4.0
 40
4.0
 40
4.0
 40
4.0
 10
98.26549205442669
 20
-126.1545735361697
 30
0.0
 10
98.26549205442669
 20
-126.4167453025972
 30
0.0
 10
98.47702091722103
 20
-126.454641352935
 30
0.0
 10
98.59346514462247
 20
-126.454641352935
 30
0.0
 10
98.76916501437022
 20
-126.454641352935
 30
0.0
 10
98.93211803082254
 20
-126.3595567175421
 30
0.0
 10
98.93211803082254
 20
-126.1755886186297
 30
0.0
 10
98.93211803082254
 20
-126.055010276646
 30
0.0
 10
98.87286238847624
 20
-125.8793104068982
 30
0.0
 10
98.58726397274903
 20
-125.8793104068982
 30
0.0
 10
98.36298825665926
 20
-125.8793104068982
 30
0.0
 10
98.26549205442669
 20
-126.0188367740509
 30
0.0
 10
98.26549205442669
 20
-126.1545735361697
 30
0.0
  0
HATCH
  5
E2
330
DC
100
AcDbEntity
  8
_U+30EC_U+30A4_U+30E4_U+30FC 1
 62
   179
420
  2234388
100
AcDbHatch
 10
0.0
 20
0.0
 30
0.0
210
0.0
220
0.0
230
1.0
  2
SOLID
 70
     1
 71
     0
 91
        2
 92
        1
 93
        1
 72
     4
 94
        3
 73
     0
 74
     1
 95
       32
 96
       28
 40
0.0
 40
0.0
 40
0.0
 40
0.0
 40
1.0
 40
1.0
 40
1.0
 40
2.0
 40
2.0
 40
2.0
 40
3.0
 40
3.0
 40
3.0
 40
4.0
 40
4.0
 40
4.0
 40
5.0
 40
5.0
 40
5.0
 40
6.0
 40
6.0
 40
6.0
 40
7.0
 40
7.0
 40
7.0
 40
8.0
 40
8.0
 40
8.0
 40
9.0
 40
9.0
 40
9.0
 40
9.0
 10
99.12435435889947
 20
-126.1714545040474
 10
99.12435435889947
 20
-126.6875298077378
 10
98.5703830048713
 20
-126.696142546451
 10
98.35644257523728
 20
-126.696142546451
 10
98.12596568727407
 20
-126.696142546451
 10
97.47863224559562
 20
-126.6768500117336
 10
97.47863224559562
 20
-126.1332139441611
 10
97.47863224559562
 20
-125.9599256412531
 10
97.54856768394619
 20
-125.7142903331548
 10
97.88067488872429
 20
-125.676394282817
 10
97.88067488872429
 20
-125.676394282817
 10
97.88067488872429
 20
-125.8899902029025
 10
97.88067488872429
 20
-125.8899902029025
 10
97.82348630366913
 20
-125.9006699989068
 10
97.67534719780339
 20
-125.9323648773711
 10
97.67534719780339
 20
-126.1352810014523
 10
97.67534719780339
 20
-126.4274250986015
 10
98.00332028799917
 20
-126.4673882062304
 10
98.20830346937154
 20
-126.4801350595258
 10
98.13009980185637
 20
-126.3871174814241
 10
98.07084415951007
 20
-126.3192491003646
 10
98.07084415951007
 20
-126.1373480587434
 10
98.07084415951007
 20
-125.9575140744134
 10
98.17902015774692
 20
-125.6550346908085
 10
98.58519691545787
 20
-125.6550346908085
 10
98.90455726694053
 20
-125.6550346908085
 10
99.12435435889947
 20
-125.8541612098559
 10
99.12435435889947
 20
-126.1714545040474
 97
        0
 97
        0
 92
        1
 93
        1
 72
     4
 94
        3
 73
     0
 74
     1
 95
       17
 96
       13
 40
0.0
 40
0.0
 40
0.0
 40
0.0
 40
1.0
 40
1.0
 40
1.0
 40
2.0
 40
2.0
 40
2.0
 40
3.0
 40
3.0
 40
3.0
 40
4.0
 40
4.0
 40
4.0
 40
4.0
 10
98.26549205442669
 20
-126.1545735361697
 10
98.26549205442669
 20
-126.4167453025972
 10
98.47702091722103
 20
-126.454641352935
 10
98.59346514462247
 20
-126.454641352935
 10
98.76916501437022
 20
-126.454641352935
 10
98.93211803082254
 20
-126.3595567175421
 10
98.93211803082254
 20
-126.1755886186297
 10
98.93211803082254
 20
-126.055010276646
 10
98.87286238847624
 20
-125.8793104068982
 10
98.58726397274903
 20
-125.8793104068982
 10
98.36298825665926
 20
-125.8793104068982
 10
98.26549205442669
 20
-126.0188367740509
 10
98.26549205442669
 20
-126.1545735361697
 97
        0
 97
        0
 75
     2
 76
     1
 98
        0
  0
POLYLINE
  5
E3
330
DC
100
AcDbEntity
  8
_U+30EC_U+30A4_U+30E4_U+30FC 1
370
     0
100
AcDb2dPolyline
 66
     1
 10
0.0
 20
0.0
 30
0.0
  0
VERTEX
  5
E4
330
E3
100
AcDbEntity
  8
_U+30EC_U+30A4_U+30E4_U+30FC 1
370
     0
100
AcDbVertex
100
AcDb2dVertex
 10
99.0737114552663
 20
-125.4386826943348
 30
0.0
  0
VERTEX
  5
E5
330
E3
100
AcDbEntity
  8
_U+30EC_U+30A4_U+30E4_U+30FC 1
370
     0
100
AcDbVertex
100
AcDb2dVertex
 10
98.82187497529453
 20
-125.4386826943348
 30
0.0
  0
VERTEX
  5
E6
330
E3
100
AcDbEntity
  8
_U+30EC_U+30A4_U+30E4_U+30FC 1
370
     0
100
AcDbVertex
100
AcDb2dVertex
 10
98.82187497529453
 20
-125.186846214363
 30
0.0
  0
VERTEX
  5
E7
330
E3
100
AcDbEntity
  8
_U+30EC_U+30A4_U+30E4_U+30FC 1
370
     0
100
AcDbVertex
100
AcDb2dVertex
 10
99.0737114552663
 20
-125.186846214363
 30
0.0
  0
VERTEX
  5
E8
330
E3
100
AcDbEntity
  8
_U+30EC_U+30A4_U+30E4_U+30FC 1
370
     0
100
AcDbVertex
100
AcDb2dVertex
 10
99.0737114552663
 20
-125.4386826943348
 30
0.0
  0
SEQEND
  5
E9
330
E3
100
AcDbEntity
  8
_U+30EC_U+30A4_U+30E4_U+30FC 1
370
     0
  0
HATCH
  5
EA
330
DC
100
AcDbEntity
  8
_U+30EC_U+30A4_U+30E4_U+30FC 1
 62
   179
420
  2234388
100
AcDbHatch
 10
0.0
 20
0.0
 30
0.0
210
0.0
220
0.0
230
1.0
  2
SOLID
 70
     1
 71
     0
 91
        1
 92
        1
 93
        4
 72
     1
 10
99.0737114552663
 20
-125.4386826943348
 11
98.82187497529453
 21
-125.4386826943348
 72
     1
 10
98.82187497529453
 20
-125.4386826943348
 11
98.82187497529453
 21
-125.186846214363
 72
     1
 10
98.82187497529453
 20
-125.186846214363
 11
99.0737114552663
 21
-125.186846214363
 72
     1
 10
99.0737114552663
 20
-125.186846214363
 11
99.0737114552663
 21
-125.4386826943348
 97
        0
 75
     2
 76
     1
 98
        0
  0
SPLINE
  5
EB
330
DC
100
AcDbEntity
  8
_U+30EC_U+30A4_U+30E4_U+30FC 1
370
     0
100
AcDbSpline
210
0.0
220
0.0
230
1.0
 70
    11
 71
     3
 72
    53
 73
    49
 74
     0
 42
0.0000000001
 43
0.0000000001
 12
1.0
 22
0.0
 32
0.0
 13
1.0
 23
0.0
 33
0.0
 40
0.0
 40
0.0
 40
0.0
 40
0.0
 40
1.0
 40
1.0
 40
1.0
 40
2.0
 40
2.0
 40
2.0
 40
3.0
 40
3.0
 40
3.0
 40
4.0
 40
4.0
 40
4.0
 40
5.0
 40
5.0
 40
5.0
 40
6.0
 40
6.0
 40
6.0
 40
7.0
 40
7.0
 40
7.0
 40
8.0
 40
8.0
 40
8.0
 40
9.0
 40
9.0
 40
9.0
 40
10.0
 40
10.0
 40
10.0
 40
11.0
 40
11.0
 40
11.0
 40
12.0
 40
12.0
 40
12.0
 40
13.0
 40
13.0
 40
13.0
 40
14.0
 40
14.0
 40
14.0
 40
15.0
 40
15.0
 40
15.0
 40
16.0
 40
16.0
 40
16.0
 40
16.0
 10
99.12435435889947
 20
-124.469577334334
 30
0.0
 10
99.12435435889947
 20
-124.5477810018492
 30
0.0
 10
99.10747339102174
 20
-124.649411318664
 30
0.0
 10
99.04408363409316
 20
-124.7510416354789
 30
0.0
 10
98.93418508811368
 20
-124.924329938387
 30
0.0
 10
98.80292695012567
 20
-124.9456895303955
 30
0.0
 10
98.69509546143735
 20
-124.9646375555644
 30
0.0
 10
98.69509546143735
 20
-124.9646375555644
 30
0.0
 10
98.69509546143735
 20
-124.7424288967658
 30
0.0
 10
98.69509546143735
 20
-124.7424288967658
 30
0.0
 10
98.89387747093626
 20
-124.6876518785503
 30
0.0
 10
98.92350529210941
 20
-124.5605278551446
 30
0.0
 10
98.92350529210941
 20
-124.4675102770428
 30
0.0
 10
98.92350529210941
 20
-124.3279839098902
 30
0.0
 10
98.82394203258569
 20
-124.1757106894422
 30
0.0
 10
98.59139808733133
 20
-124.1757106894422
 30
0.0
 10
98.33542749277726
 20
-124.1757106894422
 30
0.0
 10
98.26549205442669
 20
-124.3555446737722
 30
0.0
 10
98.26549205442669
 20
-124.476123015756
 30
0.0
 10
98.26549205442669
 20
-124.5078178942203
 30
0.0
 10
98.26549205442669
 20
-124.649411318664
 30
0.0
 10
98.39468313512356
 20
-124.7382947821835
 30
0.0
 10
98.39468313512356
 20
-124.7382947821835
 30
0.0
 10
98.37573510995468
 20
-124.9139946519312
 30
0.0
 10
98.37573510995468
 20
-124.9139946519312
 30
0.0
 10
98.37573510995468
 20
-124.9139946519312
 30
0.0
 10
97.5292751492288
 20
-124.7934163099475
 30
0.0
 10
97.5292751492288
 20
-124.7934163099475
 30
0.0
 10
97.5292751492288
 20
-124.7934163099475
 30
0.0
 10
97.5292751492288
 20
-124.014824730281
 30
0.0
 10
97.5292751492288
 20
-124.014824730281
 30
0.0
 10
97.5292751492288
 20
-124.014824730281
 30
0.0
 10
97.72392304414541
 20
-124.014824730281
 30
0.0
 10
97.72392304414541
 20
-124.014824730281
 30
0.0
 10
97.72392304414541
 20
-124.014824730281
 30
0.0
 10
97.72392304414541
 20
-124.6304632934952
 30
0.0
 10
97.72392304414541
 20
-124.6304632934952
 30
0.0
 10
97.72392304414541
 20
-124.6304632934952
 30
0.0
 10
98.1469807697341
 20
-124.6959201077149
 30
0.0
 10
98.1469807697341
 20
-124.6959201077149
 30
0.0
 10
98.11321883397865
 20
-124.6345974080775
 30
0.0
 10
98.07291121680122
 20
-124.55225962598
 30
0.0
 10
98.07291121680122
 20
-124.4337483412874
 30
0.0
 10
98.07291121680122
 20
-124.1798448040245
 30
0.0
 10
98.25929088255323
 20
-123.9428222346393
 30
0.0
 10
98.57245006216245
 20
-123.9428222346393
 30
0.0
 10
98.88974335635396
 20
-123.9428222346393
 30
0.0
 10
99.12435435889947
 20
-124.1670979507291
 30
0.0
 10
99.12435435889947
 20
-124.469577334334
 30
0.0
  0
HATCH
  5
EC
330
DC
100
AcDbEntity
  8
_U+30EC_U+30A4_U+30E4_U+30FC 1
 62
   179
420
  2234388
100
AcDbHatch
 10
0.0
 20
0.0
 30
0.0
210
0.0
220
0.0
230
1.0
  2
SOLID
 70
     1
 71
     0
 91
        1
 92
        1
 93
        1
 72
     4
 94
        3
 73
     0
 74
     1
 95
       53
 96
       49
 40
0.0
 40
0.0
 40
0.0
 40
0.0
 40
1.0
 40
1.0
 40
1.0
 40
2.0
 40
2.0
 40
2.0
 40
3.0
 40
3.0
 40
3.0
 40
4.0
 40
4.0
 40
4.0
 40
5.0
 40
5.0
 40
5.0
 40
6.0
 40
6.0
 40
6.0
 40
7.0
 40
7.0
 40
7.0
 40
8.0
 40
8.0
 40
8.0
 40
9.0
 40
9.0
 40
9.0
 40
10.0
 40
10.0
 40
10.0
 40
11.0
 40
11.0
 40
11.0
 40
12.0
 40
12.0
 40
12.0
 40
13.0
 40
13.0
 40
13.0
 40
14.0
 40
14.0
 40
14.0
 40
15.0
 40
15.0
 40
15.0
 40
16.0
 40
16.0
 40
16.0
 40
16.0
 10
99.12435435889947
 20
-124.469577334334
 10
99.12435435889947
 20
-124.5477810018492
 10
99.10747339102174
 20
-124.649411318664
 10
99.04408363409316
 20
-124.7510416354789
 10
98.93418508811368
 20
-124.924329938387
 10
98.80292695012567
 20
-124.9456895303955
 10
98.69509546143735
 20
-124.9646375555644
 10
98.69509546143735
 20
-124.9646375555644
 10
98.69509546143735
 20
-124.7424288967658
 10
98.69509546143735
 20
-124.7424288967658
 10
98.89387747093626
 20
-124.6876518785503
 10
98.92350529210941
 20
-124.5605278551446
 10
98.92350529210941
 20
-124.4675102770428
 10
98.92350529210941
 20
-124.3279839098902
 10
98.82394203258569
 20
-124.1757106894422
 10
98.59139808733133
 20
-124.1757106894422
 10
98.33542749277726
 20
-124.1757106894422
 10
98.26549205442669
 20
-124.3555446737722
 10
98.26549205442669
 20
-124.476123015756
 10
98.26549205442669
 20
-124.5078178942203
 10
98.26549205442669
 20
-124.649411318664
 10
98.39468313512356
 20
-124.7382947821835
 10
98.39468313512356
 20
-124.7382947821835
 10
98.37573510995468
 20
-124.9139946519312
 10
98.37573510995468
 20
-124.9139946519312
 10
98.37573510995468
 20
-124.9139946519312
 10
97.5292751492288
 20
-124.7934163099475
 10
97.5292751492288
 20
-124.7934163099475
 10
97.5292751492288
 20
-124.7934163099475
 10
97.5292751492288
 20
-124.014824730281
 10
97.5292751492288
 20
-124.014824730281
 10
97.5292751492288
 20
-124.014824730281
 10
97.72392304414541
 20
-124.014824730281
 10
97.72392304414541
 20
-124.014824730281
 10
97.72392304414541
 20
-124.014824730281
 10
97.72392304414541
 20
-124.6304632934952
 10
97.72392304414541
 20
-124.6304632934952
 10
97.72392304414541
 20
-124.6304632934952
 10
98.1469807697341
 20
-124.6959201077149
 10
98.1469807697341
 20
-124.6959201077149
 10
98.11321883397865
 20
-124.6345974080775
 10
98.07291121680122
 20
-124.55225962598
 10
98.07291121680122
 20
-124.4337483412874
 10
98.07291121680122
 20
-124.1798448040245
 10
98.25929088255323
 20
-123.9428222346393
 10
98.57245006216245
 20
-123.9428222346393
 10
98.88974335635396
 20
-123.9428222346393
 10
99.12435435889947
 20
-124.1670979507291
 10
99.12435435889947
 20
-124.469577334334
 97
        0
 97
        0
 75
     2
 76
     1
 98
        0
  0
ENDBLK
  5
DF
330
DC
100
AcDbEntity
  8
0
100
AcDbBlockEnd
  0
ENDSEC
  0
SECTION
  2
ENTITIES
  0
INSERT
  5
42
330
1F
100
AcDbEntity
  8
_U+30EC_U+30A4_U+30E4_U+30FC 1
100
AcDbBlockReference
  2
block 2
 10
0.0
 20
0.0
 30
0.0
  0
ENDSEC
  0
SECTION
  2
OBJECTS
  0
DICTIONARY
  5
C
330
0
100
AcDbDictionary
281
     1
  3
ACAD_GROUP
350
D
  3
ACAD_LAYOUT
350
1A
  3
ACAD_MATERIAL
350
3B
  3
ACAD_MLEADERSTYLE
350
EE
  3
ACAD_MLINESTYLE
350
17
  3
ACAD_PLOTSETTINGS
350
19
  3
ACAD_PLOTSTYLENAME
350
E
  3
ACAD_TABLESTYLE
350
ED
  3
ACAD_VISUALSTYLE
350
2A
  0
SUN
  5
3F
330
29
100
AcDbSun
 90
        1
290
     0
 63
     7
421
 16777215
 40
1.0
291
     1
 91
  2455826
 92
 54000000
292
     0
 70
     2
 71
   256
280
     1
  0
DICTIONARY
  5
D
102
{ACAD_REACTORS
330
C
102
}
330
C
100
AcDbDictionary
281
     1
  0
DICTIONARY
  5
1A
102
{ACAD_REACTORS
330
C
102
}
330
C
100
AcDbDictionary
281
     1
  3
Layout1
350
1E
  3
Layout2
350
26
  3
Model
350
22
  0
DICTIONARY
  5
3B
102
{ACAD_REACTORS
330
C
102
}
330
C
100
AcDbDictionary
281
     1
  3
ByBlock
350
3D
  3
ByLayer
350
3C
  3
Global
350
3E
  0
DICTIONARY
  5
EE
102
{ACAD_REACTORS
330
C
102
}
330
C
100
AcDbDictionary
281
     1
  0
DICTIONARY
  5
17
102
{ACAD_REACTORS
330
C
102
}
330
C
100
AcDbDictionary
281
     1
  3
Standard
350
18
  0
DICTIONARY
  5
19
102
{ACAD_REACTORS
330
C
102
}
330
C
100
AcDbDictionary
281
     1
  0
ACDBDICTIONARYWDFLT
  5
E
102
{ACAD_REACTORS
330
C
102
}
330
C
100
AcDbDictionary
281
     1
  3
Normal
350
F
100
AcDbDictionaryWithDefault
340
F
  0
DICTIONARY
  5
ED
102
{ACAD_REACTORS
330
C
102
}
330
C
100
AcDbDictionary
281
     1
  0
DICTIONARY
  5
2A
102
{ACAD_REACTORS
330
C
102
}
330
C
100
AcDbDictionary
281
     1
  3
2dWireframe
350
2F
  3
3D Hidden
350
31
  3
3dWireframe
350
30
  3
Basic
350
32
  3
Brighten
350
36
  3
ColorChange
350
3A
  3
Conceptual
350
34
  3
Dim
350
35
  3
Facepattern
350
39
  3
Flat
350
2B
  3
FlatWithEdges
350
2C
  3
Gouraud
350
2D
  3
GouraudWithEdges
350
2E
  3
Linepattern
350
38
  3
Realistic
350
33
  3
Thicken
350
37
  0
LAYOUT
  5
1E
102
{ACAD_REACTORS
330
1A
102
}
330
1A
100
AcDbPlotSettings
  1

  2
none_device
  4

  6

 40
0.0
 41
0.0
 42
0.0
 43
0.0
 44
0.0
 45
0.0
 46
0.0
 47
0.0
 48
0.0
 49
0.0
140
0.0
141
0.0
142
1.0
143
1.0
 70
   688
 72
     0
 73
     0
 74
     5
  7

 75
    16
 76
     0
 77
     2
 78
   300
147
1.0
148
0.0
149
0.0
100
AcDbLayout
  1
Layout1
 70
     1
 71
     1
 10
0.0
 20
0.0
 11
12.0
 21
9.0
 12
0.0
 22
0.0
 32
0.0
 14
1.000000000000000E+20
 24
1.000000000000000E+20
 34
1.000000000000000E+20
 15
-1.000000000000000E+20
 25
-1.000000000000000E+20
 35
-1.000000000000000E+20
146
0.0
 13
0.0
 23
0.0
 33
0.0
 16
1.0
 26
0.0
 36
0.0
 17
0.0
 27
1.0
 37
0.0
 76
     0
330
1B
  0
LAYOUT
  5
26
102
{ACAD_REACTORS
330
1A
102
}
330
1A
100
AcDbPlotSettings
  1

  2
none_device
  4

  6

 40
0.0
 41
0.0
 42
0.0
 43
0.0
 44
0.0
 45
0.0
 46
0.0
 47
0.0
 48
0.0
 49
0.0
140
0.0
141
0.0
142
1.0
143
1.0
 70
   688
 72
     0
 73
     0
 74
     5
  7

 75
    16
 76
     0
 77
     2
 78
   300
147
1.0
148
0.0
149
0.0
100
AcDbLayout
  1
Layout2
 70
     1
 71
     2
 10
0.0
 20
0.0
 11
0.0
 21
0.0
 12
0.0
 22
0.0
 32
0.0
 14
0.0
 24
0.0
 34
0.0
 15
0.0
 25
0.0
 35
0.0
146
0.0
 13
0.0
 23
0.0
 33
0.0
 16
1.0
 26
0.0
 36
0.0
 17
0.0
 27
1.0
 37
0.0
 76
     0
330
23
  0
LAYOUT
  5
22
102
{ACAD_REACTORS
330
1A
102
}
330
1A
100
AcDbPlotSettings
  1

  2
none_device
  4

  6

 40
0.0
 41
0.0
 42
0.0
 43
0.0
 44
0.0
 45
0.0
 46
0.0
 47
0.0
 48
0.0
 49
0.0
140
0.0
141
0.0
142
1.0
143
1.0
 70
  1712
 72
     0
 73
     0
 74
     0
  7

 75
     0
 76
     0
 77
     2
 78
   300
147
1.0
148
0.0
149
0.0
100
AcDbLayout
  1
Model
 70
     1
 71
     0
 10
0.0
 20
0.0
 11
12.0
 21
9.0
 12
0.0
 22
0.0
 32
0.0
 14
1.000000000000000E+20
 24
1.000000000000000E+20
 34
1.000000000000000E+20
 15
-1.000000000000000E+20
 25
-1.000000000000000E+20
 35
-1.000000000000000E+20
146
0.0
 13
0.0
 23
0.0
 33
0.0
 16
1.0
 26
0.0
 36
0.0
 17
0.0
 27
1.0
 37
0.0
 76
     0
330
1F
331
29
  0
MATERIAL
  5
3D
102
{ACAD_REACTORS
330
3B
102
}
330
3B
100
AcDbMaterial
  1
ByBlock
 72
     1
 94
      127
  0
MATERIAL
  5
3C
102
{ACAD_REACTORS
330
3B
102
}
330
3B
100
AcDbMaterial
  1
ByLayer
 72
     1
 94
      127
  0
MATERIAL
  5
3E
102
{ACAD_REACTORS
330
3B
102
}
330
3B
100
AcDbMaterial
  1
Global
 72
     1
 94
      127
  0
MLINESTYLE
  5
18
102
{ACAD_REACTORS
330
17
102
}
330
17
100
AcDbMlineStyle
  2
Standard
 70
     0
  3

 62
   256
 51
90.0
 52
90.0
 71
     2
 49
0.5
 62
   256
  6
BYLAYER
 49
-0.5
 62
   256
  6
BYLAYER
  0
ACDBPLACEHOLDER
  5
F
102
{ACAD_REACTORS
330
E
102
}
330
E
  0
VISUALSTYLE
  5
2F
102
{ACAD_REACTORS
330
2A
102
}
330
2A
100
AcDbVisualStyle
  2
2dWireframe
 70
     4
177
     2
291
     0
 71
     0
176
     1
 72
     2
176
     1
 73
     0
176
     1
 90
        0
176
     1
 40
-0.6
176
     1
 41
-30.0
176
     1
 62
     5
 63
     7
421
 16777215
176
     1
 74
     1
176
     1
 91
        4
176
     1
 64
     7
176
     1
 65
   257
176
     1
 75
     1
176
     1
175
     1
176
     1
 42
1.0
176
     1
 92
        0
176
     1
 66
   257
176
     1
 43
1.0
176
     1
 76
     1
176
     1
 77
     6
176
     1
 78
     2
176
     1
 67
     7
176
     1
 79
     5
176
     1
170
     0
176
     1
171
     0
176
     1
290
     0
176
     1
 93
        1
176
     1
 44
0.0
176
     1
173
     0
176
     1
  0
VISUALSTYLE
  5
31
102
{ACAD_REACTORS
330
2A
102
}
330
2A
100
AcDbVisualStyle
  2
3D Hidden
 70
     6
177
     2
291
     0
 71
     1
176
     1
 72
     2
176
     1
 73
     2
176
     1
 90
        0
176
     1
 40
-0.6
176
     1
 41
-30.0
176
     1
 62
     5
 63
     7
421
 16777215
176
     1
 74
     2
176
     1
 91
        2
176
     1
 64
     7
176
     1
 65
   257
176
     1
 75
     2
176
     1
175
     1
176
     1
 42
40.0
176
     1
 92
        0
176
     1
 66
   257
176
     1
 43
1.0
176
     1
 76
     1
176
     1
 77
     6
176
     1
 78
     2
176
     1
 67
     7
176
     1
 79
     3
176
     1
170
     0
176
     1
171
     0
176
     1
290
     0
176
     1
 93
        1
176
     1
 44
0.0
176
     1
173
     0
176
     1
  0
VISUALSTYLE
  5
30
102
{ACAD_REACTORS
330
2A
102
}
330
2A
100
AcDbVisualStyle
  2
3dWireframe
 70
     5
177
     2
291
     0
 71
     0
176
     1
 72
     2
176
     1
 73
     0
176
     1
 90
        0
176
     1
 40
-0.6
176
     1
 41
-30.0
176
     1
 62
     5
 63
     7
421
 16777215
176
     1
 74
     1
176
     1
 91
        4
176
     1
 64
     7
176
     1
 65
   257
176
     1
 75
     1
176
     1
175
     1
176
     1
 42
1.0
176
     1
 92
        0
176
     1
 66
   257
176
     1
 43
1.0
176
     1
 76
     1
176
     1
 77
     6
176
     1
 78
     2
176
     1
 67
     7
176
     1
 79
     5
176
     1
170
     0
176
     1
171
     0
176
     1
290
     0
176
     1
 93
        1
176
     1
 44
0.0
176
     1
173
     0
176
     1
  0
VISUALSTYLE
  5
32
102
{ACAD_REACTORS
330
2A
102
}
330
2A
100
AcDbVisualStyle
  2
Basic
 70
     7
177
     2
291
     1
 71
     1
176
     1
 72
     0
176
     1
 73
     1
176
     1
 90
        0
176
     1
 40
-0.6
176
     1
 41
-30.0
176
     1
 62
     5
 63
     7
421
 16777215
176
     1
 74
     0
176
     1
 91
        4
176
     1
 64
     7
176
     1
 65
   257
176
     1
 75
     1
176
     1
175
     1
176
     1
 42
1.0
176
     1
 92
        8
176
     1
 66
     7
176
     1
 43
1.0
176
     1
 76
     1
176
     1
 77
     6
176
     1
 78
     2
176
     1
 67
     7
176
     1
 79
     5
176
     1
170
     0
176
     1
171
     0
176
     1
290
     0
176
     1
 93
        1
176
     1
 44
0.0
176
     1
173
     0
176
     1
  0
VISUALSTYLE
  5
36
102
{ACAD_REACTORS
330
2A
102
}
330
2A
100
AcDbVisualStyle
  2
Brighten
 70
    12
177
     2
291
     1
 71
     2
176
     1
 72
     2
176
     1
 73
     0
176
     1
 90
        0
176
     1
 40
-0.6
176
     1
 41
-30.0
176
     1
 62
     5
 63
     7
421
 16777215
176
     1
 74
     1
176
     1
 91
        4
176
     1
 64
     7
176
     1
 65
   257
176
     1
 75
     1
176
     1
175
     1
176
     1
 42
1.0
176
     1
 92
        8
176
     1
 66
     7
176
     1
 43
1.0
176
     1
 76
     1
176
     1
 77
     6
176
     1
 78
     2
176
     1
 67
     7
176
     1
 79
     5
176
     1
170
     0
176
     1
171
     0
176
     1
290
     0
176
     1
 93
        1
176
     1
 44
50.0
176
     1
173
     0
176
     1
  0
VISUALSTYLE
  5
3A
102
{ACAD_REACTORS
330
2A
102
}
330
2A
100
AcDbVisualStyle
  2
ColorChange
 70
    16
177
     2
291
     1
 71
     2
176
     1
 72
     2
176
     1
 73
     3
176
     1
 90
        0
176
     1
 40
-0.6
176
     1
 41
-30.0
176
     1
 62
     5
 63
     8
421
  8421504
176
     1
 74
     1
176
     1
 91
        4
176
     1
 64
     7
176
     1
 65
   257
176
     1
 75
     1
176
     1
175
     1
176
     1
 42
1.0
176
     1
 92
        8
176
     1
 66
     8
424
  8421504
176
     1
 43
1.0
176
     1
 76
     1
176
     1
 77
     6
176
     1
 78
     2
176
     1
 67
     7
176
     1
 79
     5
176
     1
170
     0
176
     1
171
     0
176
     1
290
     0
176
     1
 93
        1
176
     1
 44
0.0
176
     1
173
     0
176
     1
  0
VISUALSTYLE
  5
34
102
{ACAD_REACTORS
330
2A
102
}
330
2A
100
AcDbVisualStyle
  2
Conceptual
 70
     9
177
     2
291
     0
 71
     3
176
     1
 72
     2
176
     1
 73
     0
176
     1
 90
        0
176
     1
 40
-0.6
176
     1
 41
-30.0
176
     1
 62
     5
 63
     7
421
 16777215
176
     1
 74
     2
176
     1
 91
        2
176
     1
 64
     7
176
     1
 65
   257
176
     1
 75
     1
176
     1
175
     1
176
     1
 42
40.0
176
     1
 92
        8
176
     1
 66
     7
176
     1
 43
1.0
176
     1
 76
     1
176
     1
 77
     6
176
     1
 78
     2
176
     1
 67
     7
176
     1
 79
     3
176
     1
170
     0
176
     1
171
     0
176
     1
290
     0
176
     1
 93
        1
176
     1
 44
0.0
176
     1
173
     0
176
     1
  0
VISUALSTYLE
  5
35
102
{ACAD_REACTORS
330
2A
102
}
330
2A
100
AcDbVisualStyle
  2
Dim
 70
    11
177
     2
291
     1
 71
     2
176
     1
 72
     2
176
     1
 73
     0
176
     1
 90
        0
176
     1
 40
-0.6
176
     1
 41
-30.0
176
     1
 62
     5
 63
     7
421
 16777215
176
     1
 74
     1
176
     1
 91
        4
176
     1
 64
     7
176
     1
 65
   257
176
     1
 75
     1
176
     1
175
     1
176
     1
 42
1.0
176
     1
 92
        8
176
     1
 66
     7
176
     1
 43
1.0
176
     1
 76
     1
176
     1
 77
     6
176
     1
 78
     2
176
     1
 67
     7
176
     1
 79
     5
176
     1
170
     0
176
     1
171
     0
176
     1
290
     0
176
     1
 93
        1
176
     1
 44
-50.0
176
     1
173
     0
176
     1
  0
VISUALSTYLE
  5
39
102
{ACAD_REACTORS
330
2A
102
}
330
2A
100
AcDbVisualStyle
  2
Facepattern
 70
    15
177
     2
291
     1
 71
     2
176
     1
 72
     2
176
     1
 73
     0
176
     1
 90
        0
176
     1
 40
-0.6
176
     1
 41
-30.0
176
     1
 62
     5
 63
     7
421
 16777215
176
     1
 74
     1
176
     1
 91
        4
176
     1
 64
     7
176
     1
 65
   257
176
     1
 75
     1
176
     1
175
     1
176
     1
 42
1.0
176
     1
 92
        8
176
     1
 66
     7
176
     1
 43
1.0
176
     1
 76
     1
176
     1
 77
     6
176
     1
 78
     2
176
     1
 67
     7
176
     1
 79
     5
176
     1
170
     0
176
     1
171
     0
176
     1
290
     0
176
     1
 93
        1
176
     1
 44
0.0
176
     1
173
     0
176
     1
  0
VISUALSTYLE
  5
2B
102
{ACAD_REACTORS
330
2A
102
}
330
2A
100
AcDbVisualStyle
  2
Flat
 70
     0
177
     2
291
     1
 71
     2
176
     1
 72
     1
176
     1
 73
     1
176
     1
 90
        2
176
     1
 40
-0.6
176
     1
 41
30.0
176
     1
 62
     5
 63
     7
421
 16777215
176
     1
 74
     0
176
     1
 91
        4
176
     1
 64
     7
176
     1
 65
   257
176
     1
 75
     1
176
     1
175
     1
176
     1
 42
1.0
176
     1
 92
        8
176
     1
 66
     7
176
     1
 43
1.0
176
     1
 76
     1
176
     1
 77
     6
176
     1
 78
     2
176
     1
 67
     7
176
     1
 79
     5
176
     1
170
     0
176
     1
171
     0
176
     1
290
     0
176
     1
 93
       13
176
     1
 44
0.0
176
     1
173
     0
176
     1
  0
VISUALSTYLE
  5
2C
102
{ACAD_REACTORS
330
2A
102
}
330
2A
100
AcDbVisualStyle
  2
FlatWithEdges
 70
     1
177
     2
291
     1
 71
     2
176
     1
 72
     1
176
     1
 73
     1
176
     1
 90
        2
176
     1
 40
-0.6
176
     1
 41
30.0
176
     1
 62
     5
 63
     7
421
 16777215
176
     1
 74
     1
176
     1
 91
        4
176
     1
 64
     7
176
     1
 65
   257
176
     1
 75
     1
176
     1
175
     1
176
     1
 42
1.0
176
     1
 92
        0
176
     1
 66
   257
176
     1
 43
1.0
176
     1
 76
     1
176
     1
 77
     6
176
     1
 78
     2
176
     1
 67
     7
176
     1
 79
     5
176
     1
170
     0
176
     1
171
     0
176
     1
290
     0
176
     1
 93
       13
176
     1
 44
0.0
176
     1
173
     0
176
     1
  0
VISUALSTYLE
  5
2D
102
{ACAD_REACTORS
330
2A
102
}
330
2A
100
AcDbVisualStyle
  2
Gouraud
 70
     2
177
     2
291
     1
 71
     2
176
     1
 72
     2
176
     1
 73
     1
176
     1
 90
        2
176
     1
 40
-0.6
176
     1
 41
30.0
176
     1
 62
     5
 63
     7
421
 16777215
176
     1
 74
     0
176
     1
 91
        4
176
     1
 64
     7
176
     1
 65
   257
176
     1
 75
     1
176
     1
175
     1
176
     1
 42
1.0
176
     1
 92
        0
176
     1
 66
     7
176
     1
 43
1.0
176
     1
 76
     1
176
     1
 77
     6
176
     1
 78
     2
176
     1
 67
     7
176
     1
 79
     5
176
     1
170
     0
176
     1
171
     0
176
     1
290
     0
176
     1
 93
       13
176
     1
 44
0.0
176
     1
173
     0
176
     1
  0
VISUALSTYLE
  5
2E
102
{ACAD_REACTORS
330
2A
102
}
330
2A
100
AcDbVisualStyle
  2
GouraudWithEdges
 70
     3
177
     2
291
     1
 71
     2
176
     1
 72
     2
176
     1
 73
     1
176
     1
 90
        2
176
     1
 40
-0.6
176
     1
 41
30.0
176
     1
 62
     5
 63
     7
421
 16777215
176
     1
 74
     1
176
     1
 91
        4
176
     1
 64
     7
176
     1
 65
   257
176
     1
 75
     1
176
     1
175
     1
176
     1
 42
1.0
176
     1
 92
        0
176
     1
 66
   257
176
     1
 43
1.0
176
     1
 76
     1
176
     1
 77
     6
176
     1
 78
     2
176
     1
 67
     7
176
     1
 79
     5
176
     1
170
     0
176
     1
171
     0
176
     1
290
     0
176
     1
 93
       13
176
     1
 44
0.0
176
     1
173
     0
176
     1
  0
VISUALSTYLE
  5
38
102
{ACAD_REACTORS
330
2A
102
}
330
2A
100
AcDbVisualStyle
  2
Linepattern
 70
    14
177
     2
291
     1
 71
     2
176
     1
 72
     2
176
     1
 73
     0
176
     1
 90
        0
176
     1
 40
-0.6
176
     1
 41
-30.0
176
     1
 62
     5
 63
     7
421
 16777215
176
     1
 74
     1
176
     1
 91
        4
176
     1
 64
     7
176
     1
 65
   257
176
     1
 75
     7
176
     1
175
     7
176
     1
 42
1.0
176
     1
 92
        8
176
     1
 66
     7
176
     1
 43
1.0
176
     1
 76
     1
176
     1
 77
     6
176
     1
 78
     2
176
     1
 67
     7
176
     1
 79
     5
176
     1
170
     0
176
     1
171
     0
176
     1
290
     0
176
     1
 93
        1
176
     1
 44
0.0
176
     1
173
     0
176
     1
  0
VISUALSTYLE
  5
33
102
{ACAD_REACTORS
330
2A
102
}
330
2A
100
AcDbVisualStyle
  2
Realistic
 70
     8
177
     2
291
     0
 71
     2
176
     1
 72
     2
176
     1
 73
     0
176
     1
 90
        0
176
     1
 40
-0.6
176
     1
 41
-30.0
176
     1
 62
     5
 63
     7
421
 16777215
176
     1
 74
     1
176
     1
 91
        0
176
     1
 64
     7
176
     1
 65
   257
176
     1
 75
     1
176
     1
175
     1
176
     1
 42
1.0
176
     1
 92
        8
176
     1
 66
     8
424
  7895160
176
     1
 43
1.0
176
     1
 76
     1
176
     1
 77
     6
176
     1
 78
     2
176
     1
 67
     7
176
     1
 79
     5
176
     1
170
     0
176
     1
171
     0
176
     1
290
     0
176
     1
 93
       13
176
     1
 44
0.0
176
     1
173
     0
176
     1
  0
VISUALSTYLE
  5
37
102
{ACAD_REACTORS
330
2A
102
}
330
2A
100
AcDbVisualStyle
  2
Thicken
 70
    13
177
     2
291
     1
 71
     2
176
     1
 72
     2
176
     1
 73
     0
176
     1
 90
        0
176
     1
 40
-0.6
176
     1
 41
-30.0
176
     1
 62
     5
 63
     7
421
 16777215
176
     1
 74
     1
176
     1
 91
        4
176
     1
 64
     7
176
     1
 65
   257
176
     1
 75
     1
176
     1
175
     1
176
     1
 42
1.0
176
     1
 92
       12
176
     1
 66
     7
176
     1
 43
1.0
176
     1
 76
     1
176
     1
 77
     6
176
     1
 78
     2
176
     1
 67
     7
176
     1
 79
     5
176
     1
170
     0
176
     1
171
     0
176
     1
290
     0
176
     1
 93
        1
176
     1
 44
0.0
176
     1
173
     0
176
     1
  0
ENDSEC
  0
EOF
