  0
SECTION
  2
HEADER
  9
$ACADVER
  1
AC1024
  9
$ACADMAINTVER
 70
     6
  9
$DWGCODEPAGE
  3
UNDEFINED
  9
$INSBASE
 10
0.0
 20
0.0
 30
0.0
  9
$EXTMIN
 10
1.000000000000000E+20
 20
1.000000000000000E+20
 30
1.000000000000000E+20
  9
$EXTMAX
 10
-1.000000000000000E+20
 20
-1.000000000000000E+20
 30
-1.000000000000000E+20
  9
$LIMMIN
 10
0.0
 20
0.0
  9
$LIMMAX
 10
12.0
 20
9.0
  9
$ORTHOMODE
 70
     0
  9
$REGENMODE
 70
     1
  9
$FILLMODE
 70
     1
  9
$QTEXTMODE
 70
     0
  9
$MIRRTEXT
 70
     1
  9
$LTSCALE
 40
1.0
  9
$ATTMODE
 70
     1
  9
$TEXTSIZE
 40
0.2
  9
$TRACEWID
 40
0.05
  9
$TEXTSTYLE
  7
Standard
  9
$CLAYER
  8
0
  9
$CELTYPE
  6
ByLayer
  9
$CECOLOR
 62
   256
  9
$CELTSCALE
 40
1.0
  9
$DISPSILH
 70
     0
  9
$DIMSCALE
 40
1.0
  9
$DIMASZ
 40
0.18
  9
$DIMEXO
 40
0.0625
  9
$DIMDLI
 40
0.38
  9
$DIMRND
 40
0.0
  9
$DIMDLE
 40
0.0
  9
$DIMEXE
 40
0.18
  9
$DIMTP
 40
0.0
  9
$DIMTM
 40
0.0
  9
$DIMTXT
 40
0.18
  9
$DIMCEN
 40
0.09
  9
$DIMTSZ
 40
0.0
  9
$DIMTOL
 70
     0
  9
$DIMLIM
 70
     0
  9
$DIMTIH
 70
     1
  9
$DIMTOH
 70
     1
  9
$DIMSE1
 70
     0
  9
$DIMSE2
 70
     0
  9
$DIMTAD
 70
     0
  9
$DIMZIN
 70
     0
  9
$DIMBLK
  1

  9
$DIMASO
 70
     1
  9
$DIMSHO
 70
     1
  9
$DIMPOST
  1

  9
$DIMAPOST
  1

  9
$DIMALT
 70
     0
  9
$DIMALTD
 70
     2
  9
$DIMALTF
 40
25.4
  9
$DIMLFAC
 40
1.0
  9
$DIMTOFL
 70
     0
  9
$DIMTVP
 40
0.0
  9
$DIMTIX
 70
     0
  9
$DIMSOXD
 70
     0
  9
$DIMSAH
 70
     0
  9
$DIMBLK1
  1

  9
$DIMBLK2
  1

  9
$DIMSTYLE
  2
Standard
  9
$DIMCLRD
 70
     0
  9
$DIMCLRE
 70
     0
  9
$DIMCLRT
 70
     0
  9
$DIMTFAC
 40
1.0
  9
$DIMGAP
 40
0.09
  9
$DIMJUST
 70
     0
  9
$DIMSD1
 70
     0
  9
$DIMSD2
 70
     0
  9
$DIMTOLJ
 70
     1
  9
$DIMTZIN
 70
     0
  9
$DIMALTZ
 70
     0
  9
$DIMALTTZ
 70
     0
  9
$DIMUPT
 70
     0
  9
$DIMDEC
 70
     4
  9
$DIMTDEC
 70
     4
  9
$DIMALTU
 70
     2
  9
$DIMALTTD
 70
     2
  9
$DIMTXSTY
  7
Standard
  9
$DIMAUNIT
 70
     0
  9
$DIMADEC
 70
     0
  9
$DIMALTRND
 40
0.0
  9
$DIMAZIN
 70
     0
  9
$DIMDSEP
 70
    46
  9
$DIMATFIT
 70
     3
  9
$DIMFRAC
 70
     0
  9
$DIMLDRBLK
  1

  9
$DIMLUNIT
 70
     2
  9
$DIMLWD
 70
    -2
  9
$DIMLWE
 70
    -2
  9
$DIMTMOVE
 70
     0
  9
$DIMFXL
 40
1.0
  9
$DIMFXLON
 70
     0
  9
$DIMJOGANG
 40
0.7853981633974483
  9
$DIMTFILL
 70
     0
  9
$DIMTFILLCLR
 70
     0
  9
$DIMARCSYM
 70
     0
  9
$DIMLTYPE
  6

  9
$DIMLTEX1
  6

  9
$DIMLTEX2
  6

  9
$DIMTXTDIRECTION
 70
     0
  9
$LUNITS
 70
     2
  9
$LUPREC
 70
     4
  9
$SKETCHINC
 40
0.1
  9
$FILLETRAD
 40
0.5
  9
$AUNITS
 70
     0
  9
$AUPREC
 70
     0
  9
$MENU
  1
.
  9
$ELEVATION
 40
0.0
  9
$PELEVATION
 40
0.0
  9
$THICKNESS
 40
0.0
  9
$LIMCHECK
 70
     0
  9
$CHAMFERA
 40
0.5
  9
$CHAMFERB
 40
0.5
  9
$CHAMFERC
 40
1.0
  9
$CHAMFERD
 40
0.0
  9
$SKPOLY
 70
     0
  9
$TDCREATE
 40
2457917.616770822
  9
$TDUCREATE
 40
2457917.241770833
  9
$TDUPDATE
 40
2457917.616770822
  9
$TDUUPDATE
 40
2457917.241770833
  9
$TDINDWG
 40
0.0000000116
  9
$TDUSRTIMER
 40
0.0000000116
  9
$USRTIMER
 70
     1
  9
$ANGBASE
 50
0.0
  9
$ANGDIR
 70
     0
  9
$PDMODE
 70
     0
  9
$PDSIZE
 40
0.0
  9
$PLINEWID
 40
0.0
  9
$SPLFRAME
 70
     0
  9
$SPLINETYPE
 70
     6
  9
$SPLINESEGS
 70
     8
  9
$HANDSEED
  5
EE
  9
$SURFTAB1
 70
     6
  9
$SURFTAB2
 70
     6
  9
$SURFTYPE
 70
     6
  9
$SURFU
 70
     6
  9
$SURFV
 70
     6
  9
$UCSBASE
  2

  9
$UCSNAME
  2

  9
$UCSORG
 10
0.0
 20
0.0
 30
0.0
  9
$UCSXDIR
 10
1.0
 20
0.0
 30
0.0
  9
$UCSYDIR
 10
0.0
 20
1.0
 30
0.0
  9
$UCSORTHOREF
  2

  9
$UCSORTHOVIEW
 70
     0
  9
$UCSORGTOP
 10
0.0
 20
0.0
 30
0.0
  9
$UCSORGBOTTOM
 10
0.0
 20
0.0
 30
0.0
  9
$UCSORGLEFT
 10
0.0
 20
0.0
 30
0.0
  9
$UCSORGRIGHT
 10
0.0
 20
0.0
 30
0.0
  9
$UCSORGFRONT
 10
0.0
 20
0.0
 30
0.0
  9
$UCSORGBACK
 10
0.0
 20
0.0
 30
0.0
  9
$PUCSBASE
  2

  9
$PUCSNAME
  2

  9
$PUCSORG
 10
0.0
 20
0.0
 30
0.0
  9
$PUCSXDIR
 10
1.0
 20
0.0
 30
0.0
  9
$PUCSYDIR
 10
0.0
 20
1.0
 30
0.0
  9
$PUCSORTHOREF
  2

  9
$PUCSORTHOVIEW
 70
     0
  9
$PUCSORGTOP
 10
0.0
 20
0.0
 30
0.0
  9
$PUCSORGBOTTOM
 10
0.0
 20
0.0
 30
0.0
  9
$PUCSORGLEFT
 10
0.0
 20
0.0
 30
0.0
  9
$PUCSORGRIGHT
 10
0.0
 20
0.0
 30
0.0
  9
$PUCSORGFRONT
 10
0.0
 20
0.0
 30
0.0
  9
$PUCSORGBACK
 10
0.0
 20
0.0
 30
0.0
  9
$USERI1
 70
     0
  9
$USERI2
 70
     0
  9
$USERI3
 70
     0
  9
$USERI4
 70
     0
  9
$USERI5
 70
     0
  9
$USERR1
 40
0.0
  9
$USERR2
 40
0.0
  9
$USERR3
 40
0.0
  9
$USERR4
 40
0.0
  9
$USERR5
 40
0.0
  9
$WORLDVIEW
 70
     1
  9
$SHADEDGE
 70
     3
  9
$SHADEDIF
 70
    70
  9
$TILEMODE
 70
     1
  9
$MAXACTVP
 70
    64
  9
$PINSBASE
 10
0.0
 20
0.0
 30
0.0
  9
$PLIMCHECK
 70
     0
  9
$PEXTMIN
 10
1.000000000000000E+20
 20
1.000000000000000E+20
 30
1.000000000000000E+20
  9
$PEXTMAX
 10
-1.000000000000000E+20
 20
-1.000000000000000E+20
 30
-1.000000000000000E+20
  9
$PLIMMIN
 10
0.0
 20
0.0
  9
$PLIMMAX
 10
12.0
 20
9.0
  9
$UNITMODE
 70
     0
  9
$VISRETAIN
 70
     1
  9
$PLINEGEN
 70
     0
  9
$PSLTSCALE
 70
     1
  9
$TREEDEPTH
 70
  3020
  9
$CMLSTYLE
  2
Standard
  9
$CMLJUST
 70
     0
  9
$CMLSCALE
 40
1.0
  9
$PROXYGRAPHICS
 70
     1
  9
$MEASUREMENT
 70
     0
  9
$CELWEIGHT
370
    -1
  9
$ENDCAPS
280
     0
  9
$JOINSTYLE
280
     0
  9
$LWDISPLAY
290
     1
  9
$INSUNITS
 70
     1
  9
$HYPERLINKBASE
  1

  9
$STYLESHEET
  1

  9
$XEDIT
290
     1
  9
$CEPSNTYPE
380
     0
  9
$PSTYLEMODE
290
     1
  9
$FINGERPRINTGUID
  2
{32432787-6BCF-B929-C758-99356C004407}
  9
$VERSIONGUID
  2
{FAEB1C32-E019-11D5-929B-00C0DF256EC4}
  9
$EXTNAMES
290
     1
  9
$PSVPSCALE
 40
0.0
  9
$OLESTARTUP
290
     0
  9
$SORTENTS
280
   127
  9
$INDEXCTL
280
     0
  9
$HIDETEXT
280
     1
  9
$XCLIPFRAME
280
     2
  9
$HALOGAP
280
     0
  9
$OBSCOLOR
 70
   257
  9
$OBSLTYPE
280
     0
  9
$INTERSECTIONDISPLAY
280
     0
  9
$INTERSECTIONCOLOR
 70
   257
  9
$DIMASSOC
280
     2
  9
$PROJECTNAME
  1

  9
$CAMERADISPLAY
290
     0
  9
$LENSLENGTH
 40
50.0
  9
$CAMERAHEIGHT
 40
0.0
  9
$STEPSPERSEC
 40
2.0
  9
$STEPSIZE
 40
6.0
  9
$3DDWFPREC
 40
2.0
  9
$PSOLWIDTH
 40
0.25
  9
$PSOLHEIGHT
 40
4.0
  9
$LOFTANG1
 40
1.570796326794897
  9
$LOFTANG2
 40
1.570796326794897
  9
$LOFTMAG1
 40
0.0
  9
$LOFTMAG2
 40
0.0
  9
$LOFTPARAM
 70
     7
  9
$LOFTNORMALS
280
     1
  9
$LATITUDE
 40
37.795
  9
$LONGITUDE
 40
-122.394
  9
$NORTHDIRECTION
 40
0.0
  9
$TIMEZONE
 70
 -8000
  9
$LIGHTGLYPHDISPLAY
280
     1
  9
$TILEMODELIGHTSYNCH
280
     1
  9
$CMATERIAL
347
3C
  9
$SOLIDHIST
280
     1
  9
$SHOWHIST
280
     1
  9
$DWFFRAME
280
     2
  9
$DGNFRAME
280
     2
  9
$REALWORLDSCALE
290
     1
  9
$INTERFERECOLOR
 62
   256
  9
$CSHADOW
280
     0
  9
$SHADOWPLANELOCATION
 40
0.0
  0
ENDSEC
  0
SECTION
  2
CLASSES
  0
CLASS
  1
ACDBDICTIONARYWDFLT
  2
AcDbDictionaryWithDefault
  3
ObjectDBX Classes
 90
        0
 91
        4
280
     0
281
     0
  0
CLASS
  1
VISUALSTYLE
  2
AcDbVisualStyle
  3
ObjectDBX Classes
 90
     4095
 91
        4
280
     0
281
     0
  0
CLASS
  1
MATERIAL
  2
AcDbMaterial
  3
ObjectDBX Classes
 90
     1153
 91
        4
280
     0
281
     0
  0
CLASS
  1
SUN
  2
AcDbSun
  3
SCENEOE
 90
     1024
 91
        4
280
     0
281
     0
  0
ENDSEC
  0
SECTION
  2
TABLES
  0
TABLE
  2
VPORT
  5
8
330
0
100
AcDbSymbolTable
 70
     1
  0
VPORT
  5
29
330
8
100
AcDbSymbolTableRecord
100
AcDbViewportTableRecord
  2
*Active
 70
     0
 10
0.0
 20
0.0
 11
1.0
 21
1.0
 12
0.0
 22
0.0
 13
0.0
 23
0.0
 14
0.5
 24
0.5
 15
0.5
 25
0.5
 16
0.0
 26
0.0
 36
1.0
 17
91.00082462281999
 27
-128.4993055234307
 37
0.0
 40
256.9986110468615
 41
0.7081814508812795
 42
50.0
 43
0.0
 44
0.0
 50
0.0
 51
0.0
 71
     0
 72
   100
 73
     1
 74
     3
 75
     0
 76
     0
 77
     0
 78
     0
281
     0
 65
     1
110
0.0
120
0.0
130
0.0
111
1.0
121
0.0
131
0.0
112
0.0
122
1.0
132
0.0
 79
     0
146
0.0
 60
     3
 61
     5
292
     1
282
     1
141
0.0
142
0.0
 63
   250
361
3F
  0
ENDTAB
  0
TABLE
  2
LTYPE
  5
5
330
0
100
AcDbSymbolTable
 70
     1
  0
LTYPE
  5
14
330
5
100
AcDbSymbolTableRecord
100
AcDbLinetypeTableRecord
  2
ByBlock
 70
     0
  3

 72
    65
 73
     0
 40
0.0
  0
LTYPE
  5
15
330
5
100
AcDbSymbolTableRecord
100
AcDbLinetypeTableRecord
  2
ByLayer
 70
     0
  3

 72
    65
 73
     0
 40
0.0
  0
LTYPE
  5
16
330
5
100
AcDbSymbolTableRecord
100
AcDbLinetypeTableRecord
  2
Continuous
 70
     0
  3
Solid line
 72
    65
 73
     0
 40
0.0
  0
ENDTAB
  0
TABLE
  2
LAYER
  5
2
330
0
100
AcDbSymbolTable
 70
     2
  0
LAYER
  5
10
330
2
100
AcDbSymbolTableRecord
100
AcDbLayerTableRecord
  2
0
 70
     0
 62
     7
  6
Continuous
370
    -3
390
F
347
3E
  0
LAYER
  5
40
330
2
100
AcDbSymbolTableRecord
100
AcDbLayerTableRecord
  2
_U+30EC_U+30A4_U+30E4_U+30FC 1
 70
     0
 62
     7
  6
Continuous
370
    -3
390
F
347
3E
  0
ENDTAB
  0
TABLE
  2
STYLE
  5
3
330
0
100
AcDbSymbolTable
 70
     1
  0
STYLE
  5
11
330
3
100
AcDbSymbolTableRecord
100
AcDbTextStyleTableRecord
  2
Standard
 70
     0
 40
0.0
 41
1.0
 50
0.0
 71
     0
 42
0.2
  3
txt
  4

  0
ENDTAB
  0
TABLE
  2
VIEW
  5
6
330
0
100
AcDbSymbolTable
 70
     0
  0
ENDTAB
  0
TABLE
  2
UCS
  5
7
330
0
100
AcDbSymbolTable
 70
     0
  0
ENDTAB
  0
TABLE
  2
APPID
  5
9
330
0
100
AcDbSymbolTable
 70
     1
  0
APPID
  5
12
330
9
100
AcDbSymbolTableRecord
100
AcDbRegAppTableRecord
  2
ACAD
 70
     0
  0
ENDTAB
  0
TABLE
  2
DIMSTYLE
  5
A
330
0
100
AcDbSymbolTable
 70
     1
100
AcDbDimStyleTable
  0
DIMSTYLE
105
27
330
A
100
AcDbSymbolTableRecord
100
AcDbDimStyleTableRecord
  2
Standard
 70
     0
178
     0
340
11
  0
ENDTAB
  0
TABLE
  2
BLOCK_RECORD
  5
1
330
0
100
AcDbSymbolTable
 70
     7
  0
BLOCK_RECORD
  5
1F
330
1
100
AcDbSymbolTableRecord
100
AcDbBlockTableRecord
  2
*Model_Space
340
22
 70
     0
280
     1
281
     0
  0
BLOCK_RECORD
  5
1B
330
1
100
AcDbSymbolTableRecord
100
AcDbBlockTableRecord
  2
*Paper_Space
340
1E
 70
     0
280
     1
281
     0
  0
BLOCK_RECORD
  5
23
330
1
100
AcDbSymbolTableRecord
100
AcDbBlockTableRecord
  2
*Paper_Space0
340
26
 70
     0
280
     1
281
     0
  0
BLOCK_RECORD
  5
41
330
1
100
AcDbSymbolTableRecord
100
AcDbBlockTableRecord
  2
block 2
340
0
102
{BLKREFS
331
42
102
}
 70
     0
280
     1
281
     0
  0
BLOCK_RECORD
  5
59
330
1
100
AcDbSymbolTableRecord
100
AcDbBlockTableRecord
  2
block 3
340
0
102
{BLKREFS
331
5A
102
}
 70
     0
280
     1
281
     0
  0
BLOCK_RECORD
  5
6E
330
1
100
AcDbSymbolTableRecord
100
AcDbBlockTableRecord
  2
block 4
340
0
102
{BLKREFS
331
6F
102
}
 70
     0
280
     1
281
     0
  0
BLOCK_RECORD
  5
86
330
1
100
AcDbSymbolTableRecord
100
AcDbBlockTableRecord
  2
block 5
340
0
102
{BLKREFS
331
87
102
}
 70
     0
280
     1
281
     0
  0
BLOCK_RECORD
  5
A0
330
1
100
AcDbSymbolTableRecord
100
AcDbBlockTableRecord
  2
block 6
340
0
102
{BLKREFS
331
A1
102
}
 70
     0
280
     1
281
     0
  0
BLOCK_RECORD
  5
AE
330
1
100
AcDbSymbolTableRecord
100
AcDbBlockTableRecord
  2
block 7
340
0
102
{BLKREFS
331
AF
102
}
 70
     0
280
     1
281
     0
  0
ENDTAB
  0
ENDSEC
  0
SECTION
  2
BLOCKS
  0
BLOCK
  5
20
330
1F
100
AcDbEntity
  8
0
100
AcDbBlockBegin
  2
*Model_Space
 70
     0
 10
0.0
 20
0.0
 30
0.0
  3
*Model_Space
  1

  0
ENDBLK
  5
21
330
1F
100
AcDbEntity
  8
0
100
AcDbBlockEnd
  0
BLOCK
  5
1C
330
1B
100
AcDbEntity
 67
     1
  8
0
100
AcDbBlockBegin
  2
*Paper_Space
 70
     0
 10
0.0
 20
0.0
 30
0.0
  3
*Paper_Space
  1

  0
ENDBLK
  5
1D
330
1B
100
AcDbEntity
 67
     1
  8
0
100
AcDbBlockEnd
  0
BLOCK
  5
24
330
23
100
AcDbEntity
  8
0
100
AcDbBlockBegin
  2
*Paper_Space0
 70
     0
 10
0.0
 20
0.0
 30
0.0
  3
*Paper_Space0
  1

  0
ENDBLK
  5
25
330
23
100
AcDbEntity
  8
0
100
AcDbBlockEnd
  0
BLOCK
  5
43
330
41
100
AcDbEntity
  8
0
100
AcDbBlockBegin
  2
block 2
 70
     0
 10
0.0
 20
0.0
 30
0.0
  3
block 2
  1

  0
SPLINE
  5
45
330
41
100
AcDbEntity
  8
_U+30EC_U+30A4_U+30E4_U+30FC 1
 62
   179
420
  2234388
370
     9
100
AcDbSpline
210
0.0
220
0.0
230
1.0
 70
    11
 71
     3
 72
    17
 73
    13
 74
     0
 42
0.0000000001
 43
0.0000000001
 12
1.0
 22
0.0
 32
0.0
 13
1.0
 23
0.0
 33
0.0
 40
0.0
 40
0.0
 40
0.0
 40
0.0
 40
1.0
 40
1.0
 40
1.0
 40
2.0
 40
2.0
 40
2.0
 40
3.0
 40
3.0
 40
3.0
 40
4.0
 40
4.0
 40
4.0
 40
4.0
 10
73.44254590410233
 20
-117.4022924706493
 30
0.0
 10
73.44254590410233
 20
-117.3471885817744
 30
0.0
 10
73.39774312746756
 20
-117.3023858040077
 30
0.0
 10
73.34263923998449
 20
-117.3023858040077
 30
0.0
 10
73.28750007472455
 20
-117.3023858040077
 30
0.0
 10
73.24273257586667
 20
-117.3471885817744
 30
0.0
 10
73.24273257586667
 20
-117.4022924706493
 30
0.0
 10
73.24273257586667
 20
-117.4577844150802
 30
0.0
 10
73.28750007472455
 20
-117.5025519150687
 30
0.0
 10
73.34263923998449
 20
-117.5025519150687
 30
0.0
 10
73.39774312746756
 20
-117.5025519150687
 30
0.0
 10
73.44254590410233
 20
-117.4577844150802
 30
0.0
 10
73.44254590410233
 20
-117.4022924706493
 30
0.0
  0
SPLINE
  5
46
330
41
100
AcDbEntity
  8
_U+30EC_U+30A4_U+30E4_U+30FC 1
 62
   179
420
  2234388
370
     9
100
AcDbSpline
210
0.0
220
0.0
230
1.0
 70
    11
 71
     3
 72
    17
 73
    13
 74
     0
 42
0.0000000001
 43
0.0000000001
 12
1.0
 22
0.0
 32
0.0
 13
1.0
 23
0.0
 33
0.0
 40
0.0
 40
0.0
 40
0.0
 40
0.0
 40
1.0
 40
1.0
 40
1.0
 40
2.0
 40
2.0
 40
2.0
 40
3.0
 40
3.0
 40
3.0
 40
4.0
 40
4.0
 40
4.0
 40
4.0
 10
98.44256582185425
 20
-117.4022924706493
 30
0.0
 10
98.44256582185425
 20
-117.3471885817744
 30
0.0
 10
98.39779832299637
 20
-117.3023858040077
 30
0.0
 10
98.3426591577364
 20
-117.3023858040077
 30
0.0
 10
98.28720249248457
 20
-117.3023858040077
 30
0.0
 10
98.2423997158498
 20
-117.3471885817744
 30
0.0
 10
98.2423997158498
 20
-117.4022924706493
 30
0.0
 10
98.2423997158498
 20
-117.4577844150802
 30
0.0
 10
98.28720249248457
 20
-117.5025519150687
 30
0.0
 10
98.3426591577364
 20
-117.5025519150687
 30
0.0
 10
98.39779832299637
 20
-117.5025519150687
 30
0.0
 10
98.44256582185425
 20
-117.4577844150802
 30
0.0
 10
98.44256582185425
 20
-117.4022924706493
 30
0.0
  0
SPLINE
  5
47
330
41
100
AcDbEntity
  8
_U+30EC_U+30A4_U+30E4_U+30FC 1
 62
   179
420
  2234388
370
     9
100
AcDbSpline
210
0.0
220
0.0
230
1.0
 70
    11
 71
     3
 72
    17
 73
    13
 74
     0
 42
0.0000000001
 43
0.0000000001
 12
1.0
 22
0.0
 32
0.0
 13
1.0
 23
0.0
 33
0.0
 40
0.0
 40
0.0
 40
0.0
 40
0.0
 40
1.0
 40
1.0
 40
1.0
 40
2.0
 40
2.0
 40
2.0
 40
3.0
 40
3.0
 40
3.0
 40
4.0
 40
4.0
 40
4.0
 40
4.0
 10
102.4426776642473
 20
-121.4027571918714
 30
0.0
 10
102.4426776642473
 20
-121.3473005252187
 30
0.0
 10
102.3978748876126
 20
-121.302497747452
 30
0.0
 10
102.3424182223607
 20
-121.302497747452
 30
0.0
 10
102.2872790571008
 20
-121.302497747452
 30
0.0
 10
102.2425115582429
 20
-121.3473005252187
 30
0.0
 10
102.2425115582429
 20
-121.4027571918714
 30
0.0
 10
102.2425115582429
 20
-121.4578610807466
 30
0.0
 10
102.2872790571008
 20
-121.5026638585134
 30
0.0
 10
102.3424182223607
 20
-121.5026638585134
 30
0.0
 10
102.3978748876126
 20
-121.5026638585134
 30
0.0
 10
102.4426776642473
 20
-121.4578610807466
 30
0.0
 10
102.4426776642473
 20
-121.4027571918714
 30
0.0
  0
SPLINE
  5
48
330
41
100
AcDbEntity
  8
_U+30EC_U+30A4_U+30E4_U+30FC 1
 62
   179
420
  2234388
370
     9
100
AcDbSpline
210
0.0
220
0.0
230
1.0
 70
    11
 71
     3
 72
    17
 73
    13
 74
     0
 42
0.0000000001
 43
0.0000000001
 12
1.0
 22
0.0
 32
0.0
 13
1.0
 23
0.0
 33
0.0
 40
0.0
 40
0.0
 40
0.0
 40
0.0
 40
1.0
 40
1.0
 40
1.0
 40
2.0
 40
2.0
 40
2.0
 40
3.0
 40
3.0
 40
3.0
 40
4.0
 40
4.0
 40
4.0
 40
4.0
 10
102.4426776642473
 20
-122.3024463583134
 30
0.0
 10
102.4426776642473
 20
-122.2473071916603
 30
0.0
 10
102.3978748876126
 20
-122.2025396916715
 30
0.0
 10
102.3424182223607
 20
-122.2025396916715
 30
0.0
 10
102.2872790571008
 20
-122.2025396916715
 30
0.0
 10
102.2425115582429
 20
-122.2473071916603
 30
0.0
 10
102.2425115582429
 20
-122.3024463583134
 30
0.0
 10
102.2425115582429
 20
-122.3575502471883
 30
0.0
 10
102.2872790571008
 20
-122.4023530249551
 30
0.0
 10
102.3424182223607
 20
-122.4023530249551
 30
0.0
 10
102.3978748876126
 20
-122.4023530249551
 30
0.0
 10
102.4426776642473
 20
-122.3575502471883
 30
0.0
 10
102.4426776642473
 20
-122.3024463583134
 30
0.0
  0
SPLINE
  5
49
330
41
100
AcDbEntity
  8
_U+30EC_U+30A4_U+30E4_U+30FC 1
 62
   179
420
  2234388
370
     9
100
AcDbSpline
210
0.0
220
0.0
230
1.0
 70
    11
 71
     3
 72
    17
 73
    13
 74
     0
 42
0.0000000001
 43
0.0000000001
 12
1.0
 22
0.0
 32
0.0
 13
1.0
 23
0.0
 33
0.0
 40
0.0
 40
0.0
 40
0.0
 40
0.0
 40
1.0
 40
1.0
 40
1.0
 40
2.0
 40
2.0
 40
2.0
 40
3.0
 40
3.0
 40
3.0
 40
4.0
 40
4.0
 40
4.0
 40
4.0
 10
102.4426776642473
 20
-135.4026021883716
 30
0.0
 10
102.4426776642473
 20
-135.3474630217185
 30
0.0
 10
102.3978748876126
 20
-135.30269552173
 30
0.0
 10
102.3424182223607
 20
-135.30269552173
 30
0.0
 10
102.2872790571008
 20
-135.30269552173
 30
0.0
 10
102.2425115582429
 20
-135.3474630217185
 30
0.0
 10
102.2425115582429
 20
-135.4026021883716
 30
0.0
 10
102.2425115582429
 20
-135.4577060772465
 30
0.0
 10
102.2872790571008
 20
-135.5025088550132
 30
0.0
 10
102.3424182223607
 20
-135.5025088550132
 30
0.0
 10
102.3978748876126
 20
-135.5025088550132
 30
0.0
 10
102.4426776642473
 20
-135.4577060772465
 30
0.0
 10
102.4426776642473
 20
-135.4026021883716
 30
0.0
  0
SPLINE
  5
4A
330
41
100
AcDbEntity
  8
_U+30EC_U+30A4_U+30E4_U+30FC 1
 62
   179
420
  2234388
370
     9
100
AcDbSpline
210
0.0
220
0.0
230
1.0
 70
    11
 71
     3
 72
    17
 73
    13
 74
     0
 42
0.0000000001
 43
0.0000000001
 12
1.0
 22
0.0
 32
0.0
 13
1.0
 23
0.0
 33
0.0
 40
0.0
 40
0.0
 40
0.0
 40
0.0
 40
1.0
 40
1.0
 40
1.0
 40
2.0
 40
2.0
 40
2.0
 40
3.0
 40
3.0
 40
3.0
 40
4.0
 40
4.0
 40
4.0
 40
4.0
 10
102.4426776642473
 20
-138.402589132066
 30
0.0
 10
102.4426776642473
 20
-138.3474499654129
 30
0.0
 10
102.3978748876126
 20
-138.3026824654243
 30
0.0
 10
102.3424182223607
 20
-138.3026824654243
 30
0.0
 10
102.2872790571008
 20
-138.3026824654243
 30
0.0
 10
102.2425115582429
 20
-138.3474499654129
 30
0.0
 10
102.2425115582429
 20
-138.402589132066
 30
0.0
 10
102.2425115582429
 20
-138.4576930209409
 30
0.0
 10
102.2872790571008
 20
-138.5024957987076
 30
0.0
 10
102.3424182223607
 20
-138.5024957987076
 30
0.0
 10
102.3978748876126
 20
-138.5024957987076
 30
0.0
 10
102.4426776642473
 20
-138.4576930209409
 30
0.0
 10
102.4426776642473
 20
-138.402589132066
 30
0.0
  0
SPLINE
  5
4B
330
41
100
AcDbEntity
  8
_U+30EC_U+30A4_U+30E4_U+30FC 1
 62
   179
420
  2234388
370
     9
100
AcDbSpline
210
0.0
220
0.0
230
1.0
 70
    11
 71
     3
 72
    17
 73
    13
 74
     0
 42
0.0000000001
 43
0.0000000001
 12
1.0
 22
0.0
 32
0.0
 13
1.0
 23
0.0
 33
0.0
 40
0.0
 40
0.0
 40
0.0
 40
0.0
 40
1.0
 40
1.0
 40
1.0
 40
2.0
 40
2.0
 40
2.0
 40
3.0
 40
3.0
 40
3.0
 40
4.0
 40
4.0
 40
4.0
 40
4.0
 10
83.44227870454345
 20
-142.4023482977329
 30
0.0
 10
83.44227870454345
 20
-142.3472091310798
 30
0.0
 10
83.39747592790869
 20
-142.3024416310912
 30
0.0
 10
83.34237204042562
 20
-142.3024416310912
 30
0.0
 10
83.28723287516567
 20
-142.3024416310912
 30
0.0
 10
83.24246537630778
 20
-142.3472091310798
 30
0.0
 10
83.24246537630778
 20
-142.4023482977329
 30
0.0
 10
83.24246537630778
 20
-142.4574521866078
 30
0.0
 10
83.28723287516567
 20
-142.5022549643745
 30
0.0
 10
83.34237204042562
 20
-142.5022549643745
 30
0.0
 10
83.39747592790869
 20
-142.5022549643745
 30
0.0
 10
83.44227870454345
 20
-142.4574521866078
 30
0.0
 10
83.44227870454345
 20
-142.4023482977329
 30
0.0
  0
SPLINE
  5
4C
330
41
100
AcDbEntity
  8
_U+30EC_U+30A4_U+30E4_U+30FC 1
 62
   179
420
  2234388
370
     9
100
AcDbSpline
210
0.0
220
0.0
230
1.0
 70
    11
 71
     3
 72
    17
 73
    13
 74
     0
 42
0.0000000001
 43
0.0000000001
 12
1.0
 22
0.0
 32
0.0
 13
1.0
 23
0.0
 33
0.0
 40
0.0
 40
0.0
 40
0.0
 40
0.0
 40
1.0
 40
1.0
 40
1.0
 40
2.0
 40
2.0
 40
2.0
 40
3.0
 40
3.0
 40
3.0
 40
4.0
 40
4.0
 40
4.0
 40
4.0
 10
73.44254590410233
 20
-142.4023482977329
 30
0.0
 10
73.44254590410233
 20
-142.3472091310798
 30
0.0
 10
73.39774312746756
 20
-142.3024416310912
 30
0.0
 10
73.34263923998449
 20
-142.3024416310912
 30
0.0
 10
73.28750007472455
 20
-142.3024416310912
 30
0.0
 10
73.24273257586667
 20
-142.3472091310798
 30
0.0
 10
73.24273257586667
 20
-142.4023482977329
 30
0.0
 10
73.24273257586667
 20
-142.4574521866078
 30
0.0
 10
73.28750007472455
 20
-142.5022549643745
 30
0.0
 10
73.34263923998449
 20
-142.5022549643745
 30
0.0
 10
73.39774312746756
 20
-142.5022549643745
 30
0.0
 10
73.44254590410233
 20
-142.4574521866078
 30
0.0
 10
73.44254590410233
 20
-142.4023482977329
 30
0.0
  0
POLYLINE
  5
4D
330
41
100
AcDbEntity
  8
_U+30EC_U+30A4_U+30E4_U+30FC 1
 62
   179
420
  2234388
370
     9
100
AcDb2dPolyline
 66
     1
 10
0.0
 20
0.0
 30
0.0
  0
VERTEX
  5
4E
330
4D
100
AcDbEntity
  8
_U+30EC_U+30A4_U+30E4_U+30FC 1
 62
   179
420
  2234388
370
     9
100
AcDbVertex
100
AcDb2dVertex
 10
73.34263923998449
 20
-142.4023482977329
 30
0.0
  0
VERTEX
  5
4F
330
4D
100
AcDbEntity
  8
_U+30EC_U+30A4_U+30E4_U+30FC 1
 62
   179
420
  2234388
370
     9
100
AcDbVertex
100
AcDb2dVertex
 10
83.34237204042562
 20
-142.4023482977329
 30
0.0
  0
SEQEND
  5
50
330
4D
100
AcDbEntity
  8
_U+30EC_U+30A4_U+30E4_U+30FC 1
 62
   179
420
  2234388
370
     9
  0
POLYLINE
  5
51
330
41
100
AcDbEntity
  8
_U+30EC_U+30A4_U+30E4_U+30FC 1
 62
   179
420
  2234388
370
     9
100
AcDb2dPolyline
 66
     1
 10
0.0
 20
0.0
 30
0.0
  0
VERTEX
  5
52
330
51
100
AcDbEntity
  8
_U+30EC_U+30A4_U+30E4_U+30FC 1
 62
   179
420
  2234388
370
     9
100
AcDbVertex
100
AcDb2dVertex
 10
73.34263923998449
 20
-140.9423069092091
 30
0.0
  0
VERTEX
  5
53
330
51
100
AcDbEntity
  8
_U+30EC_U+30A4_U+30E4_U+30FC 1
 62
   179
420
  2234388
370
     9
100
AcDbVertex
100
AcDb2dVertex
 10
73.34263923998449
 20
-143.4020852419272
 30
0.0
  0
SEQEND
  5
54
330
51
100
AcDbEntity
  8
_U+30EC_U+30A4_U+30E4_U+30FC 1
 62
   179
420
  2234388
370
     9
  0
POLYLINE
  5
55
330
41
100
AcDbEntity
  8
_U+30EC_U+30A4_U+30E4_U+30FC 1
 62
   179
420
  2234388
370
     9
100
AcDb2dPolyline
 66
     1
 10
0.0
 20
0.0
 30
0.0
  0
VERTEX
  5
56
330
55
100
AcDbEntity
  8
_U+30EC_U+30A4_U+30E4_U+30FC 1
 62
   179
420
  2234388
370
     9
100
AcDbVertex
100
AcDb2dVertex
 10
83.34237204042562
 20
-140.9423069092091
 30
0.0
  0
VERTEX
  5
57
330
55
100
AcDbEntity
  8
_U+30EC_U+30A4_U+30E4_U+30FC 1
 62
   179
420
  2234388
370
     9
100
AcDbVertex
100
AcDb2dVertex
 10
83.34237204042562
 20
-143.4020852419272
 30
0.0
  0
SEQEND
  5
58
330
55
100
AcDbEntity
  8
_U+30EC_U+30A4_U+30E4_U+30FC 1
 62
   179
420
  2234388
370
     9
  0
INSERT
  5
5A
330
41
100
AcDbEntity
  8
_U+30EC_U+30A4_U+30E4_U+30FC 1
100
AcDbBlockReference
  2
block 3
 10
0.0
 20
0.0
 30
0.0
  0
POLYLINE
  5
62
330
41
100
AcDbEntity
  8
_U+30EC_U+30A4_U+30E4_U+30FC 1
 62
   179
420
  2234388
370
     9
100
AcDb2dPolyline
 66
     1
 10
0.0
 20
0.0
 30
0.0
  0
VERTEX
  5
63
330
62
100
AcDbEntity
  8
_U+30EC_U+30A4_U+30E4_U+30FC 1
 62
   179
420
  2234388
370
     9
100
AcDbVertex
100
AcDb2dVertex
 10
73.34263923998449
 20
-117.4022924706493
 30
0.0
  0
VERTEX
  5
64
330
62
100
AcDbEntity
  8
_U+30EC_U+30A4_U+30E4_U+30FC 1
 62
   179
420
  2234388
370
     9
100
AcDbVertex
100
AcDb2dVertex
 10
98.3426591577364
 20
-117.4022924706493
 30
0.0
  0
SEQEND
  5
65
330
62
100
AcDbEntity
  8
_U+30EC_U+30A4_U+30E4_U+30FC 1
 62
   179
420
  2234388
370
     9
  0
POLYLINE
  5
66
330
41
100
AcDbEntity
  8
_U+30EC_U+30A4_U+30E4_U+30FC 1
 62
   179
420
  2234388
370
     9
100
AcDb2dPolyline
 66
     1
 10
0.0
 20
0.0
 30
0.0
  0
VERTEX
  5
67
330
66
100
AcDbEntity
  8
_U+30EC_U+30A4_U+30E4_U+30FC 1
 62
   179
420
  2234388
370
     9
100
AcDbVertex
100
AcDb2dVertex
 10
73.34263923998449
 20
-118.8623338591733
 30
0.0
  0
VERTEX
  5
68
330
66
100
AcDbEntity
  8
_U+30EC_U+30A4_U+30E4_U+30FC 1
 62
   179
420
  2234388
370
     9
100
AcDbVertex
100
AcDb2dVertex
 10
73.34263923998449
 20
-116.4025555264549
 30
0.0
  0
SEQEND
  5
69
330
66
100
AcDbEntity
  8
_U+30EC_U+30A4_U+30E4_U+30FC 1
 62
   179
420
  2234388
370
     9
  0
POLYLINE
  5
6A
330
41
100
AcDbEntity
  8
_U+30EC_U+30A4_U+30E4_U+30FC 1
 62
   179
420
  2234388
370
     9
100
AcDb2dPolyline
 66
     1
 10
0.0
 20
0.0
 30
0.0
  0
VERTEX
  5
6B
330
6A
100
AcDbEntity
  8
_U+30EC_U+30A4_U+30E4_U+30FC 1
 62
   179
420
  2234388
370
     9
100
AcDbVertex
100
AcDb2dVertex
 10
98.3426591577364
 20
-118.8623338591733
 30
0.0
  0
VERTEX
  5
6C
330
6A
100
AcDbEntity
  8
_U+30EC_U+30A4_U+30E4_U+30FC 1
 62
   179
420
  2234388
370
     9
100
AcDbVertex
100
AcDb2dVertex
 10
98.3426591577364
 20
-116.4025555264549
 30
0.0
  0
SEQEND
  5
6D
330
6A
100
AcDbEntity
  8
_U+30EC_U+30A4_U+30E4_U+30FC 1
 62
   179
420
  2234388
370
     9
  0
INSERT
  5
6F
330
41
100
AcDbEntity
  8
_U+30EC_U+30A4_U+30E4_U+30FC 1
100
AcDbBlockReference
  2
block 4
 10
0.0
 20
0.0
 30
0.0
  0
POLYLINE
  5
76
330
41
100
AcDbEntity
  8
_U+30EC_U+30A4_U+30E4_U+30FC 1
 62
   179
420
  2234388
370
     9
100
AcDb2dPolyline
 66
     1
 10
0.0
 20
0.0
 30
0.0
  0
VERTEX
  5
77
330
76
100
AcDbEntity
  8
_U+30EC_U+30A4_U+30E4_U+30FC 1
 62
   179
420
  2234388
370
     9
100
AcDbVertex
100
AcDb2dVertex
 10
102.3424182223607
 20
-121.4027571918714
 30
0.0
  0
VERTEX
  5
78
330
76
100
AcDbEntity
  8
_U+30EC_U+30A4_U+30E4_U+30FC 1
 62
   179
420
  2234388
370
     9
100
AcDbVertex
100
AcDb2dVertex
 10
102.3424182223607
 20
-117.632444692814
 30
0.0
  0
SEQEND
  5
79
330
76
100
AcDbEntity
  8
_U+30EC_U+30A4_U+30E4_U+30FC 1
 62
   179
420
  2234388
370
     9
  0
POLYLINE
  5
7A
330
41
100
AcDbEntity
  8
_U+30EC_U+30A4_U+30E4_U+30FC 1
 62
   179
420
  2234388
370
     9
100
AcDb2dPolyline
 66
     1
 10
0.0
 20
0.0
 30
0.0
  0
VERTEX
  5
7B
330
7A
100
AcDbEntity
  8
_U+30EC_U+30A4_U+30E4_U+30FC 1
 62
   179
420
  2234388
370
     9
100
AcDbVertex
100
AcDb2dVertex
 10
102.3424182223607
 20
-121.4027571918714
 30
0.0
  0
VERTEX
  5
7C
330
7A
100
AcDbEntity
  8
_U+30EC_U+30A4_U+30E4_U+30FC 1
 62
   179
420
  2234388
370
     9
100
AcDbVertex
100
AcDb2dVertex
 10
102.3424182223607
 20
-122.4025294138439
 30
0.0
  0
SEQEND
  5
7D
330
7A
100
AcDbEntity
  8
_U+30EC_U+30A4_U+30E4_U+30FC 1
 62
   179
420
  2234388
370
     9
  0
POLYLINE
  5
7E
330
41
100
AcDbEntity
  8
_U+30EC_U+30A4_U+30E4_U+30FC 1
 62
   179
420
  2234388
370
     9
100
AcDb2dPolyline
 66
     1
 10
0.0
 20
0.0
 30
0.0
  0
VERTEX
  5
7F
330
7E
100
AcDbEntity
  8
_U+30EC_U+30A4_U+30E4_U+30FC 1
 62
   179
420
  2234388
370
     9
100
AcDbVertex
100
AcDb2dVertex
 10
100.8823768707206
 20
-121.4027571918714
 30
0.0
  0
VERTEX
  5
80
330
7E
100
AcDbEntity
  8
_U+30EC_U+30A4_U+30E4_U+30FC 1
 62
   179
420
  2234388
370
     9
100
AcDbVertex
100
AcDb2dVertex
 10
103.3425431968454
 20
-121.4027571918714
 30
0.0
  0
SEQEND
  5
81
330
7E
100
AcDbEntity
  8
_U+30EC_U+30A4_U+30E4_U+30FC 1
 62
   179
420
  2234388
370
     9
  0
POLYLINE
  5
82
330
41
100
AcDbEntity
  8
_U+30EC_U+30A4_U+30E4_U+30FC 1
 62
   179
420
  2234388
370
     9
100
AcDb2dPolyline
 66
     1
 10
0.0
 20
0.0
 30
0.0
  0
VERTEX
  5
83
330
82
100
AcDbEntity
  8
_U+30EC_U+30A4_U+30E4_U+30FC 1
 62
   179
420
  2234388
370
     9
100
AcDbVertex
100
AcDb2dVertex
 10
100.8823768707206
 20
-122.3024463583134
 30
0.0
  0
VERTEX
  5
84
330
82
100
AcDbEntity
  8
_U+30EC_U+30A4_U+30E4_U+30FC 1
 62
   179
420
  2234388
370
     9
100
AcDbVertex
100
AcDb2dVertex
 10
103.3425431968454
 20
-122.3024463583134
 30
0.0
  0
SEQEND
  5
85
330
82
100
AcDbEntity
  8
_U+30EC_U+30A4_U+30E4_U+30FC 1
 62
   179
420
  2234388
370
     9
  0
INSERT
  5
87
330
41
100
AcDbEntity
  8
_U+30EC_U+30A4_U+30E4_U+30FC 1
100
AcDbBlockReference
  2
block 5
 10
0.0
 20
0.0
 30
0.0
  0
POLYLINE
  5
98
330
41
100
AcDbEntity
  8
_U+30EC_U+30A4_U+30E4_U+30FC 1
 62
   179
420
  2234388
370
     9
100
AcDb2dPolyline
 66
     1
 10
0.0
 20
0.0
 30
0.0
  0
VERTEX
  5
99
330
98
100
AcDbEntity
  8
_U+30EC_U+30A4_U+30E4_U+30FC 1
 62
   179
420
  2234388
370
     9
100
AcDbVertex
100
AcDb2dVertex
 10
102.3424182223607
 20
-135.4026021883716
 30
0.0
  0
VERTEX
  5
9A
330
98
100
AcDbEntity
  8
_U+30EC_U+30A4_U+30E4_U+30FC 1
 62
   179
420
  2234388
370
     9
100
AcDbVertex
100
AcDb2dVertex
 10
102.3424182223607
 20
-138.402589132066
 30
0.0
  0
SEQEND
  5
9B
330
98
100
AcDbEntity
  8
_U+30EC_U+30A4_U+30E4_U+30FC 1
 62
   179
420
  2234388
370
     9
  0
POLYLINE
  5
9C
330
41
100
AcDbEntity
  8
_U+30EC_U+30A4_U+30E4_U+30FC 1
 62
   179
420
  2234388
370
     9
100
AcDb2dPolyline
 66
     1
 10
0.0
 20
0.0
 30
0.0
  0
VERTEX
  5
9D
330
9C
100
AcDbEntity
  8
_U+30EC_U+30A4_U+30E4_U+30FC 1
 62
   179
420
  2234388
370
     9
100
AcDbVertex
100
AcDb2dVertex
 10
85.88244253117857
 20
-138.402589132066
 30
0.0
  0
VERTEX
  5
9E
330
9C
100
AcDbEntity
  8
_U+30EC_U+30A4_U+30E4_U+30FC 1
 62
   179
420
  2234388
370
     9
100
AcDbVertex
100
AcDb2dVertex
 10
103.3425431968454
 20
-138.402589132066
 30
0.0
  0
SEQEND
  5
9F
330
9C
100
AcDbEntity
  8
_U+30EC_U+30A4_U+30E4_U+30FC 1
 62
   179
420
  2234388
370
     9
  0
INSERT
  5
A1
330
41
100
AcDbEntity
  8
_U+30EC_U+30A4_U+30E4_U+30FC 1
100
AcDbBlockReference
  2
block 6
 10
0.0
 20
0.0
 30
0.0
  0
POLYLINE
  5
A6
330
41
100
AcDbEntity
  8
_U+30EC_U+30A4_U+30E4_U+30FC 1
 62
   179
420
  2234388
370
     9
100
AcDb2dPolyline
 66
     1
 10
0.0
 20
0.0
 30
0.0
  0
VERTEX
  5
A7
330
A6
100
AcDbEntity
  8
_U+30EC_U+30A4_U+30E4_U+30FC 1
 62
   179
420
  2234388
370
     9
100
AcDbVertex
100
AcDb2dVertex
 10
102.3424182223607
 20
-135.4026021883716
 30
0.0
  0
VERTEX
  5
A8
330
A6
100
AcDbEntity
  8
_U+30EC_U+30A4_U+30E4_U+30FC 1
 62
   179
420
  2234388
370
     9
100
AcDbVertex
100
AcDb2dVertex
 10
102.3424182223607
 20
-122.4025294138439
 30
0.0
  0
SEQEND
  5
A9
330
A6
100
AcDbEntity
  8
_U+30EC_U+30A4_U+30E4_U+30FC 1
 62
   179
420
  2234388
370
     9
  0
POLYLINE
  5
AA
330
41
100
AcDbEntity
  8
_U+30EC_U+30A4_U+30E4_U+30FC 1
 62
   179
420
  2234388
370
     9
100
AcDb2dPolyline
 66
     1
 10
0.0
 20
0.0
 30
0.0
  0
VERTEX
  5
AB
330
AA
100
AcDbEntity
  8
_U+30EC_U+30A4_U+30E4_U+30FC 1
 62
   179
420
  2234388
370
     9
100
AcDbVertex
100
AcDb2dVertex
 10
85.88244253117857
 20
-135.4026021883716
 30
0.0
  0
VERTEX
  5
AC
330
AA
100
AcDbEntity
  8
_U+30EC_U+30A4_U+30E4_U+30FC 1
 62
   179
420
  2234388
370
     9
100
AcDbVertex
100
AcDb2dVertex
 10
103.3425431968454
 20
-135.4026021883716
 30
0.0
  0
SEQEND
  5
AD
330
AA
100
AcDbEntity
  8
_U+30EC_U+30A4_U+30E4_U+30FC 1
 62
   179
420
  2234388
370
     9
  0
INSERT
  5
AF
330
41
100
AcDbEntity
  8
_U+30EC_U+30A4_U+30E4_U+30FC 1
100
AcDbBlockReference
  2
block 7
 10
0.0
 20
0.0
 30
0.0
  0
SPLINE
  5
B6
330
41
100
AcDbEntity
  8
_U+30EC_U+30A4_U+30E4_U+30FC 1
370
     0
100
AcDbSpline
210
0.0
220
0.0
230
1.0
 70
    11
 71
     3
 72
    56
 73
    52
 74
     0
 42
0.0000000001
 43
0.0000000001
 12
1.0
 22
0.0
 32
0.0
 13
1.0
 23
0.0
 33
0.0
 40
0.0
 40
0.0
 40
0.0
 40
0.0
 40
1.0
 40
1.0
 40
1.0
 40
2.0
 40
2.0
 40
2.0
 40
3.0
 40
3.0
 40
3.0
 40
4.0
 40
4.0
 40
4.0
 40
5.0
 40
5.0
 40
5.0
 40
6.0
 40
6.0
 40
6.0
 40
7.0
 40
7.0
 40
7.0
 40
8.0
 40
8.0
 40
8.0
 40
9.0
 40
9.0
 40
9.0
 40
10.0
 40
10.0
 40
10.0
 40
11.0
 40
11.0
 40
11.0
 40
12.0
 40
12.0
 40
12.0
 40
13.0
 40
13.0
 40
13.0
 40
14.0
 40
14.0
 40
14.0
 40
15.0
 40
15.0
 40
15.0
 40
16.0
 40
16.0
 40
16.0
 40
17.0
 40
17.0
 40
17.0
 40
17.0
 10
98.3426591577364
 20
-121.4027571918714
 30
0.0
 10
98.3426591577364
 20
-121.4027571918714
 30
0.0
 10
73.34263923998449
 20
-121.4027571918714
 30
0.0
 10
73.34263923998449
 20
-121.4027571918714
 30
0.0
 10
73.34263923998449
 20
-121.4027571918714
 30
0.0
 10
73.34263923998449
 20
-138.402589132066
 30
0.0
 10
73.34263923998449
 20
-138.402589132066
 30
0.0
 10
73.34263923998449
 20
-138.402589132066
 30
0.0
 10
83.34237204042562
 20
-138.402589132066
 30
0.0
 10
83.34237204042562
 20
-138.402589132066
 30
0.0
 10
83.34237204042562
 20
-138.402589132066
 30
0.0
 10
83.34237204042562
 20
-135.4026021883716
 30
0.0
 10
83.34237204042562
 20
-135.4026021883716
 30
0.0
 10
83.34237204042562
 20
-135.4026021883716
 30
0.0
 10
82.44250650782755
 20
-135.4026021883716
 30
0.0
 10
82.44250650782755
 20
-135.4026021883716
 30
0.0
 10
82.44250650782755
 20
-135.4026021883716
 30
0.0
 10
82.44250650782755
 20
-136.5022457992076
 30
0.0
 10
82.44250650782755
 20
-136.5022457992076
 30
0.0
 10
82.44250650782755
 20
-137.0548721879587
 30
0.0
 10
81.9946551303643
 20
-137.5027235767357
 30
0.0
 10
81.44241681111974
 20
-137.5027235767357
 30
0.0
 10
81.44241681111974
 20
-137.5027235767357
 30
0.0
 10
81.44241681111974
 20
-137.5023707989579
 30
0.0
 10
81.44241681111974
 20
-137.5023707989579
 30
0.0
 10
81.44241681111974
 20
-137.5023707989579
 30
0.0
 10
75.24259446929038
 20
-137.5023707989579
 30
0.0
 10
75.24259446929038
 20
-137.5023707989579
 30
0.0
 10
74.69035615004582
 20
-137.5023707989579
 30
0.0
 10
74.24250477258258
 20
-137.0548721879587
 30
0.0
 10
74.24250477258258
 20
-136.5022457992076
 30
0.0
 10
74.24250477258258
 20
-136.5022457992076
 30
0.0
 10
74.24250477258258
 20
-136.5022457992076
 30
0.0
 10
74.24250477258258
 20
-136.5022457992076
 30
0.0
 10
74.24250477258258
 20
-136.5022457992076
 30
0.0
 10
74.24250477258258
 20
-129.2758399676809
 30
0.0
 10
74.24250477258258
 20
-129.2758399676809
 30
0.0
 10
74.24250477258258
 20
-129.2758399676809
 30
0.0
 10
74.54257754270486
 20
-128.9023894122186
 30
0.0
 10
74.54257754270486
 20
-128.9023894122186
 30
0.0
 10
74.54257754270486
 20
-128.9023894122186
 30
0.0
 10
74.24250477258258
 20
-128.5294327456454
 30
0.0
 10
74.24250477258258
 20
-128.5294327456454
 30
0.0
 10
74.24250477258258
 20
-128.5294327456454
 30
0.0
 10
74.24250477258258
 20
-122.3024463583134
 30
0.0
 10
74.24250477258258
 20
-122.3024463583134
 30
0.0
 10
74.24250477258258
 20
-122.3024463583134
 30
0.0
 10
98.3426591577364
 20
-122.3024463583134
 30
0.0
 10
98.3426591577364
 20
-122.3024463583134
 30
0.0
 10
98.3426591577364
 20
-122.3024463583134
 30
0.0
 10
98.3426591577364
 20
-121.4027571918714
 30
0.0
 10
98.3426591577364
 20
-121.4027571918714
 30
0.0
  0
HATCH
  5
B7
330
41
100
AcDbEntity
  8
_U+30EC_U+30A4_U+30E4_U+30FC 1
 62
   253
420
 11711154
100
AcDbHatch
 10
0.0
 20
0.0
 30
0.0
210
0.0
220
0.0
230
1.0
  2
SOLID
 70
     1
 71
     0
 91
        1
 92
        1
 93
        1
 72
     4
 94
        3
 73
     0
 74
     1
 95
       56
 96
       52
 40
0.0
 40
0.0
 40
0.0
 40
0.0
 40
1.0
 40
1.0
 40
1.0
 40
2.0
 40
2.0
 40
2.0
 40
3.0
 40
3.0
 40
3.0
 40
4.0
 40
4.0
 40
4.0
 40
5.0
 40
5.0
 40
5.0
 40
6.0
 40
6.0
 40
6.0
 40
7.0
 40
7.0
 40
7.0
 40
8.0
 40
8.0
 40
8.0
 40
9.0
 40
9.0
 40
9.0
 40
10.0
 40
10.0
 40
10.0
 40
11.0
 40
11.0
 40
11.0
 40
12.0
 40
12.0
 40
12.0
 40
13.0
 40
13.0
 40
13.0
 40
14.0
 40
14.0
 40
14.0
 40
15.0
 40
15.0
 40
15.0
 40
16.0
 40
16.0
 40
16.0
 40
17.0
 40
17.0
 40
17.0
 40
17.0
 10
98.3426591577364
 20
-121.4027571918714
 10
98.3426591577364
 20
-121.4027571918714
 10
73.34263923998449
 20
-121.4027571918714
 10
73.34263923998449
 20
-121.4027571918714
 10
73.34263923998449
 20
-121.4027571918714
 10
73.34263923998449
 20
-138.402589132066
 10
73.34263923998449
 20
-138.402589132066
 10
73.34263923998449
 20
-138.402589132066
 10
83.34237204042562
 20
-138.402589132066
 10
83.34237204042562
 20
-138.402589132066
 10
83.34237204042562
 20
-138.402589132066
 10
83.34237204042562
 20
-135.4026021883716
 10
83.34237204042562
 20
-135.4026021883716
 10
83.34237204042562
 20
-135.4026021883716
 10
82.44250650782755
 20
-135.4026021883716
 10
82.44250650782755
 20
-135.4026021883716
 10
82.44250650782755
 20
-135.4026021883716
 10
82.44250650782755
 20
-136.5022457992076
 10
82.44250650782755
 20
-136.5022457992076
 10
82.44250650782755
 20
-137.0548721879587
 10
81.9946551303643
 20
-137.5027235767357
 10
81.44241681111974
 20
-137.5027235767357
 10
81.44241681111974
 20
-137.5027235767357
 10
81.44241681111974
 20
-137.5023707989579
 10
81.44241681111974
 20
-137.5023707989579
 10
81.44241681111974
 20
-137.5023707989579
 10
75.24259446929038
 20
-137.5023707989579
 10
75.24259446929038
 20
-137.5023707989579
 10
74.69035615004582
 20
-137.5023707989579
 10
74.24250477258258
 20
-137.0548721879587
 10
74.24250477258258
 20
-136.5022457992076
 10
74.24250477258258
 20
-136.5022457992076
 10
74.24250477258258
 20
-136.5022457992076
 10
74.24250477258258
 20
-136.5022457992076
 10
74.24250477258258
 20
-136.5022457992076
 10
74.24250477258258
 20
-129.2758399676809
 10
74.24250477258258
 20
-129.2758399676809
 10
74.24250477258258
 20
-129.2758399676809
 10
74.54257754270486
 20
-128.9023894122186
 10
74.54257754270486
 20
-128.9023894122186
 10
74.54257754270486
 20
-128.9023894122186
 10
74.24250477258258
 20
-128.5294327456454
 10
74.24250477258258
 20
-128.5294327456454
 10
74.24250477258258
 20
-128.5294327456454
 10
74.24250477258258
 20
-122.3024463583134
 10
74.24250477258258
 20
-122.3024463583134
 10
74.24250477258258
 20
-122.3024463583134
 10
98.3426591577364
 20
-122.3024463583134
 10
98.3426591577364
 20
-122.3024463583134
 10
98.3426591577364
 20
-122.3024463583134
 10
98.3426591577364
 20
-121.4027571918714
 10
98.3426591577364
 20
-121.4027571918714
 97
        0
 97
        0
 75
     2
 76
     1
 98
        0
  0
POLYLINE
  5
B8
330
41
100
AcDbEntity
  8
_U+30EC_U+30A4_U+30E4_U+30FC 1
 62
   179
420
  2234388
370
    25
100
AcDb2dPolyline
 66
     1
 10
0.0
 20
0.0
 30
0.0
  0
VERTEX
  5
B9
330
B8
100
AcDbEntity
  8
_U+30EC_U+30A4_U+30E4_U+30FC 1
 62
   179
420
  2234388
370
    25
100
AcDbVertex
100
AcDb2dVertex
 10
73.34263923998449
 20
-121.4027571918714
 30
0.0
  0
VERTEX
  5
BA
330
B8
100
AcDbEntity
  8
_U+30EC_U+30A4_U+30E4_U+30FC 1
 62
   179
420
  2234388
370
    25
100
AcDbVertex
100
AcDb2dVertex
 10
98.3426591577364
 20
-121.4027571918714
 30
0.0
  0
SEQEND
  5
BB
330
B8
100
AcDbEntity
  8
_U+30EC_U+30A4_U+30E4_U+30FC 1
 62
   179
420
  2234388
370
    25
  0
POLYLINE
  5
BC
330
41
100
AcDbEntity
  8
_U+30EC_U+30A4_U+30E4_U+30FC 1
 62
   179
420
  2234388
370
    25
100
AcDb2dPolyline
 66
     1
 10
0.0
 20
0.0
 30
0.0
  0
VERTEX
  5
BD
330
BC
100
AcDbEntity
  8
_U+30EC_U+30A4_U+30E4_U+30FC 1
 62
   179
420
  2234388
370
    25
100
AcDbVertex
100
AcDb2dVertex
 10
73.34263923998449
 20
-121.4027571918714
 30
0.0
  0
VERTEX
  5
BE
330
BC
100
AcDbEntity
  8
_U+30EC_U+30A4_U+30E4_U+30FC 1
 62
   179
420
  2234388
370
    25
100
AcDbVertex
100
AcDb2dVertex
 10
73.34263923998449
 20
-138.402589132066
 30
0.0
  0
SEQEND
  5
BF
330
BC
100
AcDbEntity
  8
_U+30EC_U+30A4_U+30E4_U+30FC 1
 62
   179
420
  2234388
370
    25
  0
POLYLINE
  5
C0
330
41
100
AcDbEntity
  8
_U+30EC_U+30A4_U+30E4_U+30FC 1
 62
   179
420
  2234388
370
    25
100
AcDb2dPolyline
 66
     1
 10
0.0
 20
0.0
 30
0.0
  0
VERTEX
  5
C1
330
C0
100
AcDbEntity
  8
_U+30EC_U+30A4_U+30E4_U+30FC 1
 62
   179
420
  2234388
370
    25
100
AcDbVertex
100
AcDb2dVertex
 10
98.3426591577364
 20
-121.4027571918714
 30
0.0
  0
VERTEX
  5
C2
330
C0
100
AcDbEntity
  8
_U+30EC_U+30A4_U+30E4_U+30FC 1
 62
   179
420
  2234388
370
    25
100
AcDbVertex
100
AcDb2dVertex
 10
98.3426591577364
 20
-122.3024463583134
 30
0.0
  0
SEQEND
  5
C3
330
C0
100
AcDbEntity
  8
_U+30EC_U+30A4_U+30E4_U+30FC 1
 62
   179
420
  2234388
370
    25
  0
POLYLINE
  5
C4
330
41
100
AcDbEntity
  8
_U+30EC_U+30A4_U+30E4_U+30FC 1
 62
   179
420
  2234388
370
    25
100
AcDb2dPolyline
 66
     1
 10
0.0
 20
0.0
 30
0.0
  0
VERTEX
  5
C5
330
C4
100
AcDbEntity
  8
_U+30EC_U+30A4_U+30E4_U+30FC 1
 62
   179
420
  2234388
370
    25
100
AcDbVertex
100
AcDb2dVertex
 10
74.24250477258258
 20
-122.3024463583134
 30
0.0
  0
VERTEX
  5
C6
330
C4
100
AcDbEntity
  8
_U+30EC_U+30A4_U+30E4_U+30FC 1
 62
   179
420
  2234388
370
    25
100
AcDbVertex
100
AcDb2dVertex
 10
98.3426591577364
 20
-122.3024463583134
 30
0.0
  0
SEQEND
  5
C7
330
C4
100
AcDbEntity
  8
_U+30EC_U+30A4_U+30E4_U+30FC 1
 62
   179
420
  2234388
370
    25
  0
POLYLINE
  5
C8
330
41
100
AcDbEntity
  8
_U+30EC_U+30A4_U+30E4_U+30FC 1
 62
   179
420
  2234388
370
    25
100
AcDb2dPolyline
 66
     1
 10
0.0
 20
0.0
 30
0.0
  0
VERTEX
  5
C9
330
C8
100
AcDbEntity
  8
_U+30EC_U+30A4_U+30E4_U+30FC 1
 62
   179
420
  2234388
370
    25
100
AcDbVertex
100
AcDb2dVertex
 10
83.34237204042562
 20
-135.4026021883716
 30
0.0
  0
VERTEX
  5
CA
330
C8
100
AcDbEntity
  8
_U+30EC_U+30A4_U+30E4_U+30FC 1
 62
   179
420
  2234388
370
    25
100
AcDbVertex
100
AcDb2dVertex
 10
83.34237204042562
 20
-138.402589132066
 30
0.0
  0
SEQEND
  5
CB
330
C8
100
AcDbEntity
  8
_U+30EC_U+30A4_U+30E4_U+30FC 1
 62
   179
420
  2234388
370
    25
  0
POLYLINE
  5
CC
330
41
100
AcDbEntity
  8
_U+30EC_U+30A4_U+30E4_U+30FC 1
 62
   179
420
  2234388
370
    25
100
AcDb2dPolyline
 66
     1
 10
0.0
 20
0.0
 30
0.0
  0
VERTEX
  5
CD
330
CC
100
AcDbEntity
  8
_U+30EC_U+30A4_U+30E4_U+30FC 1
 62
   179
420
  2234388
370
    25
100
AcDbVertex
100
AcDb2dVertex
 10
82.44250650782755
 20
-135.4026021883716
 30
0.0
  0
VERTEX
  5
CE
330
CC
100
AcDbEntity
  8
_U+30EC_U+30A4_U+30E4_U+30FC 1
 62
   179
420
  2234388
370
    25
100
AcDbVertex
100
AcDb2dVertex
 10
82.44250650782755
 20
-136.5022457992076
 30
0.0
  0
SEQEND
  5
CF
330
CC
100
AcDbEntity
  8
_U+30EC_U+30A4_U+30E4_U+30FC 1
 62
   179
420
  2234388
370
    25
  0
POLYLINE
  5
D0
330
41
100
AcDbEntity
  8
_U+30EC_U+30A4_U+30E4_U+30FC 1
 62
   179
420
  2234388
370
    25
100
AcDb2dPolyline
 66
     1
 10
0.0
 20
0.0
 30
0.0
  0
VERTEX
  5
D1
330
D0
100
AcDbEntity
  8
_U+30EC_U+30A4_U+30E4_U+30FC 1
 62
   179
420
  2234388
370
    25
100
AcDbVertex
100
AcDb2dVertex
 10
74.24250477258258
 20
-122.3024463583134
 30
0.0
  0
VERTEX
  5
D2
330
D0
100
AcDbEntity
  8
_U+30EC_U+30A4_U+30E4_U+30FC 1
 62
   179
420
  2234388
370
    25
100
AcDbVertex
100
AcDb2dVertex
 10
74.24250477258258
 20
-128.5294327456454
 30
0.0
  0
SEQEND
  5
D3
330
D0
100
AcDbEntity
  8
_U+30EC_U+30A4_U+30E4_U+30FC 1
 62
   179
420
  2234388
370
    25
  0
POLYLINE
  5
D4
330
41
100
AcDbEntity
  8
_U+30EC_U+30A4_U+30E4_U+30FC 1
 62
   179
420
  2234388
370
    25
100
AcDb2dPolyline
 66
     1
 10
0.0
 20
0.0
 30
0.0
  0
VERTEX
  5
D5
330
D4
100
AcDbEntity
  8
_U+30EC_U+30A4_U+30E4_U+30FC 1
 62
   179
420
  2234388
370
    25
100
AcDbVertex
100
AcDb2dVertex
 10
74.24250477258258
 20
-129.2758399676809
 30
0.0
  0
VERTEX
  5
D6
330
D4
100
AcDbEntity
  8
_U+30EC_U+30A4_U+30E4_U+30FC 1
 62
   179
420
  2234388
370
    25
100
AcDbVertex
100
AcDb2dVertex
 10
74.24250477258258
 20
-136.5022457992076
 30
0.0
  0
SEQEND
  5
D7
330
D4
100
AcDbEntity
  8
_U+30EC_U+30A4_U+30E4_U+30FC 1
 62
   179
420
  2234388
370
    25
  0
POLYLINE
  5
D8
330
41
100
AcDbEntity
  8
_U+30EC_U+30A4_U+30E4_U+30FC 1
 62
   179
420
  2234388
370
    25
100
AcDb2dPolyline
 66
     1
 10
0.0
 20
0.0
 30
0.0
  0
VERTEX
  5
D9
330
D8
100
AcDbEntity
  8
_U+30EC_U+30A4_U+30E4_U+30FC 1
 62
   179
420
  2234388
370
    25
100
AcDbVertex
100
AcDb2dVertex
 10
82.44250650782755
 20
-135.4026021883716
 30
0.0
  0
VERTEX
  5
DA
330
D8
100
AcDbEntity
  8
_U+30EC_U+30A4_U+30E4_U+30FC 1
 62
   179
420
  2234388
370
    25
100
AcDbVertex
100
AcDb2dVertex
 10
83.34237204042562
 20
-135.4026021883716
 30
0.0
  0
SEQEND
  5
DB
330
D8
100
AcDbEntity
  8
_U+30EC_U+30A4_U+30E4_U+30FC 1
 62
   179
420
  2234388
370
    25
  0
POLYLINE
  5
DC
330
41
100
AcDbEntity
  8
_U+30EC_U+30A4_U+30E4_U+30FC 1
 62
   179
420
  2234388
370
    25
100
AcDb2dPolyline
 66
     1
 10
0.0
 20
0.0
 30
0.0
  0
VERTEX
  5
DD
330
DC
100
AcDbEntity
  8
_U+30EC_U+30A4_U+30E4_U+30FC 1
 62
   179
420
  2234388
370
    25
100
AcDbVertex
100
AcDb2dVertex
 10
73.34263923998449
 20
-138.402589132066
 30
0.0
  0
VERTEX
  5
DE
330
DC
100
AcDbEntity
  8
_U+30EC_U+30A4_U+30E4_U+30FC 1
 62
   179
420
  2234388
370
    25
100
AcDbVertex
100
AcDb2dVertex
 10
83.34237204042562
 20
-138.402589132066
 30
0.0
  0
SEQEND
  5
DF
330
DC
100
AcDbEntity
  8
_U+30EC_U+30A4_U+30E4_U+30FC 1
 62
   179
420
  2234388
370
    25
  0
POLYLINE
  5
E0
330
41
100
AcDbEntity
  8
_U+30EC_U+30A4_U+30E4_U+30FC 1
 62
   179
420
  2234388
370
    25
100
AcDb2dPolyline
 66
     1
 10
0.0
 20
0.0
 30
0.0
  0
VERTEX
  5
E1
330
E0
100
AcDbEntity
  8
_U+30EC_U+30A4_U+30E4_U+30FC 1
 62
   179
420
  2234388
370
    25
100
AcDbVertex
100
AcDb2dVertex
 10
75.24259446929038
 20
-137.5023707989579
 30
0.0
  0
VERTEX
  5
E2
330
E0
100
AcDbEntity
  8
_U+30EC_U+30A4_U+30E4_U+30FC 1
 62
   179
420
  2234388
370
    25
100
AcDbVertex
100
AcDb2dVertex
 10
81.44241681111974
 20
-137.5023707989579
 30
0.0
  0
SEQEND
  5
E3
330
E0
100
AcDbEntity
  8
_U+30EC_U+30A4_U+30E4_U+30FC 1
 62
   179
420
  2234388
370
    25
  0
SPLINE
  5
E4
330
41
100
AcDbEntity
  8
_U+30EC_U+30A4_U+30E4_U+30FC 1
 62
   179
420
  2234388
370
    25
100
AcDbSpline
210
0.0
220
0.0
230
1.0
 70
     8
 71
     3
 72
     8
 73
     4
 74
     0
 42
0.0000000001
 43
0.0000000001
 12
1.0
 22
0.0
 32
0.0
 13
1.0
 23
0.0
 33
0.0
 40
0.0
 40
0.0
 40
0.0
 40
0.0
 40
1.0
 40
1.0
 40
1.0
 40
1.0
 10
75.24259446929038
 20
-137.5023707989579
 30
0.0
 10
74.69035615004582
 20
-137.5023707989579
 30
0.0
 10
74.24250477258258
 20
-137.0548721879587
 30
0.0
 10
74.24250477258258
 20
-136.5022457992076
 30
0.0
  0
SPLINE
  5
E5
330
41
100
AcDbEntity
  8
_U+30EC_U+30A4_U+30E4_U+30FC 1
 62
   179
420
  2234388
370
    25
100
AcDbSpline
210
0.0
220
0.0
230
1.0
 70
     8
 71
     3
 72
     8
 73
     4
 74
     0
 42
0.0000000001
 43
0.0000000001
 12
1.0
 22
0.0
 32
0.0
 13
1.0
 23
0.0
 33
0.0
 40
0.0
 40
0.0
 40
0.0
 40
0.0
 40
1.0
 40
1.0
 40
1.0
 40
1.0
 10
81.44241681111974
 20
-137.5027235767357
 30
0.0
 10
81.9946551303643
 20
-137.5027235767357
 30
0.0
 10
82.44250650782755
 20
-137.0548721879587
 30
0.0
 10
82.44250650782755
 20
-136.5022457992076
 30
0.0
  0
POLYLINE
  5
E6
330
41
100
AcDbEntity
  8
_U+30EC_U+30A4_U+30E4_U+30FC 1
 62
   179
420
  2234388
370
    25
100
AcDb2dPolyline
 66
     1
 10
0.0
 20
0.0
 30
0.0
  0
VERTEX
  5
E7
330
E6
100
AcDbEntity
  8
_U+30EC_U+30A4_U+30E4_U+30FC 1
 62
   179
420
  2234388
370
    25
100
AcDbVertex
100
AcDb2dVertex
 10
74.24250477258258
 20
-129.2758399676809
 30
0.0
  0
VERTEX
  5
E8
330
E6
100
AcDbEntity
  8
_U+30EC_U+30A4_U+30E4_U+30FC 1
 62
   179
420
  2234388
370
    25
100
AcDbVertex
100
AcDb2dVertex
 10
74.54257754270486
 20
-128.9023894122186
 30
0.0
  0
VERTEX
  5
E9
330
E6
100
AcDbEntity
  8
_U+30EC_U+30A4_U+30E4_U+30FC 1
 62
   179
420
  2234388
370
    25
100
AcDbVertex
100
AcDb2dVertex
 10
74.24250477258258
 20
-128.5294327456454
 30
0.0
  0
SEQEND
  5
EB
330
E6
100
AcDbEntity
  8
_U+30EC_U+30A4_U+30E4_U+30FC 1
 62
   179
420
  2234388
370
    25
  0
HATCH
  5
EA
330
41
100
AcDbEntity
  8
_U+30EC_U+30A4_U+30E4_U+30FC 1
 62
   253
420
 11711154
100
AcDbHatch
 10
0.0
 20
0.0
 30
0.0
210
0.0
220
0.0
230
1.0
  2
SOLID
 70
     1
 71
     0
 91
        1
 92
        1
 93
        3
 72
     1
 10
74.24250477258258
 20
-129.2758399676809
 11
74.54257754270486
 21
-128.9023894122186
 72
     1
 10
74.54257754270486
 20
-128.9023894122186
 11
74.24250477258258
 21
-128.5294327456454
 72
     1
 10
74.24250477258258
 20
-128.5294327456454
 11
74.24250477258258
 21
-129.2758399676809
 97
        0
 75
     2
 76
     1
 98
        0
  0
ENDBLK
  5
44
330
41
100
AcDbEntity
  8
0
100
AcDbBlockEnd
  0
BLOCK
  5
5B
330
59
100
AcDbEntity
  8
0
100
AcDbBlockBegin
  2
block 3
 70
     0
 10
0.0
 20
0.0
 30
0.0
  3
block 3
  1

  0
SPLINE
  5
5D
330
59
100
AcDbEntity
  8
_U+30EC_U+30A4_U+30E4_U+30FC 1
370
     0
100
AcDbSpline
210
0.0
220
0.0
230
1.0
 70
    11
 71
     3
 72
    26
 73
    22
 74
     0
 42
0.0000000001
 43
0.0000000001
 12
1.0
 22
0.0
 32
0.0
 13
1.0
 23
0.0
 33
0.0
 40
0.0
 40
0.0
 40
0.0
 40
0.0
 40
1.0
 40
1.0
 40
1.0
 40
2.0
 40
2.0
 40
2.0
 40
3.0
 40
3.0
 40
3.0
 40
4.0
 40
4.0
 40
4.0
 40
5.0
 40
5.0
 40
5.0
 40
6.0
 40
6.0
 40
6.0
 40
7.0
 40
7.0
 40
7.0
 40
7.0
 10
77.70516219845565
 20
-141.7567219697692
 30
0.0
 10
77.70516219845565
 20
-141.7567219697692
 30
0.0
 10
77.70516219845565
 20
-140.6525688667466
 30
0.0
 10
77.70516219845565
 20
-140.6525688667466
 30
0.0
 10
77.70516219845565
 20
-140.6525688667466
 30
0.0
 10
77.37512205096873
 20
-140.6525688667466
 30
0.0
 10
77.37512205096873
 20
-140.6525688667466
 30
0.0
 10
77.37512205096873
 20
-140.6525688667466
 30
0.0
 10
77.37512205096873
 20
-140.5044297608808
 30
0.0
 10
77.37512205096873
 20
-140.5044297608808
 30
0.0
 10
77.70722925574681
 20
-140.4896158502943
 30
0.0
 10
77.75373804479769
 20
-140.326662833842
 30
0.0
 10
77.78336586597082
 20
-140.2122856637316
 30
0.0
 10
77.78336586597082
 20
-140.2122856637316
 30
0.0
 10
77.92943791454542
 20
-140.2122856637316
 30
0.0
 10
77.92943791454542
 20
-140.2122856637316
 30
0.0
 10
77.92943791454542
 20
-140.2122856637316
 30
0.0
 10
77.92943791454542
 20
-141.7567219697692
 30
0.0
 10
77.92943791454542
 20
-141.7567219697692
 30
0.0
 10
77.92943791454542
 20
-141.7567219697692
 30
0.0
 10
77.70516219845565
 20
-141.7567219697692
 30
0.0
 10
77.70516219845565
 20
-141.7567219697692
 30
0.0
  0
HATCH
  5
5E
330
59
100
AcDbEntity
  8
_U+30EC_U+30A4_U+30E4_U+30FC 1
 62
   179
420
  2234388
100
AcDbHatch
 10
0.0
 20
0.0
 30
0.0
210
0.0
220
0.0
230
1.0
  2
SOLID
 70
     1
 71
     0
 91
        1
 92
        1
 93
        1
 72
     4
 94
        3
 73
     0
 74
     1
 95
       26
 96
       22
 40
0.0
 40
0.0
 40
0.0
 40
0.0
 40
1.0
 40
1.0
 40
1.0
 40
2.0
 40
2.0
 40
2.0
 40
3.0
 40
3.0
 40
3.0
 40
4.0
 40
4.0
 40
4.0
 40
5.0
 40
5.0
 40
5.0
 40
6.0
 40
6.0
 40
6.0
 40
7.0
 40
7.0
 40
7.0
 40
7.0
 10
77.70516219845565
 20
-141.7567219697692
 10
77.70516219845565
 20
-141.7567219697692
 10
77.70516219845565
 20
-140.6525688667466
 10
77.70516219845565
 20
-140.6525688667466
 10
77.70516219845565
 20
-140.6525688667466
 10
77.37512205096873
 20
-140.6525688667466
 10
77.37512205096873
 20
-140.6525688667466
 10
77.37512205096873
 20
-140.6525688667466
 10
77.37512205096873
 20
-140.5044297608808
 10
77.37512205096873
 20
-140.5044297608808
 10
77.70722925574681
 20
-140.4896158502943
 10
77.75373804479769
 20
-140.326662833842
 10
77.78336586597082
 20
-140.2122856637316
 10
77.78336586597082
 20
-140.2122856637316
 10
77.92943791454542
 20
-140.2122856637316
 10
77.92943791454542
 20
-140.2122856637316
 10
77.92943791454542
 20
-140.2122856637316
 10
77.92943791454542
 20
-141.7567219697692
 10
77.92943791454542
 20
-141.7567219697692
 10
77.92943791454542
 20
-141.7567219697692
 10
77.70516219845565
 20
-141.7567219697692
 10
77.70516219845565
 20
-141.7567219697692
 97
        0
 97
        0
 75
     2
 76
     1
 98
        0
  0
SPLINE
  5
5F
330
59
100
AcDbEntity
  8
_U+30EC_U+30A4_U+30E4_U+30FC 1
370
     0
100
AcDbSpline
210
0.0
220
0.0
230
1.0
 70
    11
 71
     3
 72
    29
 73
    25
 74
     0
 42
0.0000000001
 43
0.0000000001
 12
1.0
 22
0.0
 32
0.0
 13
1.0
 23
0.0
 33
0.0
 40
0.0
 40
0.0
 40
0.0
 40
0.0
 40
1.0
 40
1.0
 40
1.0
 40
2.0
 40
2.0
 40
2.0
 40
3.0
 40
3.0
 40
3.0
 40
4.0
 40
4.0
 40
4.0
 40
5.0
 40
5.0
 40
5.0
 40
6.0
 40
6.0
 40
6.0
 40
7.0
 40
7.0
 40
7.0
 40
8.0
 40
8.0
 40
8.0
 40
8.0
 10
79.32831893633112
 20
-141.5789550427303
 30
0.0
 10
79.2204874476428
 20
-141.7884168482335
 30
0.0
 10
79.04702688996046
 20
-141.8073648734023
 30
0.0
 10
78.93058266255902
 20
-141.8073648734023
 30
0.0
 10
78.76986895817213
 20
-141.8073648734023
 30
0.0
 10
78.62810327895409
 20
-141.7608560843514
 30
0.0
 10
78.53284638878694
 20
-141.5789550427303
 30
0.0
 10
78.42932126945517
 20
-141.3843071478136
 30
0.0
 10
78.41020098951203
 20
-141.147629087977
 30
0.0
 10
78.41020098951203
 20
-140.9846760715247
 30
0.0
 10
78.41020098951203
 20
-140.8406710802412
 30
0.0
 10
78.42708195738976
 20
-140.5888346002695
 30
0.0
 10
78.53284638878694
 20
-140.3900525907706
 30
0.0
 10
78.64085013224951
 20
-140.1871364666893
 30
0.0
 10
78.80156383663642
 20
-140.1637098173896
 30
0.0
 10
78.93058266255902
 20
-140.1637098173896
 30
0.0
 10
79.08922930965478
 20
-140.1637098173896
 30
0.0
 10
79.23306204616397
 20
-140.2081515491494
 30
0.0
 10
79.32831893633112
 20
-140.3900525907706
 30
0.0
 10
79.42770994108058
 20
-140.582633428396
 30
0.0
 10
79.45096433560602
 20
-140.8110432590681
 30
0.0
 10
79.45096433560602
 20
-140.9846760715247
 30
0.0
 10
79.45096433560602
 20
-141.1558973171416
 30
0.0
 10
79.42994925314599
 20
-141.3863742051048
 30
0.0
 10
79.32831893633112
 20
-141.5789550427303
 30
0.0
  0
SPLINE
  5
60
330
59
100
AcDbEntity
  8
_U+30EC_U+30A4_U+30E4_U+30FC 1
370
     0
100
AcDbSpline
210
0.0
220
0.0
230
1.0
 70
    11
 71
     3
 72
    17
 73
    13
 74
     0
 42
0.0000000001
 43
0.0000000001
 12
1.0
 22
0.0
 32
0.0
 13
1.0
 23
0.0
 33
0.0
 40
0.0
 40
0.0
 40
0.0
 40
0.0
 40
1.0
 40
1.0
 40
1.0
 40
2.0
 40
2.0
 40
2.0
 40
3.0
 40
3.0
 40
3.0
 40
4.0
 40
4.0
 40
4.0
 40
4.0
 10
78.93058266255902
 20
-140.3562906550151
 30
0.0
 10
78.68098549465267
 20
-140.3562906550151
 30
0.0
 10
78.6344767056018
 20
-140.6398220134512
 30
0.0
 10
78.6344767056018
 20
-140.9846760715247
 30
0.0
 10
78.6344767056018
 20
-141.3040364230073
 30
0.0
 10
78.67047795342266
 20
-141.6127169784857
 30
0.0
 10
78.93058266255902
 20
-141.6127169784857
 30
0.0
 10
79.17811277317422
 20
-141.6127169784857
 30
0.0
 10
79.22686087429051
 20
-141.3315971868893
 30
0.0
 10
79.22686087429051
 20
-140.9846760715247
 30
0.0
 10
79.22686087429051
 20
-140.6649712104935
 30
0.0
 10
79.1887925691785
 20
-140.3562906550151
 30
0.0
 10
78.93058266255902
 20
-140.3562906550151
 30
0.0
  0
HATCH
  5
61
330
59
100
AcDbEntity
  8
_U+30EC_U+30A4_U+30E4_U+30FC 1
 62
   179
420
  2234388
100
AcDbHatch
 10
0.0
 20
0.0
 30
0.0
210
0.0
220
0.0
230
1.0
  2
SOLID
 70
     1
 71
     0
 91
        2
 92
        1
 93
        1
 72
     4
 94
        3
 73
     0
 74
     1
 95
       29
 96
       25
 40
0.0
 40
0.0
 40
0.0
 40
0.0
 40
1.0
 40
1.0
 40
1.0
 40
2.0
 40
2.0
 40
2.0
 40
3.0
 40
3.0
 40
3.0
 40
4.0
 40
4.0
 40
4.0
 40
5.0
 40
5.0
 40
5.0
 40
6.0
 40
6.0
 40
6.0
 40
7.0
 40
7.0
 40
7.0
 40
8.0
 40
8.0
 40
8.0
 40
8.0
 10
79.32831893633112
 20
-141.5789550427303
 10
79.2204874476428
 20
-141.7884168482335
 10
79.04702688996046
 20
-141.8073648734023
 10
78.93058266255902
 20
-141.8073648734023
 10
78.76986895817213
 20
-141.8073648734023
 10
78.62810327895409
 20
-141.7608560843514
 10
78.53284638878694
 20
-141.5789550427303
 10
78.42932126945517
 20
-141.3843071478136
 10
78.41020098951203
 20
-141.147629087977
 10
78.41020098951203
 20
-140.9846760715247
 10
78.41020098951203
 20
-140.8406710802412
 10
78.42708195738976
 20
-140.5888346002695
 10
78.53284638878694
 20
-140.3900525907706
 10
78.64085013224951
 20
-140.1871364666893
 10
78.80156383663642
 20
-140.1637098173896
 10
78.93058266255902
 20
-140.1637098173896
 10
79.08922930965478
 20
-140.1637098173896
 10
79.23306204616397
 20
-140.2081515491494
 10
79.32831893633112
 20
-140.3900525907706
 10
79.42770994108058
 20
-140.582633428396
 10
79.45096433560602
 20
-140.8110432590681
 10
79.45096433560602
 20
-140.9846760715247
 10
79.45096433560602
 20
-141.1558973171416
 10
79.42994925314599
 20
-141.3863742051048
 10
79.32831893633112
 20
-141.5789550427303
 97
        0
 97
        0
 92
        1
 93
        1
 72
     4
 94
        3
 73
     0
 74
     1
 95
       17
 96
       13
 40
0.0
 40
0.0
 40
0.0
 40
0.0
 40
1.0
 40
1.0
 40
1.0
 40
2.0
 40
2.0
 40
2.0
 40
3.0
 40
3.0
 40
3.0
 40
4.0
 40
4.0
 40
4.0
 40
4.0
 10
78.93058266255902
 20
-140.3562906550151
 10
78.68098549465267
 20
-140.3562906550151
 10
78.6344767056018
 20
-140.6398220134512
 10
78.6344767056018
 20
-140.9846760715247
 10
78.6344767056018
 20
-141.3040364230073
 10
78.67047795342266
 20
-141.6127169784857
 10
78.93058266255902
 20
-141.6127169784857
 10
79.17811277317422
 20
-141.6127169784857
 10
79.22686087429051
 20
-141.3315971868893
 10
79.22686087429051
 20
-140.9846760715247
 10
79.22686087429051
 20
-140.6649712104935
 10
79.1887925691785
 20
-140.3562906550151
 10
78.93058266255902
 20
-140.3562906550151
 97
        0
 97
        0
 75
     2
 76
     1
 98
        0
  0
ENDBLK
  5
5C
330
59
100
AcDbEntity
  8
0
100
AcDbBlockEnd
  0
BLOCK
  5
70
330
6E
100
AcDbEntity
  8
0
100
AcDbBlockBegin
  2
block 4
 70
     0
 10
0.0
 20
0.0
 30
0.0
  3
block 4
  1

  0
SPLINE
  5
72
330
6E
100
AcDbEntity
  8
_U+30EC_U+30A4_U+30E4_U+30FC 1
370
     0
100
AcDbSpline
210
0.0
220
0.0
230
1.0
 70
    11
 71
     3
 72
    44
 73
    40
 74
     0
 42
0.0000000001
 43
0.0000000001
 12
1.0
 22
0.0
 32
0.0
 13
1.0
 23
0.0
 33
0.0
 40
0.0
 40
0.0
 40
0.0
 40
0.0
 40
1.0
 40
1.0
 40
1.0
 40
2.0
 40
2.0
 40
2.0
 40
3.0
 40
3.0
 40
3.0
 40
4.0
 40
4.0
 40
4.0
 40
5.0
 40
5.0
 40
5.0
 40
6.0
 40
6.0
 40
6.0
 40
7.0
 40
7.0
 40
7.0
 40
8.0
 40
8.0
 40
8.0
 40
9.0
 40
9.0
 40
9.0
 40
10.0
 40
10.0
 40
10.0
 40
11.0
 40
11.0
 40
11.0
 40
12.0
 40
12.0
 40
12.0
 40
13.0
 40
13.0
 40
13.0
 40
13.0
 10
85.34690074906258
 20
-116.1749931892722
 30
0.0
 10
85.12899845962053
 20
-116.333639836368
 30
0.0
 10
85.03580862674453
 20
-116.4077093893009
 30
0.0
 10
84.98723278040251
 20
-116.55154212581
 30
0.0
 10
84.98723278040251
 20
-116.55154212581
 30
0.0
 10
85.7656521052947
 20
-116.55154212581
 30
0.0
 10
85.7656521052947
 20
-116.55154212581
 30
0.0
 10
85.7656521052947
 20
-116.55154212581
 30
0.0
 10
85.7656521052947
 20
-116.7566975619567
 30
0.0
 10
85.7656521052947
 20
-116.7566975619567
 30
0.0
 10
85.7656521052947
 20
-116.7566975619567
 30
0.0
 10
84.73763561249615
 20
-116.7566975619567
 30
0.0
 10
84.73763561249615
 20
-116.7566975619567
 30
0.0
 10
84.76933049096044
 20
-116.3990966505877
 30
0.0
 10
84.83495955995446
 20
-116.3208929830726
 30
0.0
 10
85.21994898043113
 20
-116.0225477140499
 30
0.0
 10
85.47591957498518
 20
-115.823765704551
 30
0.0
 10
85.54137638920494
 20
-115.7560695782659
 30
0.0
 10
85.54137638920494
 20
-115.6186102684044
 30
0.0
 10
85.54137638920494
 20
-115.5000989837118
 30
0.0
 10
85.46954614833747
 20
-115.369013100498
 30
0.0
 10
85.27283119612972
 20
-115.369013100498
 30
0.0
 10
85.01255423221909
 20
-115.369013100498
 30
0.0
 10
85.00411374828022
 20
-115.5994899884612
 30
0.0
 10
84.99980737892366
 20
-115.7159342158627
 30
0.0
 10
84.99980737892366
 20
-115.7159342158627
 30
0.0
 10
84.77570391760815
 20
-115.7159342158627
 30
0.0
 10
84.77570391760815
 20
-115.7159342158627
 30
0.0
 10
84.78414440154702
 20
-115.5889824472312
 30
0.0
 10
84.79465194277704
 20
-115.4768445891864
 30
0.0
 10
84.87509492235762
 20
-115.3583333044938
 30
0.0
 10
84.9849934683371
 20
-115.1976196001068
 30
0.0
 10
85.17120087931484
 20
-115.1636854095771
 30
0.0
 10
85.28764510671628
 20
-115.1636854095771
 30
0.0
 10
85.56480303850464
 20
-115.1636854095771
 30
0.0
 10
85.77202553194242
 20
-115.3478257632637
 30
0.0
 10
85.77202553194242
 20
-115.6206773256955
 30
0.0
 10
85.77202553194242
 20
-115.8490871563676
 30
0.0
 10
85.65575355931523
 20
-115.9486504158913
 30
0.0
 10
85.34690074906258
 20
-116.1749931892722
 30
0.0
  0
HATCH
  5
73
330
6E
100
AcDbEntity
  8
_U+30EC_U+30A4_U+30E4_U+30FC 1
 62
   179
420
  2234388
100
AcDbHatch
 10
0.0
 20
0.0
 30
0.0
210
0.0
220
0.0
230
1.0
  2
SOLID
 70
     1
 71
     0
 91
        1
 92
        1
 93
        1
 72
     4
 94
        3
 73
     0
 74
     1
 95
       44
 96
       40
 40
0.0
 40
0.0
 40
0.0
 40
0.0
 40
1.0
 40
1.0
 40
1.0
 40
2.0
 40
2.0
 40
2.0
 40
3.0
 40
3.0
 40
3.0
 40
4.0
 40
4.0
 40
4.0
 40
5.0
 40
5.0
 40
5.0
 40
6.0
 40
6.0
 40
6.0
 40
7.0
 40
7.0
 40
7.0
 40
8.0
 40
8.0
 40
8.0
 40
9.0
 40
9.0
 40
9.0
 40
10.0
 40
10.0
 40
10.0
 40
11.0
 40
11.0
 40
11.0
 40
12.0
 40
12.0
 40
12.0
 40
13.0
 40
13.0
 40
13.0
 40
13.0
 10
85.34690074906258
 20
-116.1749931892722
 10
85.12899845962053
 20
-116.333639836368
 10
85.03580862674453
 20
-116.4077093893009
 10
84.98723278040251
 20
-116.55154212581
 10
84.98723278040251
 20
-116.55154212581
 10
85.7656521052947
 20
-116.55154212581
 10
85.7656521052947
 20
-116.55154212581
 10
85.7656521052947
 20
-116.55154212581
 10
85.7656521052947
 20
-116.7566975619567
 10
85.7656521052947
 20
-116.7566975619567
 10
85.7656521052947
 20
-116.7566975619567
 10
84.73763561249615
 20
-116.7566975619567
 10
84.73763561249615
 20
-116.7566975619567
 10
84.76933049096044
 20
-116.3990966505877
 10
84.83495955995446
 20
-116.3208929830726
 10
85.21994898043113
 20
-116.0225477140499
 10
85.47591957498518
 20
-115.823765704551
 10
85.54137638920494
 20
-115.7560695782659
 10
85.54137638920494
 20
-115.6186102684044
 10
85.54137638920494
 20
-115.5000989837118
 10
85.46954614833747
 20
-115.369013100498
 10
85.27283119612972
 20
-115.369013100498
 10
85.01255423221909
 20
-115.369013100498
 10
85.00411374828022
 20
-115.5994899884612
 10
84.99980737892366
 20
-115.7159342158627
 10
84.99980737892366
 20
-115.7159342158627
 10
84.77570391760815
 20
-115.7159342158627
 10
84.77570391760815
 20
-115.7159342158627
 10
84.78414440154702
 20
-115.5889824472312
 10
84.79465194277704
 20
-115.4768445891864
 10
84.87509492235762
 20
-115.3583333044938
 10
84.9849934683371
 20
-115.1976196001068
 10
85.17120087931484
 20
-115.1636854095771
 10
85.28764510671628
 20
-115.1636854095771
 10
85.56480303850464
 20
-115.1636854095771
 10
85.77202553194242
 20
-115.3478257632637
 10
85.77202553194242
 20
-115.6206773256955
 10
85.77202553194242
 20
-115.8490871563676
 10
85.65575355931523
 20
-115.9486504158913
 10
85.34690074906258
 20
-116.1749931892722
 97
        0
 97
        0
 75
     2
 76
     1
 98
        0
  0
SPLINE
  5
74
330
6E
100
AcDbEntity
  8
_U+30EC_U+30A4_U+30E4_U+30FC 1
370
     0
100
AcDbSpline
210
0.0
220
0.0
230
1.0
 70
    11
 71
     3
 72
    53
 73
    49
 74
     0
 42
0.0000000001
 43
0.0000000001
 12
1.0
 22
0.0
 32
0.0
 13
1.0
 23
0.0
 33
0.0
 40
0.0
 40
0.0
 40
0.0
 40
0.0
 40
1.0
 40
1.0
 40
1.0
 40
2.0
 40
2.0
 40
2.0
 40
3.0
 40
3.0
 40
3.0
 40
4.0
 40
4.0
 40
4.0
 40
5.0
 40
5.0
 40
5.0
 40
6.0
 40
6.0
 40
6.0
 40
7.0
 40
7.0
 40
7.0
 40
8.0
 40
8.0
 40
8.0
 40
9.0
 40
9.0
 40
9.0
 40
10.0
 40
10.0
 40
10.0
 40
11.0
 40
11.0
 40
11.0
 40
12.0
 40
12.0
 40
12.0
 40
13.0
 40
13.0
 40
13.0
 40
14.0
 40
14.0
 40
14.0
 40
15.0
 40
15.0
 40
15.0
 40
16.0
 40
16.0
 40
16.0
 40
16.0
 10
86.41143525400479
 20
-116.8075127203641
 30
0.0
 10
86.33323158648962
 20
-116.8075127203641
 30
0.0
 10
86.23160126967474
 20
-116.7904594977121
 30
0.0
 10
86.13031546240839
 20
-116.7270697407835
 30
0.0
 10
85.9566826499518
 20
-116.6169989400298
 30
0.0
 10
85.93549531271752
 20
-116.485913056816
 30
0.0
 10
85.91654728754864
 20
-116.3780815681277
 30
0.0
 10
85.91654728754864
 20
-116.3780815681277
 30
0.0
 10
86.138583691573
 20
-116.3780815681277
 30
0.0
 10
86.138583691573
 20
-116.3780815681277
 30
0.0
 10
86.19370521933699
 20
-116.5768635776266
 30
0.0
 10
86.32048473319419
 20
-116.6064913987998
 30
0.0
 10
86.41350231129593
 20
-116.6064913987998
 30
0.0
 10
86.55337318799708
 20
-116.6064913987998
 30
0.0
 10
86.70564640844512
 20
-116.5071003940503
 30
0.0
 10
86.70564640844512
 20
-116.2743841940217
 30
0.0
 10
86.70564640844512
 20
-116.0184135994676
 30
0.0
 10
86.52581242411507
 20
-115.9486504158913
 30
0.0
 10
86.40523408213133
 20
-115.9486504158913
 30
0.0
 10
86.37353920366704
 20
-115.9486504158913
 30
0.0
 10
86.23160126967474
 20
-115.9486504158913
 30
0.0
 10
86.1427178061553
 20
-116.0776692418139
 30
0.0
 10
86.1427178061553
 20
-116.0776692418139
 30
0.0
 10
85.96736244595608
 20
-116.0585489618708
 30
0.0
 10
85.96736244595608
 20
-116.0585489618708
 30
0.0
 10
85.96736244595608
 20
-116.0585489618708
 30
0.0
 10
86.08794078793983
 20
-115.2124335106934
 30
0.0
 10
86.08794078793983
 20
-115.2124335106934
 30
0.0
 10
86.08794078793983
 20
-115.2124335106934
 30
0.0
 10
86.86653236760628
 20
-115.2124335106934
 30
0.0
 10
86.86653236760628
 20
-115.2124335106934
 30
0.0
 10
86.86653236760628
 20
-115.2124335106934
 30
0.0
 10
86.86653236760628
 20
-115.40708140561
 30
0.0
 10
86.86653236760628
 20
-115.40708140561
 30
0.0
 10
86.86653236760628
 20
-115.40708140561
 30
0.0
 10
86.25089380439213
 20
-115.40708140561
 30
0.0
 10
86.25089380439213
 20
-115.40708140561
 30
0.0
 10
86.25089380439213
 20
-115.40708140561
 30
0.0
 10
86.18509248062387
 20
-115.8301391311987
 30
0.0
 10
86.18509248062387
 20
-115.8301391311987
 30
0.0
 10
86.24641518026132
 20
-115.796204940669
 30
0.0
 10
86.32909747190732
 20
-115.7560695782659
 30
0.0
 10
86.4476087565999
 20
-115.7560695782659
 30
0.0
 10
86.70151229386282
 20
-115.7560695782659
 30
0.0
 10
86.93819035369948
 20
-115.9422769892436
 30
0.0
 10
86.93819035369948
 20
-116.2552639140786
 30
0.0
 10
86.93819035369948
 20
-116.5727294630443
 30
0.0
 10
86.71391463760972
 20
-116.8075127203641
 30
0.0
 10
86.41143525400479
 20
-116.8075127203641
 30
0.0
  0
HATCH
  5
75
330
6E
100
AcDbEntity
  8
_U+30EC_U+30A4_U+30E4_U+30FC 1
 62
   179
420
  2234388
100
AcDbHatch
 10
0.0
 20
0.0
 30
0.0
210
0.0
220
0.0
230
1.0
  2
SOLID
 70
     1
 71
     0
 91
        1
 92
        1
 93
        1
 72
     4
 94
        3
 73
     0
 74
     1
 95
       53
 96
       49
 40
0.0
 40
0.0
 40
0.0
 40
0.0
 40
1.0
 40
1.0
 40
1.0
 40
2.0
 40
2.0
 40
2.0
 40
3.0
 40
3.0
 40
3.0
 40
4.0
 40
4.0
 40
4.0
 40
5.0
 40
5.0
 40
5.0
 40
6.0
 40
6.0
 40
6.0
 40
7.0
 40
7.0
 40
7.0
 40
8.0
 40
8.0
 40
8.0
 40
9.0
 40
9.0
 40
9.0
 40
10.0
 40
10.0
 40
10.0
 40
11.0
 40
11.0
 40
11.0
 40
12.0
 40
12.0
 40
12.0
 40
13.0
 40
13.0
 40
13.0
 40
14.0
 40
14.0
 40
14.0
 40
15.0
 40
15.0
 40
15.0
 40
16.0
 40
16.0
 40
16.0
 40
16.0
 10
86.41143525400479
 20
-116.8075127203641
 10
86.33323158648962
 20
-116.8075127203641
 10
86.23160126967474
 20
-116.7904594977121
 10
86.13031546240839
 20
-116.7270697407835
 10
85.9566826499518
 20
-116.6169989400298
 10
85.93549531271752
 20
-116.485913056816
 10
85.91654728754864
 20
-116.3780815681277
 10
85.91654728754864
 20
-116.3780815681277
 10
86.138583691573
 20
-116.3780815681277
 10
86.138583691573
 20
-116.3780815681277
 10
86.19370521933699
 20
-116.5768635776266
 10
86.32048473319419
 20
-116.6064913987998
 10
86.41350231129593
 20
-116.6064913987998
 10
86.55337318799708
 20
-116.6064913987998
 10
86.70564640844512
 20
-116.5071003940503
 10
86.70564640844512
 20
-116.2743841940217
 10
86.70564640844512
 20
-116.0184135994676
 10
86.52581242411507
 20
-115.9486504158913
 10
86.40523408213133
 20
-115.9486504158913
 10
86.37353920366704
 20
-115.9486504158913
 10
86.23160126967474
 20
-115.9486504158913
 10
86.1427178061553
 20
-116.0776692418139
 10
86.1427178061553
 20
-116.0776692418139
 10
85.96736244595608
 20
-116.0585489618708
 10
85.96736244595608
 20
-116.0585489618708
 10
85.96736244595608
 20
-116.0585489618708
 10
86.08794078793983
 20
-115.2124335106934
 10
86.08794078793983
 20
-115.2124335106934
 10
86.08794078793983
 20
-115.2124335106934
 10
86.86653236760628
 20
-115.2124335106934
 10
86.86653236760628
 20
-115.2124335106934
 10
86.86653236760628
 20
-115.2124335106934
 10
86.86653236760628
 20
-115.40708140561
 10
86.86653236760628
 20
-115.40708140561
 10
86.86653236760628
 20
-115.40708140561
 10
86.25089380439213
 20
-115.40708140561
 10
86.25089380439213
 20
-115.40708140561
 10
86.25089380439213
 20
-115.40708140561
 10
86.18509248062387
 20
-115.8301391311987
 10
86.18509248062387
 20
-115.8301391311987
 10
86.24641518026132
 20
-115.796204940669
 10
86.32909747190732
 20
-115.7560695782659
 10
86.4476087565999
 20
-115.7560695782659
 10
86.70151229386282
 20
-115.7560695782659
 10
86.93819035369948
 20
-115.9422769892436
 10
86.93819035369948
 20
-116.2552639140786
 10
86.93819035369948
 20
-116.5727294630443
 10
86.71391463760972
 20
-116.8075127203641
 10
86.41143525400479
 20
-116.8075127203641
 97
        0
 97
        0
 75
     2
 76
     1
 98
        0
  0
ENDBLK
  5
71
330
6E
100
AcDbEntity
  8
0
100
AcDbBlockEnd
  0
BLOCK
  5
88
330
86
100
AcDbEntity
  8
0
100
AcDbBlockBegin
  2
block 5
 70
     0
 10
0.0
 20
0.0
 30
0.0
  3
block 5
  1

  0
SPLINE
  5
8A
330
86
100
AcDbEntity
  8
_U+30EC_U+30A4_U+30E4_U+30FC 1
370
     0
100
AcDbSpline
210
0.0
220
0.0
230
1.0
 70
    11
 71
     3
 72
    29
 73
    25
 74
     0
 42
0.0000000001
 43
0.0000000001
 12
1.0
 22
0.0
 32
0.0
 13
1.0
 23
0.0
 33
0.0
 40
0.0
 40
0.0
 40
0.0
 40
0.0
 40
1.0
 40
1.0
 40
1.0
 40
2.0
 40
2.0
 40
2.0
 40
3.0
 40
3.0
 40
3.0
 40
4.0
 40
4.0
 40
4.0
 40
5.0
 40
5.0
 40
5.0
 40
6.0
 40
6.0
 40
6.0
 40
7.0
 40
7.0
 40
7.0
 40
8.0
 40
8.0
 40
8.0
 40
8.0
 10
106.3397623432067
 20
-122.3952853426651
 30
0.0
 10
106.5492241487099
 20
-122.5034613409019
 30
0.0
 10
106.5681721738788
 20
-122.67674964381
 30
0.0
 10
106.5681721738788
 20
-122.7931938712114
 30
0.0
 10
106.5681721738788
 20
-122.9540798303726
 30
0.0
 10
106.5216633848279
 20
-123.0956732548164
 30
0.0
 10
106.3397623432067
 20
-123.1907578902093
 30
0.0
 10
106.1451144482901
 20
-123.2944552643153
 30
0.0
 10
105.9084363884535
 20
-123.3137477990327
 30
0.0
 10
105.7454833720011
 20
-123.3137477990327
 30
0.0
 10
105.6014783807177
 20
-123.3137477990327
 30
0.0
 10
105.3496419007459
 20
-123.2965223216064
 30
0.0
 10
105.150859891247
 20
-123.1907578902093
 30
0.0
 10
104.9479437671658
 20
-123.0829264015209
 30
0.0
 10
104.9245171178661
 20
-122.9220404423598
 30
0.0
 10
104.9245171178661
 20
-122.7931938712114
 30
0.0
 10
104.9245171178661
 20
-122.6343749693414
 30
0.0
 10
104.9689588496258
 20
-122.4907144876065
 30
0.0
 10
105.150859891247
 20
-122.3952853426651
 30
0.0
 10
105.3434407288725
 20
-122.2960665926899
 30
0.0
 10
105.5718505595445
 20
-122.2726399433902
 30
0.0
 10
105.7454833720011
 20
-122.2726399433902
 30
0.0
 10
105.9167046176181
 20
-122.2726399433902
 30
0.0
 10
106.1471815055813
 20
-122.2939995353987
 30
0.0
 10
106.3397623432067
 20
-122.3952853426651
 30
0.0
  0
SPLINE
  5
8B
330
86
100
AcDbEntity
  8
_U+30EC_U+30A4_U+30E4_U+30FC 1
370
     0
100
AcDbSpline
210
0.0
220
0.0
230
1.0
 70
    11
 71
     3
 72
    17
 73
    13
 74
     0
 42
0.0000000001
 43
0.0000000001
 12
1.0
 22
0.0
 32
0.0
 13
1.0
 23
0.0
 33
0.0
 40
0.0
 40
0.0
 40
0.0
 40
0.0
 40
1.0
 40
1.0
 40
1.0
 40
2.0
 40
2.0
 40
2.0
 40
3.0
 40
3.0
 40
3.0
 40
4.0
 40
4.0
 40
4.0
 40
4.0
 10
105.1170979554916
 20
-122.7931938712114
 30
0.0
 10
105.1170979554916
 20
-123.042963293892
 30
0.0
 10
105.4006293139276
 20
-123.0894720829429
 30
0.0
 10
105.7454833720011
 20
-123.0894720829429
 30
0.0
 10
106.0648437234838
 20
-123.0894720829429
 30
0.0
 10
106.3735242789622
 20
-123.0532985803478
 30
0.0
 10
106.3735242789622
 20
-122.7931938712114
 30
0.0
 10
106.3735242789622
 20
-122.545491505822
 30
0.0
 10
106.0924044873658
 20
-122.4969156594799
 30
0.0
 10
105.7454833720011
 20
-122.4969156594799
 30
0.0
 10
105.4257785109699
 20
-122.4969156594799
 30
0.0
 10
105.1170979554916
 20
-122.5351562193662
 30
0.0
 10
105.1170979554916
 20
-122.7931938712114
 30
0.0
  0
HATCH
  5
8C
330
86
100
AcDbEntity
  8
_U+30EC_U+30A4_U+30E4_U+30FC 1
 62
   179
420
  2234388
100
AcDbHatch
 10
0.0
 20
0.0
 30
0.0
210
0.0
220
0.0
230
1.0
  2
SOLID
 70
     1
 71
     0
 91
        2
 92
        1
 93
        1
 72
     4
 94
        3
 73
     0
 74
     1
 95
       29
 96
       25
 40
0.0
 40
0.0
 40
0.0
 40
0.0
 40
1.0
 40
1.0
 40
1.0
 40
2.0
 40
2.0
 40
2.0
 40
3.0
 40
3.0
 40
3.0
 40
4.0
 40
4.0
 40
4.0
 40
5.0
 40
5.0
 40
5.0
 40
6.0
 40
6.0
 40
6.0
 40
7.0
 40
7.0
 40
7.0
 40
8.0
 40
8.0
 40
8.0
 40
8.0
 10
106.3397623432067
 20
-122.3952853426651
 10
106.5492241487099
 20
-122.5034613409019
 10
106.5681721738788
 20
-122.67674964381
 10
106.5681721738788
 20
-122.7931938712114
 10
106.5681721738788
 20
-122.9540798303726
 10
106.5216633848279
 20
-123.0956732548164
 10
106.3397623432067
 20
-123.1907578902093
 10
106.1451144482901
 20
-123.2944552643153
 10
105.9084363884535
 20
-123.3137477990327
 10
105.7454833720011
 20
-123.3137477990327
 10
105.6014783807177
 20
-123.3137477990327
 10
105.3496419007459
 20
-123.2965223216064
 10
105.150859891247
 20
-123.1907578902093
 10
104.9479437671658
 20
-123.0829264015209
 10
104.9245171178661
 20
-122.9220404423598
 10
104.9245171178661
 20
-122.7931938712114
 10
104.9245171178661
 20
-122.6343749693414
 10
104.9689588496258
 20
-122.4907144876065
 10
105.150859891247
 20
-122.3952853426651
 10
105.3434407288725
 20
-122.2960665926899
 10
105.5718505595445
 20
-122.2726399433902
 10
105.7454833720011
 20
-122.2726399433902
 10
105.9167046176181
 20
-122.2726399433902
 10
106.1471815055813
 20
-122.2939995353987
 10
106.3397623432067
 20
-122.3952853426651
 97
        0
 97
        0
 92
        1
 93
        1
 72
     4
 94
        3
 73
     0
 74
     1
 95
       17
 96
       13
 40
0.0
 40
0.0
 40
0.0
 40
0.0
 40
1.0
 40
1.0
 40
1.0
 40
2.0
 40
2.0
 40
2.0
 40
3.0
 40
3.0
 40
3.0
 40
4.0
 40
4.0
 40
4.0
 40
4.0
 10
105.1170979554916
 20
-122.7931938712114
 10
105.1170979554916
 20
-123.042963293892
 10
105.4006293139276
 20
-123.0894720829429
 10
105.7454833720011
 20
-123.0894720829429
 10
106.0648437234838
 20
-123.0894720829429
 10
106.3735242789622
 20
-123.0532985803478
 10
106.3735242789622
 20
-122.7931938712114
 10
106.3735242789622
 20
-122.545491505822
 10
106.0924044873658
 20
-122.4969156594799
 10
105.7454833720011
 20
-122.4969156594799
 10
105.4257785109699
 20
-122.4969156594799
 10
105.1170979554916
 20
-122.5351562193662
 10
105.1170979554916
 20
-122.7931938712114
 97
        0
 97
        0
 75
     2
 76
     1
 98
        0
  0
POLYLINE
  5
8D
330
86
100
AcDbEntity
  8
_U+30EC_U+30A4_U+30E4_U+30FC 1
370
     0
100
AcDb2dPolyline
 66
     1
 10
0.0
 20
0.0
 30
0.0
  0
VERTEX
  5
8E
330
8D
100
AcDbEntity
  8
_U+30EC_U+30A4_U+30E4_U+30FC 1
370
     0
100
AcDbVertex
100
AcDb2dVertex
 10
106.5175292702456
 20
-122.0562879469165
 30
0.0
  0
VERTEX
  5
8F
330
8D
100
AcDbEntity
  8
_U+30EC_U+30A4_U+30E4_U+30FC 1
370
     0
100
AcDbVertex
100
AcDb2dVertex
 10
106.2656927902739
 20
-122.0562879469165
 30
0.0
  0
VERTEX
  5
90
330
8D
100
AcDbEntity
  8
_U+30EC_U+30A4_U+30E4_U+30FC 1
370
     0
100
AcDbVertex
100
AcDb2dVertex
 10
106.2656927902739
 20
-121.8044514669447
 30
0.0
  0
VERTEX
  5
91
330
8D
100
AcDbEntity
  8
_U+30EC_U+30A4_U+30E4_U+30FC 1
370
     0
100
AcDbVertex
100
AcDb2dVertex
 10
106.5175292702456
 20
-121.8044514669447
 30
0.0
  0
VERTEX
  5
92
330
8D
100
AcDbEntity
  8
_U+30EC_U+30A4_U+30E4_U+30FC 1
370
     0
100
AcDbVertex
100
AcDb2dVertex
 10
106.5175292702456
 20
-122.0562879469165
 30
0.0
  0
SEQEND
  5
93
330
8D
100
AcDbEntity
  8
_U+30EC_U+30A4_U+30E4_U+30FC 1
370
     0
  0
HATCH
  5
94
330
86
100
AcDbEntity
  8
_U+30EC_U+30A4_U+30E4_U+30FC 1
 62
   179
420
  2234388
100
AcDbHatch
 10
0.0
 20
0.0
 30
0.0
210
0.0
220
0.0
230
1.0
  2
SOLID
 70
     1
 71
     0
 91
        1
 92
        1
 93
        4
 72
     1
 10
106.5175292702456
 20
-122.0562879469165
 11
106.2656927902739
 21
-122.0562879469165
 72
     1
 10
106.2656927902739
 20
-122.0562879469165
 11
106.2656927902739
 21
-121.8044514669447
 72
     1
 10
106.2656927902739
 20
-121.8044514669447
 11
106.5175292702456
 21
-121.8044514669447
 72
     1
 10
106.5175292702456
 20
-121.8044514669447
 11
106.5175292702456
 21
-122.0562879469165
 97
        0
 75
     2
 76
     1
 98
        0
  0
SPLINE
  5
95
330
86
100
AcDbEntity
  8
_U+30EC_U+30A4_U+30E4_U+30FC 1
370
     0
100
AcDbSpline
210
0.0
220
0.0
230
1.0
 70
    11
 71
     3
 72
    32
 73
    28
 74
     0
 42
0.0000000001
 43
0.0000000001
 12
1.0
 22
0.0
 32
0.0
 13
1.0
 23
0.0
 33
0.0
 40
0.0
 40
0.0
 40
0.0
 40
0.0
 40
1.0
 40
1.0
 40
1.0
 40
2.0
 40
2.0
 40
2.0
 40
3.0
 40
3.0
 40
3.0
 40
4.0
 40
4.0
 40
4.0
 40
5.0
 40
5.0
 40
5.0
 40
6.0
 40
6.0
 40
6.0
 40
7.0
 40
7.0
 40
7.0
 40
8.0
 40
8.0
 40
8.0
 40
9.0
 40
9.0
 40
9.0
 40
9.0
 10
106.5681721738788
 20
-121.1106092362154
 30
0.0
 10
106.5681721738788
 20
-121.2838975391235
 30
0.0
 10
106.4985812450767
 20
-121.5295328472218
 30
0.0
 10
106.1664740402987
 20
-121.5674288975595
 30
0.0
 10
106.1664740402987
 20
-121.5674288975595
 30
0.0
 10
106.1664740402987
 20
-121.353832977474
 30
0.0
 10
106.1664740402987
 20
-121.353832977474
 30
0.0
 10
106.225729682645
 20
-121.3431531814698
 30
0.0
 10
106.3735242789622
 20
-121.3114583030055
 30
0.0
 10
106.3735242789622
 20
-121.1085421789243
 30
0.0
 10
106.3735242789622
 20
-120.8163980817751
 30
0.0
 10
106.0434841314752
 20
-120.7785020314373
 30
0.0
 10
105.8385009501029
 20
-120.7657551781419
 30
0.0
 10
105.9187716749092
 20
-120.8567056989525
 30
0.0
 10
105.9759602599644
 20
-120.9242295704634
 30
0.0
 10
105.9759602599644
 20
-121.1061306120846
 30
0.0
 10
105.9759602599644
 20
-121.2859645964146
 30
0.0
 10
105.8701958285672
 20
-121.5884439800196
 30
0.0
 10
105.4640190708562
 20
-121.5884439800196
 30
0.0
 10
105.1446587193736
 20
-121.5884439800196
 30
0.0
 10
104.9245171178661
 20
-121.3896619705206
 30
0.0
 10
104.9245171178661
 20
-121.0723686763291
 30
0.0
 10
104.9245171178661
 20
-120.5583604299299
 30
0.0
 10
105.4788329814428
 20
-120.5476806339256
 30
0.0
 10
105.6924289015283
 20
-120.5476806339256
 30
0.0
 10
105.9229057894915
 20
-120.5476806339256
 30
0.0
 10
106.5681721738788
 20
-120.566973168643
 30
0.0
 10
106.5681721738788
 20
-121.1106092362154
 30
0.0
  0
SPLINE
  5
96
330
86
100
AcDbEntity
  8
_U+30EC_U+30A4_U+30E4_U+30FC 1
370
     0
100
AcDbSpline
210
0.0
220
0.0
230
1.0
 70
    11
 71
     3
 72
    17
 73
    13
 74
     0
 42
0.0000000001
 43
0.0000000001
 12
1.0
 22
0.0
 32
0.0
 13
1.0
 23
0.0
 33
0.0
 40
0.0
 40
0.0
 40
0.0
 40
0.0
 40
1.0
 40
1.0
 40
1.0
 40
2.0
 40
2.0
 40
2.0
 40
3.0
 40
3.0
 40
3.0
 40
4.0
 40
4.0
 40
4.0
 40
4.0
 10
105.1170979554916
 20
-121.070301619038
 30
0.0
 10
105.1170979554916
 20
-121.1888129037306
 30
0.0
 10
105.1742865405467
 20
-121.3645127734783
 30
0.0
 10
105.4598849562739
 20
-121.3645127734783
 30
0.0
 10
105.6862277296548
 20
-121.3645127734783
 30
0.0
 10
105.7813123650477
 20
-121.2246418967772
 30
0.0
 10
105.7813123650477
 20
-121.0892496442069
 30
0.0
 10
105.7813123650477
 20
-120.8270778777793
 30
0.0
 10
105.5718505595445
 20
-120.7888373178931
 30
0.0
 10
105.4554063321431
 20
-120.7888373178931
 30
0.0
 10
105.2800509719439
 20
-120.7888373178931
 30
0.0
 10
105.1170979554916
 20
-120.8842664628345
 30
0.0
 10
105.1170979554916
 20
-121.070301619038
 30
0.0
  0
HATCH
  5
97
330
86
100
AcDbEntity
  8
_U+30EC_U+30A4_U+30E4_U+30FC 1
 62
   179
420
  2234388
100
AcDbHatch
 10
0.0
 20
0.0
 30
0.0
210
0.0
220
0.0
230
1.0
  2
SOLID
 70
     1
 71
     0
 91
        2
 92
        1
 93
        1
 72
     4
 94
        3
 73
     0
 74
     1
 95
       32
 96
       28
 40
0.0
 40
0.0
 40
0.0
 40
0.0
 40
1.0
 40
1.0
 40
1.0
 40
2.0
 40
2.0
 40
2.0
 40
3.0
 40
3.0
 40
3.0
 40
4.0
 40
4.0
 40
4.0
 40
5.0
 40
5.0
 40
5.0
 40
6.0
 40
6.0
 40
6.0
 40
7.0
 40
7.0
 40
7.0
 40
8.0
 40
8.0
 40
8.0
 40
9.0
 40
9.0
 40
9.0
 40
9.0
 10
106.5681721738788
 20
-121.1106092362154
 10
106.5681721738788
 20
-121.2838975391235
 10
106.4985812450767
 20
-121.5295328472218
 10
106.1664740402987
 20
-121.5674288975595
 10
106.1664740402987
 20
-121.5674288975595
 10
106.1664740402987
 20
-121.353832977474
 10
106.1664740402987
 20
-121.353832977474
 10
106.225729682645
 20
-121.3431531814698
 10
106.3735242789622
 20
-121.3114583030055
 10
106.3735242789622
 20
-121.1085421789243
 10
106.3735242789622
 20
-120.8163980817751
 10
106.0434841314752
 20
-120.7785020314373
 10
105.8385009501029
 20
-120.7657551781419
 10
105.9187716749092
 20
-120.8567056989525
 10
105.9759602599644
 20
-120.9242295704634
 10
105.9759602599644
 20
-121.1061306120846
 10
105.9759602599644
 20
-121.2859645964146
 10
105.8701958285672
 20
-121.5884439800196
 10
105.4640190708562
 20
-121.5884439800196
 10
105.1446587193736
 20
-121.5884439800196
 10
104.9245171178661
 20
-121.3896619705206
 10
104.9245171178661
 20
-121.0723686763291
 10
104.9245171178661
 20
-120.5583604299299
 10
105.4788329814428
 20
-120.5476806339256
 10
105.6924289015283
 20
-120.5476806339256
 10
105.9229057894915
 20
-120.5476806339256
 10
106.5681721738788
 20
-120.566973168643
 10
106.5681721738788
 20
-121.1106092362154
 97
        0
 97
        0
 92
        1
 93
        1
 72
     4
 94
        3
 73
     0
 74
     1
 95
       17
 96
       13
 40
0.0
 40
0.0
 40
0.0
 40
0.0
 40
1.0
 40
1.0
 40
1.0
 40
2.0
 40
2.0
 40
2.0
 40
3.0
 40
3.0
 40
3.0
 40
4.0
 40
4.0
 40
4.0
 40
4.0
 10
105.1170979554916
 20
-121.070301619038
 10
105.1170979554916
 20
-121.1888129037306
 10
105.1742865405467
 20
-121.3645127734783
 10
105.4598849562739
 20
-121.3645127734783
 10
105.6862277296548
 20
-121.3645127734783
 10
105.7813123650477
 20
-121.2246418967772
 10
105.7813123650477
 20
-121.0892496442069
 10
105.7813123650477
 20
-120.8270778777793
 10
105.5718505595445
 20
-120.7888373178931
 10
105.4554063321431
 20
-120.7888373178931
 10
105.2800509719439
 20
-120.7888373178931
 10
105.1170979554916
 20
-120.8842664628345
 10
105.1170979554916
 20
-121.070301619038
 97
        0
 97
        0
 75
     2
 76
     1
 98
        0
  0
ENDBLK
  5
89
330
86
100
AcDbEntity
  8
0
100
AcDbBlockEnd
  0
BLOCK
  5
A2
330
A0
100
AcDbEntity
  8
0
100
AcDbBlockBegin
  2
block 6
 70
     0
 10
0.0
 20
0.0
 30
0.0
  3
block 6
  1

  0
SPLINE
  5
A4
330
A0
100
AcDbEntity
  8
_U+30EC_U+30A4_U+30E4_U+30FC 1
370
     0
100
AcDbSpline
210
0.0
220
0.0
230
1.0
 70
    11
 71
     3
 72
    62
 73
    58
 74
     0
 42
0.0000000001
 43
0.0000000001
 12
1.0
 22
0.0
 32
0.0
 13
1.0
 23
0.0
 33
0.0
 40
0.0
 40
0.0
 40
0.0
 40
0.0
 40
1.0
 40
1.0
 40
1.0
 40
2.0
 40
2.0
 40
2.0
 40
3.0
 40
3.0
 40
3.0
 40
4.0
 40
4.0
 40
4.0
 40
5.0
 40
5.0
 40
5.0
 40
6.0
 40
6.0
 40
6.0
 40
7.0
 40
7.0
 40
7.0
 40
8.0
 40
8.0
 40
8.0
 40
9.0
 40
9.0
 40
9.0
 40
10.0
 40
10.0
 40
10.0
 40
11.0
 40
11.0
 40
11.0
 40
12.0
 40
12.0
 40
12.0
 40
13.0
 40
13.0
 40
13.0
 40
14.0
 40
14.0
 40
14.0
 40
15.0
 40
15.0
 40
15.0
 40
16.0
 40
16.0
 40
16.0
 40
17.0
 40
17.0
 40
17.0
 40
18.0
 40
18.0
 40
18.0
 40
19.0
 40
19.0
 40
19.0
 40
19.0
 10
101.7467610422716
 20
-136.9111951697653
 30
0.0
 10
101.7467610422716
 20
-137.0066243147067
 30
0.0
 10
101.7257459598116
 20
-137.2243543493745
 30
0.0
 10
101.5397108036081
 20
-137.349411315489
 30
0.0
 10
101.427400690789
 20
-137.4234808684219
 30
0.0
 10
101.3281819408138
 20
-137.4276149830042
 30
0.0
 10
101.2434325918766
 20
-137.4317490975865
 30
0.0
 10
101.2434325918766
 20
-137.4317490975865
 30
0.0
 10
101.2434325918766
 20
-137.211607496079
 30
0.0
 10
101.2434325918766
 20
-137.211607496079
 30
0.0
 10
101.3175021448095
 20
-137.2095404387879
 30
0.0
 10
101.552113147355
 20
-137.1992051523322
 30
0.0
 10
101.552113147355
 20
-136.9156737938961
 30
0.0
 10
101.552113147355
 20
-136.7782144840346
 30
0.0
 10
101.482522218553
 20
-136.625596754038
 30
0.0
 10
101.2541123878809
 20
-136.625596754038
 30
0.0
 10
101.1376681604795
 20
-136.625596754038
 30
0.0
 10
101.0890923141375
 20
-136.6638373139243
 30
0.0
 10
101.0573974356732
 20
-136.6955321923886
 30
0.0
 10
100.9833278827403
 20
-136.7696017453215
 30
0.0
 10
100.9705810294449
 20
-136.8860459727229
 30
0.0
 10
100.9705810294449
 20
-136.9408229909384
 30
0.0
 10
100.9705810294449
 20
-136.9601155256558
 30
0.0
 10
100.972648086736
 20
-136.9959445187024
 30
0.0
 10
100.9767822013183
 20
-137.0235052825844
 30
0.0
 10
100.9767822013183
 20
-137.0235052825844
 30
0.0
 10
100.7821343064017
 20
-137.0235052825844
 30
0.0
 10
100.7821343064017
 20
-137.0235052825844
 30
0.0
 10
100.7886799878237
 20
-136.9852647226981
 30
0.0
 10
100.7907470451148
 20
-136.9432345577781
 30
0.0
 10
100.7907470451148
 20
-136.9366888763561
 30
0.0
 10
100.7907470451148
 20
-136.8712320621364
 30
0.0
 10
100.7693874531063
 20
-136.6724500526375
 30
0.0
 10
100.5327093932696
 20
-136.6724500526375
 30
0.0
 10
100.3549424662307
 20
-136.6724500526375
 30
0.0
 10
100.2998209384667
 20
-136.8033636810769
 30
0.0
 10
100.2998209384667
 20
-136.9136067366049
 30
0.0
 10
100.2998209384667
 20
-137.1778455603236
 30
0.0
 10
100.5327093932696
 20
-137.1864582990367
 30
0.0
 10
100.6043673793628
 20
-137.190592413619
 30
0.0
 10
100.6043673793628
 20
-137.190592413619
 30
0.0
 10
100.6043673793628
 20
-137.3938530472488
 30
0.0
 10
100.6043673793628
 20
-137.3938530472488
 30
0.0
 10
100.4796549227968
 20
-137.3852403085356
 30
0.0
 10
100.103105986259
 20
-137.3576795446536
 30
0.0
 10
100.103105986259
 20
-136.9008598833095
 30
0.0
 10
100.103105986259
 20
-136.6765841672197
 30
0.0
 10
100.2302300096647
 20
-136.4354274832523
 30
0.0
 10
100.5261637118476
 20
-136.4354274832523
 30
0.0
 10
100.7125433775996
 20
-136.4354274832523
 30
0.0
 10
100.7948811596971
 20
-136.5305121186452
 30
0.0
 10
100.8562038593346
 20
-136.6300753781689
 30
0.0
 10
100.8837646232166
 20
-136.5687526785314
 30
0.0
 10
100.9640353480229
 20
-136.3868516369103
 30
0.0
 10
101.2413655345855
 20
-136.3868516369103
 30
0.0
 10
101.579673911237
 20
-136.3868516369103
 30
0.0
 10
101.7467610422716
 20
-136.6342094927512
 30
0.0
 10
101.7467610422716
 20
-136.9111951697653
 30
0.0
  0
HATCH
  5
A5
330
A0
100
AcDbEntity
  8
_U+30EC_U+30A4_U+30E4_U+30FC 1
 62
   179
420
  2234388
100
AcDbHatch
 10
0.0
 20
0.0
 30
0.0
210
0.0
220
0.0
230
1.0
  2
SOLID
 70
     1
 71
     0
 91
        1
 92
        1
 93
        1
 72
     4
 94
        3
 73
     0
 74
     1
 95
       62
 96
       58
 40
0.0
 40
0.0
 40
0.0
 40
0.0
 40
1.0
 40
1.0
 40
1.0
 40
2.0
 40
2.0
 40
2.0
 40
3.0
 40
3.0
 40
3.0
 40
4.0
 40
4.0
 40
4.0
 40
5.0
 40
5.0
 40
5.0
 40
6.0
 40
6.0
 40
6.0
 40
7.0
 40
7.0
 40
7.0
 40
8.0
 40
8.0
 40
8.0
 40
9.0
 40
9.0
 40
9.0
 40
10.0
 40
10.0
 40
10.0
 40
11.0
 40
11.0
 40
11.0
 40
12.0
 40
12.0
 40
12.0
 40
13.0
 40
13.0
 40
13.0
 40
14.0
 40
14.0
 40
14.0
 40
15.0
 40
15.0
 40
15.0
 40
16.0
 40
16.0
 40
16.0
 40
17.0
 40
17.0
 40
17.0
 40
18.0
 40
18.0
 40
18.0
 40
19.0
 40
19.0
 40
19.0
 40
19.0
 10
101.7467610422716
 20
-136.9111951697653
 10
101.7467610422716
 20
-137.0066243147067
 10
101.7257459598116
 20
-137.2243543493745
 10
101.5397108036081
 20
-137.349411315489
 10
101.427400690789
 20
-137.4234808684219
 10
101.3281819408138
 20
-137.4276149830042
 10
101.2434325918766
 20
-137.4317490975865
 10
101.2434325918766
 20
-137.4317490975865
 10
101.2434325918766
 20
-137.211607496079
 10
101.2434325918766
 20
-137.211607496079
 10
101.3175021448095
 20
-137.2095404387879
 10
101.552113147355
 20
-137.1992051523322
 10
101.552113147355
 20
-136.9156737938961
 10
101.552113147355
 20
-136.7782144840346
 10
101.482522218553
 20
-136.625596754038
 10
101.2541123878809
 20
-136.625596754038
 10
101.1376681604795
 20
-136.625596754038
 10
101.0890923141375
 20
-136.6638373139243
 10
101.0573974356732
 20
-136.6955321923886
 10
100.9833278827403
 20
-136.7696017453215
 10
100.9705810294449
 20
-136.8860459727229
 10
100.9705810294449
 20
-136.9408229909384
 10
100.9705810294449
 20
-136.9601155256558
 10
100.972648086736
 20
-136.9959445187024
 10
100.9767822013183
 20
-137.0235052825844
 10
100.9767822013183
 20
-137.0235052825844
 10
100.7821343064017
 20
-137.0235052825844
 10
100.7821343064017
 20
-137.0235052825844
 10
100.7886799878237
 20
-136.9852647226981
 10
100.7907470451148
 20
-136.9432345577781
 10
100.7907470451148
 20
-136.9366888763561
 10
100.7907470451148
 20
-136.8712320621364
 10
100.7693874531063
 20
-136.6724500526375
 10
100.5327093932696
 20
-136.6724500526375
 10
100.3549424662307
 20
-136.6724500526375
 10
100.2998209384667
 20
-136.8033636810769
 10
100.2998209384667
 20
-136.9136067366049
 10
100.2998209384667
 20
-137.1778455603236
 10
100.5327093932696
 20
-137.1864582990367
 10
100.6043673793628
 20
-137.190592413619
 10
100.6043673793628
 20
-137.190592413619
 10
100.6043673793628
 20
-137.3938530472488
 10
100.6043673793628
 20
-137.3938530472488
 10
100.4796549227968
 20
-137.3852403085356
 10
100.103105986259
 20
-137.3576795446536
 10
100.103105986259
 20
-136.9008598833095
 10
100.103105986259
 20
-136.6765841672197
 10
100.2302300096647
 20
-136.4354274832523
 10
100.5261637118476
 20
-136.4354274832523
 10
100.7125433775996
 20
-136.4354274832523
 10
100.7948811596971
 20
-136.5305121186452
 10
100.8562038593346
 20
-136.6300753781689
 10
100.8837646232166
 20
-136.5687526785314
 10
100.9640353480229
 20
-136.3868516369103
 10
101.2413655345855
 20
-136.3868516369103
 10
101.579673911237
 20
-136.3868516369103
 10
101.7467610422716
 20
-136.6342094927512
 10
101.7467610422716
 20
-136.9111951697653
 97
        0
 97
        0
 75
     2
 76
     1
 98
        0
  0
ENDBLK
  5
A3
330
A0
100
AcDbEntity
  8
0
100
AcDbBlockEnd
  0
BLOCK
  5
B0
330
AE
100
AcDbEntity
  8
0
100
AcDbBlockBegin
  2
block 7
 70
     0
 10
0.0
 20
0.0
 30
0.0
  3
block 7
  1

  0
SPLINE
  5
B2
330
AE
100
AcDbEntity
  8
_U+30EC_U+30A4_U+30E4_U+30FC 1
370
     0
100
AcDbSpline
210
0.0
220
0.0
230
1.0
 70
    11
 71
     3
 72
    26
 73
    22
 74
     0
 42
0.0000000001
 43
0.0000000001
 12
1.0
 22
0.0
 32
0.0
 13
1.0
 23
0.0
 33
0.0
 40
0.0
 40
0.0
 40
0.0
 40
0.0
 40
1.0
 40
1.0
 40
1.0
 40
2.0
 40
2.0
 40
2.0
 40
3.0
 40
3.0
 40
3.0
 40
4.0
 40
4.0
 40
4.0
 40
5.0
 40
5.0
 40
5.0
 40
6.0
 40
6.0
 40
6.0
 40
7.0
 40
7.0
 40
7.0
 40
7.0
 10
101.6961181386385
 20
-129.5400688695247
 30
0.0
 10
101.6961181386385
 20
-129.5400688695247
 30
0.0
 10
100.5919650356159
 20
-129.5400688695247
 30
0.0
 10
100.5919650356159
 20
-129.5400688695247
 30
0.0
 10
100.5919650356159
 20
-129.5400688695247
 30
0.0
 10
100.5919650356159
 20
-129.8701090170117
 30
0.0
 10
100.5919650356159
 20
-129.8701090170117
 30
0.0
 10
100.5919650356159
 20
-129.8701090170117
 30
0.0
 10
100.4438259297502
 20
-129.8701090170117
 30
0.0
 10
100.4438259297502
 20
-129.8701090170117
 30
0.0
 10
100.4290120191636
 20
-129.5380018122336
 30
0.0
 10
100.2660590027113
 20
-129.4914930231827
 30
0.0
 10
100.151681832601
 20
-129.4618652020095
 30
0.0
 10
100.151681832601
 20
-129.4618652020095
 30
0.0
 10
100.151681832601
 20
-129.315793153435
 30
0.0
 10
100.151681832601
 20
-129.315793153435
 30
0.0
 10
100.151681832601
 20
-129.315793153435
 30
0.0
 10
101.6961181386385
 20
-129.315793153435
 30
0.0
 10
101.6961181386385
 20
-129.315793153435
 30
0.0
 10
101.6961181386385
 20
-129.315793153435
 30
0.0
 10
101.6961181386385
 20
-129.5400688695247
 30
0.0
 10
101.6961181386385
 20
-129.5400688695247
 30
0.0
  0
HATCH
  5
B3
330
AE
100
AcDbEntity
  8
_U+30EC_U+30A4_U+30E4_U+30FC 1
 62
   179
420
  2234388
100
AcDbHatch
 10
0.0
 20
0.0
 30
0.0
210
0.0
220
0.0
230
1.0
  2
SOLID
 70
     1
 71
     0
 91
        1
 92
        1
 93
        1
 72
     4
 94
        3
 73
     0
 74
     1
 95
       26
 96
       22
 40
0.0
 40
0.0
 40
0.0
 40
0.0
 40
1.0
 40
1.0
 40
1.0
 40
2.0
 40
2.0
 40
2.0
 40
3.0
 40
3.0
 40
3.0
 40
4.0
 40
4.0
 40
4.0
 40
5.0
 40
5.0
 40
5.0
 40
6.0
 40
6.0
 40
6.0
 40
7.0
 40
7.0
 40
7.0
 40
7.0
 10
101.6961181386385
 20
-129.5400688695247
 10
101.6961181386385
 20
-129.5400688695247
 10
100.5919650356159
 20
-129.5400688695247
 10
100.5919650356159
 20
-129.5400688695247
 10
100.5919650356159
 20
-129.5400688695247
 10
100.5919650356159
 20
-129.8701090170117
 10
100.5919650356159
 20
-129.8701090170117
 10
100.5919650356159
 20
-129.8701090170117
 10
100.4438259297502
 20
-129.8701090170117
 10
100.4438259297502
 20
-129.8701090170117
 10
100.4290120191636
 20
-129.5380018122336
 10
100.2660590027113
 20
-129.4914930231827
 10
100.151681832601
 20
-129.4618652020095
 10
100.151681832601
 20
-129.4618652020095
 10
100.151681832601
 20
-129.315793153435
 10
100.151681832601
 20
-129.315793153435
 10
100.151681832601
 20
-129.315793153435
 10
101.6961181386385
 20
-129.315793153435
 10
101.6961181386385
 20
-129.315793153435
 10
101.6961181386385
 20
-129.315793153435
 10
101.6961181386385
 20
-129.5400688695247
 10
101.6961181386385
 20
-129.5400688695247
 97
        0
 97
        0
 75
     2
 76
     1
 98
        0
  0
SPLINE
  5
B4
330
AE
100
AcDbEntity
  8
_U+30EC_U+30A4_U+30E4_U+30FC 1
370
     0
100
AcDbSpline
210
0.0
220
0.0
230
1.0
 70
    11
 71
     3
 72
    62
 73
    58
 74
     0
 42
0.0000000001
 43
0.0000000001
 12
1.0
 22
0.0
 32
0.0
 13
1.0
 23
0.0
 33
0.0
 40
0.0
 40
0.0
 40
0.0
 40
0.0
 40
1.0
 40
1.0
 40
1.0
 40
2.0
 40
2.0
 40
2.0
 40
3.0
 40
3.0
 40
3.0
 40
4.0
 40
4.0
 40
4.0
 40
5.0
 40
5.0
 40
5.0
 40
6.0
 40
6.0
 40
6.0
 40
7.0
 40
7.0
 40
7.0
 40
8.0
 40
8.0
 40
8.0
 40
9.0
 40
9.0
 40
9.0
 40
10.0
 40
10.0
 40
10.0
 40
11.0
 40
11.0
 40
11.0
 40
12.0
 40
12.0
 40
12.0
 40
13.0
 40
13.0
 40
13.0
 40
14.0
 40
14.0
 40
14.0
 40
15.0
 40
15.0
 40
15.0
 40
16.0
 40
16.0
 40
16.0
 40
17.0
 40
17.0
 40
17.0
 40
18.0
 40
18.0
 40
18.0
 40
19.0
 40
19.0
 40
19.0
 40
19.0
 10
101.7467610422716
 20
-128.3229166345859
 30
0.0
 10
101.7467610422716
 20
-128.4183457795274
 30
0.0
 10
101.7257459598116
 20
-128.6360758141952
 30
0.0
 10
101.5397108036081
 20
-128.7611327803097
 30
0.0
 10
101.427400690789
 20
-128.8348578236941
 30
0.0
 10
101.3281819408138
 20
-128.8393364478249
 30
0.0
 10
101.2434325918766
 20
-128.8434705624072
 30
0.0
 10
101.2434325918766
 20
-128.8434705624072
 30
0.0
 10
101.2434325918766
 20
-128.6233289608997
 30
0.0
 10
101.2434325918766
 20
-128.6233289608997
 30
0.0
 10
101.3175021448095
 20
-128.6212619036086
 30
0.0
 10
101.552113147355
 20
-128.6109266171528
 30
0.0
 10
101.552113147355
 20
-128.3273952587168
 30
0.0
 10
101.552113147355
 20
-128.1899359488553
 30
0.0
 10
101.482522218553
 20
-128.0373182188587
 30
0.0
 10
101.2541123878809
 20
-128.0373182188587
 30
0.0
 10
101.1376681604795
 20
-128.0373182188587
 30
0.0
 10
101.0890923141375
 20
-128.075558778745
 30
0.0
 10
101.0573974356732
 20
-128.1072536572093
 30
0.0
 10
100.9833278827403
 20
-128.1813232101422
 30
0.0
 10
100.9705810294449
 20
-128.2977674375436
 30
0.0
 10
100.9705810294449
 20
-128.3525444557591
 30
0.0
 10
100.9705810294449
 20
-128.3718369904765
 30
0.0
 10
100.972648086736
 20
-128.4076659835231
 30
0.0
 10
100.9767822013183
 20
-128.4352267474051
 30
0.0
 10
100.9767822013183
 20
-128.4352267474051
 30
0.0
 10
100.7821343064017
 20
-128.4352267474051
 30
0.0
 10
100.7821343064017
 20
-128.4352267474051
 30
0.0
 10
100.7886799878237
 20
-128.3969861875188
 30
0.0
 10
100.7907470451148
 20
-128.3549560225988
 30
0.0
 10
100.7907470451148
 20
-128.3484103411768
 30
0.0
 10
100.7907470451148
 20
-128.282953526957
 30
0.0
 10
100.7693874531063
 20
-128.0841715174581
 30
0.0
 10
100.5327093932696
 20
-128.0841715174581
 30
0.0
 10
100.3549424662307
 20
-128.0841715174581
 30
0.0
 10
100.2998209384667
 20
-128.2150851458976
 30
0.0
 10
100.2998209384667
 20
-128.3253282014256
 30
0.0
 10
100.2998209384667
 20
-128.5895670251443
 30
0.0
 10
100.5327093932696
 20
-128.5981797638574
 30
0.0
 10
100.6043673793628
 20
-128.6023138784397
 30
0.0
 10
100.6043673793628
 20
-128.6023138784397
 30
0.0
 10
100.6043673793628
 20
-128.8055745120695
 30
0.0
 10
100.6043673793628
 20
-128.8055745120695
 30
0.0
 10
100.4796549227968
 20
-128.7969617733563
 30
0.0
 10
100.103105986259
 20
-128.7694010094743
 30
0.0
 10
100.103105986259
 20
-128.3125813481302
 30
0.0
 10
100.103105986259
 20
-128.0883056320404
 30
0.0
 10
100.2302300096647
 20
-127.8471489480729
 30
0.0
 10
100.5261637118476
 20
-127.8471489480729
 30
0.0
 10
100.7125433775996
 20
-127.8471489480729
 30
0.0
 10
100.7948811596971
 20
-127.9422335834658
 30
0.0
 10
100.8562038593346
 20
-128.0417968429896
 30
0.0
 10
100.8837646232166
 20
-127.9804741433521
 30
0.0
 10
100.9640353480229
 20
-127.7985731017309
 30
0.0
 10
101.2413655345855
 20
-127.7985731017309
 30
0.0
 10
101.579673911237
 20
-127.7985731017309
 30
0.0
 10
101.7467610422716
 20
-128.0459309575719
 30
0.0
 10
101.7467610422716
 20
-128.3229166345859
 30
0.0
  0
HATCH
  5
B5
330
AE
100
AcDbEntity
  8
_U+30EC_U+30A4_U+30E4_U+30FC 1
 62
   179
420
  2234388
100
AcDbHatch
 10
0.0
 20
0.0
 30
0.0
210
0.0
220
0.0
230
1.0
  2
SOLID
 70
     1
 71
     0
 91
        1
 92
        1
 93
        1
 72
     4
 94
        3
 73
     0
 74
     1
 95
       62
 96
       58
 40
0.0
 40
0.0
 40
0.0
 40
0.0
 40
1.0
 40
1.0
 40
1.0
 40
2.0
 40
2.0
 40
2.0
 40
3.0
 40
3.0
 40
3.0
 40
4.0
 40
4.0
 40
4.0
 40
5.0
 40
5.0
 40
5.0
 40
6.0
 40
6.0
 40
6.0
 40
7.0
 40
7.0
 40
7.0
 40
8.0
 40
8.0
 40
8.0
 40
9.0
 40
9.0
 40
9.0
 40
10.0
 40
10.0
 40
10.0
 40
11.0
 40
11.0
 40
11.0
 40
12.0
 40
12.0
 40
12.0
 40
13.0
 40
13.0
 40
13.0
 40
14.0
 40
14.0
 40
14.0
 40
15.0
 40
15.0
 40
15.0
 40
16.0
 40
16.0
 40
16.0
 40
17.0
 40
17.0
 40
17.0
 40
18.0
 40
18.0
 40
18.0
 40
19.0
 40
19.0
 40
19.0
 40
19.0
 10
101.7467610422716
 20
-128.3229166345859
 10
101.7467610422716
 20
-128.4183457795274
 10
101.7257459598116
 20
-128.6360758141952
 10
101.5397108036081
 20
-128.7611327803097
 10
101.427400690789
 20
-128.8348578236941
 10
101.3281819408138
 20
-128.8393364478249
 10
101.2434325918766
 20
-128.8434705624072
 10
101.2434325918766
 20
-128.8434705624072
 10
101.2434325918766
 20
-128.6233289608997
 10
101.2434325918766
 20
-128.6233289608997
 10
101.3175021448095
 20
-128.6212619036086
 10
101.552113147355
 20
-128.6109266171528
 10
101.552113147355
 20
-128.3273952587168
 10
101.552113147355
 20
-128.1899359488553
 10
101.482522218553
 20
-128.0373182188587
 10
101.2541123878809
 20
-128.0373182188587
 10
101.1376681604795
 20
-128.0373182188587
 10
101.0890923141375
 20
-128.075558778745
 10
101.0573974356732
 20
-128.1072536572093
 10
100.9833278827403
 20
-128.1813232101422
 10
100.9705810294449
 20
-128.2977674375436
 10
100.9705810294449
 20
-128.3525444557591
 10
100.9705810294449
 20
-128.3718369904765
 10
100.972648086736
 20
-128.4076659835231
 10
100.9767822013183
 20
-128.4352267474051
 10
100.9767822013183
 20
-128.4352267474051
 10
100.7821343064017
 20
-128.4352267474051
 10
100.7821343064017
 20
-128.4352267474051
 10
100.7886799878237
 20
-128.3969861875188
 10
100.7907470451148
 20
-128.3549560225988
 10
100.7907470451148
 20
-128.3484103411768
 10
100.7907470451148
 20
-128.282953526957
 10
100.7693874531063
 20
-128.0841715174581
 10
100.5327093932696
 20
-128.0841715174581
 10
100.3549424662307
 20
-128.0841715174581
 10
100.2998209384667
 20
-128.2150851458976
 10
100.2998209384667
 20
-128.3253282014256
 10
100.2998209384667
 20
-128.5895670251443
 10
100.5327093932696
 20
-128.5981797638574
 10
100.6043673793628
 20
-128.6023138784397
 10
100.6043673793628
 20
-128.6023138784397
 10
100.6043673793628
 20
-128.8055745120695
 10
100.6043673793628
 20
-128.8055745120695
 10
100.4796549227968
 20
-128.7969617733563
 10
100.103105986259
 20
-128.7694010094743
 10
100.103105986259
 20
-128.3125813481302
 10
100.103105986259
 20
-128.0883056320404
 10
100.2302300096647
 20
-127.8471489480729
 10
100.5261637118476
 20
-127.8471489480729
 10
100.7125433775996
 20
-127.8471489480729
 10
100.7948811596971
 20
-127.9422335834658
 10
100.8562038593346
 20
-128.0417968429896
 10
100.8837646232166
 20
-127.9804741433521
 10
100.9640353480229
 20
-127.7985731017309
 10
101.2413655345855
 20
-127.7985731017309
 10
101.579673911237
 20
-127.7985731017309
 10
101.7467610422716
 20
-128.0459309575719
 10
101.7467610422716
 20
-128.3229166345859
 97
        0
 97
        0
 75
     2
 76
     1
 98
        0
  0
ENDBLK
  5
B1
330
AE
100
AcDbEntity
  8
0
100
AcDbBlockEnd
  0
ENDSEC
  0
SECTION
  2
ENTITIES
  0
INSERT
  5
42
330
1F
100
AcDbEntity
  8
_U+30EC_U+30A4_U+30E4_U+30FC 1
100
AcDbBlockReference
  2
block 2
 10
0.0
 20
0.0
 30
0.0
  0
ENDSEC
  0
SECTION
  2
OBJECTS
  0
DICTIONARY
  5
C
330
0
100
AcDbDictionary
281
     1
  3
ACAD_GROUP
350
D
  3
ACAD_LAYOUT
350
1A
  3
ACAD_MATERIAL
350
3B
  3
ACAD_MLEADERSTYLE
350
ED
  3
ACAD_MLINESTYLE
350
17
  3
ACAD_PLOTSETTINGS
350
19
  3
ACAD_PLOTSTYLENAME
350
E
  3
ACAD_TABLESTYLE
350
EC
  3
ACAD_VISUALSTYLE
350
2A
  0
SUN
  5
3F
330
29
100
AcDbSun
 90
        1
290
     0
 63
     7
421
 16777215
 40
1.0
291
     1
 91
  2455826
 92
 54000000
292
     0
 70
     2
 71
   256
280
     1
  0
DICTIONARY
  5
D
102
{ACAD_REACTORS
330
C
102
}
330
C
100
AcDbDictionary
281
     1
  0
DICTIONARY
  5
1A
102
{ACAD_REACTORS
330
C
102
}
330
C
100
AcDbDictionary
281
     1
  3
Layout1
350
1E
  3
Layout2
350
26
  3
Model
350
22
  0
DICTIONARY
  5
3B
102
{ACAD_REACTORS
330
C
102
}
330
C
100
AcDbDictionary
281
     1
  3
ByBlock
350
3D
  3
ByLayer
350
3C
  3
Global
350
3E
  0
DICTIONARY
  5
ED
102
{ACAD_REACTORS
330
C
102
}
330
C
100
AcDbDictionary
281
     1
  0
DICTIONARY
  5
17
102
{ACAD_REACTORS
330
C
102
}
330
C
100
AcDbDictionary
281
     1
  3
Standard
350
18
  0
DICTIONARY
  5
19
102
{ACAD_REACTORS
330
C
102
}
330
C
100
AcDbDictionary
281
     1
  0
ACDBDICTIONARYWDFLT
  5
E
102
{ACAD_REACTORS
330
C
102
}
330
C
100
AcDbDictionary
281
     1
  3
Normal
350
F
100
AcDbDictionaryWithDefault
340
F
  0
DICTIONARY
  5
EC
102
{ACAD_REACTORS
330
C
102
}
330
C
100
AcDbDictionary
281
     1
  0
DICTIONARY
  5
2A
102
{ACAD_REACTORS
330
C
102
}
330
C
100
AcDbDictionary
281
     1
  3
2dWireframe
350
2F
  3
3D Hidden
350
31
  3
3dWireframe
350
30
  3
Basic
350
32
  3
Brighten
350
36
  3
ColorChange
350
3A
  3
Conceptual
350
34
  3
Dim
350
35
  3
Facepattern
350
39
  3
Flat
350
2B
  3
FlatWithEdges
350
2C
  3
Gouraud
350
2D
  3
GouraudWithEdges
350
2E
  3
Linepattern
350
38
  3
Realistic
350
33
  3
Thicken
350
37
  0
LAYOUT
  5
1E
102
{ACAD_REACTORS
330
1A
102
}
330
1A
100
AcDbPlotSettings
  1

  2
none_device
  4

  6

 40
0.0
 41
0.0
 42
0.0
 43
0.0
 44
0.0
 45
0.0
 46
0.0
 47
0.0
 48
0.0
 49
0.0
140
0.0
141
0.0
142
1.0
143
1.0
 70
   688
 72
     0
 73
     0
 74
     5
  7

 75
    16
 76
     0
 77
     2
 78
   300
147
1.0
148
0.0
149
0.0
100
AcDbLayout
  1
Layout1
 70
     1
 71
     1
 10
0.0
 20
0.0
 11
12.0
 21
9.0
 12
0.0
 22
0.0
 32
0.0
 14
1.000000000000000E+20
 24
1.000000000000000E+20
 34
1.000000000000000E+20
 15
-1.000000000000000E+20
 25
-1.000000000000000E+20
 35
-1.000000000000000E+20
146
0.0
 13
0.0
 23
0.0
 33
0.0
 16
1.0
 26
0.0
 36
0.0
 17
0.0
 27
1.0
 37
0.0
 76
     0
330
1B
  0
LAYOUT
  5
26
102
{ACAD_REACTORS
330
1A
102
}
330
1A
100
AcDbPlotSettings
  1

  2
none_device
  4

  6

 40
0.0
 41
0.0
 42
0.0
 43
0.0
 44
0.0
 45
0.0
 46
0.0
 47
0.0
 48
0.0
 49
0.0
140
0.0
141
0.0
142
1.0
143
1.0
 70
   688
 72
     0
 73
     0
 74
     5
  7

 75
    16
 76
     0
 77
     2
 78
   300
147
1.0
148
0.0
149
0.0
100
AcDbLayout
  1
Layout2
 70
     1
 71
     2
 10
0.0
 20
0.0
 11
0.0
 21
0.0
 12
0.0
 22
0.0
 32
0.0
 14
0.0
 24
0.0
 34
0.0
 15
0.0
 25
0.0
 35
0.0
146
0.0
 13
0.0
 23
0.0
 33
0.0
 16
1.0
 26
0.0
 36
0.0
 17
0.0
 27
1.0
 37
0.0
 76
     0
330
23
  0
LAYOUT
  5
22
102
{ACAD_REACTORS
330
1A
102
}
330
1A
100
AcDbPlotSettings
  1

  2
none_device
  4

  6

 40
0.0
 41
0.0
 42
0.0
 43
0.0
 44
0.0
 45
0.0
 46
0.0
 47
0.0
 48
0.0
 49
0.0
140
0.0
141
0.0
142
1.0
143
1.0
 70
  1712
 72
     0
 73
     0
 74
     0
  7

 75
     0
 76
     0
 77
     2
 78
   300
147
1.0
148
0.0
149
0.0
100
AcDbLayout
  1
Model
 70
     1
 71
     0
 10
0.0
 20
0.0
 11
12.0
 21
9.0
 12
0.0
 22
0.0
 32
0.0
 14
1.000000000000000E+20
 24
1.000000000000000E+20
 34
1.000000000000000E+20
 15
-1.000000000000000E+20
 25
-1.000000000000000E+20
 35
-1.000000000000000E+20
146
0.0
 13
0.0
 23
0.0
 33
0.0
 16
1.0
 26
0.0
 36
0.0
 17
0.0
 27
1.0
 37
0.0
 76
     0
330
1F
331
29
  0
MATERIAL
  5
3D
102
{ACAD_REACTORS
330
3B
102
}
330
3B
100
AcDbMaterial
  1
ByBlock
 72
     1
 94
      127
  0
MATERIAL
  5
3C
102
{ACAD_REACTORS
330
3B
102
}
330
3B
100
AcDbMaterial
  1
ByLayer
 72
     1
 94
      127
  0
MATERIAL
  5
3E
102
{ACAD_REACTORS
330
3B
102
}
330
3B
100
AcDbMaterial
  1
Global
 72
     1
 94
      127
  0
MLINESTYLE
  5
18
102
{ACAD_REACTORS
330
17
102
}
330
17
100
AcDbMlineStyle
  2
Standard
 70
     0
  3

 62
   256
 51
90.0
 52
90.0
 71
     2
 49
0.5
 62
   256
  6
BYLAYER
 49
-0.5
 62
   256
  6
BYLAYER
  0
ACDBPLACEHOLDER
  5
F
102
{ACAD_REACTORS
330
E
102
}
330
E
  0
VISUALSTYLE
  5
2F
102
{ACAD_REACTORS
330
2A
102
}
330
2A
100
AcDbVisualStyle
  2
2dWireframe
 70
     4
177
     2
291
     0
 71
     0
176
     1
 72
     2
176
     1
 73
     0
176
     1
 90
        0
176
     1
 40
-0.6
176
     1
 41
-30.0
176
     1
 62
     5
 63
     7
421
 16777215
176
     1
 74
     1
176
     1
 91
        4
176
     1
 64
     7
176
     1
 65
   257
176
     1
 75
     1
176
     1
175
     1
176
     1
 42
1.0
176
     1
 92
        0
176
     1
 66
   257
176
     1
 43
1.0
176
     1
 76
     1
176
     1
 77
     6
176
     1
 78
     2
176
     1
 67
     7
176
     1
 79
     5
176
     1
170
     0
176
     1
171
     0
176
     1
290
     0
176
     1
 93
        1
176
     1
 44
0.0
176
     1
173
     0
176
     1
  0
VISUALSTYLE
  5
31
102
{ACAD_REACTORS
330
2A
102
}
330
2A
100
AcDbVisualStyle
  2
3D Hidden
 70
     6
177
     2
291
     0
 71
     1
176
     1
 72
     2
176
     1
 73
     2
176
     1
 90
        0
176
     1
 40
-0.6
176
     1
 41
-30.0
176
     1
 62
     5
 63
     7
421
 16777215
176
     1
 74
     2
176
     1
 91
        2
176
     1
 64
     7
176
     1
 65
   257
176
     1
 75
     2
176
     1
175
     1
176
     1
 42
40.0
176
     1
 92
        0
176
     1
 66
   257
176
     1
 43
1.0
176
     1
 76
     1
176
     1
 77
     6
176
     1
 78
     2
176
     1
 67
     7
176
     1
 79
     3
176
     1
170
     0
176
     1
171
     0
176
     1
290
     0
176
     1
 93
        1
176
     1
 44
0.0
176
     1
173
     0
176
     1
  0
VISUALSTYLE
  5
30
102
{ACAD_REACTORS
330
2A
102
}
330
2A
100
AcDbVisualStyle
  2
3dWireframe
 70
     5
177
     2
291
     0
 71
     0
176
     1
 72
     2
176
     1
 73
     0
176
     1
 90
        0
176
     1
 40
-0.6
176
     1
 41
-30.0
176
     1
 62
     5
 63
     7
421
 16777215
176
     1
 74
     1
176
     1
 91
        4
176
     1
 64
     7
176
     1
 65
   257
176
     1
 75
     1
176
     1
175
     1
176
     1
 42
1.0
176
     1
 92
        0
176
     1
 66
   257
176
     1
 43
1.0
176
     1
 76
     1
176
     1
 77
     6
176
     1
 78
     2
176
     1
 67
     7
176
     1
 79
     5
176
     1
170
     0
176
     1
171
     0
176
     1
290
     0
176
     1
 93
        1
176
     1
 44
0.0
176
     1
173
     0
176
     1
  0
VISUALSTYLE
  5
32
102
{ACAD_REACTORS
330
2A
102
}
330
2A
100
AcDbVisualStyle
  2
Basic
 70
     7
177
     2
291
     1
 71
     1
176
     1
 72
     0
176
     1
 73
     1
176
     1
 90
        0
176
     1
 40
-0.6
176
     1
 41
-30.0
176
     1
 62
     5
 63
     7
421
 16777215
176
     1
 74
     0
176
     1
 91
        4
176
     1
 64
     7
176
     1
 65
   257
176
     1
 75
     1
176
     1
175
     1
176
     1
 42
1.0
176
     1
 92
        8
176
     1
 66
     7
176
     1
 43
1.0
176
     1
 76
     1
176
     1
 77
     6
176
     1
 78
     2
176
     1
 67
     7
176
     1
 79
     5
176
     1
170
     0
176
     1
171
     0
176
     1
290
     0
176
     1
 93
        1
176
     1
 44
0.0
176
     1
173
     0
176
     1
  0
VISUALSTYLE
  5
36
102
{ACAD_REACTORS
330
2A
102
}
330
2A
100
AcDbVisualStyle
  2
Brighten
 70
    12
177
     2
291
     1
 71
     2
176
     1
 72
     2
176
     1
 73
     0
176
     1
 90
        0
176
     1
 40
-0.6
176
     1
 41
-30.0
176
     1
 62
     5
 63
     7
421
 16777215
176
     1
 74
     1
176
     1
 91
        4
176
     1
 64
     7
176
     1
 65
   257
176
     1
 75
     1
176
     1
175
     1
176
     1
 42
1.0
176
     1
 92
        8
176
     1
 66
     7
176
     1
 43
1.0
176
     1
 76
     1
176
     1
 77
     6
176
     1
 78
     2
176
     1
 67
     7
176
     1
 79
     5
176
     1
170
     0
176
     1
171
     0
176
     1
290
     0
176
     1
 93
        1
176
     1
 44
50.0
176
     1
173
     0
176
     1
  0
VISUALSTYLE
  5
3A
102
{ACAD_REACTORS
330
2A
102
}
330
2A
100
AcDbVisualStyle
  2
ColorChange
 70
    16
177
     2
291
     1
 71
     2
176
     1
 72
     2
176
     1
 73
     3
176
     1
 90
        0
176
     1
 40
-0.6
176
     1
 41
-30.0
176
     1
 62
     5
 63
     8
421
  8421504
176
     1
 74
     1
176
     1
 91
        4
176
     1
 64
     7
176
     1
 65
   257
176
     1
 75
     1
176
     1
175
     1
176
     1
 42
1.0
176
     1
 92
        8
176
     1
 66
     8
424
  8421504
176
     1
 43
1.0
176
     1
 76
     1
176
     1
 77
     6
176
     1
 78
     2
176
     1
 67
     7
176
     1
 79
     5
176
     1
170
     0
176
     1
171
     0
176
     1
290
     0
176
     1
 93
        1
176
     1
 44
0.0
176
     1
173
     0
176
     1
  0
VISUALSTYLE
  5
34
102
{ACAD_REACTORS
330
2A
102
}
330
2A
100
AcDbVisualStyle
  2
Conceptual
 70
     9
177
     2
291
     0
 71
     3
176
     1
 72
     2
176
     1
 73
     0
176
     1
 90
        0
176
     1
 40
-0.6
176
     1
 41
-30.0
176
     1
 62
     5
 63
     7
421
 16777215
176
     1
 74
     2
176
     1
 91
        2
176
     1
 64
     7
176
     1
 65
   257
176
     1
 75
     1
176
     1
175
     1
176
     1
 42
40.0
176
     1
 92
        8
176
     1
 66
     7
176
     1
 43
1.0
176
     1
 76
     1
176
     1
 77
     6
176
     1
 78
     2
176
     1
 67
     7
176
     1
 79
     3
176
     1
170
     0
176
     1
171
     0
176
     1
290
     0
176
     1
 93
        1
176
     1
 44
0.0
176
     1
173
     0
176
     1
  0
VISUALSTYLE
  5
35
102
{ACAD_REACTORS
330
2A
102
}
330
2A
100
AcDbVisualStyle
  2
Dim
 70
    11
177
     2
291
     1
 71
     2
176
     1
 72
     2
176
     1
 73
     0
176
     1
 90
        0
176
     1
 40
-0.6
176
     1
 41
-30.0
176
     1
 62
     5
 63
     7
421
 16777215
176
     1
 74
     1
176
     1
 91
        4
176
     1
 64
     7
176
     1
 65
   257
176
     1
 75
     1
176
     1
175
     1
176
     1
 42
1.0
176
     1
 92
        8
176
     1
 66
     7
176
     1
 43
1.0
176
     1
 76
     1
176
     1
 77
     6
176
     1
 78
     2
176
     1
 67
     7
176
     1
 79
     5
176
     1
170
     0
176
     1
171
     0
176
     1
290
     0
176
     1
 93
        1
176
     1
 44
-50.0
176
     1
173
     0
176
     1
  0
VISUALSTYLE
  5
39
102
{ACAD_REACTORS
330
2A
102
}
330
2A
100
AcDbVisualStyle
  2
Facepattern
 70
    15
177
     2
291
     1
 71
     2
176
     1
 72
     2
176
     1
 73
     0
176
     1
 90
        0
176
     1
 40
-0.6
176
     1
 41
-30.0
176
     1
 62
     5
 63
     7
421
 16777215
176
     1
 74
     1
176
     1
 91
        4
176
     1
 64
     7
176
     1
 65
   257
176
     1
 75
     1
176
     1
175
     1
176
     1
 42
1.0
176
     1
 92
        8
176
     1
 66
     7
176
     1
 43
1.0
176
     1
 76
     1
176
     1
 77
     6
176
     1
 78
     2
176
     1
 67
     7
176
     1
 79
     5
176
     1
170
     0
176
     1
171
     0
176
     1
290
     0
176
     1
 93
        1
176
     1
 44
0.0
176
     1
173
     0
176
     1
  0
VISUALSTYLE
  5
2B
102
{ACAD_REACTORS
330
2A
102
}
330
2A
100
AcDbVisualStyle
  2
Flat
 70
     0
177
     2
291
     1
 71
     2
176
     1
 72
     1
176
     1
 73
     1
176
     1
 90
        2
176
     1
 40
-0.6
176
     1
 41
30.0
176
     1
 62
     5
 63
     7
421
 16777215
176
     1
 74
     0
176
     1
 91
        4
176
     1
 64
     7
176
     1
 65
   257
176
     1
 75
     1
176
     1
175
     1
176
     1
 42
1.0
176
     1
 92
        8
176
     1
 66
     7
176
     1
 43
1.0
176
     1
 76
     1
176
     1
 77
     6
176
     1
 78
     2
176
     1
 67
     7
176
     1
 79
     5
176
     1
170
     0
176
     1
171
     0
176
     1
290
     0
176
     1
 93
       13
176
     1
 44
0.0
176
     1
173
     0
176
     1
  0
VISUALSTYLE
  5
2C
102
{ACAD_REACTORS
330
2A
102
}
330
2A
100
AcDbVisualStyle
  2
FlatWithEdges
 70
     1
177
     2
291
     1
 71
     2
176
     1
 72
     1
176
     1
 73
     1
176
     1
 90
        2
176
     1
 40
-0.6
176
     1
 41
30.0
176
     1
 62
     5
 63
     7
421
 16777215
176
     1
 74
     1
176
     1
 91
        4
176
     1
 64
     7
176
     1
 65
   257
176
     1
 75
     1
176
     1
175
     1
176
     1
 42
1.0
176
     1
 92
        0
176
     1
 66
   257
176
     1
 43
1.0
176
     1
 76
     1
176
     1
 77
     6
176
     1
 78
     2
176
     1
 67
     7
176
     1
 79
     5
176
     1
170
     0
176
     1
171
     0
176
     1
290
     0
176
     1
 93
       13
176
     1
 44
0.0
176
     1
173
     0
176
     1
  0
VISUALSTYLE
  5
2D
102
{ACAD_REACTORS
330
2A
102
}
330
2A
100
AcDbVisualStyle
  2
Gouraud
 70
     2
177
     2
291
     1
 71
     2
176
     1
 72
     2
176
     1
 73
     1
176
     1
 90
        2
176
     1
 40
-0.6
176
     1
 41
30.0
176
     1
 62
     5
 63
     7
421
 16777215
176
     1
 74
     0
176
     1
 91
        4
176
     1
 64
     7
176
     1
 65
   257
176
     1
 75
     1
176
     1
175
     1
176
     1
 42
1.0
176
     1
 92
        0
176
     1
 66
     7
176
     1
 43
1.0
176
     1
 76
     1
176
     1
 77
     6
176
     1
 78
     2
176
     1
 67
     7
176
     1
 79
     5
176
     1
170
     0
176
     1
171
     0
176
     1
290
     0
176
     1
 93
       13
176
     1
 44
0.0
176
     1
173
     0
176
     1
  0
VISUALSTYLE
  5
2E
102
{ACAD_REACTORS
330
2A
102
}
330
2A
100
AcDbVisualStyle
  2
GouraudWithEdges
 70
     3
177
     2
291
     1
 71
     2
176
     1
 72
     2
176
     1
 73
     1
176
     1
 90
        2
176
     1
 40
-0.6
176
     1
 41
30.0
176
     1
 62
     5
 63
     7
421
 16777215
176
     1
 74
     1
176
     1
 91
        4
176
     1
 64
     7
176
     1
 65
   257
176
     1
 75
     1
176
     1
175
     1
176
     1
 42
1.0
176
     1
 92
        0
176
     1
 66
   257
176
     1
 43
1.0
176
     1
 76
     1
176
     1
 77
     6
176
     1
 78
     2
176
     1
 67
     7
176
     1
 79
     5
176
     1
170
     0
176
     1
171
     0
176
     1
290
     0
176
     1
 93
       13
176
     1
 44
0.0
176
     1
173
     0
176
     1
  0
VISUALSTYLE
  5
38
102
{ACAD_REACTORS
330
2A
102
}
330
2A
100
AcDbVisualStyle
  2
Linepattern
 70
    14
177
     2
291
     1
 71
     2
176
     1
 72
     2
176
     1
 73
     0
176
     1
 90
        0
176
     1
 40
-0.6
176
     1
 41
-30.0
176
     1
 62
     5
 63
     7
421
 16777215
176
     1
 74
     1
176
     1
 91
        4
176
     1
 64
     7
176
     1
 65
   257
176
     1
 75
     7
176
     1
175
     7
176
     1
 42
1.0
176
     1
 92
        8
176
     1
 66
     7
176
     1
 43
1.0
176
     1
 76
     1
176
     1
 77
     6
176
     1
 78
     2
176
     1
 67
     7
176
     1
 79
     5
176
     1
170
     0
176
     1
171
     0
176
     1
290
     0
176
     1
 93
        1
176
     1
 44
0.0
176
     1
173
     0
176
     1
  0
VISUALSTYLE
  5
33
102
{ACAD_REACTORS
330
2A
102
}
330
2A
100
AcDbVisualStyle
  2
Realistic
 70
     8
177
     2
291
     0
 71
     2
176
     1
 72
     2
176
     1
 73
     0
176
     1
 90
        0
176
     1
 40
-0.6
176
     1
 41
-30.0
176
     1
 62
     5
 63
     7
421
 16777215
176
     1
 74
     1
176
     1
 91
        0
176
     1
 64
     7
176
     1
 65
   257
176
     1
 75
     1
176
     1
175
     1
176
     1
 42
1.0
176
     1
 92
        8
176
     1
 66
     8
424
  7895160
176
     1
 43
1.0
176
     1
 76
     1
176
     1
 77
     6
176
     1
 78
     2
176
     1
 67
     7
176
     1
 79
     5
176
     1
170
     0
176
     1
171
     0
176
     1
290
     0
176
     1
 93
       13
176
     1
 44
0.0
176
     1
173
     0
176
     1
  0
VISUALSTYLE
  5
37
102
{ACAD_REACTORS
330
2A
102
}
330
2A
100
AcDbVisualStyle
  2
Thicken
 70
    13
177
     2
291
     1
 71
     2
176
     1
 72
     2
176
     1
 73
     0
176
     1
 90
        0
176
     1
 40
-0.6
176
     1
 41
-30.0
176
     1
 62
     5
 63
     7
421
 16777215
176
     1
 74
     1
176
     1
 91
        4
176
     1
 64
     7
176
     1
 65
   257
176
     1
 75
     1
176
     1
175
     1
176
     1
 42
1.0
176
     1
 92
       12
176
     1
 66
     7
176
     1
 43
1.0
176
     1
 76
     1
176
     1
 77
     6
176
     1
 78
     2
176
     1
 67
     7
176
     1
 79
     5
176
     1
170
     0
176
     1
171
     0
176
     1
290
     0
176
     1
 93
        1
176
     1
 44
0.0
176
     1
173
     0
176
     1
  0
ENDSEC
  0
EOF
