  0
SECTION
  2
HEADER
  9
$ACADVER
  1
AC1024
  9
$ACADMAINTVER
 70
     6
  9
$DWGCODEPAGE
  3
UNDEFINED
  9
$INSBASE
 10
0.0
 20
0.0
 30
0.0
  9
$EXTMIN
 10
1.000000000000000E+20
 20
1.000000000000000E+20
 30
1.000000000000000E+20
  9
$EXTMAX
 10
-1.000000000000000E+20
 20
-1.000000000000000E+20
 30
-1.000000000000000E+20
  9
$LIMMIN
 10
0.0
 20
0.0
  9
$LIMMAX
 10
12.0
 20
9.0
  9
$ORTHOMODE
 70
     0
  9
$REGENMODE
 70
     1
  9
$FILLMODE
 70
     1
  9
$QTEXTMODE
 70
     0
  9
$MIRRTEXT
 70
     1
  9
$LTSCALE
 40
1.0
  9
$ATTMODE
 70
     1
  9
$TEXTSIZE
 40
0.2
  9
$TRACEWID
 40
0.05
  9
$TEXTSTYLE
  7
Standard
  9
$CLAYER
  8
0
  9
$CELTYPE
  6
ByLayer
  9
$CECOLOR
 62
   256
  9
$CELTSCALE
 40
1.0
  9
$DISPSILH
 70
     0
  9
$DIMSCALE
 40
1.0
  9
$DIMASZ
 40
0.18
  9
$DIMEXO
 40
0.0625
  9
$DIMDLI
 40
0.38
  9
$DIMRND
 40
0.0
  9
$DIMDLE
 40
0.0
  9
$DIMEXE
 40
0.18
  9
$DIMTP
 40
0.0
  9
$DIMTM
 40
0.0
  9
$DIMTXT
 40
0.18
  9
$DIMCEN
 40
0.09
  9
$DIMTSZ
 40
0.0
  9
$DIMTOL
 70
     0
  9
$DIMLIM
 70
     0
  9
$DIMTIH
 70
     1
  9
$DIMTOH
 70
     1
  9
$DIMSE1
 70
     0
  9
$DIMSE2
 70
     0
  9
$DIMTAD
 70
     0
  9
$DIMZIN
 70
     0
  9
$DIMBLK
  1

  9
$DIMASO
 70
     1
  9
$DIMSHO
 70
     1
  9
$DIMPOST
  1

  9
$DIMAPOST
  1

  9
$DIMALT
 70
     0
  9
$DIMALTD
 70
     2
  9
$DIMALTF
 40
25.4
  9
$DIMLFAC
 40
1.0
  9
$DIMTOFL
 70
     0
  9
$DIMTVP
 40
0.0
  9
$DIMTIX
 70
     0
  9
$DIMSOXD
 70
     0
  9
$DIMSAH
 70
     0
  9
$DIMBLK1
  1

  9
$DIMBLK2
  1

  9
$DIMSTYLE
  2
Standard
  9
$DIMCLRD
 70
     0
  9
$DIMCLRE
 70
     0
  9
$DIMCLRT
 70
     0
  9
$DIMTFAC
 40
1.0
  9
$DIMGAP
 40
0.09
  9
$DIMJUST
 70
     0
  9
$DIMSD1
 70
     0
  9
$DIMSD2
 70
     0
  9
$DIMTOLJ
 70
     1
  9
$DIMTZIN
 70
     0
  9
$DIMALTZ
 70
     0
  9
$DIMALTTZ
 70
     0
  9
$DIMUPT
 70
     0
  9
$DIMDEC
 70
     4
  9
$DIMTDEC
 70
     4
  9
$DIMALTU
 70
     2
  9
$DIMALTTD
 70
     2
  9
$DIMTXSTY
  7
Standard
  9
$DIMAUNIT
 70
     0
  9
$DIMADEC
 70
     0
  9
$DIMALTRND
 40
0.0
  9
$DIMAZIN
 70
     0
  9
$DIMDSEP
 70
    46
  9
$DIMATFIT
 70
     3
  9
$DIMFRAC
 70
     0
  9
$DIMLDRBLK
  1

  9
$DIMLUNIT
 70
     2
  9
$DIMLWD
 70
    -2
  9
$DIMLWE
 70
    -2
  9
$DIMTMOVE
 70
     0
  9
$DIMFXL
 40
1.0
  9
$DIMFXLON
 70
     0
  9
$DIMJOGANG
 40
0.7853981633974483
  9
$DIMTFILL
 70
     0
  9
$DIMTFILLCLR
 70
     0
  9
$DIMARCSYM
 70
     0
  9
$DIMLTYPE
  6

  9
$DIMLTEX1
  6

  9
$DIMLTEX2
  6

  9
$DIMTXTDIRECTION
 70
     0
  9
$LUNITS
 70
     2
  9
$LUPREC
 70
     4
  9
$SKETCHINC
 40
0.1
  9
$FILLETRAD
 40
0.5
  9
$AUNITS
 70
     0
  9
$AUPREC
 70
     0
  9
$MENU
  1
.
  9
$ELEVATION
 40
0.0
  9
$PELEVATION
 40
0.0
  9
$THICKNESS
 40
0.0
  9
$LIMCHECK
 70
     0
  9
$CHAMFERA
 40
0.5
  9
$CHAMFERB
 40
0.5
  9
$CHAMFERC
 40
1.0
  9
$CHAMFERD
 40
0.0
  9
$SKPOLY
 70
     0
  9
$TDCREATE
 40
2457917.616759248
  9
$TDUCREATE
 40
2457917.241759259
  9
$TDUPDATE
 40
2457917.616759248
  9
$TDUUPDATE
 40
2457917.241759259
  9
$TDINDWG
 40
0.0000000116
  9
$TDUSRTIMER
 40
0.0000000116
  9
$USRTIMER
 70
     1
  9
$ANGBASE
 50
0.0
  9
$ANGDIR
 70
     0
  9
$PDMODE
 70
     0
  9
$PDSIZE
 40
0.0
  9
$PLINEWID
 40
0.0
  9
$SPLFRAME
 70
     0
  9
$SPLINETYPE
 70
     6
  9
$SPLINESEGS
 70
     8
  9
$HANDSEED
  5
BB
  9
$SURFTAB1
 70
     6
  9
$SURFTAB2
 70
     6
  9
$SURFTYPE
 70
     6
  9
$SURFU
 70
     6
  9
$SURFV
 70
     6
  9
$UCSBASE
  2

  9
$UCSNAME
  2

  9
$UCSORG
 10
0.0
 20
0.0
 30
0.0
  9
$UCSXDIR
 10
1.0
 20
0.0
 30
0.0
  9
$UCSYDIR
 10
0.0
 20
1.0
 30
0.0
  9
$UCSORTHOREF
  2

  9
$UCSORTHOVIEW
 70
     0
  9
$UCSORGTOP
 10
0.0
 20
0.0
 30
0.0
  9
$UCSORGBOTTOM
 10
0.0
 20
0.0
 30
0.0
  9
$UCSORGLEFT
 10
0.0
 20
0.0
 30
0.0
  9
$UCSORGRIGHT
 10
0.0
 20
0.0
 30
0.0
  9
$UCSORGFRONT
 10
0.0
 20
0.0
 30
0.0
  9
$UCSORGBACK
 10
0.0
 20
0.0
 30
0.0
  9
$PUCSBASE
  2

  9
$PUCSNAME
  2

  9
$PUCSORG
 10
0.0
 20
0.0
 30
0.0
  9
$PUCSXDIR
 10
1.0
 20
0.0
 30
0.0
  9
$PUCSYDIR
 10
0.0
 20
1.0
 30
0.0
  9
$PUCSORTHOREF
  2

  9
$PUCSORTHOVIEW
 70
     0
  9
$PUCSORGTOP
 10
0.0
 20
0.0
 30
0.0
  9
$PUCSORGBOTTOM
 10
0.0
 20
0.0
 30
0.0
  9
$PUCSORGLEFT
 10
0.0
 20
0.0
 30
0.0
  9
$PUCSORGRIGHT
 10
0.0
 20
0.0
 30
0.0
  9
$PUCSORGFRONT
 10
0.0
 20
0.0
 30
0.0
  9
$PUCSORGBACK
 10
0.0
 20
0.0
 30
0.0
  9
$USERI1
 70
     0
  9
$USERI2
 70
     0
  9
$USERI3
 70
     0
  9
$USERI4
 70
     0
  9
$USERI5
 70
     0
  9
$USERR1
 40
0.0
  9
$USERR2
 40
0.0
  9
$USERR3
 40
0.0
  9
$USERR4
 40
0.0
  9
$USERR5
 40
0.0
  9
$WORLDVIEW
 70
     1
  9
$SHADEDGE
 70
     3
  9
$SHADEDIF
 70
    70
  9
$TILEMODE
 70
     1
  9
$MAXACTVP
 70
    64
  9
$PINSBASE
 10
0.0
 20
0.0
 30
0.0
  9
$PLIMCHECK
 70
     0
  9
$PEXTMIN
 10
1.000000000000000E+20
 20
1.000000000000000E+20
 30
1.000000000000000E+20
  9
$PEXTMAX
 10
-1.000000000000000E+20
 20
-1.000000000000000E+20
 30
-1.000000000000000E+20
  9
$PLIMMIN
 10
0.0
 20
0.0
  9
$PLIMMAX
 10
12.0
 20
9.0
  9
$UNITMODE
 70
     0
  9
$VISRETAIN
 70
     1
  9
$PLINEGEN
 70
     0
  9
$PSLTSCALE
 70
     1
  9
$TREEDEPTH
 70
  3020
  9
$CMLSTYLE
  2
Standard
  9
$CMLJUST
 70
     0
  9
$CMLSCALE
 40
1.0
  9
$PROXYGRAPHICS
 70
     1
  9
$MEASUREMENT
 70
     0
  9
$CELWEIGHT
370
    -1
  9
$ENDCAPS
280
     0
  9
$JOINSTYLE
280
     0
  9
$LWDISPLAY
290
     1
  9
$INSUNITS
 70
     1
  9
$HYPERLINKBASE
  1

  9
$STYLESHEET
  1

  9
$XEDIT
290
     1
  9
$CEPSNTYPE
380
     0
  9
$PSTYLEMODE
290
     1
  9
$FINGERPRINTGUID
  2
{E55F1493-8072-4AFA-A012-57542BF2673A}
  9
$VERSIONGUID
  2
{FAEB1C32-E019-11D5-929B-00C0DF256EC4}
  9
$EXTNAMES
290
     1
  9
$PSVPSCALE
 40
0.0
  9
$OLESTARTUP
290
     0
  9
$SORTENTS
280
   127
  9
$INDEXCTL
280
     0
  9
$HIDETEXT
280
     1
  9
$XCLIPFRAME
280
     2
  9
$HALOGAP
280
     0
  9
$OBSCOLOR
 70
   257
  9
$OBSLTYPE
280
     0
  9
$INTERSECTIONDISPLAY
280
     0
  9
$INTERSECTIONCOLOR
 70
   257
  9
$DIMASSOC
280
     2
  9
$PROJECTNAME
  1

  9
$CAMERADISPLAY
290
     0
  9
$LENSLENGTH
 40
50.0
  9
$CAMERAHEIGHT
 40
0.0
  9
$STEPSPERSEC
 40
2.0
  9
$STEPSIZE
 40
6.0
  9
$3DDWFPREC
 40
2.0
  9
$PSOLWIDTH
 40
0.25
  9
$PSOLHEIGHT
 40
4.0
  9
$LOFTANG1
 40
1.570796326794897
  9
$LOFTANG2
 40
1.570796326794897
  9
$LOFTMAG1
 40
0.0
  9
$LOFTMAG2
 40
0.0
  9
$LOFTPARAM
 70
     7
  9
$LOFTNORMALS
280
     1
  9
$LATITUDE
 40
37.795
  9
$LONGITUDE
 40
-122.394
  9
$NORTHDIRECTION
 40
0.0
  9
$TIMEZONE
 70
 -8000
  9
$LIGHTGLYPHDISPLAY
280
     1
  9
$TILEMODELIGHTSYNCH
280
     1
  9
$CMATERIAL
347
3C
  9
$SOLIDHIST
280
     1
  9
$SHOWHIST
280
     1
  9
$DWFFRAME
280
     2
  9
$DGNFRAME
280
     2
  9
$REALWORLDSCALE
290
     1
  9
$INTERFERECOLOR
 62
   256
  9
$CSHADOW
280
     0
  9
$SHADOWPLANELOCATION
 40
0.0
  0
ENDSEC
  0
SECTION
  2
CLASSES
  0
CLASS
  1
ACDBDICTIONARYWDFLT
  2
AcDbDictionaryWithDefault
  3
ObjectDBX Classes
 90
        0
 91
        4
280
     0
281
     0
  0
CLASS
  1
VISUALSTYLE
  2
AcDbVisualStyle
  3
ObjectDBX Classes
 90
     4095
 91
        4
280
     0
281
     0
  0
CLASS
  1
MATERIAL
  2
AcDbMaterial
  3
ObjectDBX Classes
 90
     1153
 91
        4
280
     0
281
     0
  0
CLASS
  1
SUN
  2
AcDbSun
  3
SCENEOE
 90
     1024
 91
        4
280
     0
281
     0
  0
ENDSEC
  0
SECTION
  2
TABLES
  0
TABLE
  2
VPORT
  5
8
330
0
100
AcDbSymbolTable
 70
     1
  0
VPORT
  5
29
330
8
100
AcDbSymbolTableRecord
100
AcDbViewportTableRecord
  2
*Active
 70
     0
 10
0.0
 20
0.0
 11
1.0
 21
1.0
 12
0.0
 22
0.0
 13
0.0
 23
0.0
 14
0.5
 24
0.5
 15
0.5
 25
0.5
 16
0.0
 26
0.0
 36
1.0
 17
91.00082462281999
 27
-128.4993055234307
 37
0.0
 40
256.9986110468615
 41
0.7081814508812795
 42
50.0
 43
0.0
 44
0.0
 50
0.0
 51
0.0
 71
     0
 72
   100
 73
     1
 74
     3
 75
     0
 76
     0
 77
     0
 78
     0
281
     0
 65
     1
110
0.0
120
0.0
130
0.0
111
1.0
121
0.0
131
0.0
112
0.0
122
1.0
132
0.0
 79
     0
146
0.0
 60
     3
 61
     5
292
     1
282
     1
141
0.0
142
0.0
 63
   250
361
3F
  0
ENDTAB
  0
TABLE
  2
LTYPE
  5
5
330
0
100
AcDbSymbolTable
 70
     1
  0
LTYPE
  5
14
330
5
100
AcDbSymbolTableRecord
100
AcDbLinetypeTableRecord
  2
ByBlock
 70
     0
  3

 72
    65
 73
     0
 40
0.0
  0
LTYPE
  5
15
330
5
100
AcDbSymbolTableRecord
100
AcDbLinetypeTableRecord
  2
ByLayer
 70
     0
  3

 72
    65
 73
     0
 40
0.0
  0
LTYPE
  5
16
330
5
100
AcDbSymbolTableRecord
100
AcDbLinetypeTableRecord
  2
Continuous
 70
     0
  3
Solid line
 72
    65
 73
     0
 40
0.0
  0
ENDTAB
  0
TABLE
  2
LAYER
  5
2
330
0
100
AcDbSymbolTable
 70
     2
  0
LAYER
  5
10
330
2
100
AcDbSymbolTableRecord
100
AcDbLayerTableRecord
  2
0
 70
     0
 62
     7
  6
Continuous
370
    -3
390
F
347
3E
  0
LAYER
  5
40
330
2
100
AcDbSymbolTableRecord
100
AcDbLayerTableRecord
  2
_U+30EC_U+30A4_U+30E4_U+30FC 1
 70
     0
 62
     7
  6
Continuous
370
    -3
390
F
347
3E
  0
ENDTAB
  0
TABLE
  2
STYLE
  5
3
330
0
100
AcDbSymbolTable
 70
     1
  0
STYLE
  5
11
330
3
100
AcDbSymbolTableRecord
100
AcDbTextStyleTableRecord
  2
Standard
 70
     0
 40
0.0
 41
1.0
 50
0.0
 71
     0
 42
0.2
  3
txt
  4

  0
ENDTAB
  0
TABLE
  2
VIEW
  5
6
330
0
100
AcDbSymbolTable
 70
     0
  0
ENDTAB
  0
TABLE
  2
UCS
  5
7
330
0
100
AcDbSymbolTable
 70
     0
  0
ENDTAB
  0
TABLE
  2
APPID
  5
9
330
0
100
AcDbSymbolTable
 70
     1
  0
APPID
  5
12
330
9
100
AcDbSymbolTableRecord
100
AcDbRegAppTableRecord
  2
ACAD
 70
     0
  0
ENDTAB
  0
TABLE
  2
DIMSTYLE
  5
A
330
0
100
AcDbSymbolTable
 70
     1
100
AcDbDimStyleTable
  0
DIMSTYLE
105
27
330
A
100
AcDbSymbolTableRecord
100
AcDbDimStyleTableRecord
  2
Standard
 70
     0
178
     0
340
11
  0
ENDTAB
  0
TABLE
  2
BLOCK_RECORD
  5
1
330
0
100
AcDbSymbolTable
 70
     7
  0
BLOCK_RECORD
  5
1F
330
1
100
AcDbSymbolTableRecord
100
AcDbBlockTableRecord
  2
*Model_Space
340
22
 70
     0
280
     1
281
     0
  0
BLOCK_RECORD
  5
1B
330
1
100
AcDbSymbolTableRecord
100
AcDbBlockTableRecord
  2
*Paper_Space
340
1E
 70
     0
280
     1
281
     0
  0
BLOCK_RECORD
  5
23
330
1
100
AcDbSymbolTableRecord
100
AcDbBlockTableRecord
  2
*Paper_Space0
340
26
 70
     0
280
     1
281
     0
  0
BLOCK_RECORD
  5
41
330
1
100
AcDbSymbolTableRecord
100
AcDbBlockTableRecord
  2
block 2
340
0
102
{BLKREFS
331
42
102
}
 70
     0
280
     1
281
     0
  0
BLOCK_RECORD
  5
59
330
1
100
AcDbSymbolTableRecord
100
AcDbBlockTableRecord
  2
block 3
340
0
102
{BLKREFS
331
5A
102
}
 70
     0
280
     1
281
     0
  0
BLOCK_RECORD
  5
6E
330
1
100
AcDbSymbolTableRecord
100
AcDbBlockTableRecord
  2
block 4
340
0
102
{BLKREFS
331
6F
102
}
 70
     0
280
     1
281
     0
  0
BLOCK_RECORD
  5
86
330
1
100
AcDbSymbolTableRecord
100
AcDbBlockTableRecord
  2
block 5
340
0
102
{BLKREFS
331
87
102
}
 70
     0
280
     1
281
     0
  0
BLOCK_RECORD
  5
A0
330
1
100
AcDbSymbolTableRecord
100
AcDbBlockTableRecord
  2
block 6
340
0
102
{BLKREFS
331
A1
102
}
 70
     0
280
     1
281
     0
  0
BLOCK_RECORD
  5
AE
330
1
100
AcDbSymbolTableRecord
100
AcDbBlockTableRecord
  2
block 7
340
0
102
{BLKREFS
331
AF
102
}
 70
     0
280
     1
281
     0
  0
ENDTAB
  0
ENDSEC
  0
SECTION
  2
BLOCKS
  0
BLOCK
  5
20
330
1F
100
AcDbEntity
  8
0
100
AcDbBlockBegin
  2
*Model_Space
 70
     0
 10
0.0
 20
0.0
 30
0.0
  3
*Model_Space
  1

  0
ENDBLK
  5
21
330
1F
100
AcDbEntity
  8
0
100
AcDbBlockEnd
  0
BLOCK
  5
1C
330
1B
100
AcDbEntity
 67
     1
  8
0
100
AcDbBlockBegin
  2
*Paper_Space
 70
     0
 10
0.0
 20
0.0
 30
0.0
  3
*Paper_Space
  1

  0
ENDBLK
  5
1D
330
1B
100
AcDbEntity
 67
     1
  8
0
100
AcDbBlockEnd
  0
BLOCK
  5
24
330
23
100
AcDbEntity
  8
0
100
AcDbBlockBegin
  2
*Paper_Space0
 70
     0
 10
0.0
 20
0.0
 30
0.0
  3
*Paper_Space0
  1

  0
ENDBLK
  5
25
330
23
100
AcDbEntity
  8
0
100
AcDbBlockEnd
  0
BLOCK
  5
43
330
41
100
AcDbEntity
  8
0
100
AcDbBlockBegin
  2
block 2
 70
     0
 10
0.0
 20
0.0
 30
0.0
  3
block 2
  1

  0
SPLINE
  5
45
330
41
100
AcDbEntity
  8
_U+30EC_U+30A4_U+30E4_U+30FC 1
 62
   179
420
  2234388
370
     9
100
AcDbSpline
210
0.0
220
0.0
230
1.0
 70
    11
 71
     3
 72
    17
 73
    13
 74
     0
 42
0.0000000001
 43
0.0000000001
 12
1.0
 22
0.0
 32
0.0
 13
1.0
 23
0.0
 33
0.0
 40
0.0
 40
0.0
 40
0.0
 40
0.0
 40
1.0
 40
1.0
 40
1.0
 40
2.0
 40
2.0
 40
2.0
 40
3.0
 40
3.0
 40
3.0
 40
4.0
 40
4.0
 40
4.0
 40
4.0
 10
73.23927535373264
 20
-118.8166844147404
 30
0.0
 10
73.23927535373264
 20
-118.7615805258651
 30
0.0
 10
73.19450785487476
 20
-118.7167777480987
 30
0.0
 10
73.13936868961481
 20
-118.7167777480987
 30
0.0
 10
73.08426664839548
 20
-118.7167777480987
 30
0.0
 10
73.03946387062909
 20
-118.7615805258651
 30
0.0
 10
73.03946387062909
 20
-118.8166844147404
 30
0.0
 10
73.03946387062909
 20
-118.8721410813931
 30
0.0
 10
73.08426664839548
 20
-118.9169438591598
 30
0.0
 10
73.13936868961481
 20
-118.9169438591598
 30
0.0
 10
73.19450785487476
 20
-118.9169438591598
 30
0.0
 10
73.23927535373264
 20
-118.8721410813931
 30
0.0
 10
73.23927535373264
 20
-118.8166844147404
 30
0.0
  0
SPLINE
  5
46
330
41
100
AcDbEntity
  8
_U+30EC_U+30A4_U+30E4_U+30FC 1
 62
   179
420
  2234388
370
     9
100
AcDbSpline
210
0.0
220
0.0
230
1.0
 70
    11
 71
     3
 72
    17
 73
    13
 74
     0
 42
0.0000000001
 43
0.0000000001
 12
1.0
 22
0.0
 32
0.0
 13
1.0
 23
0.0
 33
0.0
 40
0.0
 40
0.0
 40
0.0
 40
0.0
 40
1.0
 40
1.0
 40
1.0
 40
2.0
 40
2.0
 40
2.0
 40
3.0
 40
3.0
 40
3.0
 40
4.0
 40
4.0
 40
4.0
 40
4.0
 10
98.23964804925333
 20
-118.8166844147404
 30
0.0
 10
98.23964804925333
 20
-118.7615805258651
 30
0.0
 10
98.19488055039544
 20
-118.7167777480987
 30
0.0
 10
98.1397413851355
 20
-118.7167777480987
 30
0.0
 10
98.08393194211487
 20
-118.7167777480987
 30
0.0
 10
98.03916444325698
 20
-118.7615805258651
 30
0.0
 10
98.03916444325698
 20
-118.8166844147404
 30
0.0
 10
98.03916444325698
 20
-118.8721410813931
 30
0.0
 10
98.08393194211487
 20
-118.9169438591598
 30
0.0
 10
98.1397413851355
 20
-118.9169438591598
 30
0.0
 10
98.19488055039544
 20
-118.9169438591598
 30
0.0
 10
98.23964804925333
 20
-118.8721410813931
 30
0.0
 10
98.23964804925333
 20
-118.8166844147404
 30
0.0
  0
SPLINE
  5
47
330
41
100
AcDbEntity
  8
_U+30EC_U+30A4_U+30E4_U+30FC 1
 62
   179
420
  2234388
370
     9
100
AcDbSpline
210
0.0
220
0.0
230
1.0
 70
    11
 71
     3
 72
    17
 73
    13
 74
     0
 42
0.0000000001
 43
0.0000000001
 12
1.0
 22
0.0
 32
0.0
 13
1.0
 23
0.0
 33
0.0
 40
0.0
 40
0.0
 40
0.0
 40
0.0
 40
1.0
 40
1.0
 40
1.0
 40
2.0
 40
2.0
 40
2.0
 40
3.0
 40
3.0
 40
3.0
 40
4.0
 40
4.0
 40
4.0
 40
4.0
 10
102.2394071138776
 20
-122.8171491359625
 30
0.0
 10
102.2394071138776
 20
-122.761657191532
 30
0.0
 10
102.1946043372429
 20
-122.7168896915431
 30
0.0
 10
102.1395004497598
 20
-122.7168896915431
 30
0.0
 10
102.0843638633677
 20
-122.7168896915431
 30
0.0
 10
102.039593785642
 20
-122.761657191532
 30
0.0
 10
102.039593785642
 20
-122.8171491359625
 30
0.0
 10
102.039593785642
 20
-122.8722530248374
 30
0.0
 10
102.0843638633677
 20
-122.9170558026041
 30
0.0
 10
102.1395004497598
 20
-122.9170558026041
 30
0.0
 10
102.1946043372429
 20
-122.9170558026041
 30
0.0
 10
102.2394071138776
 20
-122.8722530248374
 30
0.0
 10
102.2394071138776
 20
-122.8171491359625
 30
0.0
  0
SPLINE
  5
48
330
41
100
AcDbEntity
  8
_U+30EC_U+30A4_U+30E4_U+30FC 1
 62
   179
420
  2234388
370
     9
100
AcDbSpline
210
0.0
220
0.0
230
1.0
 70
    11
 71
     3
 72
    17
 73
    13
 74
     0
 42
0.0000000001
 43
0.0000000001
 12
1.0
 22
0.0
 32
0.0
 13
1.0
 23
0.0
 33
0.0
 40
0.0
 40
0.0
 40
0.0
 40
0.0
 40
1.0
 40
1.0
 40
1.0
 40
2.0
 40
2.0
 40
2.0
 40
3.0
 40
3.0
 40
3.0
 40
4.0
 40
4.0
 40
4.0
 40
4.0
 10
102.2394071138776
 20
-123.7168383024042
 30
0.0
 10
102.2394071138776
 20
-123.6616991357511
 30
0.0
 10
102.1946043372429
 20
-123.6169316357625
 30
0.0
 10
102.1395004497598
 20
-123.6169316357625
 30
0.0
 10
102.0843638633677
 20
-123.6169316357625
 30
0.0
 10
102.039593785642
 20
-123.6616991357511
 30
0.0
 10
102.039593785642
 20
-123.7168383024042
 30
0.0
 10
102.039593785642
 20
-123.7719421912791
 30
0.0
 10
102.0843638633677
 20
-123.8167449690458
 30
0.0
 10
102.1395004497598
 20
-123.8167449690458
 30
0.0
 10
102.1946043372429
 20
-123.8167449690458
 30
0.0
 10
102.2394071138776
 20
-123.7719421912791
 30
0.0
 10
102.2394071138776
 20
-123.7168383024042
 30
0.0
  0
SPLINE
  5
49
330
41
100
AcDbEntity
  8
_U+30EC_U+30A4_U+30E4_U+30FC 1
 62
   179
420
  2234388
370
     9
100
AcDbSpline
210
0.0
220
0.0
230
1.0
 70
    11
 71
     3
 72
    17
 73
    13
 74
     0
 42
0.0000000001
 43
0.0000000001
 12
1.0
 22
0.0
 32
0.0
 13
1.0
 23
0.0
 33
0.0
 40
0.0
 40
0.0
 40
0.0
 40
0.0
 40
1.0
 40
1.0
 40
1.0
 40
2.0
 40
2.0
 40
2.0
 40
3.0
 40
3.0
 40
3.0
 40
4.0
 40
4.0
 40
4.0
 40
4.0
 10
102.2394071138776
 20
-133.8171482998787
 30
0.0
 10
102.2394071138776
 20
-133.7620444110038
 30
0.0
 10
102.1946043372429
 20
-133.7172416332371
 30
0.0
 10
102.1395004497598
 20
-133.7172416332371
 30
0.0
 10
102.0843638633677
 20
-133.7172416332371
 30
0.0
 10
102.039593785642
 20
-133.7620444110038
 30
0.0
 10
102.039593785642
 20
-133.8171482998787
 30
0.0
 10
102.039593785642
 20
-133.8722874665318
 30
0.0
 10
102.0843638633677
 20
-133.917054966521
 30
0.0
 10
102.1395004497598
 20
-133.917054966521
 30
0.0
 10
102.1946043372429
 20
-133.917054966521
 30
0.0
 10
102.2394071138776
 20
-133.8722874665318
 30
0.0
 10
102.2394071138776
 20
-133.8171482998787
 30
0.0
  0
SPLINE
  5
4A
330
41
100
AcDbEntity
  8
_U+30EC_U+30A4_U+30E4_U+30FC 1
 62
   179
420
  2234388
370
     9
100
AcDbSpline
210
0.0
220
0.0
230
1.0
 70
    11
 71
     3
 72
    17
 73
    13
 74
     0
 42
0.0000000001
 43
0.0000000001
 12
1.0
 22
0.0
 32
0.0
 13
1.0
 23
0.0
 33
0.0
 40
0.0
 40
0.0
 40
0.0
 40
0.0
 40
1.0
 40
1.0
 40
1.0
 40
2.0
 40
2.0
 40
2.0
 40
3.0
 40
3.0
 40
3.0
 40
4.0
 40
4.0
 40
4.0
 40
4.0
 10
102.2394071138776
 20
-136.8171352435737
 30
0.0
 10
102.2394071138776
 20
-136.7620313546982
 30
0.0
 10
102.1946043372429
 20
-136.7172285769321
 30
0.0
 10
102.1395004497598
 20
-136.7172285769321
 30
0.0
 10
102.0843638633677
 20
-136.7172285769321
 30
0.0
 10
102.039593785642
 20
-136.7620313546982
 30
0.0
 10
102.039593785642
 20
-136.8171352435737
 30
0.0
 10
102.039593785642
 20
-136.8722744102262
 30
0.0
 10
102.0843638633677
 20
-136.9170419102154
 30
0.0
 10
102.1395004497598
 20
-136.9170419102154
 30
0.0
 10
102.1946043372429
 20
-136.9170419102154
 30
0.0
 10
102.2394071138776
 20
-136.8722744102262
 30
0.0
 10
102.2394071138776
 20
-136.8171352435737
 30
0.0
  0
SPLINE
  5
4B
330
41
100
AcDbEntity
  8
_U+30EC_U+30A4_U+30E4_U+30FC 1
 62
   179
420
  2234388
370
     9
100
AcDbSpline
210
0.0
220
0.0
230
1.0
 70
    11
 71
     3
 72
    17
 73
    13
 74
     0
 42
0.0000000001
 43
0.0000000001
 12
1.0
 22
0.0
 32
0.0
 13
1.0
 23
0.0
 33
0.0
 40
0.0
 40
0.0
 40
0.0
 40
0.0
 40
1.0
 40
1.0
 40
1.0
 40
2.0
 40
2.0
 40
2.0
 40
3.0
 40
3.0
 40
3.0
 40
4.0
 40
4.0
 40
4.0
 40
4.0
 10
83.23900815417376
 20
-140.81689440924
 30
0.0
 10
83.23900815417376
 20
-140.7617905203651
 30
0.0
 10
83.19424065531588
 20
-140.7169877425983
 30
0.0
 10
83.13910149005592
 20
-140.7169877425983
 30
0.0
 10
83.08399760257285
 20
-140.7169877425983
 30
0.0
 10
83.0391948259381
 20
-140.7617905203651
 30
0.0
 10
83.0391948259381
 20
-140.81689440924
 30
0.0
 10
83.0391948259381
 20
-140.8720335758931
 30
0.0
 10
83.08399760257285
 20
-140.9168010758816
 30
0.0
 10
83.13910149005592
 20
-140.9168010758816
 30
0.0
 10
83.19424065531588
 20
-140.9168010758816
 30
0.0
 10
83.23900815417376
 20
-140.8720335758931
 30
0.0
 10
83.23900815417376
 20
-140.81689440924
 30
0.0
  0
SPLINE
  5
4C
330
41
100
AcDbEntity
  8
_U+30EC_U+30A4_U+30E4_U+30FC 1
 62
   179
420
  2234388
370
     9
100
AcDbSpline
210
0.0
220
0.0
230
1.0
 70
    11
 71
     3
 72
    17
 73
    13
 74
     0
 42
0.0000000001
 43
0.0000000001
 12
1.0
 22
0.0
 32
0.0
 13
1.0
 23
0.0
 33
0.0
 40
0.0
 40
0.0
 40
0.0
 40
0.0
 40
1.0
 40
1.0
 40
1.0
 40
2.0
 40
2.0
 40
2.0
 40
3.0
 40
3.0
 40
3.0
 40
4.0
 40
4.0
 40
4.0
 40
4.0
 10
73.23927535373264
 20
-140.81689440924
 30
0.0
 10
73.23927535373264
 20
-140.7617905203651
 30
0.0
 10
73.19450785487476
 20
-140.7169877425983
 30
0.0
 10
73.13936868961481
 20
-140.7169877425983
 30
0.0
 10
73.08426664839548
 20
-140.7169877425983
 30
0.0
 10
73.03946387062909
 20
-140.7617905203651
 30
0.0
 10
73.03946387062909
 20
-140.81689440924
 30
0.0
 10
73.03946387062909
 20
-140.8720335758931
 30
0.0
 10
73.08426664839548
 20
-140.9168010758816
 30
0.0
 10
73.13936868961481
 20
-140.9168010758816
 30
0.0
 10
73.19450785487476
 20
-140.9168010758816
 30
0.0
 10
73.23927535373264
 20
-140.8720335758931
 30
0.0
 10
73.23927535373264
 20
-140.81689440924
 30
0.0
  0
POLYLINE
  5
4D
330
41
100
AcDbEntity
  8
_U+30EC_U+30A4_U+30E4_U+30FC 1
 62
   179
420
  2234388
370
     9
100
AcDb2dPolyline
 66
     1
 10
0.0
 20
0.0
 30
0.0
  0
VERTEX
  5
4E
330
4D
100
AcDbEntity
  8
_U+30EC_U+30A4_U+30E4_U+30FC 1
 62
   179
420
  2234388
370
     9
100
AcDbVertex
100
AcDb2dVertex
 10
73.13936868961481
 20
-140.81689440924
 30
0.0
  0
VERTEX
  5
4F
330
4D
100
AcDbEntity
  8
_U+30EC_U+30A4_U+30E4_U+30FC 1
 62
   179
420
  2234388
370
     9
100
AcDbVertex
100
AcDb2dVertex
 10
83.13910149005592
 20
-140.81689440924
 30
0.0
  0
SEQEND
  5
50
330
4D
100
AcDbEntity
  8
_U+30EC_U+30A4_U+30E4_U+30FC 1
 62
   179
420
  2234388
370
     9
  0
POLYLINE
  5
51
330
41
100
AcDbEntity
  8
_U+30EC_U+30A4_U+30E4_U+30FC 1
 62
   179
420
  2234388
370
     9
100
AcDb2dPolyline
 66
     1
 10
0.0
 20
0.0
 30
0.0
  0
VERTEX
  5
52
330
51
100
AcDbEntity
  8
_U+30EC_U+30A4_U+30E4_U+30FC 1
 62
   179
420
  2234388
370
     9
100
AcDbVertex
100
AcDb2dVertex
 10
73.13936868961481
 20
-139.3568530207162
 30
0.0
  0
VERTEX
  5
53
330
51
100
AcDbEntity
  8
_U+30EC_U+30A4_U+30E4_U+30FC 1
 62
   179
420
  2234388
370
     9
100
AcDbVertex
100
AcDb2dVertex
 10
73.13936868961481
 20
-141.8166666312125
 30
0.0
  0
SEQEND
  5
54
330
51
100
AcDbEntity
  8
_U+30EC_U+30A4_U+30E4_U+30FC 1
 62
   179
420
  2234388
370
     9
  0
POLYLINE
  5
55
330
41
100
AcDbEntity
  8
_U+30EC_U+30A4_U+30E4_U+30FC 1
 62
   179
420
  2234388
370
     9
100
AcDb2dPolyline
 66
     1
 10
0.0
 20
0.0
 30
0.0
  0
VERTEX
  5
56
330
55
100
AcDbEntity
  8
_U+30EC_U+30A4_U+30E4_U+30FC 1
 62
   179
420
  2234388
370
     9
100
AcDbVertex
100
AcDb2dVertex
 10
83.13910149005592
 20
-139.3568530207162
 30
0.0
  0
VERTEX
  5
57
330
55
100
AcDbEntity
  8
_U+30EC_U+30A4_U+30E4_U+30FC 1
 62
   179
420
  2234388
370
     9
100
AcDbVertex
100
AcDb2dVertex
 10
83.13910149005592
 20
-141.8166666312125
 30
0.0
  0
SEQEND
  5
58
330
55
100
AcDbEntity
  8
_U+30EC_U+30A4_U+30E4_U+30FC 1
 62
   179
420
  2234388
370
     9
  0
INSERT
  5
5A
330
41
100
AcDbEntity
  8
_U+30EC_U+30A4_U+30E4_U+30FC 1
100
AcDbBlockReference
  2
block 3
 10
0.0
 20
0.0
 30
0.0
  0
POLYLINE
  5
62
330
41
100
AcDbEntity
  8
_U+30EC_U+30A4_U+30E4_U+30FC 1
 62
   179
420
  2234388
370
     9
100
AcDb2dPolyline
 66
     1
 10
0.0
 20
0.0
 30
0.0
  0
VERTEX
  5
63
330
62
100
AcDbEntity
  8
_U+30EC_U+30A4_U+30E4_U+30FC 1
 62
   179
420
  2234388
370
     9
100
AcDbVertex
100
AcDb2dVertex
 10
73.13936868961481
 20
-118.8166844147404
 30
0.0
  0
VERTEX
  5
64
330
62
100
AcDbEntity
  8
_U+30EC_U+30A4_U+30E4_U+30FC 1
 62
   179
420
  2234388
370
     9
100
AcDbVertex
100
AcDb2dVertex
 10
98.1397413851355
 20
-118.8166844147404
 30
0.0
  0
SEQEND
  5
65
330
62
100
AcDbEntity
  8
_U+30EC_U+30A4_U+30E4_U+30FC 1
 62
   179
420
  2234388
370
     9
  0
POLYLINE
  5
66
330
41
100
AcDbEntity
  8
_U+30EC_U+30A4_U+30E4_U+30FC 1
 62
   179
420
  2234388
370
     9
100
AcDb2dPolyline
 66
     1
 10
0.0
 20
0.0
 30
0.0
  0
VERTEX
  5
67
330
66
100
AcDbEntity
  8
_U+30EC_U+30A4_U+30E4_U+30FC 1
 62
   179
420
  2234388
370
     9
100
AcDbVertex
100
AcDb2dVertex
 10
73.13936868961481
 20
-120.2767258032641
 30
0.0
  0
VERTEX
  5
68
330
66
100
AcDbEntity
  8
_U+30EC_U+30A4_U+30E4_U+30FC 1
 62
   179
420
  2234388
370
     9
100
AcDbVertex
100
AcDb2dVertex
 10
73.13936868961481
 20
-117.8169121927678
 30
0.0
  0
SEQEND
  5
69
330
66
100
AcDbEntity
  8
_U+30EC_U+30A4_U+30E4_U+30FC 1
 62
   179
420
  2234388
370
     9
  0
POLYLINE
  5
6A
330
41
100
AcDbEntity
  8
_U+30EC_U+30A4_U+30E4_U+30FC 1
 62
   179
420
  2234388
370
     9
100
AcDb2dPolyline
 66
     1
 10
0.0
 20
0.0
 30
0.0
  0
VERTEX
  5
6B
330
6A
100
AcDbEntity
  8
_U+30EC_U+30A4_U+30E4_U+30FC 1
 62
   179
420
  2234388
370
     9
100
AcDbVertex
100
AcDb2dVertex
 10
98.1397413851355
 20
-120.2767258032641
 30
0.0
  0
VERTEX
  5
6C
330
6A
100
AcDbEntity
  8
_U+30EC_U+30A4_U+30E4_U+30FC 1
 62
   179
420
  2234388
370
     9
100
AcDbVertex
100
AcDb2dVertex
 10
98.1397413851355
 20
-117.8169121927678
 30
0.0
  0
SEQEND
  5
6D
330
6A
100
AcDbEntity
  8
_U+30EC_U+30A4_U+30E4_U+30FC 1
 62
   179
420
  2234388
370
     9
  0
INSERT
  5
6F
330
41
100
AcDbEntity
  8
_U+30EC_U+30A4_U+30E4_U+30FC 1
100
AcDbBlockReference
  2
block 4
 10
0.0
 20
0.0
 30
0.0
  0
POLYLINE
  5
76
330
41
100
AcDbEntity
  8
_U+30EC_U+30A4_U+30E4_U+30FC 1
 62
   179
420
  2234388
370
     9
100
AcDb2dPolyline
 66
     1
 10
0.0
 20
0.0
 30
0.0
  0
VERTEX
  5
77
330
76
100
AcDbEntity
  8
_U+30EC_U+30A4_U+30E4_U+30FC 1
 62
   179
420
  2234388
370
     9
100
AcDbVertex
100
AcDb2dVertex
 10
102.1395004497598
 20
-122.8171491359625
 30
0.0
  0
VERTEX
  5
78
330
76
100
AcDbEntity
  8
_U+30EC_U+30A4_U+30E4_U+30FC 1
 62
   179
420
  2234388
370
     9
100
AcDbVertex
100
AcDb2dVertex
 10
102.1395004497598
 20
-119.046836636905
 30
0.0
  0
SEQEND
  5
79
330
76
100
AcDbEntity
  8
_U+30EC_U+30A4_U+30E4_U+30FC 1
 62
   179
420
  2234388
370
     9
  0
POLYLINE
  5
7A
330
41
100
AcDbEntity
  8
_U+30EC_U+30A4_U+30E4_U+30FC 1
 62
   179
420
  2234388
370
     9
100
AcDb2dPolyline
 66
     1
 10
0.0
 20
0.0
 30
0.0
  0
VERTEX
  5
7B
330
7A
100
AcDbEntity
  8
_U+30EC_U+30A4_U+30E4_U+30FC 1
 62
   179
420
  2234388
370
     9
100
AcDbVertex
100
AcDb2dVertex
 10
102.1395004497598
 20
-122.8171491359625
 30
0.0
  0
VERTEX
  5
7C
330
7A
100
AcDbEntity
  8
_U+30EC_U+30A4_U+30E4_U+30FC 1
 62
   179
420
  2234388
370
     9
100
AcDbVertex
100
AcDb2dVertex
 10
102.1395004497598
 20
-123.8169213579347
 30
0.0
  0
SEQEND
  5
7D
330
7A
100
AcDbEntity
  8
_U+30EC_U+30A4_U+30E4_U+30FC 1
 62
   179
420
  2234388
370
     9
  0
POLYLINE
  5
7E
330
41
100
AcDbEntity
  8
_U+30EC_U+30A4_U+30E4_U+30FC 1
 62
   179
420
  2234388
370
     9
100
AcDb2dPolyline
 66
     1
 10
0.0
 20
0.0
 30
0.0
  0
VERTEX
  5
7F
330
7E
100
AcDbEntity
  8
_U+30EC_U+30A4_U+30E4_U+30FC 1
 62
   179
420
  2234388
370
     9
100
AcDbVertex
100
AcDb2dVertex
 10
100.6794590981197
 20
-122.8171491359625
 30
0.0
  0
VERTEX
  5
80
330
7E
100
AcDbEntity
  8
_U+30EC_U+30A4_U+30E4_U+30FC 1
 62
   179
420
  2234388
370
     9
100
AcDbVertex
100
AcDb2dVertex
 10
103.1392726464757
 20
-122.8171491359625
 30
0.0
  0
SEQEND
  5
81
330
7E
100
AcDbEntity
  8
_U+30EC_U+30A4_U+30E4_U+30FC 1
 62
   179
420
  2234388
370
     9
  0
POLYLINE
  5
82
330
41
100
AcDbEntity
  8
_U+30EC_U+30A4_U+30E4_U+30FC 1
 62
   179
420
  2234388
370
     9
100
AcDb2dPolyline
 66
     1
 10
0.0
 20
0.0
 30
0.0
  0
VERTEX
  5
83
330
82
100
AcDbEntity
  8
_U+30EC_U+30A4_U+30E4_U+30FC 1
 62
   179
420
  2234388
370
     9
100
AcDbVertex
100
AcDb2dVertex
 10
100.6794590981197
 20
-123.7168383024042
 30
0.0
  0
VERTEX
  5
84
330
82
100
AcDbEntity
  8
_U+30EC_U+30A4_U+30E4_U+30FC 1
 62
   179
420
  2234388
370
     9
100
AcDbVertex
100
AcDb2dVertex
 10
103.1392726464757
 20
-123.7168383024042
 30
0.0
  0
SEQEND
  5
85
330
82
100
AcDbEntity
  8
_U+30EC_U+30A4_U+30E4_U+30FC 1
 62
   179
420
  2234388
370
     9
  0
INSERT
  5
87
330
41
100
AcDbEntity
  8
_U+30EC_U+30A4_U+30E4_U+30FC 1
100
AcDbBlockReference
  2
block 5
 10
0.0
 20
0.0
 30
0.0
  0
POLYLINE
  5
98
330
41
100
AcDbEntity
  8
_U+30EC_U+30A4_U+30E4_U+30FC 1
 62
   179
420
  2234388
370
     9
100
AcDb2dPolyline
 66
     1
 10
0.0
 20
0.0
 30
0.0
  0
VERTEX
  5
99
330
98
100
AcDbEntity
  8
_U+30EC_U+30A4_U+30E4_U+30FC 1
 62
   179
420
  2234388
370
     9
100
AcDbVertex
100
AcDb2dVertex
 10
102.1395004497598
 20
-133.8171482998787
 30
0.0
  0
VERTEX
  5
9A
330
98
100
AcDbEntity
  8
_U+30EC_U+30A4_U+30E4_U+30FC 1
 62
   179
420
  2234388
370
     9
100
AcDbVertex
100
AcDb2dVertex
 10
102.1395004497598
 20
-136.8171352435737
 30
0.0
  0
SEQEND
  5
9B
330
98
100
AcDbEntity
  8
_U+30EC_U+30A4_U+30E4_U+30FC 1
 62
   179
420
  2234388
370
     9
  0
POLYLINE
  5
9C
330
41
100
AcDbEntity
  8
_U+30EC_U+30A4_U+30E4_U+30FC 1
 62
   179
420
  2234388
370
     9
100
AcDb2dPolyline
 66
     1
 10
0.0
 20
0.0
 30
0.0
  0
VERTEX
  5
9D
330
9C
100
AcDbEntity
  8
_U+30EC_U+30A4_U+30E4_U+30FC 1
 62
   179
420
  2234388
370
     9
100
AcDbVertex
100
AcDb2dVertex
 10
85.67934836969327
 20
-136.8171352435737
 30
0.0
  0
VERTEX
  5
9E
330
9C
100
AcDbEntity
  8
_U+30EC_U+30A4_U+30E4_U+30FC 1
 62
   179
420
  2234388
370
     9
100
AcDbVertex
100
AcDb2dVertex
 10
103.1392726464757
 20
-136.8171352435737
 30
0.0
  0
SEQEND
  5
9F
330
9C
100
AcDbEntity
  8
_U+30EC_U+30A4_U+30E4_U+30FC 1
 62
   179
420
  2234388
370
     9
  0
INSERT
  5
A1
330
41
100
AcDbEntity
  8
_U+30EC_U+30A4_U+30E4_U+30FC 1
100
AcDbBlockReference
  2
block 6
 10
0.0
 20
0.0
 30
0.0
  0
POLYLINE
  5
A6
330
41
100
AcDbEntity
  8
_U+30EC_U+30A4_U+30E4_U+30FC 1
 62
   179
420
  2234388
370
     9
100
AcDb2dPolyline
 66
     1
 10
0.0
 20
0.0
 30
0.0
  0
VERTEX
  5
A7
330
A6
100
AcDbEntity
  8
_U+30EC_U+30A4_U+30E4_U+30FC 1
 62
   179
420
  2234388
370
     9
100
AcDbVertex
100
AcDb2dVertex
 10
102.1395004497598
 20
-133.8171482998787
 30
0.0
  0
VERTEX
  5
A8
330
A6
100
AcDbEntity
  8
_U+30EC_U+30A4_U+30E4_U+30FC 1
 62
   179
420
  2234388
370
     9
100
AcDbVertex
100
AcDb2dVertex
 10
102.1395004497598
 20
-123.8169213579347
 30
0.0
  0
SEQEND
  5
A9
330
A6
100
AcDbEntity
  8
_U+30EC_U+30A4_U+30E4_U+30FC 1
 62
   179
420
  2234388
370
     9
  0
POLYLINE
  5
AA
330
41
100
AcDbEntity
  8
_U+30EC_U+30A4_U+30E4_U+30FC 1
 62
   179
420
  2234388
370
     9
100
AcDb2dPolyline
 66
     1
 10
0.0
 20
0.0
 30
0.0
  0
VERTEX
  5
AB
330
AA
100
AcDbEntity
  8
_U+30EC_U+30A4_U+30E4_U+30FC 1
 62
   179
420
  2234388
370
     9
100
AcDbVertex
100
AcDb2dVertex
 10
85.67934836969327
 20
-133.8171482998787
 30
0.0
  0
VERTEX
  5
AC
330
AA
100
AcDbEntity
  8
_U+30EC_U+30A4_U+30E4_U+30FC 1
 62
   179
420
  2234388
370
     9
100
AcDbVertex
100
AcDb2dVertex
 10
103.1392726464757
 20
-133.8171482998787
 30
0.0
  0
SEQEND
  5
AD
330
AA
100
AcDbEntity
  8
_U+30EC_U+30A4_U+30E4_U+30FC 1
 62
   179
420
  2234388
370
     9
  0
INSERT
  5
AF
330
41
100
AcDbEntity
  8
_U+30EC_U+30A4_U+30E4_U+30FC 1
100
AcDbBlockReference
  2
block 7
 10
0.0
 20
0.0
 30
0.0
  0
SPLINE
  5
B7
330
41
100
AcDbEntity
  8
_U+30EC_U+30A4_U+30E4_U+30FC 1
 62
   179
420
  2234388
370
    25
100
AcDbSpline
210
0.0
220
0.0
230
1.0
 70
    11
 71
     3
 72
    53
 73
    49
 74
     0
 42
0.0000000001
 43
0.0000000001
 12
1.0
 22
0.0
 32
0.0
 13
1.0
 23
0.0
 33
0.0
 40
0.0
 40
0.0
 40
0.0
 40
0.0
 40
1.0
 40
1.0
 40
1.0
 40
2.0
 40
2.0
 40
2.0
 40
3.0
 40
3.0
 40
3.0
 40
4.0
 40
4.0
 40
4.0
 40
5.0
 40
5.0
 40
5.0
 40
6.0
 40
6.0
 40
6.0
 40
7.0
 40
7.0
 40
7.0
 40
8.0
 40
8.0
 40
8.0
 40
9.0
 40
9.0
 40
9.0
 40
10.0
 40
10.0
 40
10.0
 40
11.0
 40
11.0
 40
11.0
 40
12.0
 40
12.0
 40
12.0
 40
13.0
 40
13.0
 40
13.0
 40
14.0
 40
14.0
 40
14.0
 40
15.0
 40
15.0
 40
15.0
 40
16.0
 40
16.0
 40
16.0
 40
16.0
 10
74.0392360926013
 20
-134.9168271884929
 30
0.0
 10
74.0392360926013
 20
-134.9168271884929
 30
0.0
 10
74.0392360926013
 20
-129.1900444121471
 30
0.0
 10
74.0392360926013
 20
-129.1900444121471
 30
0.0
 10
74.0392360926013
 20
-129.1900444121471
 30
0.0
 10
74.33930699233517
 20
-128.8169466344626
 30
0.0
 10
74.33930699233517
 20
-128.8169466344626
 30
0.0
 10
74.33930699233517
 20
-128.8169466344626
 30
0.0
 10
74.0392360926013
 20
-128.4438488567781
 30
0.0
 10
74.0392360926013
 20
-128.4438488567781
 30
0.0
 10
74.0392360926013
 20
-128.4438488567781
 30
0.0
 10
74.0392360926013
 20
-123.7168383024042
 30
0.0
 10
74.0392360926013
 20
-123.7168383024042
 30
0.0
 10
74.0392360926013
 20
-123.7168383024042
 30
0.0
 10
98.1397413851355
 20
-123.7168383024042
 30
0.0
 10
98.1397413851355
 20
-123.7168383024042
 30
0.0
 10
98.1397413851355
 20
-123.7168383024042
 30
0.0
 10
98.1397413851355
 20
-122.8171491359625
 30
0.0
 10
98.1397413851355
 20
-122.8171491359625
 30
0.0
 10
98.1397413851355
 20
-122.8171491359625
 30
0.0
 10
73.13936868961481
 20
-122.8171491359625
 30
0.0
 10
73.13936868961481
 20
-122.8171491359625
 30
0.0
 10
73.13936868961481
 20
-122.8171491359625
 30
0.0
 10
73.13936868961481
 20
-136.8171352435737
 30
0.0
 10
73.13936868961481
 20
-136.8171352435737
 30
0.0
 10
73.13936868961481
 20
-136.8171352435737
 30
0.0
 10
83.13910149005592
 20
-136.8171352435737
 30
0.0
 10
83.13910149005592
 20
-136.8171352435737
 30
0.0
 10
83.13910149005592
 20
-136.8171352435737
 30
0.0
 10
83.13910149005592
 20
-133.8171482998787
 30
0.0
 10
83.13910149005592
 20
-133.8171482998787
 30
0.0
 10
83.13910149005592
 20
-133.8171482998787
 30
0.0
 10
82.23923595745785
 20
-133.8171482998787
 30
0.0
 10
82.23923595745785
 20
-133.8171482998787
 30
0.0
 10
82.23923595745785
 20
-133.8171482998787
 30
0.0
 10
82.23923595745785
 20
-134.9168271884929
 30
0.0
 10
82.23923595745785
 20
-134.9168271884929
 30
0.0
 10
82.23923595745785
 20
-135.4694182994658
 30
0.0
 10
81.7913845799946
 20
-135.9169521882432
 30
0.0
 10
81.23914626075005
 20
-135.9169521882432
 30
0.0
 10
81.23914626075005
 20
-135.9169521882432
 30
0.0
 10
81.23914626075005
 20
-135.9165994104655
 30
0.0
 10
81.23914626075005
 20
-135.9165994104655
 30
0.0
 10
81.23914626075005
 20
-135.9165994104655
 30
0.0
 10
75.03936109235129
 20
-135.9165994104655
 30
0.0
 10
75.03936109235129
 20
-135.9165994104655
 30
0.0
 10
74.48708559967613
 20
-135.9165994104655
 30
0.0
 10
74.0392360926013
 20
-135.469065521688
 30
0.0
 10
74.0392360926013
 20
-134.9168271884929
 30
0.0
  0
HATCH
  5
B8
330
41
100
AcDbEntity
  8
_U+30EC_U+30A4_U+30E4_U+30FC 1
 62
   253
420
 11711154
100
AcDbHatch
 10
0.0
 20
0.0
 30
0.0
210
0.0
220
0.0
230
1.0
  2
SOLID
 70
     1
 71
     0
 91
        1
 92
        1
 93
        1
 72
     4
 94
        3
 73
     0
 74
     1
 95
       53
 96
       49
 40
0.0
 40
0.0
 40
0.0
 40
0.0
 40
1.0
 40
1.0
 40
1.0
 40
2.0
 40
2.0
 40
2.0
 40
3.0
 40
3.0
 40
3.0
 40
4.0
 40
4.0
 40
4.0
 40
5.0
 40
5.0
 40
5.0
 40
6.0
 40
6.0
 40
6.0
 40
7.0
 40
7.0
 40
7.0
 40
8.0
 40
8.0
 40
8.0
 40
9.0
 40
9.0
 40
9.0
 40
10.0
 40
10.0
 40
10.0
 40
11.0
 40
11.0
 40
11.0
 40
12.0
 40
12.0
 40
12.0
 40
13.0
 40
13.0
 40
13.0
 40
14.0
 40
14.0
 40
14.0
 40
15.0
 40
15.0
 40
15.0
 40
16.0
 40
16.0
 40
16.0
 40
16.0
 10
74.0392360926013
 20
-134.9168271884929
 10
74.0392360926013
 20
-134.9168271884929
 10
74.0392360926013
 20
-129.1900444121471
 10
74.0392360926013
 20
-129.1900444121471
 10
74.0392360926013
 20
-129.1900444121471
 10
74.33930699233517
 20
-128.8169466344626
 10
74.33930699233517
 20
-128.8169466344626
 10
74.33930699233517
 20
-128.8169466344626
 10
74.0392360926013
 20
-128.4438488567781
 10
74.0392360926013
 20
-128.4438488567781
 10
74.0392360926013
 20
-128.4438488567781
 10
74.0392360926013
 20
-123.7168383024042
 10
74.0392360926013
 20
-123.7168383024042
 10
74.0392360926013
 20
-123.7168383024042
 10
98.1397413851355
 20
-123.7168383024042
 10
98.1397413851355
 20
-123.7168383024042
 10
98.1397413851355
 20
-123.7168383024042
 10
98.1397413851355
 20
-122.8171491359625
 10
98.1397413851355
 20
-122.8171491359625
 10
98.1397413851355
 20
-122.8171491359625
 10
73.13936868961481
 20
-122.8171491359625
 10
73.13936868961481
 20
-122.8171491359625
 10
73.13936868961481
 20
-122.8171491359625
 10
73.13936868961481
 20
-136.8171352435737
 10
73.13936868961481
 20
-136.8171352435737
 10
73.13936868961481
 20
-136.8171352435737
 10
83.13910149005592
 20
-136.8171352435737
 10
83.13910149005592
 20
-136.8171352435737
 10
83.13910149005592
 20
-136.8171352435737
 10
83.13910149005592
 20
-133.8171482998787
 10
83.13910149005592
 20
-133.8171482998787
 10
83.13910149005592
 20
-133.8171482998787
 10
82.23923595745785
 20
-133.8171482998787
 10
82.23923595745785
 20
-133.8171482998787
 10
82.23923595745785
 20
-133.8171482998787
 10
82.23923595745785
 20
-134.9168271884929
 10
82.23923595745785
 20
-134.9168271884929
 10
82.23923595745785
 20
-135.4694182994658
 10
81.7913845799946
 20
-135.9169521882432
 10
81.23914626075005
 20
-135.9169521882432
 10
81.23914626075005
 20
-135.9169521882432
 10
81.23914626075005
 20
-135.9165994104655
 10
81.23914626075005
 20
-135.9165994104655
 10
81.23914626075005
 20
-135.9165994104655
 10
75.03936109235129
 20
-135.9165994104655
 10
75.03936109235129
 20
-135.9165994104655
 10
74.48708559967613
 20
-135.9165994104655
 10
74.0392360926013
 20
-135.469065521688
 10
74.0392360926013
 20
-134.9168271884929
 97
        0
 97
        0
 75
     2
 76
     1
 98
        0
  0
ENDBLK
  5
44
330
41
100
AcDbEntity
  8
0
100
AcDbBlockEnd
  0
BLOCK
  5
5B
330
59
100
AcDbEntity
  8
0
100
AcDbBlockBegin
  2
block 3
 70
     0
 10
0.0
 20
0.0
 30
0.0
  3
block 3
  1

  0
SPLINE
  5
5D
330
59
100
AcDbEntity
  8
_U+30EC_U+30A4_U+30E4_U+30FC 1
370
     0
100
AcDbSpline
210
0.0
220
0.0
230
1.0
 70
    11
 71
     3
 72
    26
 73
    22
 74
     0
 42
0.0000000001
 43
0.0000000001
 12
1.0
 22
0.0
 32
0.0
 13
1.0
 23
0.0
 33
0.0
 40
0.0
 40
0.0
 40
0.0
 40
0.0
 40
1.0
 40
1.0
 40
1.0
 40
2.0
 40
2.0
 40
2.0
 40
3.0
 40
3.0
 40
3.0
 40
4.0
 40
4.0
 40
4.0
 40
5.0
 40
5.0
 40
5.0
 40
6.0
 40
6.0
 40
6.0
 40
7.0
 40
7.0
 40
7.0
 40
7.0
 10
77.50207381960018
 20
-140.1716335370057
 30
0.0
 10
77.50207381960018
 20
-140.1716335370057
 30
0.0
 10
77.50207381960018
 20
-139.0674804339831
 30
0.0
 10
77.50207381960018
 20
-139.0674804339831
 30
0.0
 10
77.50207381960018
 20
-139.0674804339831
 30
0.0
 10
77.17203367211324
 20
-139.0674804339831
 30
0.0
 10
77.17203367211324
 20
-139.0674804339831
 30
0.0
 10
77.17203367211324
 20
-139.0674804339831
 30
0.0
 10
77.17203367211324
 20
-138.9193413281174
 30
0.0
 10
77.17203367211324
 20
-138.9193413281174
 30
0.0
 10
77.50414087689133
 20
-138.9045274175308
 30
0.0
 10
77.5506496659422
 20
-138.7415744010785
 30
0.0
 10
77.58027748711535
 20
-138.6271972309682
 30
0.0
 10
77.58027748711535
 20
-138.6271972309682
 30
0.0
 10
77.72634953568995
 20
-138.6271972309682
 30
0.0
 10
77.72634953568995
 20
-138.6271972309682
 30
0.0
 10
77.72634953568995
 20
-138.6271972309682
 30
0.0
 10
77.72634953568995
 20
-140.1716335370057
 30
0.0
 10
77.72634953568995
 20
-140.1716335370057
 30
0.0
 10
77.72634953568995
 20
-140.1716335370057
 30
0.0
 10
77.50207381960018
 20
-140.1716335370057
 30
0.0
 10
77.50207381960018
 20
-140.1716335370057
 30
0.0
  0
HATCH
  5
5E
330
59
100
AcDbEntity
  8
_U+30EC_U+30A4_U+30E4_U+30FC 1
 62
   179
420
  2234388
100
AcDbHatch
 10
0.0
 20
0.0
 30
0.0
210
0.0
220
0.0
230
1.0
  2
SOLID
 70
     1
 71
     0
 91
        1
 92
        1
 93
        1
 72
     4
 94
        3
 73
     0
 74
     1
 95
       26
 96
       22
 40
0.0
 40
0.0
 40
0.0
 40
0.0
 40
1.0
 40
1.0
 40
1.0
 40
2.0
 40
2.0
 40
2.0
 40
3.0
 40
3.0
 40
3.0
 40
4.0
 40
4.0
 40
4.0
 40
5.0
 40
5.0
 40
5.0
 40
6.0
 40
6.0
 40
6.0
 40
7.0
 40
7.0
 40
7.0
 40
7.0
 10
77.50207381960018
 20
-140.1716335370057
 10
77.50207381960018
 20
-140.1716335370057
 10
77.50207381960018
 20
-139.0674804339831
 10
77.50207381960018
 20
-139.0674804339831
 10
77.50207381960018
 20
-139.0674804339831
 10
77.17203367211324
 20
-139.0674804339831
 10
77.17203367211324
 20
-139.0674804339831
 10
77.17203367211324
 20
-139.0674804339831
 10
77.17203367211324
 20
-138.9193413281174
 10
77.17203367211324
 20
-138.9193413281174
 10
77.50414087689133
 20
-138.9045274175308
 10
77.5506496659422
 20
-138.7415744010785
 10
77.58027748711535
 20
-138.6271972309682
 10
77.58027748711535
 20
-138.6271972309682
 10
77.72634953568995
 20
-138.6271972309682
 10
77.72634953568995
 20
-138.6271972309682
 10
77.72634953568995
 20
-138.6271972309682
 10
77.72634953568995
 20
-140.1716335370057
 10
77.72634953568995
 20
-140.1716335370057
 10
77.72634953568995
 20
-140.1716335370057
 10
77.50207381960018
 20
-140.1716335370057
 10
77.50207381960018
 20
-140.1716335370057
 97
        0
 97
        0
 75
     2
 76
     1
 98
        0
  0
SPLINE
  5
5F
330
59
100
AcDbEntity
  8
_U+30EC_U+30A4_U+30E4_U+30FC 1
370
     0
100
AcDbSpline
210
0.0
220
0.0
230
1.0
 70
    11
 71
     3
 72
    29
 73
    25
 74
     0
 42
0.0000000001
 43
0.0000000001
 12
1.0
 22
0.0
 32
0.0
 13
1.0
 23
0.0
 33
0.0
 40
0.0
 40
0.0
 40
0.0
 40
0.0
 40
1.0
 40
1.0
 40
1.0
 40
2.0
 40
2.0
 40
2.0
 40
3.0
 40
3.0
 40
3.0
 40
4.0
 40
4.0
 40
4.0
 40
5.0
 40
5.0
 40
5.0
 40
6.0
 40
6.0
 40
6.0
 40
7.0
 40
7.0
 40
7.0
 40
8.0
 40
8.0
 40
8.0
 40
8.0
 10
79.12523055747565
 20
-139.9938666099668
 30
0.0
 10
79.01739906878733
 20
-140.20332841547
 30
0.0
 10
78.843938511105
 20
-140.2222764406389
 30
0.0
 10
78.72749428370355
 20
-140.2222764406389
 30
0.0
 10
78.56678057931664
 20
-140.2222764406389
 30
0.0
 10
78.42501490009862
 20
-140.175767651588
 30
0.0
 10
78.32975800993145
 20
-139.9938666099668
 30
0.0
 10
78.22623289059969
 20
-139.7992187150502
 30
0.0
 10
78.20711261065657
 20
-139.5625406552135
 30
0.0
 10
78.20711261065657
 20
-139.3995876387612
 30
0.0
 10
78.20711261065657
 20
-139.2555826474778
 30
0.0
 10
78.22399357853428
 20
-139.003746167506
 30
0.0
 10
78.32975800993145
 20
-138.8049641580071
 30
0.0
 10
78.43776175339404
 20
-138.6020480339259
 30
0.0
 10
78.59847545778094
 20
-138.5786213846262
 30
0.0
 10
78.72749428370355
 20
-138.5786213846262
 30
0.0
 10
78.8861409307993
 20
-138.5786213846262
 30
0.0
 10
79.02997366730848
 20
-138.6230631163859
 30
0.0
 10
79.12523055747565
 20
-138.8049641580071
 30
0.0
 10
79.2246215622251
 20
-138.9975449956326
 30
0.0
 10
79.24787595675053
 20
-139.2259548263046
 30
0.0
 10
79.24787595675053
 20
-139.3995876387612
 30
0.0
 10
79.24787595675053
 20
-139.5708088843781
 30
0.0
 10
79.22686087429051
 20
-139.8012857723413
 30
0.0
 10
79.12523055747565
 20
-139.9938666099668
 30
0.0
  0
SPLINE
  5
60
330
59
100
AcDbEntity
  8
_U+30EC_U+30A4_U+30E4_U+30FC 1
370
     0
100
AcDbSpline
210
0.0
220
0.0
230
1.0
 70
    11
 71
     3
 72
    17
 73
    13
 74
     0
 42
0.0000000001
 43
0.0000000001
 12
1.0
 22
0.0
 32
0.0
 13
1.0
 23
0.0
 33
0.0
 40
0.0
 40
0.0
 40
0.0
 40
0.0
 40
1.0
 40
1.0
 40
1.0
 40
2.0
 40
2.0
 40
2.0
 40
3.0
 40
3.0
 40
3.0
 40
4.0
 40
4.0
 40
4.0
 40
4.0
 10
78.72749428370355
 20
-138.7712022222516
 30
0.0
 10
78.47789711579719
 20
-138.7712022222516
 30
0.0
 10
78.43138832674633
 20
-139.0547335806877
 30
0.0
 10
78.43138832674633
 20
-139.3995876387612
 30
0.0
 10
78.43138832674633
 20
-139.7189479902439
 30
0.0
 10
78.46738957456718
 20
-140.0276285457223
 30
0.0
 10
78.72749428370355
 20
-140.0276285457223
 30
0.0
 10
78.97502439431875
 20
-140.0276285457223
 30
0.0
 10
79.02377249543504
 20
-139.7465087541259
 30
0.0
 10
79.02377249543504
 20
-139.3995876387612
 30
0.0
 10
79.02377249543504
 20
-139.07988277773
 30
0.0
 10
78.98553193554876
 20
-138.7712022222516
 30
0.0
 10
78.72749428370355
 20
-138.7712022222516
 30
0.0
  0
HATCH
  5
61
330
59
100
AcDbEntity
  8
_U+30EC_U+30A4_U+30E4_U+30FC 1
 62
   179
420
  2234388
100
AcDbHatch
 10
0.0
 20
0.0
 30
0.0
210
0.0
220
0.0
230
1.0
  2
SOLID
 70
     1
 71
     0
 91
        2
 92
        1
 93
        1
 72
     4
 94
        3
 73
     0
 74
     1
 95
       29
 96
       25
 40
0.0
 40
0.0
 40
0.0
 40
0.0
 40
1.0
 40
1.0
 40
1.0
 40
2.0
 40
2.0
 40
2.0
 40
3.0
 40
3.0
 40
3.0
 40
4.0
 40
4.0
 40
4.0
 40
5.0
 40
5.0
 40
5.0
 40
6.0
 40
6.0
 40
6.0
 40
7.0
 40
7.0
 40
7.0
 40
8.0
 40
8.0
 40
8.0
 40
8.0
 10
79.12523055747565
 20
-139.9938666099668
 10
79.01739906878733
 20
-140.20332841547
 10
78.843938511105
 20
-140.2222764406389
 10
78.72749428370355
 20
-140.2222764406389
 10
78.56678057931664
 20
-140.2222764406389
 10
78.42501490009862
 20
-140.175767651588
 10
78.32975800993145
 20
-139.9938666099668
 10
78.22623289059969
 20
-139.7992187150502
 10
78.20711261065657
 20
-139.5625406552135
 10
78.20711261065657
 20
-139.3995876387612
 10
78.20711261065657
 20
-139.2555826474778
 10
78.22399357853428
 20
-139.003746167506
 10
78.32975800993145
 20
-138.8049641580071
 10
78.43776175339404
 20
-138.6020480339259
 10
78.59847545778094
 20
-138.5786213846262
 10
78.72749428370355
 20
-138.5786213846262
 10
78.8861409307993
 20
-138.5786213846262
 10
79.02997366730848
 20
-138.6230631163859
 10
79.12523055747565
 20
-138.8049641580071
 10
79.2246215622251
 20
-138.9975449956326
 10
79.24787595675053
 20
-139.2259548263046
 10
79.24787595675053
 20
-139.3995876387612
 10
79.24787595675053
 20
-139.5708088843781
 10
79.22686087429051
 20
-139.8012857723413
 10
79.12523055747565
 20
-139.9938666099668
 97
        0
 97
        0
 92
        1
 93
        1
 72
     4
 94
        3
 73
     0
 74
     1
 95
       17
 96
       13
 40
0.0
 40
0.0
 40
0.0
 40
0.0
 40
1.0
 40
1.0
 40
1.0
 40
2.0
 40
2.0
 40
2.0
 40
3.0
 40
3.0
 40
3.0
 40
4.0
 40
4.0
 40
4.0
 40
4.0
 10
78.72749428370355
 20
-138.7712022222516
 10
78.47789711579719
 20
-138.7712022222516
 10
78.43138832674633
 20
-139.0547335806877
 10
78.43138832674633
 20
-139.3995876387612
 10
78.43138832674633
 20
-139.7189479902439
 10
78.46738957456718
 20
-140.0276285457223
 10
78.72749428370355
 20
-140.0276285457223
 10
78.97502439431875
 20
-140.0276285457223
 10
79.02377249543504
 20
-139.7465087541259
 10
79.02377249543504
 20
-139.3995876387612
 10
79.02377249543504
 20
-139.07988277773
 10
78.98553193554876
 20
-138.7712022222516
 10
78.72749428370355
 20
-138.7712022222516
 97
        0
 97
        0
 75
     2
 76
     1
 98
        0
  0
ENDBLK
  5
5C
330
59
100
AcDbEntity
  8
0
100
AcDbBlockEnd
  0
BLOCK
  5
70
330
6E
100
AcDbEntity
  8
0
100
AcDbBlockBegin
  2
block 4
 70
     0
 10
0.0
 20
0.0
 30
0.0
  3
block 4
  1

  0
SPLINE
  5
72
330
6E
100
AcDbEntity
  8
_U+30EC_U+30A4_U+30E4_U+30FC 1
370
     0
100
AcDbSpline
210
0.0
220
0.0
230
1.0
 70
    11
 71
     3
 72
    44
 73
    40
 74
     0
 42
0.0000000001
 43
0.0000000001
 12
1.0
 22
0.0
 32
0.0
 13
1.0
 23
0.0
 33
0.0
 40
0.0
 40
0.0
 40
0.0
 40
0.0
 40
1.0
 40
1.0
 40
1.0
 40
2.0
 40
2.0
 40
2.0
 40
3.0
 40
3.0
 40
3.0
 40
4.0
 40
4.0
 40
4.0
 40
5.0
 40
5.0
 40
5.0
 40
6.0
 40
6.0
 40
6.0
 40
7.0
 40
7.0
 40
7.0
 40
8.0
 40
8.0
 40
8.0
 40
9.0
 40
9.0
 40
9.0
 40
10.0
 40
10.0
 40
10.0
 40
11.0
 40
11.0
 40
11.0
 40
12.0
 40
12.0
 40
12.0
 40
13.0
 40
13.0
 40
13.0
 40
13.0
 10
85.1438123702071
 20
-117.5900661598386
 30
0.0
 10
84.92591008076505
 20
-117.7487128069343
 30
0.0
 10
84.83272024788904
 20
-117.8227823598672
 30
0.0
 10
84.78414440154702
 20
-117.9666150963764
 30
0.0
 10
84.78414440154702
 20
-117.9666150963764
 30
0.0
 10
85.56256372643922
 20
-117.9666150963764
 30
0.0
 10
85.56256372643922
 20
-117.9666150963764
 30
0.0
 10
85.56256372643922
 20
-117.9666150963764
 30
0.0
 10
85.56256372643922
 20
-118.171770532523
 30
0.0
 10
85.56256372643922
 20
-118.171770532523
 30
0.0
 10
85.56256372643922
 20
-118.171770532523
 30
0.0
 10
84.53454723364067
 20
-118.171770532523
 30
0.0
 10
84.53454723364067
 20
-118.171770532523
 30
0.0
 10
84.56624211210497
 20
-117.8141696211541
 30
0.0
 10
84.63169892632472
 20
-117.7359659536389
 30
0.0
 10
85.01686060157564
 20
-117.4376206846163
 30
0.0
 10
85.27283119612972
 20
-117.2388386751174
 30
0.0
 10
85.33828801034946
 20
-117.1711425488322
 30
0.0
 10
85.33828801034946
 20
-117.0336832389708
 30
0.0
 10
85.33828801034946
 20
-116.9151719542782
 30
0.0
 10
85.266457769482
 20
-116.7840860710644
 30
0.0
 10
85.06974281727423
 20
-116.7840860710644
 30
0.0
 10
84.8094658533636
 20
-116.7840860710644
 30
0.0
 10
84.80102536942475
 20
-117.0145629590276
 30
0.0
 10
84.79671900006818
 20
-117.1310071864291
 30
0.0
 10
84.79671900006818
 20
-117.1310071864291
 30
0.0
 10
84.57261553875269
 20
-117.1310071864291
 30
0.0
 10
84.57261553875269
 20
-117.1310071864291
 30
0.0
 10
84.58105602269154
 20
-117.0040554177976
 30
0.0
 10
84.59156356392155
 20
-116.8919175597527
 30
0.0
 10
84.67200654350214
 20
-116.7734062750601
 30
0.0
 10
84.78190508948161
 20
-116.6126925706732
 30
0.0
 10
84.96811250045937
 20
-116.5787583801435
 30
0.0
 10
85.08455672786081
 20
-116.5787583801435
 30
0.0
 10
85.36171465964915
 20
-116.5787583801435
 30
0.0
 10
85.56893715308694
 20
-116.7628987338301
 30
0.0
 10
85.56893715308694
 20
-117.0357502962619
 30
0.0
 10
85.56893715308694
 20
-117.264160126934
 30
0.0
 10
85.45266518045976
 20
-117.3637233864577
 30
0.0
 10
85.1438123702071
 20
-117.5900661598386
 30
0.0
  0
HATCH
  5
73
330
6E
100
AcDbEntity
  8
_U+30EC_U+30A4_U+30E4_U+30FC 1
 62
   179
420
  2234388
100
AcDbHatch
 10
0.0
 20
0.0
 30
0.0
210
0.0
220
0.0
230
1.0
  2
SOLID
 70
     1
 71
     0
 91
        1
 92
        1
 93
        1
 72
     4
 94
        3
 73
     0
 74
     1
 95
       44
 96
       40
 40
0.0
 40
0.0
 40
0.0
 40
0.0
 40
1.0
 40
1.0
 40
1.0
 40
2.0
 40
2.0
 40
2.0
 40
3.0
 40
3.0
 40
3.0
 40
4.0
 40
4.0
 40
4.0
 40
5.0
 40
5.0
 40
5.0
 40
6.0
 40
6.0
 40
6.0
 40
7.0
 40
7.0
 40
7.0
 40
8.0
 40
8.0
 40
8.0
 40
9.0
 40
9.0
 40
9.0
 40
10.0
 40
10.0
 40
10.0
 40
11.0
 40
11.0
 40
11.0
 40
12.0
 40
12.0
 40
12.0
 40
13.0
 40
13.0
 40
13.0
 40
13.0
 10
85.1438123702071
 20
-117.5900661598386
 10
84.92591008076505
 20
-117.7487128069343
 10
84.83272024788904
 20
-117.8227823598672
 10
84.78414440154702
 20
-117.9666150963764
 10
84.78414440154702
 20
-117.9666150963764
 10
85.56256372643922
 20
-117.9666150963764
 10
85.56256372643922
 20
-117.9666150963764
 10
85.56256372643922
 20
-117.9666150963764
 10
85.56256372643922
 20
-118.171770532523
 10
85.56256372643922
 20
-118.171770532523
 10
85.56256372643922
 20
-118.171770532523
 10
84.53454723364067
 20
-118.171770532523
 10
84.53454723364067
 20
-118.171770532523
 10
84.56624211210497
 20
-117.8141696211541
 10
84.63169892632472
 20
-117.7359659536389
 10
85.01686060157564
 20
-117.4376206846163
 10
85.27283119612972
 20
-117.2388386751174
 10
85.33828801034946
 20
-117.1711425488322
 10
85.33828801034946
 20
-117.0336832389708
 10
85.33828801034946
 20
-116.9151719542782
 10
85.266457769482
 20
-116.7840860710644
 10
85.06974281727423
 20
-116.7840860710644
 10
84.8094658533636
 20
-116.7840860710644
 10
84.80102536942475
 20
-117.0145629590276
 10
84.79671900006818
 20
-117.1310071864291
 10
84.79671900006818
 20
-117.1310071864291
 10
84.57261553875269
 20
-117.1310071864291
 10
84.57261553875269
 20
-117.1310071864291
 10
84.58105602269154
 20
-117.0040554177976
 10
84.59156356392155
 20
-116.8919175597527
 10
84.67200654350214
 20
-116.7734062750601
 10
84.78190508948161
 20
-116.6126925706732
 10
84.96811250045937
 20
-116.5787583801435
 10
85.08455672786081
 20
-116.5787583801435
 10
85.36171465964915
 20
-116.5787583801435
 10
85.56893715308694
 20
-116.7628987338301
 10
85.56893715308694
 20
-117.0357502962619
 10
85.56893715308694
 20
-117.264160126934
 10
85.45266518045976
 20
-117.3637233864577
 10
85.1438123702071
 20
-117.5900661598386
 97
        0
 97
        0
 75
     2
 76
     1
 98
        0
  0
SPLINE
  5
74
330
6E
100
AcDbEntity
  8
_U+30EC_U+30A4_U+30E4_U+30FC 1
370
     0
100
AcDbSpline
210
0.0
220
0.0
230
1.0
 70
    11
 71
     3
 72
    53
 73
    49
 74
     0
 42
0.0000000001
 43
0.0000000001
 12
1.0
 22
0.0
 32
0.0
 13
1.0
 23
0.0
 33
0.0
 40
0.0
 40
0.0
 40
0.0
 40
0.0
 40
1.0
 40
1.0
 40
1.0
 40
2.0
 40
2.0
 40
2.0
 40
3.0
 40
3.0
 40
3.0
 40
4.0
 40
4.0
 40
4.0
 40
5.0
 40
5.0
 40
5.0
 40
6.0
 40
6.0
 40
6.0
 40
7.0
 40
7.0
 40
7.0
 40
8.0
 40
8.0
 40
8.0
 40
9.0
 40
9.0
 40
9.0
 40
10.0
 40
10.0
 40
10.0
 40
11.0
 40
11.0
 40
11.0
 40
12.0
 40
12.0
 40
12.0
 40
13.0
 40
13.0
 40
13.0
 40
14.0
 40
14.0
 40
14.0
 40
15.0
 40
15.0
 40
15.0
 40
16.0
 40
16.0
 40
16.0
 40
16.0
 10
86.20851912992357
 20
-118.2225856909305
 30
0.0
 10
86.13031546240839
 20
-118.2225856909305
 30
0.0
 10
86.02868514559353
 20
-118.2055324682785
 30
0.0
 10
85.92705482877865
 20
-118.1421427113499
 30
0.0
 10
85.75376652587059
 20
-118.0320719105962
 30
0.0
 10
85.73240693386204
 20
-117.9009860273824
 30
0.0
 10
85.71345890869317
 20
-117.7931545386941
 30
0.0
 10
85.71345890869317
 20
-117.7931545386941
 30
0.0
 10
85.93566756749178
 20
-117.7931545386941
 30
0.0
 10
85.93566756749178
 20
-117.7931545386941
 30
0.0
 10
85.99044458570725
 20
-117.991936548193
 30
0.0
 10
86.11756860911298
 20
-118.0215643693661
 30
0.0
 10
86.21058618721472
 20
-118.0215643693661
 30
0.0
 10
86.35011255436734
 20
-118.0215643693661
 30
0.0
 10
86.50238577481538
 20
-117.9221733646167
 30
0.0
 10
86.50238577481538
 20
-117.6894571645881
 30
0.0
 10
86.50238577481538
 20
-117.433486570034
 30
0.0
 10
86.32255179048533
 20
-117.3637233864577
 30
0.0
 10
86.20197344850159
 20
-117.3637233864577
 30
0.0
 10
86.1702785700373
 20
-117.3637233864577
 30
0.0
 10
86.02868514559353
 20
-117.3637233864577
 30
0.0
 10
85.93980168207408
 20
-117.4927422123803
 30
0.0
 10
85.93980168207408
 20
-117.4927422123803
 30
0.0
 10
85.76410181232634
 20
-117.4736219324372
 30
0.0
 10
85.76410181232634
 20
-117.4736219324372
 30
0.0
 10
85.76410181232634
 20
-117.4736219324372
 30
0.0
 10
85.88468015431009
 20
-116.6275064812598
 30
0.0
 10
85.88468015431009
 20
-116.6275064812598
 30
0.0
 10
85.88468015431009
 20
-116.6275064812598
 30
0.0
 10
86.66327173397654
 20
-116.6275064812598
 30
0.0
 10
86.66327173397654
 20
-116.6275064812598
 30
0.0
 10
86.66327173397654
 20
-116.6275064812598
 30
0.0
 10
86.66327173397654
 20
-116.8221543761764
 30
0.0
 10
86.66327173397654
 20
-116.8221543761764
 30
0.0
 10
86.66327173397654
 20
-116.8221543761764
 30
0.0
 10
86.0476331707624
 20
-116.8221543761764
 30
0.0
 10
86.0476331707624
 20
-116.8221543761764
 30
0.0
 10
86.0476331707624
 20
-116.8221543761764
 30
0.0
 10
85.98217635654265
 20
-117.2452121017651
 30
0.0
 10
85.98217635654265
 20
-117.2452121017651
 30
0.0
 10
86.0434990561801
 20
-117.2112779112354
 30
0.0
 10
86.12583683827758
 20
-117.1711425488322
 30
0.0
 10
86.24434812297017
 20
-117.1711425488322
 30
0.0
 10
86.49825166023308
 20
-117.1711425488322
 30
0.0
 10
86.73527422961827
 20
-117.35734995981
 30
0.0
 10
86.73527422961827
 20
-117.6703368846449
 30
0.0
 10
86.73527422961827
 20
-117.9878024336107
 30
0.0
 10
86.5109985135285
 20
-118.2225856909305
 30
0.0
 10
86.20851912992357
 20
-118.2225856909305
 30
0.0
  0
HATCH
  5
75
330
6E
100
AcDbEntity
  8
_U+30EC_U+30A4_U+30E4_U+30FC 1
 62
   179
420
  2234388
100
AcDbHatch
 10
0.0
 20
0.0
 30
0.0
210
0.0
220
0.0
230
1.0
  2
SOLID
 70
     1
 71
     0
 91
        1
 92
        1
 93
        1
 72
     4
 94
        3
 73
     0
 74
     1
 95
       53
 96
       49
 40
0.0
 40
0.0
 40
0.0
 40
0.0
 40
1.0
 40
1.0
 40
1.0
 40
2.0
 40
2.0
 40
2.0
 40
3.0
 40
3.0
 40
3.0
 40
4.0
 40
4.0
 40
4.0
 40
5.0
 40
5.0
 40
5.0
 40
6.0
 40
6.0
 40
6.0
 40
7.0
 40
7.0
 40
7.0
 40
8.0
 40
8.0
 40
8.0
 40
9.0
 40
9.0
 40
9.0
 40
10.0
 40
10.0
 40
10.0
 40
11.0
 40
11.0
 40
11.0
 40
12.0
 40
12.0
 40
12.0
 40
13.0
 40
13.0
 40
13.0
 40
14.0
 40
14.0
 40
14.0
 40
15.0
 40
15.0
 40
15.0
 40
16.0
 40
16.0
 40
16.0
 40
16.0
 10
86.20851912992357
 20
-118.2225856909305
 10
86.13031546240839
 20
-118.2225856909305
 10
86.02868514559353
 20
-118.2055324682785
 10
85.92705482877865
 20
-118.1421427113499
 10
85.75376652587059
 20
-118.0320719105962
 10
85.73240693386204
 20
-117.9009860273824
 10
85.71345890869317
 20
-117.7931545386941
 10
85.71345890869317
 20
-117.7931545386941
 10
85.93566756749178
 20
-117.7931545386941
 10
85.93566756749178
 20
-117.7931545386941
 10
85.99044458570725
 20
-117.991936548193
 10
86.11756860911298
 20
-118.0215643693661
 10
86.21058618721472
 20
-118.0215643693661
 10
86.35011255436734
 20
-118.0215643693661
 10
86.50238577481538
 20
-117.9221733646167
 10
86.50238577481538
 20
-117.6894571645881
 10
86.50238577481538
 20
-117.433486570034
 10
86.32255179048533
 20
-117.3637233864577
 10
86.20197344850159
 20
-117.3637233864577
 10
86.1702785700373
 20
-117.3637233864577
 10
86.02868514559353
 20
-117.3637233864577
 10
85.93980168207408
 20
-117.4927422123803
 10
85.93980168207408
 20
-117.4927422123803
 10
85.76410181232634
 20
-117.4736219324372
 10
85.76410181232634
 20
-117.4736219324372
 10
85.76410181232634
 20
-117.4736219324372
 10
85.88468015431009
 20
-116.6275064812598
 10
85.88468015431009
 20
-116.6275064812598
 10
85.88468015431009
 20
-116.6275064812598
 10
86.66327173397654
 20
-116.6275064812598
 10
86.66327173397654
 20
-116.6275064812598
 10
86.66327173397654
 20
-116.6275064812598
 10
86.66327173397654
 20
-116.8221543761764
 10
86.66327173397654
 20
-116.8221543761764
 10
86.66327173397654
 20
-116.8221543761764
 10
86.0476331707624
 20
-116.8221543761764
 10
86.0476331707624
 20
-116.8221543761764
 10
86.0476331707624
 20
-116.8221543761764
 10
85.98217635654265
 20
-117.2452121017651
 10
85.98217635654265
 20
-117.2452121017651
 10
86.0434990561801
 20
-117.2112779112354
 10
86.12583683827758
 20
-117.1711425488322
 10
86.24434812297017
 20
-117.1711425488322
 10
86.49825166023308
 20
-117.1711425488322
 10
86.73527422961827
 20
-117.35734995981
 10
86.73527422961827
 20
-117.6703368846449
 10
86.73527422961827
 20
-117.9878024336107
 10
86.5109985135285
 20
-118.2225856909305
 10
86.20851912992357
 20
-118.2225856909305
 97
        0
 97
        0
 75
     2
 76
     1
 98
        0
  0
ENDBLK
  5
71
330
6E
100
AcDbEntity
  8
0
100
AcDbBlockEnd
  0
BLOCK
  5
88
330
86
100
AcDbEntity
  8
0
100
AcDbBlockBegin
  2
block 5
 70
     0
 10
0.0
 20
0.0
 30
0.0
  3
block 5
  1

  0
SPLINE
  5
8A
330
86
100
AcDbEntity
  8
_U+30EC_U+30A4_U+30E4_U+30FC 1
370
     0
100
AcDbSpline
210
0.0
220
0.0
230
1.0
 70
    11
 71
     3
 72
    29
 73
    25
 74
     0
 42
0.0000000001
 43
0.0000000001
 12
1.0
 22
0.0
 32
0.0
 13
1.0
 23
0.0
 33
0.0
 40
0.0
 40
0.0
 40
0.0
 40
0.0
 40
1.0
 40
1.0
 40
1.0
 40
2.0
 40
2.0
 40
2.0
 40
3.0
 40
3.0
 40
3.0
 40
4.0
 40
4.0
 40
4.0
 40
5.0
 40
5.0
 40
5.0
 40
6.0
 40
6.0
 40
6.0
 40
7.0
 40
7.0
 40
7.0
 40
8.0
 40
8.0
 40
8.0
 40
8.0
 10
106.1368462191255
 20
-123.8105305680057
 30
0.0
 10
106.3463080246287
 20
-123.9187065662425
 30
0.0
 10
106.3652560497976
 20
-124.0919948691506
 30
0.0
 10
106.3652560497976
 20
-124.2084390965521
 30
0.0
 10
106.3652560497976
 20
-124.3693250557132
 30
0.0
 10
106.3187472607467
 20
-124.510918480157
 30
0.0
 10
106.1368462191255
 20
-124.6060031155499
 30
0.0
 10
105.9421983242089
 20
-124.7097004896559
 30
0.0
 10
105.7051757548237
 20
-124.7289930243733
 30
0.0
 10
105.5425672479199
 20
-124.7289930243733
 30
0.0
 10
105.3985622566365
 20
-124.7289930243733
 30
0.0
 10
105.1467257766647
 20
-124.7117675469471
 30
0.0
 10
104.9479437671658
 20
-124.6060031155499
 30
0.0
 10
104.7450276430846
 20
-124.4981716268616
 30
0.0
 10
104.7216009937849
 20
-124.3372856677004
 30
0.0
 10
104.7216009937849
 20
-124.2084390965521
 30
0.0
 10
104.7216009937849
 20
-124.049620194682
 30
0.0
 10
104.7660427255446
 20
-123.9059597129471
 30
0.0
 10
104.9479437671658
 20
-123.8105305680057
 30
0.0
 10
105.1405246047913
 20
-123.7113118180305
 30
0.0
 10
105.3689344354633
 20
-123.6878851687308
 30
0.0
 10
105.5425672479199
 20
-123.6878851687308
 30
0.0
 10
105.7137884935368
 20
-123.6878851687308
 30
0.0
 10
105.9442653815
 20
-123.7092447607394
 30
0.0
 10
106.1368462191255
 20
-123.8105305680057
 30
0.0
  0
SPLINE
  5
8B
330
86
100
AcDbEntity
  8
_U+30EC_U+30A4_U+30E4_U+30FC 1
370
     0
100
AcDbSpline
210
0.0
220
0.0
230
1.0
 70
    11
 71
     3
 72
    17
 73
    13
 74
     0
 42
0.0000000001
 43
0.0000000001
 12
1.0
 22
0.0
 32
0.0
 13
1.0
 23
0.0
 33
0.0
 40
0.0
 40
0.0
 40
0.0
 40
0.0
 40
1.0
 40
1.0
 40
1.0
 40
2.0
 40
2.0
 40
2.0
 40
3.0
 40
3.0
 40
3.0
 40
4.0
 40
4.0
 40
4.0
 40
4.0
 10
104.9141818314103
 20
-124.2084390965521
 30
0.0
 10
104.9141818314103
 20
-124.4582085192327
 30
0.0
 10
105.1977131898464
 20
-124.5047173082835
 30
0.0
 10
105.5425672479199
 20
-124.5047173082835
 30
0.0
 10
105.8619275994026
 20
-124.5047173082835
 30
0.0
 10
106.170608154881
 20
-124.4685438056884
 30
0.0
 10
106.170608154881
 20
-124.2084390965521
 30
0.0
 10
106.170608154881
 20
-123.9607367311626
 30
0.0
 10
105.8894883632846
 20
-123.9121608848206
 30
0.0
 10
105.5425672479199
 20
-123.9121608848206
 30
0.0
 10
105.2228623868887
 20
-123.9121608848206
 30
0.0
 10
104.9141818314103
 20
-123.9504014447069
 30
0.0
 10
104.9141818314103
 20
-124.2084390965521
 30
0.0
  0
HATCH
  5
8C
330
86
100
AcDbEntity
  8
_U+30EC_U+30A4_U+30E4_U+30FC 1
 62
   179
420
  2234388
100
AcDbHatch
 10
0.0
 20
0.0
 30
0.0
210
0.0
220
0.0
230
1.0
  2
SOLID
 70
     1
 71
     0
 91
        2
 92
        1
 93
        1
 72
     4
 94
        3
 73
     0
 74
     1
 95
       29
 96
       25
 40
0.0
 40
0.0
 40
0.0
 40
0.0
 40
1.0
 40
1.0
 40
1.0
 40
2.0
 40
2.0
 40
2.0
 40
3.0
 40
3.0
 40
3.0
 40
4.0
 40
4.0
 40
4.0
 40
5.0
 40
5.0
 40
5.0
 40
6.0
 40
6.0
 40
6.0
 40
7.0
 40
7.0
 40
7.0
 40
8.0
 40
8.0
 40
8.0
 40
8.0
 10
106.1368462191255
 20
-123.8105305680057
 10
106.3463080246287
 20
-123.9187065662425
 10
106.3652560497976
 20
-124.0919948691506
 10
106.3652560497976
 20
-124.2084390965521
 10
106.3652560497976
 20
-124.3693250557132
 10
106.3187472607467
 20
-124.510918480157
 10
106.1368462191255
 20
-124.6060031155499
 10
105.9421983242089
 20
-124.7097004896559
 10
105.7051757548237
 20
-124.7289930243733
 10
105.5425672479199
 20
-124.7289930243733
 10
105.3985622566365
 20
-124.7289930243733
 10
105.1467257766647
 20
-124.7117675469471
 10
104.9479437671658
 20
-124.6060031155499
 10
104.7450276430846
 20
-124.4981716268616
 10
104.7216009937849
 20
-124.3372856677004
 10
104.7216009937849
 20
-124.2084390965521
 10
104.7216009937849
 20
-124.049620194682
 10
104.7660427255446
 20
-123.9059597129471
 10
104.9479437671658
 20
-123.8105305680057
 10
105.1405246047913
 20
-123.7113118180305
 10
105.3689344354633
 20
-123.6878851687308
 10
105.5425672479199
 20
-123.6878851687308
 10
105.7137884935368
 20
-123.6878851687308
 10
105.9442653815
 20
-123.7092447607394
 10
106.1368462191255
 20
-123.8105305680057
 97
        0
 97
        0
 92
        1
 93
        1
 72
     4
 94
        3
 73
     0
 74
     1
 95
       17
 96
       13
 40
0.0
 40
0.0
 40
0.0
 40
0.0
 40
1.0
 40
1.0
 40
1.0
 40
2.0
 40
2.0
 40
2.0
 40
3.0
 40
3.0
 40
3.0
 40
4.0
 40
4.0
 40
4.0
 40
4.0
 10
104.9141818314103
 20
-124.2084390965521
 10
104.9141818314103
 20
-124.4582085192327
 10
105.1977131898464
 20
-124.5047173082835
 10
105.5425672479199
 20
-124.5047173082835
 10
105.8619275994026
 20
-124.5047173082835
 10
106.170608154881
 20
-124.4685438056884
 10
106.170608154881
 20
-124.2084390965521
 10
106.170608154881
 20
-123.9607367311626
 10
105.8894883632846
 20
-123.9121608848206
 10
105.5425672479199
 20
-123.9121608848206
 10
105.2228623868887
 20
-123.9121608848206
 10
104.9141818314103
 20
-123.9504014447069
 10
104.9141818314103
 20
-124.2084390965521
 97
        0
 97
        0
 75
     2
 76
     1
 98
        0
  0
POLYLINE
  5
8D
330
86
100
AcDbEntity
  8
_U+30EC_U+30A4_U+30E4_U+30FC 1
370
     0
100
AcDb2dPolyline
 66
     1
 10
0.0
 20
0.0
 30
0.0
  0
VERTEX
  5
8E
330
8D
100
AcDbEntity
  8
_U+30EC_U+30A4_U+30E4_U+30FC 1
370
     0
100
AcDbVertex
100
AcDb2dVertex
 10
106.3146131461644
 20
-123.4715331722571
 30
0.0
  0
VERTEX
  5
8F
330
8D
100
AcDbEntity
  8
_U+30EC_U+30A4_U+30E4_U+30FC 1
370
     0
100
AcDbVertex
100
AcDb2dVertex
 10
106.0627766661926
 20
-123.4715331722571
 30
0.0
  0
VERTEX
  5
90
330
8D
100
AcDbEntity
  8
_U+30EC_U+30A4_U+30E4_U+30FC 1
370
     0
100
AcDbVertex
100
AcDb2dVertex
 10
106.0627766661926
 20
-123.2196966922854
 30
0.0
  0
VERTEX
  5
91
330
8D
100
AcDbEntity
  8
_U+30EC_U+30A4_U+30E4_U+30FC 1
370
     0
100
AcDbVertex
100
AcDb2dVertex
 10
106.3146131461644
 20
-123.2196966922854
 30
0.0
  0
VERTEX
  5
92
330
8D
100
AcDbEntity
  8
_U+30EC_U+30A4_U+30E4_U+30FC 1
370
     0
100
AcDbVertex
100
AcDb2dVertex
 10
106.3146131461644
 20
-123.4715331722571
 30
0.0
  0
SEQEND
  5
93
330
8D
100
AcDbEntity
  8
_U+30EC_U+30A4_U+30E4_U+30FC 1
370
     0
  0
HATCH
  5
94
330
86
100
AcDbEntity
  8
_U+30EC_U+30A4_U+30E4_U+30FC 1
 62
   179
420
  2234388
100
AcDbHatch
 10
0.0
 20
0.0
 30
0.0
210
0.0
220
0.0
230
1.0
  2
SOLID
 70
     1
 71
     0
 91
        1
 92
        1
 93
        4
 72
     1
 10
106.3146131461644
 20
-123.4715331722571
 11
106.0627766661926
 21
-123.4715331722571
 72
     1
 10
106.0627766661926
 20
-123.4715331722571
 11
106.0627766661926
 21
-123.2196966922854
 72
     1
 10
106.0627766661926
 20
-123.2196966922854
 11
106.3146131461644
 21
-123.2196966922854
 72
     1
 10
106.3146131461644
 20
-123.2196966922854
 11
106.3146131461644
 21
-123.4715331722571
 97
        0
 75
     2
 76
     1
 98
        0
  0
SPLINE
  5
95
330
86
100
AcDbEntity
  8
_U+30EC_U+30A4_U+30E4_U+30FC 1
370
     0
100
AcDbSpline
210
0.0
220
0.0
230
1.0
 70
    11
 71
     3
 72
    32
 73
    28
 74
     0
 42
0.0000000001
 43
0.0000000001
 12
1.0
 22
0.0
 32
0.0
 13
1.0
 23
0.0
 33
0.0
 40
0.0
 40
0.0
 40
0.0
 40
0.0
 40
1.0
 40
1.0
 40
1.0
 40
2.0
 40
2.0
 40
2.0
 40
3.0
 40
3.0
 40
3.0
 40
4.0
 40
4.0
 40
4.0
 40
5.0
 40
5.0
 40
5.0
 40
6.0
 40
6.0
 40
6.0
 40
7.0
 40
7.0
 40
7.0
 40
8.0
 40
8.0
 40
8.0
 40
9.0
 40
9.0
 40
9.0
 40
9.0
 10
106.3652560497976
 20
-122.525854461556
 30
0.0
 10
106.3652560497976
 20
-122.6991427644641
 30
0.0
 10
106.2956651209955
 20
-122.9447780725624
 30
0.0
 10
105.9635579162175
 20
-122.9826741229002
 30
0.0
 10
105.9635579162175
 20
-122.9826741229002
 30
0.0
 10
105.9635579162175
 20
-122.7690782028147
 30
0.0
 10
105.9635579162175
 20
-122.7690782028147
 30
0.0
 10
106.0228135585637
 20
-122.7583984068104
 30
0.0
 10
106.170608154881
 20
-122.7267035283461
 30
0.0
 10
106.170608154881
 20
-122.5237874042649
 30
0.0
 10
106.170608154881
 20
-122.2316433071157
 30
0.0
 10
105.8409125169426
 20
-122.193747256778
 30
0.0
 10
105.6355848260217
 20
-122.1810004034825
 30
0.0
 10
105.715855550828
 20
-122.2719509242931
 30
0.0
 10
105.7730441358831
 20
-122.339474795804
 30
0.0
 10
105.7730441358831
 20
-122.5213758374252
 30
0.0
 10
105.7730441358831
 20
-122.7012098217553
 30
0.0
 10
105.667279704486
 20
-123.0036892053602
 30
0.0
 10
105.261102946775
 20
-123.0036892053602
 30
0.0
 10
104.9417425952924
 20
-123.0036892053602
 30
0.0
 10
104.7216009937849
 20
-122.8049071958613
 30
0.0
 10
104.7216009937849
 20
-122.4876139016698
 30
0.0
 10
104.7216009937849
 20
-121.9736056552705
 30
0.0
 10
105.2759168573616
 20
-121.9629258592662
 30
0.0
 10
105.4895127774471
 20
-121.9629258592662
 30
0.0
 10
105.7199896654103
 20
-121.9629258592662
 30
0.0
 10
106.3652560497976
 20
-121.9822183939836
 30
0.0
 10
106.3652560497976
 20
-122.525854461556
 30
0.0
  0
SPLINE
  5
96
330
86
100
AcDbEntity
  8
_U+30EC_U+30A4_U+30E4_U+30FC 1
370
     0
100
AcDbSpline
210
0.0
220
0.0
230
1.0
 70
    11
 71
     3
 72
    17
 73
    13
 74
     0
 42
0.0000000001
 43
0.0000000001
 12
1.0
 22
0.0
 32
0.0
 13
1.0
 23
0.0
 33
0.0
 40
0.0
 40
0.0
 40
0.0
 40
0.0
 40
1.0
 40
1.0
 40
1.0
 40
2.0
 40
2.0
 40
2.0
 40
3.0
 40
3.0
 40
3.0
 40
4.0
 40
4.0
 40
4.0
 40
4.0
 10
104.9141818314103
 20
-122.4855468443786
 30
0.0
 10
104.9141818314103
 20
-122.6040581290712
 30
0.0
 10
104.9713704164655
 20
-122.779757998819
 30
0.0
 10
105.2569688321927
 20
-122.779757998819
 30
0.0
 10
105.4833116055736
 20
-122.779757998819
 30
0.0
 10
105.5783962409665
 20
-122.6398871221178
 30
0.0
 10
105.5783962409665
 20
-122.5044948695475
 30
0.0
 10
105.5783962409665
 20
-122.24232310312
 30
0.0
 10
105.3689344354633
 20
-122.2040825432337
 30
0.0
 10
105.2524902080619
 20
-122.2040825432337
 30
0.0
 10
105.0771348478627
 20
-122.2040825432337
 30
0.0
 10
104.9141818314103
 20
-122.2995116881751
 30
0.0
 10
104.9141818314103
 20
-122.4855468443786
 30
0.0
  0
HATCH
  5
97
330
86
100
AcDbEntity
  8
_U+30EC_U+30A4_U+30E4_U+30FC 1
 62
   179
420
  2234388
100
AcDbHatch
 10
0.0
 20
0.0
 30
0.0
210
0.0
220
0.0
230
1.0
  2
SOLID
 70
     1
 71
     0
 91
        2
 92
        1
 93
        1
 72
     4
 94
        3
 73
     0
 74
     1
 95
       32
 96
       28
 40
0.0
 40
0.0
 40
0.0
 40
0.0
 40
1.0
 40
1.0
 40
1.0
 40
2.0
 40
2.0
 40
2.0
 40
3.0
 40
3.0
 40
3.0
 40
4.0
 40
4.0
 40
4.0
 40
5.0
 40
5.0
 40
5.0
 40
6.0
 40
6.0
 40
6.0
 40
7.0
 40
7.0
 40
7.0
 40
8.0
 40
8.0
 40
8.0
 40
9.0
 40
9.0
 40
9.0
 40
9.0
 10
106.3652560497976
 20
-122.525854461556
 10
106.3652560497976
 20
-122.6991427644641
 10
106.2956651209955
 20
-122.9447780725624
 10
105.9635579162175
 20
-122.9826741229002
 10
105.9635579162175
 20
-122.9826741229002
 10
105.9635579162175
 20
-122.7690782028147
 10
105.9635579162175
 20
-122.7690782028147
 10
106.0228135585637
 20
-122.7583984068104
 10
106.170608154881
 20
-122.7267035283461
 10
106.170608154881
 20
-122.5237874042649
 10
106.170608154881
 20
-122.2316433071157
 10
105.8409125169426
 20
-122.193747256778
 10
105.6355848260217
 20
-122.1810004034825
 10
105.715855550828
 20
-122.2719509242931
 10
105.7730441358831
 20
-122.339474795804
 10
105.7730441358831
 20
-122.5213758374252
 10
105.7730441358831
 20
-122.7012098217553
 10
105.667279704486
 20
-123.0036892053602
 10
105.261102946775
 20
-123.0036892053602
 10
104.9417425952924
 20
-123.0036892053602
 10
104.7216009937849
 20
-122.8049071958613
 10
104.7216009937849
 20
-122.4876139016698
 10
104.7216009937849
 20
-121.9736056552705
 10
105.2759168573616
 20
-121.9629258592662
 10
105.4895127774471
 20
-121.9629258592662
 10
105.7199896654103
 20
-121.9629258592662
 10
106.3652560497976
 20
-121.9822183939836
 10
106.3652560497976
 20
-122.525854461556
 97
        0
 97
        0
 92
        1
 93
        1
 72
     4
 94
        3
 73
     0
 74
     1
 95
       17
 96
       13
 40
0.0
 40
0.0
 40
0.0
 40
0.0
 40
1.0
 40
1.0
 40
1.0
 40
2.0
 40
2.0
 40
2.0
 40
3.0
 40
3.0
 40
3.0
 40
4.0
 40
4.0
 40
4.0
 40
4.0
 10
104.9141818314103
 20
-122.4855468443786
 10
104.9141818314103
 20
-122.6040581290712
 10
104.9713704164655
 20
-122.779757998819
 10
105.2569688321927
 20
-122.779757998819
 10
105.4833116055736
 20
-122.779757998819
 10
105.5783962409665
 20
-122.6398871221178
 10
105.5783962409665
 20
-122.5044948695475
 10
105.5783962409665
 20
-122.24232310312
 10
105.3689344354633
 20
-122.2040825432337
 10
105.2524902080619
 20
-122.2040825432337
 10
105.0771348478627
 20
-122.2040825432337
 10
104.9141818314103
 20
-122.2995116881751
 10
104.9141818314103
 20
-122.4855468443786
 97
        0
 97
        0
 75
     2
 76
     1
 98
        0
  0
ENDBLK
  5
89
330
86
100
AcDbEntity
  8
0
100
AcDbBlockEnd
  0
BLOCK
  5
A2
330
A0
100
AcDbEntity
  8
0
100
AcDbBlockBegin
  2
block 6
 70
     0
 10
0.0
 20
0.0
 30
0.0
  3
block 6
  1

  0
SPLINE
  5
A4
330
A0
100
AcDbEntity
  8
_U+30EC_U+30A4_U+30E4_U+30FC 1
370
     0
100
AcDbSpline
210
0.0
220
0.0
230
1.0
 70
    11
 71
     3
 72
    62
 73
    58
 74
     0
 42
0.0000000001
 43
0.0000000001
 12
1.0
 22
0.0
 32
0.0
 13
1.0
 23
0.0
 33
0.0
 40
0.0
 40
0.0
 40
0.0
 40
0.0
 40
1.0
 40
1.0
 40
1.0
 40
2.0
 40
2.0
 40
2.0
 40
3.0
 40
3.0
 40
3.0
 40
4.0
 40
4.0
 40
4.0
 40
5.0
 40
5.0
 40
5.0
 40
6.0
 40
6.0
 40
6.0
 40
7.0
 40
7.0
 40
7.0
 40
8.0
 40
8.0
 40
8.0
 40
9.0
 40
9.0
 40
9.0
 40
10.0
 40
10.0
 40
10.0
 40
11.0
 40
11.0
 40
11.0
 40
12.0
 40
12.0
 40
12.0
 40
13.0
 40
13.0
 40
13.0
 40
14.0
 40
14.0
 40
14.0
 40
15.0
 40
15.0
 40
15.0
 40
16.0
 40
16.0
 40
16.0
 40
17.0
 40
17.0
 40
17.0
 40
18.0
 40
18.0
 40
18.0
 40
19.0
 40
19.0
 40
19.0
 40
19.0
 10
101.544189427739
 20
-135.3264512465503
 30
0.0
 10
101.544189427739
 20
-135.4218803914918
 30
0.0
 10
101.5231743452789
 20
-135.6396104261595
 30
0.0
 10
101.3371391890754
 20
-135.7646673922741
 30
0.0
 10
101.2248290762563
 20
-135.838736945207
 30
0.0
 10
101.1256103262811
 20
-135.8428710597893
 30
0.0
 10
101.040860977344
 20
-135.8470051743716
 30
0.0
 10
101.040860977344
 20
-135.8470051743716
 30
0.0
 10
101.040860977344
 20
-135.6268635728641
 30
0.0
 10
101.040860977344
 20
-135.6268635728641
 30
0.0
 10
101.1149305302768
 20
-135.624796515573
 30
0.0
 10
101.3495415328223
 20
-135.6144612291172
 30
0.0
 10
101.3495415328223
 20
-135.3309298706812
 30
0.0
 10
101.3495415328223
 20
-135.1934705608197
 30
0.0
 10
101.2799506040203
 20
-135.0408528308231
 30
0.0
 10
101.0515407733482
 20
-135.0408528308231
 30
0.0
 10
100.9350965459468
 20
-135.0408528308231
 30
0.0
 10
100.8865206996048
 20
-135.0790933907094
 30
0.0
 10
100.8548258211405
 20
-135.1107882691737
 30
0.0
 10
100.7807562682076
 20
-135.1848578221066
 30
0.0
 10
100.7680094149122
 20
-135.301302049508
 30
0.0
 10
100.7680094149122
 20
-135.3560790677235
 30
0.0
 10
100.7680094149122
 20
-135.3753716024409
 30
0.0
 10
100.7700764722033
 20
-135.4112005954875
 30
0.0
 10
100.7742105867856
 20
-135.4387613593695
 30
0.0
 10
100.7742105867856
 20
-135.4387613593695
 30
0.0
 10
100.579562691869
 20
-135.4387613593695
 30
0.0
 10
100.579562691869
 20
-135.4387613593695
 30
0.0
 10
100.586108373291
 20
-135.4005207994832
 30
0.0
 10
100.5881754305821
 20
-135.3584906345632
 30
0.0
 10
100.5881754305821
 20
-135.3519449531412
 30
0.0
 10
100.5881754305821
 20
-135.2864881389214
 30
0.0
 10
100.5668158385736
 20
-135.0877061294225
 30
0.0
 10
100.3301377787369
 20
-135.0877061294225
 30
0.0
 10
100.152370851698
 20
-135.0877061294225
 30
0.0
 10
100.097249323934
 20
-135.218619757862
 30
0.0
 10
100.097249323934
 20
-135.32886281339
 30
0.0
 10
100.097249323934
 20
-135.5931016371087
 30
0.0
 10
100.3301377787369
 20
-135.6017143758218
 30
0.0
 10
100.4017957648301
 20
-135.6058484904041
 30
0.0
 10
100.4017957648301
 20
-135.6058484904041
 30
0.0
 10
100.4017957648301
 20
-135.8091091240339
 30
0.0
 10
100.4017957648301
 20
-135.8091091240339
 30
0.0
 10
100.2770833082641
 20
-135.8004963853207
 30
0.0
 10
99.90053437172627
 20
-135.7729356214387
 30
0.0
 10
99.90053437172627
 20
-135.3161159600946
 30
0.0
 10
99.90053437172627
 20
-135.0918402440048
 30
0.0
 10
100.027658395132
 20
-134.8506835600373
 30
0.0
 10
100.3235920973149
 20
-134.8506835600373
 30
0.0
 10
100.509971763067
 20
-134.8506835600373
 30
0.0
 10
100.5923095451644
 20
-134.9457681954302
 30
0.0
 10
100.6536322448019
 20
-135.045331454954
 30
0.0
 10
100.6811930086839
 20
-134.9840087553165
 30
0.0
 10
100.7614637334902
 20
-134.8021077136953
 30
0.0
 10
101.0387939200528
 20
-134.8021077136953
 30
0.0
 10
101.3771022967043
 20
-134.8021077136953
 30
0.0
 10
101.544189427739
 20
-135.0494655695362
 30
0.0
 10
101.544189427739
 20
-135.3264512465503
 30
0.0
  0
HATCH
  5
A5
330
A0
100
AcDbEntity
  8
_U+30EC_U+30A4_U+30E4_U+30FC 1
 62
   179
420
  2234388
100
AcDbHatch
 10
0.0
 20
0.0
 30
0.0
210
0.0
220
0.0
230
1.0
  2
SOLID
 70
     1
 71
     0
 91
        1
 92
        1
 93
        1
 72
     4
 94
        3
 73
     0
 74
     1
 95
       62
 96
       58
 40
0.0
 40
0.0
 40
0.0
 40
0.0
 40
1.0
 40
1.0
 40
1.0
 40
2.0
 40
2.0
 40
2.0
 40
3.0
 40
3.0
 40
3.0
 40
4.0
 40
4.0
 40
4.0
 40
5.0
 40
5.0
 40
5.0
 40
6.0
 40
6.0
 40
6.0
 40
7.0
 40
7.0
 40
7.0
 40
8.0
 40
8.0
 40
8.0
 40
9.0
 40
9.0
 40
9.0
 40
10.0
 40
10.0
 40
10.0
 40
11.0
 40
11.0
 40
11.0
 40
12.0
 40
12.0
 40
12.0
 40
13.0
 40
13.0
 40
13.0
 40
14.0
 40
14.0
 40
14.0
 40
15.0
 40
15.0
 40
15.0
 40
16.0
 40
16.0
 40
16.0
 40
17.0
 40
17.0
 40
17.0
 40
18.0
 40
18.0
 40
18.0
 40
19.0
 40
19.0
 40
19.0
 40
19.0
 10
101.544189427739
 20
-135.3264512465503
 10
101.544189427739
 20
-135.4218803914918
 10
101.5231743452789
 20
-135.6396104261595
 10
101.3371391890754
 20
-135.7646673922741
 10
101.2248290762563
 20
-135.838736945207
 10
101.1256103262811
 20
-135.8428710597893
 10
101.040860977344
 20
-135.8470051743716
 10
101.040860977344
 20
-135.8470051743716
 10
101.040860977344
 20
-135.6268635728641
 10
101.040860977344
 20
-135.6268635728641
 10
101.1149305302768
 20
-135.624796515573
 10
101.3495415328223
 20
-135.6144612291172
 10
101.3495415328223
 20
-135.3309298706812
 10
101.3495415328223
 20
-135.1934705608197
 10
101.2799506040203
 20
-135.0408528308231
 10
101.0515407733482
 20
-135.0408528308231
 10
100.9350965459468
 20
-135.0408528308231
 10
100.8865206996048
 20
-135.0790933907094
 10
100.8548258211405
 20
-135.1107882691737
 10
100.7807562682076
 20
-135.1848578221066
 10
100.7680094149122
 20
-135.301302049508
 10
100.7680094149122
 20
-135.3560790677235
 10
100.7680094149122
 20
-135.3753716024409
 10
100.7700764722033
 20
-135.4112005954875
 10
100.7742105867856
 20
-135.4387613593695
 10
100.7742105867856
 20
-135.4387613593695
 10
100.579562691869
 20
-135.4387613593695
 10
100.579562691869
 20
-135.4387613593695
 10
100.586108373291
 20
-135.4005207994832
 10
100.5881754305821
 20
-135.3584906345632
 10
100.5881754305821
 20
-135.3519449531412
 10
100.5881754305821
 20
-135.2864881389214
 10
100.5668158385736
 20
-135.0877061294225
 10
100.3301377787369
 20
-135.0877061294225
 10
100.152370851698
 20
-135.0877061294225
 10
100.097249323934
 20
-135.218619757862
 10
100.097249323934
 20
-135.32886281339
 10
100.097249323934
 20
-135.5931016371087
 10
100.3301377787369
 20
-135.6017143758218
 10
100.4017957648301
 20
-135.6058484904041
 10
100.4017957648301
 20
-135.6058484904041
 10
100.4017957648301
 20
-135.8091091240339
 10
100.4017957648301
 20
-135.8091091240339
 10
100.2770833082641
 20
-135.8004963853207
 10
99.90053437172627
 20
-135.7729356214387
 10
99.90053437172627
 20
-135.3161159600946
 10
99.90053437172627
 20
-135.0918402440048
 10
100.027658395132
 20
-134.8506835600373
 10
100.3235920973149
 20
-134.8506835600373
 10
100.509971763067
 20
-134.8506835600373
 10
100.5923095451644
 20
-134.9457681954302
 10
100.6536322448019
 20
-135.045331454954
 10
100.6811930086839
 20
-134.9840087553165
 10
100.7614637334902
 20
-134.8021077136953
 10
101.0387939200528
 20
-134.8021077136953
 10
101.3771022967043
 20
-134.8021077136953
 10
101.544189427739
 20
-135.0494655695362
 10
101.544189427739
 20
-135.3264512465503
 97
        0
 97
        0
 75
     2
 76
     1
 98
        0
  0
ENDBLK
  5
A3
330
A0
100
AcDbEntity
  8
0
100
AcDbBlockEnd
  0
BLOCK
  5
B0
330
AE
100
AcDbEntity
  8
0
100
AcDbBlockBegin
  2
block 7
 70
     0
 10
0.0
 20
0.0
 30
0.0
  3
block 7
  1

  0
SPLINE
  5
B2
330
AE
100
AcDbEntity
  8
_U+30EC_U+30A4_U+30E4_U+30FC 1
370
     0
100
AcDbSpline
210
0.0
220
0.0
230
1.0
 70
    11
 71
     3
 72
    26
 73
    22
 74
     0
 42
0.0000000001
 43
0.0000000001
 12
1.0
 22
0.0
 32
0.0
 13
1.0
 23
0.0
 33
0.0
 40
0.0
 40
0.0
 40
0.0
 40
0.0
 40
1.0
 40
1.0
 40
1.0
 40
2.0
 40
2.0
 40
2.0
 40
3.0
 40
3.0
 40
3.0
 40
4.0
 40
4.0
 40
4.0
 40
5.0
 40
5.0
 40
5.0
 40
6.0
 40
6.0
 40
6.0
 40
7.0
 40
7.0
 40
7.0
 40
7.0
 10
101.4935465241058
 20
-129.454975011039
 30
0.0
 10
101.4935465241058
 20
-129.454975011039
 30
0.0
 10
100.3893934210832
 20
-129.454975011039
 30
0.0
 10
100.3893934210832
 20
-129.454975011039
 30
0.0
 10
100.3893934210832
 20
-129.454975011039
 30
0.0
 10
100.3893934210832
 20
-129.785015158526
 30
0.0
 10
100.3893934210832
 20
-129.785015158526
 30
0.0
 10
100.3893934210832
 20
-129.785015158526
 30
0.0
 10
100.2412543152175
 20
-129.785015158526
 30
0.0
 10
100.2412543152175
 20
-129.785015158526
 30
0.0
 10
100.2264404046309
 20
-129.4529079537479
 30
0.0
 10
100.0634873881786
 20
-129.406399164697
 30
0.0
 10
99.94911021806828
 20
-129.3767713435239
 30
0.0
 10
99.94911021806828
 20
-129.3767713435239
 30
0.0
 10
99.94911021806828
 20
-129.2306992949493
 30
0.0
 10
99.94911021806828
 20
-129.2306992949493
 30
0.0
 10
99.94911021806828
 20
-129.2306992949493
 30
0.0
 10
101.4935465241058
 20
-129.2306992949493
 30
0.0
 10
101.4935465241058
 20
-129.2306992949493
 30
0.0
 10
101.4935465241058
 20
-129.2306992949493
 30
0.0
 10
101.4935465241058
 20
-129.454975011039
 30
0.0
 10
101.4935465241058
 20
-129.454975011039
 30
0.0
  0
HATCH
  5
B3
330
AE
100
AcDbEntity
  8
_U+30EC_U+30A4_U+30E4_U+30FC 1
 62
   179
420
  2234388
100
AcDbHatch
 10
0.0
 20
0.0
 30
0.0
210
0.0
220
0.0
230
1.0
  2
SOLID
 70
     1
 71
     0
 91
        1
 92
        1
 93
        1
 72
     4
 94
        3
 73
     0
 74
     1
 95
       26
 96
       22
 40
0.0
 40
0.0
 40
0.0
 40
0.0
 40
1.0
 40
1.0
 40
1.0
 40
2.0
 40
2.0
 40
2.0
 40
3.0
 40
3.0
 40
3.0
 40
4.0
 40
4.0
 40
4.0
 40
5.0
 40
5.0
 40
5.0
 40
6.0
 40
6.0
 40
6.0
 40
7.0
 40
7.0
 40
7.0
 40
7.0
 10
101.4935465241058
 20
-129.454975011039
 10
101.4935465241058
 20
-129.454975011039
 10
100.3893934210832
 20
-129.454975011039
 10
100.3893934210832
 20
-129.454975011039
 10
100.3893934210832
 20
-129.454975011039
 10
100.3893934210832
 20
-129.785015158526
 10
100.3893934210832
 20
-129.785015158526
 10
100.3893934210832
 20
-129.785015158526
 10
100.2412543152175
 20
-129.785015158526
 10
100.2412543152175
 20
-129.785015158526
 10
100.2264404046309
 20
-129.4529079537479
 10
100.0634873881786
 20
-129.406399164697
 10
99.94911021806828
 20
-129.3767713435239
 10
99.94911021806828
 20
-129.3767713435239
 10
99.94911021806828
 20
-129.2306992949493
 10
99.94911021806828
 20
-129.2306992949493
 10
99.94911021806828
 20
-129.2306992949493
 10
101.4935465241058
 20
-129.2306992949493
 10
101.4935465241058
 20
-129.2306992949493
 10
101.4935465241058
 20
-129.2306992949493
 10
101.4935465241058
 20
-129.454975011039
 10
101.4935465241058
 20
-129.454975011039
 97
        0
 97
        0
 75
     2
 76
     1
 98
        0
  0
SPLINE
  5
B4
330
AE
100
AcDbEntity
  8
_U+30EC_U+30A4_U+30E4_U+30FC 1
370
     0
100
AcDbSpline
210
0.0
220
0.0
230
1.0
 70
    11
 71
     3
 72
    29
 73
    25
 74
     0
 42
0.0000000001
 43
0.0000000001
 12
1.0
 22
0.0
 32
0.0
 13
1.0
 23
0.0
 33
0.0
 40
0.0
 40
0.0
 40
0.0
 40
0.0
 40
1.0
 40
1.0
 40
1.0
 40
2.0
 40
2.0
 40
2.0
 40
3.0
 40
3.0
 40
3.0
 40
4.0
 40
4.0
 40
4.0
 40
5.0
 40
5.0
 40
5.0
 40
6.0
 40
6.0
 40
6.0
 40
7.0
 40
7.0
 40
7.0
 40
8.0
 40
8.0
 40
8.0
 40
8.0
 10
101.3157795970669
 20
-127.8316460183893
 30
0.0
 10
101.5252414025701
 20
-127.9398220166262
 30
0.0
 10
101.544189427739
 20
-128.1131103195342
 30
0.0
 10
101.544189427739
 20
-128.2295545469357
 30
0.0
 10
101.544189427739
 20
-128.3904405060968
 30
0.0
 10
101.4976806386881
 20
-128.5320339305406
 30
0.0
 10
101.3157795970669
 20
-128.6271185659335
 30
0.0
 10
101.1211317021503
 20
-128.7308159400395
 30
0.0
 10
100.8841091327651
 20
-128.7501084747569
 30
0.0
 10
100.7215006258613
 20
-128.7501084747569
 30
0.0
 10
100.5774956345779
 20
-128.7501084747569
 30
0.0
 10
100.3256591546061
 20
-128.7328829973307
 30
0.0
 10
100.1268771451072
 20
-128.6271185659335
 30
0.0
 10
99.92396102102596
 20
-128.5192870772452
 30
0.0
 10
99.90053437172627
 20
-128.358401118084
 30
0.0
 10
99.90053437172627
 20
-128.2295545469357
 30
0.0
 10
99.90053437172627
 20
-128.0707356450657
 30
0.0
 10
99.94497610348598
 20
-127.9270751633307
 30
0.0
 10
100.1268771451072
 20
-127.8316460183893
 30
0.0
 10
100.3194579827326
 20
-127.7324272684141
 30
0.0
 10
100.5478678134047
 20
-127.7090006191144
 30
0.0
 10
100.7215006258613
 20
-127.7090006191144
 30
0.0
 10
100.8927218714782
 20
-127.7090006191144
 30
0.0
 10
101.1231987594414
 20
-127.730360211123
 30
0.0
 10
101.3157795970669
 20
-127.8316460183893
 30
0.0
  0
SPLINE
  5
B5
330
AE
100
AcDbEntity
  8
_U+30EC_U+30A4_U+30E4_U+30FC 1
370
     0
100
AcDbSpline
210
0.0
220
0.0
230
1.0
 70
    11
 71
     3
 72
    17
 73
    13
 74
     0
 42
0.0000000001
 43
0.0000000001
 12
1.0
 22
0.0
 32
0.0
 13
1.0
 23
0.0
 33
0.0
 40
0.0
 40
0.0
 40
0.0
 40
0.0
 40
1.0
 40
1.0
 40
1.0
 40
2.0
 40
2.0
 40
2.0
 40
3.0
 40
3.0
 40
3.0
 40
4.0
 40
4.0
 40
4.0
 40
4.0
 10
100.0931152093517
 20
-128.2295545469357
 30
0.0
 10
100.0931152093517
 20
-128.4793239696163
 30
0.0
 10
100.3766465677878
 20
-128.5258327586671
 30
0.0
 10
100.7215006258613
 20
-128.5258327586671
 30
0.0
 10
101.040860977344
 20
-128.5258327586671
 30
0.0
 10
101.3495415328223
 20
-128.489659256072
 30
0.0
 10
101.3495415328223
 20
-128.2295545469357
 30
0.0
 10
101.3495415328223
 20
-127.9818521815462
 30
0.0
 10
101.068421741226
 20
-127.9332763352042
 30
0.0
 10
100.7215006258613
 20
-127.9332763352042
 30
0.0
 10
100.4017957648301
 20
-127.9332763352042
 30
0.0
 10
100.0931152093517
 20
-127.9715168950905
 30
0.0
 10
100.0931152093517
 20
-128.2295545469357
 30
0.0
  0
HATCH
  5
B6
330
AE
100
AcDbEntity
  8
_U+30EC_U+30A4_U+30E4_U+30FC 1
 62
   179
420
  2234388
100
AcDbHatch
 10
0.0
 20
0.0
 30
0.0
210
0.0
220
0.0
230
1.0
  2
SOLID
 70
     1
 71
     0
 91
        2
 92
        1
 93
        1
 72
     4
 94
        3
 73
     0
 74
     1
 95
       29
 96
       25
 40
0.0
 40
0.0
 40
0.0
 40
0.0
 40
1.0
 40
1.0
 40
1.0
 40
2.0
 40
2.0
 40
2.0
 40
3.0
 40
3.0
 40
3.0
 40
4.0
 40
4.0
 40
4.0
 40
5.0
 40
5.0
 40
5.0
 40
6.0
 40
6.0
 40
6.0
 40
7.0
 40
7.0
 40
7.0
 40
8.0
 40
8.0
 40
8.0
 40
8.0
 10
101.3157795970669
 20
-127.8316460183893
 10
101.5252414025701
 20
-127.9398220166262
 10
101.544189427739
 20
-128.1131103195342
 10
101.544189427739
 20
-128.2295545469357
 10
101.544189427739
 20
-128.3904405060968
 10
101.4976806386881
 20
-128.5320339305406
 10
101.3157795970669
 20
-128.6271185659335
 10
101.1211317021503
 20
-128.7308159400395
 10
100.8841091327651
 20
-128.7501084747569
 10
100.7215006258613
 20
-128.7501084747569
 10
100.5774956345779
 20
-128.7501084747569
 10
100.3256591546061
 20
-128.7328829973307
 10
100.1268771451072
 20
-128.6271185659335
 10
99.92396102102596
 20
-128.5192870772452
 10
99.90053437172627
 20
-128.358401118084
 10
99.90053437172627
 20
-128.2295545469357
 10
99.90053437172627
 20
-128.0707356450657
 10
99.94497610348598
 20
-127.9270751633307
 10
100.1268771451072
 20
-127.8316460183893
 10
100.3194579827326
 20
-127.7324272684141
 10
100.5478678134047
 20
-127.7090006191144
 10
100.7215006258613
 20
-127.7090006191144
 10
100.8927218714782
 20
-127.7090006191144
 10
101.1231987594414
 20
-127.730360211123
 10
101.3157795970669
 20
-127.8316460183893
 97
        0
 97
        0
 92
        1
 93
        1
 72
     4
 94
        3
 73
     0
 74
     1
 95
       17
 96
       13
 40
0.0
 40
0.0
 40
0.0
 40
0.0
 40
1.0
 40
1.0
 40
1.0
 40
2.0
 40
2.0
 40
2.0
 40
3.0
 40
3.0
 40
3.0
 40
4.0
 40
4.0
 40
4.0
 40
4.0
 10
100.0931152093517
 20
-128.2295545469357
 10
100.0931152093517
 20
-128.4793239696163
 10
100.3766465677878
 20
-128.5258327586671
 10
100.7215006258613
 20
-128.5258327586671
 10
101.040860977344
 20
-128.5258327586671
 10
101.3495415328223
 20
-128.489659256072
 10
101.3495415328223
 20
-128.2295545469357
 10
101.3495415328223
 20
-127.9818521815462
 10
101.068421741226
 20
-127.9332763352042
 10
100.7215006258613
 20
-127.9332763352042
 10
100.4017957648301
 20
-127.9332763352042
 10
100.0931152093517
 20
-127.9715168950905
 10
100.0931152093517
 20
-128.2295545469357
 97
        0
 97
        0
 75
     2
 76
     1
 98
        0
  0
ENDBLK
  5
B1
330
AE
100
AcDbEntity
  8
0
100
AcDbBlockEnd
  0
ENDSEC
  0
SECTION
  2
ENTITIES
  0
INSERT
  5
42
330
1F
100
AcDbEntity
  8
_U+30EC_U+30A4_U+30E4_U+30FC 1
100
AcDbBlockReference
  2
block 2
 10
0.0
 20
0.0
 30
0.0
  0
ENDSEC
  0
SECTION
  2
OBJECTS
  0
DICTIONARY
  5
C
330
0
100
AcDbDictionary
281
     1
  3
ACAD_GROUP
350
D
  3
ACAD_LAYOUT
350
1A
  3
ACAD_MATERIAL
350
3B
  3
ACAD_MLEADERSTYLE
350
BA
  3
ACAD_MLINESTYLE
350
17
  3
ACAD_PLOTSETTINGS
350
19
  3
ACAD_PLOTSTYLENAME
350
E
  3
ACAD_TABLESTYLE
350
B9
  3
ACAD_VISUALSTYLE
350
2A
  0
SUN
  5
3F
330
29
100
AcDbSun
 90
        1
290
     0
 63
     7
421
 16777215
 40
1.0
291
     1
 91
  2455826
 92
 54000000
292
     0
 70
     2
 71
   256
280
     1
  0
DICTIONARY
  5
D
102
{ACAD_REACTORS
330
C
102
}
330
C
100
AcDbDictionary
281
     1
  0
DICTIONARY
  5
1A
102
{ACAD_REACTORS
330
C
102
}
330
C
100
AcDbDictionary
281
     1
  3
Layout1
350
1E
  3
Layout2
350
26
  3
Model
350
22
  0
DICTIONARY
  5
3B
102
{ACAD_REACTORS
330
C
102
}
330
C
100
AcDbDictionary
281
     1
  3
ByBlock
350
3D
  3
ByLayer
350
3C
  3
Global
350
3E
  0
DICTIONARY
  5
BA
102
{ACAD_REACTORS
330
C
102
}
330
C
100
AcDbDictionary
281
     1
  0
DICTIONARY
  5
17
102
{ACAD_REACTORS
330
C
102
}
330
C
100
AcDbDictionary
281
     1
  3
Standard
350
18
  0
DICTIONARY
  5
19
102
{ACAD_REACTORS
330
C
102
}
330
C
100
AcDbDictionary
281
     1
  0
ACDBDICTIONARYWDFLT
  5
E
102
{ACAD_REACTORS
330
C
102
}
330
C
100
AcDbDictionary
281
     1
  3
Normal
350
F
100
AcDbDictionaryWithDefault
340
F
  0
DICTIONARY
  5
B9
102
{ACAD_REACTORS
330
C
102
}
330
C
100
AcDbDictionary
281
     1
  0
DICTIONARY
  5
2A
102
{ACAD_REACTORS
330
C
102
}
330
C
100
AcDbDictionary
281
     1
  3
2dWireframe
350
2F
  3
3D Hidden
350
31
  3
3dWireframe
350
30
  3
Basic
350
32
  3
Brighten
350
36
  3
ColorChange
350
3A
  3
Conceptual
350
34
  3
Dim
350
35
  3
Facepattern
350
39
  3
Flat
350
2B
  3
FlatWithEdges
350
2C
  3
Gouraud
350
2D
  3
GouraudWithEdges
350
2E
  3
Linepattern
350
38
  3
Realistic
350
33
  3
Thicken
350
37
  0
LAYOUT
  5
1E
102
{ACAD_REACTORS
330
1A
102
}
330
1A
100
AcDbPlotSettings
  1

  2
none_device
  4

  6

 40
0.0
 41
0.0
 42
0.0
 43
0.0
 44
0.0
 45
0.0
 46
0.0
 47
0.0
 48
0.0
 49
0.0
140
0.0
141
0.0
142
1.0
143
1.0
 70
   688
 72
     0
 73
     0
 74
     5
  7

 75
    16
 76
     0
 77
     2
 78
   300
147
1.0
148
0.0
149
0.0
100
AcDbLayout
  1
Layout1
 70
     1
 71
     1
 10
0.0
 20
0.0
 11
12.0
 21
9.0
 12
0.0
 22
0.0
 32
0.0
 14
1.000000000000000E+20
 24
1.000000000000000E+20
 34
1.000000000000000E+20
 15
-1.000000000000000E+20
 25
-1.000000000000000E+20
 35
-1.000000000000000E+20
146
0.0
 13
0.0
 23
0.0
 33
0.0
 16
1.0
 26
0.0
 36
0.0
 17
0.0
 27
1.0
 37
0.0
 76
     0
330
1B
  0
LAYOUT
  5
26
102
{ACAD_REACTORS
330
1A
102
}
330
1A
100
AcDbPlotSettings
  1

  2
none_device
  4

  6

 40
0.0
 41
0.0
 42
0.0
 43
0.0
 44
0.0
 45
0.0
 46
0.0
 47
0.0
 48
0.0
 49
0.0
140
0.0
141
0.0
142
1.0
143
1.0
 70
   688
 72
     0
 73
     0
 74
     5
  7

 75
    16
 76
     0
 77
     2
 78
   300
147
1.0
148
0.0
149
0.0
100
AcDbLayout
  1
Layout2
 70
     1
 71
     2
 10
0.0
 20
0.0
 11
0.0
 21
0.0
 12
0.0
 22
0.0
 32
0.0
 14
0.0
 24
0.0
 34
0.0
 15
0.0
 25
0.0
 35
0.0
146
0.0
 13
0.0
 23
0.0
 33
0.0
 16
1.0
 26
0.0
 36
0.0
 17
0.0
 27
1.0
 37
0.0
 76
     0
330
23
  0
LAYOUT
  5
22
102
{ACAD_REACTORS
330
1A
102
}
330
1A
100
AcDbPlotSettings
  1

  2
none_device
  4

  6

 40
0.0
 41
0.0
 42
0.0
 43
0.0
 44
0.0
 45
0.0
 46
0.0
 47
0.0
 48
0.0
 49
0.0
140
0.0
141
0.0
142
1.0
143
1.0
 70
  1712
 72
     0
 73
     0
 74
     0
  7

 75
     0
 76
     0
 77
     2
 78
   300
147
1.0
148
0.0
149
0.0
100
AcDbLayout
  1
Model
 70
     1
 71
     0
 10
0.0
 20
0.0
 11
12.0
 21
9.0
 12
0.0
 22
0.0
 32
0.0
 14
1.000000000000000E+20
 24
1.000000000000000E+20
 34
1.000000000000000E+20
 15
-1.000000000000000E+20
 25
-1.000000000000000E+20
 35
-1.000000000000000E+20
146
0.0
 13
0.0
 23
0.0
 33
0.0
 16
1.0
 26
0.0
 36
0.0
 17
0.0
 27
1.0
 37
0.0
 76
     0
330
1F
331
29
  0
MATERIAL
  5
3D
102
{ACAD_REACTORS
330
3B
102
}
330
3B
100
AcDbMaterial
  1
ByBlock
 72
     1
 94
      127
  0
MATERIAL
  5
3C
102
{ACAD_REACTORS
330
3B
102
}
330
3B
100
AcDbMaterial
  1
ByLayer
 72
     1
 94
      127
  0
MATERIAL
  5
3E
102
{ACAD_REACTORS
330
3B
102
}
330
3B
100
AcDbMaterial
  1
Global
 72
     1
 94
      127
  0
MLINESTYLE
  5
18
102
{ACAD_REACTORS
330
17
102
}
330
17
100
AcDbMlineStyle
  2
Standard
 70
     0
  3

 62
   256
 51
90.0
 52
90.0
 71
     2
 49
0.5
 62
   256
  6
BYLAYER
 49
-0.5
 62
   256
  6
BYLAYER
  0
ACDBPLACEHOLDER
  5
F
102
{ACAD_REACTORS
330
E
102
}
330
E
  0
VISUALSTYLE
  5
2F
102
{ACAD_REACTORS
330
2A
102
}
330
2A
100
AcDbVisualStyle
  2
2dWireframe
 70
     4
177
     2
291
     0
 71
     0
176
     1
 72
     2
176
     1
 73
     0
176
     1
 90
        0
176
     1
 40
-0.6
176
     1
 41
-30.0
176
     1
 62
     5
 63
     7
421
 16777215
176
     1
 74
     1
176
     1
 91
        4
176
     1
 64
     7
176
     1
 65
   257
176
     1
 75
     1
176
     1
175
     1
176
     1
 42
1.0
176
     1
 92
        0
176
     1
 66
   257
176
     1
 43
1.0
176
     1
 76
     1
176
     1
 77
     6
176
     1
 78
     2
176
     1
 67
     7
176
     1
 79
     5
176
     1
170
     0
176
     1
171
     0
176
     1
290
     0
176
     1
 93
        1
176
     1
 44
0.0
176
     1
173
     0
176
     1
  0
VISUALSTYLE
  5
31
102
{ACAD_REACTORS
330
2A
102
}
330
2A
100
AcDbVisualStyle
  2
3D Hidden
 70
     6
177
     2
291
     0
 71
     1
176
     1
 72
     2
176
     1
 73
     2
176
     1
 90
        0
176
     1
 40
-0.6
176
     1
 41
-30.0
176
     1
 62
     5
 63
     7
421
 16777215
176
     1
 74
     2
176
     1
 91
        2
176
     1
 64
     7
176
     1
 65
   257
176
     1
 75
     2
176
     1
175
     1
176
     1
 42
40.0
176
     1
 92
        0
176
     1
 66
   257
176
     1
 43
1.0
176
     1
 76
     1
176
     1
 77
     6
176
     1
 78
     2
176
     1
 67
     7
176
     1
 79
     3
176
     1
170
     0
176
     1
171
     0
176
     1
290
     0
176
     1
 93
        1
176
     1
 44
0.0
176
     1
173
     0
176
     1
  0
VISUALSTYLE
  5
30
102
{ACAD_REACTORS
330
2A
102
}
330
2A
100
AcDbVisualStyle
  2
3dWireframe
 70
     5
177
     2
291
     0
 71
     0
176
     1
 72
     2
176
     1
 73
     0
176
     1
 90
        0
176
     1
 40
-0.6
176
     1
 41
-30.0
176
     1
 62
     5
 63
     7
421
 16777215
176
     1
 74
     1
176
     1
 91
        4
176
     1
 64
     7
176
     1
 65
   257
176
     1
 75
     1
176
     1
175
     1
176
     1
 42
1.0
176
     1
 92
        0
176
     1
 66
   257
176
     1
 43
1.0
176
     1
 76
     1
176
     1
 77
     6
176
     1
 78
     2
176
     1
 67
     7
176
     1
 79
     5
176
     1
170
     0
176
     1
171
     0
176
     1
290
     0
176
     1
 93
        1
176
     1
 44
0.0
176
     1
173
     0
176
     1
  0
VISUALSTYLE
  5
32
102
{ACAD_REACTORS
330
2A
102
}
330
2A
100
AcDbVisualStyle
  2
Basic
 70
     7
177
     2
291
     1
 71
     1
176
     1
 72
     0
176
     1
 73
     1
176
     1
 90
        0
176
     1
 40
-0.6
176
     1
 41
-30.0
176
     1
 62
     5
 63
     7
421
 16777215
176
     1
 74
     0
176
     1
 91
        4
176
     1
 64
     7
176
     1
 65
   257
176
     1
 75
     1
176
     1
175
     1
176
     1
 42
1.0
176
     1
 92
        8
176
     1
 66
     7
176
     1
 43
1.0
176
     1
 76
     1
176
     1
 77
     6
176
     1
 78
     2
176
     1
 67
     7
176
     1
 79
     5
176
     1
170
     0
176
     1
171
     0
176
     1
290
     0
176
     1
 93
        1
176
     1
 44
0.0
176
     1
173
     0
176
     1
  0
VISUALSTYLE
  5
36
102
{ACAD_REACTORS
330
2A
102
}
330
2A
100
AcDbVisualStyle
  2
Brighten
 70
    12
177
     2
291
     1
 71
     2
176
     1
 72
     2
176
     1
 73
     0
176
     1
 90
        0
176
     1
 40
-0.6
176
     1
 41
-30.0
176
     1
 62
     5
 63
     7
421
 16777215
176
     1
 74
     1
176
     1
 91
        4
176
     1
 64
     7
176
     1
 65
   257
176
     1
 75
     1
176
     1
175
     1
176
     1
 42
1.0
176
     1
 92
        8
176
     1
 66
     7
176
     1
 43
1.0
176
     1
 76
     1
176
     1
 77
     6
176
     1
 78
     2
176
     1
 67
     7
176
     1
 79
     5
176
     1
170
     0
176
     1
171
     0
176
     1
290
     0
176
     1
 93
        1
176
     1
 44
50.0
176
     1
173
     0
176
     1
  0
VISUALSTYLE
  5
3A
102
{ACAD_REACTORS
330
2A
102
}
330
2A
100
AcDbVisualStyle
  2
ColorChange
 70
    16
177
     2
291
     1
 71
     2
176
     1
 72
     2
176
     1
 73
     3
176
     1
 90
        0
176
     1
 40
-0.6
176
     1
 41
-30.0
176
     1
 62
     5
 63
     8
421
  8421504
176
     1
 74
     1
176
     1
 91
        4
176
     1
 64
     7
176
     1
 65
   257
176
     1
 75
     1
176
     1
175
     1
176
     1
 42
1.0
176
     1
 92
        8
176
     1
 66
     8
424
  8421504
176
     1
 43
1.0
176
     1
 76
     1
176
     1
 77
     6
176
     1
 78
     2
176
     1
 67
     7
176
     1
 79
     5
176
     1
170
     0
176
     1
171
     0
176
     1
290
     0
176
     1
 93
        1
176
     1
 44
0.0
176
     1
173
     0
176
     1
  0
VISUALSTYLE
  5
34
102
{ACAD_REACTORS
330
2A
102
}
330
2A
100
AcDbVisualStyle
  2
Conceptual
 70
     9
177
     2
291
     0
 71
     3
176
     1
 72
     2
176
     1
 73
     0
176
     1
 90
        0
176
     1
 40
-0.6
176
     1
 41
-30.0
176
     1
 62
     5
 63
     7
421
 16777215
176
     1
 74
     2
176
     1
 91
        2
176
     1
 64
     7
176
     1
 65
   257
176
     1
 75
     1
176
     1
175
     1
176
     1
 42
40.0
176
     1
 92
        8
176
     1
 66
     7
176
     1
 43
1.0
176
     1
 76
     1
176
     1
 77
     6
176
     1
 78
     2
176
     1
 67
     7
176
     1
 79
     3
176
     1
170
     0
176
     1
171
     0
176
     1
290
     0
176
     1
 93
        1
176
     1
 44
0.0
176
     1
173
     0
176
     1
  0
VISUALSTYLE
  5
35
102
{ACAD_REACTORS
330
2A
102
}
330
2A
100
AcDbVisualStyle
  2
Dim
 70
    11
177
     2
291
     1
 71
     2
176
     1
 72
     2
176
     1
 73
     0
176
     1
 90
        0
176
     1
 40
-0.6
176
     1
 41
-30.0
176
     1
 62
     5
 63
     7
421
 16777215
176
     1
 74
     1
176
     1
 91
        4
176
     1
 64
     7
176
     1
 65
   257
176
     1
 75
     1
176
     1
175
     1
176
     1
 42
1.0
176
     1
 92
        8
176
     1
 66
     7
176
     1
 43
1.0
176
     1
 76
     1
176
     1
 77
     6
176
     1
 78
     2
176
     1
 67
     7
176
     1
 79
     5
176
     1
170
     0
176
     1
171
     0
176
     1
290
     0
176
     1
 93
        1
176
     1
 44
-50.0
176
     1
173
     0
176
     1
  0
VISUALSTYLE
  5
39
102
{ACAD_REACTORS
330
2A
102
}
330
2A
100
AcDbVisualStyle
  2
Facepattern
 70
    15
177
     2
291
     1
 71
     2
176
     1
 72
     2
176
     1
 73
     0
176
     1
 90
        0
176
     1
 40
-0.6
176
     1
 41
-30.0
176
     1
 62
     5
 63
     7
421
 16777215
176
     1
 74
     1
176
     1
 91
        4
176
     1
 64
     7
176
     1
 65
   257
176
     1
 75
     1
176
     1
175
     1
176
     1
 42
1.0
176
     1
 92
        8
176
     1
 66
     7
176
     1
 43
1.0
176
     1
 76
     1
176
     1
 77
     6
176
     1
 78
     2
176
     1
 67
     7
176
     1
 79
     5
176
     1
170
     0
176
     1
171
     0
176
     1
290
     0
176
     1
 93
        1
176
     1
 44
0.0
176
     1
173
     0
176
     1
  0
VISUALSTYLE
  5
2B
102
{ACAD_REACTORS
330
2A
102
}
330
2A
100
AcDbVisualStyle
  2
Flat
 70
     0
177
     2
291
     1
 71
     2
176
     1
 72
     1
176
     1
 73
     1
176
     1
 90
        2
176
     1
 40
-0.6
176
     1
 41
30.0
176
     1
 62
     5
 63
     7
421
 16777215
176
     1
 74
     0
176
     1
 91
        4
176
     1
 64
     7
176
     1
 65
   257
176
     1
 75
     1
176
     1
175
     1
176
     1
 42
1.0
176
     1
 92
        8
176
     1
 66
     7
176
     1
 43
1.0
176
     1
 76
     1
176
     1
 77
     6
176
     1
 78
     2
176
     1
 67
     7
176
     1
 79
     5
176
     1
170
     0
176
     1
171
     0
176
     1
290
     0
176
     1
 93
       13
176
     1
 44
0.0
176
     1
173
     0
176
     1
  0
VISUALSTYLE
  5
2C
102
{ACAD_REACTORS
330
2A
102
}
330
2A
100
AcDbVisualStyle
  2
FlatWithEdges
 70
     1
177
     2
291
     1
 71
     2
176
     1
 72
     1
176
     1
 73
     1
176
     1
 90
        2
176
     1
 40
-0.6
176
     1
 41
30.0
176
     1
 62
     5
 63
     7
421
 16777215
176
     1
 74
     1
176
     1
 91
        4
176
     1
 64
     7
176
     1
 65
   257
176
     1
 75
     1
176
     1
175
     1
176
     1
 42
1.0
176
     1
 92
        0
176
     1
 66
   257
176
     1
 43
1.0
176
     1
 76
     1
176
     1
 77
     6
176
     1
 78
     2
176
     1
 67
     7
176
     1
 79
     5
176
     1
170
     0
176
     1
171
     0
176
     1
290
     0
176
     1
 93
       13
176
     1
 44
0.0
176
     1
173
     0
176
     1
  0
VISUALSTYLE
  5
2D
102
{ACAD_REACTORS
330
2A
102
}
330
2A
100
AcDbVisualStyle
  2
Gouraud
 70
     2
177
     2
291
     1
 71
     2
176
     1
 72
     2
176
     1
 73
     1
176
     1
 90
        2
176
     1
 40
-0.6
176
     1
 41
30.0
176
     1
 62
     5
 63
     7
421
 16777215
176
     1
 74
     0
176
     1
 91
        4
176
     1
 64
     7
176
     1
 65
   257
176
     1
 75
     1
176
     1
175
     1
176
     1
 42
1.0
176
     1
 92
        0
176
     1
 66
     7
176
     1
 43
1.0
176
     1
 76
     1
176
     1
 77
     6
176
     1
 78
     2
176
     1
 67
     7
176
     1
 79
     5
176
     1
170
     0
176
     1
171
     0
176
     1
290
     0
176
     1
 93
       13
176
     1
 44
0.0
176
     1
173
     0
176
     1
  0
VISUALSTYLE
  5
2E
102
{ACAD_REACTORS
330
2A
102
}
330
2A
100
AcDbVisualStyle
  2
GouraudWithEdges
 70
     3
177
     2
291
     1
 71
     2
176
     1
 72
     2
176
     1
 73
     1
176
     1
 90
        2
176
     1
 40
-0.6
176
     1
 41
30.0
176
     1
 62
     5
 63
     7
421
 16777215
176
     1
 74
     1
176
     1
 91
        4
176
     1
 64
     7
176
     1
 65
   257
176
     1
 75
     1
176
     1
175
     1
176
     1
 42
1.0
176
     1
 92
        0
176
     1
 66
   257
176
     1
 43
1.0
176
     1
 76
     1
176
     1
 77
     6
176
     1
 78
     2
176
     1
 67
     7
176
     1
 79
     5
176
     1
170
     0
176
     1
171
     0
176
     1
290
     0
176
     1
 93
       13
176
     1
 44
0.0
176
     1
173
     0
176
     1
  0
VISUALSTYLE
  5
38
102
{ACAD_REACTORS
330
2A
102
}
330
2A
100
AcDbVisualStyle
  2
Linepattern
 70
    14
177
     2
291
     1
 71
     2
176
     1
 72
     2
176
     1
 73
     0
176
     1
 90
        0
176
     1
 40
-0.6
176
     1
 41
-30.0
176
     1
 62
     5
 63
     7
421
 16777215
176
     1
 74
     1
176
     1
 91
        4
176
     1
 64
     7
176
     1
 65
   257
176
     1
 75
     7
176
     1
175
     7
176
     1
 42
1.0
176
     1
 92
        8
176
     1
 66
     7
176
     1
 43
1.0
176
     1
 76
     1
176
     1
 77
     6
176
     1
 78
     2
176
     1
 67
     7
176
     1
 79
     5
176
     1
170
     0
176
     1
171
     0
176
     1
290
     0
176
     1
 93
        1
176
     1
 44
0.0
176
     1
173
     0
176
     1
  0
VISUALSTYLE
  5
33
102
{ACAD_REACTORS
330
2A
102
}
330
2A
100
AcDbVisualStyle
  2
Realistic
 70
     8
177
     2
291
     0
 71
     2
176
     1
 72
     2
176
     1
 73
     0
176
     1
 90
        0
176
     1
 40
-0.6
176
     1
 41
-30.0
176
     1
 62
     5
 63
     7
421
 16777215
176
     1
 74
     1
176
     1
 91
        0
176
     1
 64
     7
176
     1
 65
   257
176
     1
 75
     1
176
     1
175
     1
176
     1
 42
1.0
176
     1
 92
        8
176
     1
 66
     8
424
  7895160
176
     1
 43
1.0
176
     1
 76
     1
176
     1
 77
     6
176
     1
 78
     2
176
     1
 67
     7
176
     1
 79
     5
176
     1
170
     0
176
     1
171
     0
176
     1
290
     0
176
     1
 93
       13
176
     1
 44
0.0
176
     1
173
     0
176
     1
  0
VISUALSTYLE
  5
37
102
{ACAD_REACTORS
330
2A
102
}
330
2A
100
AcDbVisualStyle
  2
Thicken
 70
    13
177
     2
291
     1
 71
     2
176
     1
 72
     2
176
     1
 73
     0
176
     1
 90
        0
176
     1
 40
-0.6
176
     1
 41
-30.0
176
     1
 62
     5
 63
     7
421
 16777215
176
     1
 74
     1
176
     1
 91
        4
176
     1
 64
     7
176
     1
 65
   257
176
     1
 75
     1
176
     1
175
     1
176
     1
 42
1.0
176
     1
 92
       12
176
     1
 66
     7
176
     1
 43
1.0
176
     1
 76
     1
176
     1
 77
     6
176
     1
 78
     2
176
     1
 67
     7
176
     1
 79
     5
176
     1
170
     0
176
     1
171
     0
176
     1
290
     0
176
     1
 93
        1
176
     1
 44
0.0
176
     1
173
     0
176
     1
  0
ENDSEC
  0
EOF
