  0
SECTION
  2
HEADER
  9
$ACADVER
  1
AC1024
  9
$ACADMAINTVER
 70
     6
  9
$DWGCODEPAGE
  3
UNDEFINED
  9
$INSBASE
 10
0.0
 20
0.0
 30
0.0
  9
$EXTMIN
 10
1.000000000000000E+20
 20
1.000000000000000E+20
 30
1.000000000000000E+20
  9
$EXTMAX
 10
-1.000000000000000E+20
 20
-1.000000000000000E+20
 30
-1.000000000000000E+20
  9
$LIMMIN
 10
0.0
 20
0.0
  9
$LIMMAX
 10
12.0
 20
9.0
  9
$ORTHOMODE
 70
     0
  9
$REGENMODE
 70
     1
  9
$FILLMODE
 70
     1
  9
$QTEXTMODE
 70
     0
  9
$MIRRTEXT
 70
     1
  9
$LTSCALE
 40
1.0
  9
$ATTMODE
 70
     1
  9
$TEXTSIZE
 40
0.2
  9
$TRACEWID
 40
0.05
  9
$TEXTSTYLE
  7
Standard
  9
$CLAYER
  8
0
  9
$CELTYPE
  6
ByLayer
  9
$CECOLOR
 62
   256
  9
$CELTSCALE
 40
1.0
  9
$DISPSILH
 70
     0
  9
$DIMSCALE
 40
1.0
  9
$DIMASZ
 40
0.18
  9
$DIMEXO
 40
0.0625
  9
$DIMDLI
 40
0.38
  9
$DIMRND
 40
0.0
  9
$DIMDLE
 40
0.0
  9
$DIMEXE
 40
0.18
  9
$DIMTP
 40
0.0
  9
$DIMTM
 40
0.0
  9
$DIMTXT
 40
0.18
  9
$DIMCEN
 40
0.09
  9
$DIMTSZ
 40
0.0
  9
$DIMTOL
 70
     0
  9
$DIMLIM
 70
     0
  9
$DIMTIH
 70
     1
  9
$DIMTOH
 70
     1
  9
$DIMSE1
 70
     0
  9
$DIMSE2
 70
     0
  9
$DIMTAD
 70
     0
  9
$DIMZIN
 70
     0
  9
$DIMBLK
  1

  9
$DIMASO
 70
     1
  9
$DIMSHO
 70
     1
  9
$DIMPOST
  1

  9
$DIMAPOST
  1

  9
$DIMALT
 70
     0
  9
$DIMALTD
 70
     2
  9
$DIMALTF
 40
25.4
  9
$DIMLFAC
 40
1.0
  9
$DIMTOFL
 70
     0
  9
$DIMTVP
 40
0.0
  9
$DIMTIX
 70
     0
  9
$DIMSOXD
 70
     0
  9
$DIMSAH
 70
     0
  9
$DIMBLK1
  1

  9
$DIMBLK2
  1

  9
$DIMSTYLE
  2
Standard
  9
$DIMCLRD
 70
     0
  9
$DIMCLRE
 70
     0
  9
$DIMCLRT
 70
     0
  9
$DIMTFAC
 40
1.0
  9
$DIMGAP
 40
0.09
  9
$DIMJUST
 70
     0
  9
$DIMSD1
 70
     0
  9
$DIMSD2
 70
     0
  9
$DIMTOLJ
 70
     1
  9
$DIMTZIN
 70
     0
  9
$DIMALTZ
 70
     0
  9
$DIMALTTZ
 70
     0
  9
$DIMUPT
 70
     0
  9
$DIMDEC
 70
     4
  9
$DIMTDEC
 70
     4
  9
$DIMALTU
 70
     2
  9
$DIMALTTD
 70
     2
  9
$DIMTXSTY
  7
Standard
  9
$DIMAUNIT
 70
     0
  9
$DIMADEC
 70
     0
  9
$DIMALTRND
 40
0.0
  9
$DIMAZIN
 70
     0
  9
$DIMDSEP
 70
    46
  9
$DIMATFIT
 70
     3
  9
$DIMFRAC
 70
     0
  9
$DIMLDRBLK
  1

  9
$DIMLUNIT
 70
     2
  9
$DIMLWD
 70
    -2
  9
$DIMLWE
 70
    -2
  9
$DIMTMOVE
 70
     0
  9
$DIMFXL
 40
1.0
  9
$DIMFXLON
 70
     0
  9
$DIMJOGANG
 40
0.7853981633974483
  9
$DIMTFILL
 70
     0
  9
$DIMTFILLCLR
 70
     0
  9
$DIMARCSYM
 70
     0
  9
$DIMLTYPE
  6

  9
$DIMLTEX1
  6

  9
$DIMLTEX2
  6

  9
$DIMTXTDIRECTION
 70
     0
  9
$LUNITS
 70
     2
  9
$LUPREC
 70
     4
  9
$SKETCHINC
 40
0.1
  9
$FILLETRAD
 40
0.5
  9
$AUNITS
 70
     0
  9
$AUPREC
 70
     0
  9
$MENU
  1
.
  9
$ELEVATION
 40
0.0
  9
$PELEVATION
 40
0.0
  9
$THICKNESS
 40
0.0
  9
$LIMCHECK
 70
     0
  9
$CHAMFERA
 40
0.5
  9
$CHAMFERB
 40
0.5
  9
$CHAMFERC
 40
1.0
  9
$CHAMFERD
 40
0.0
  9
$SKPOLY
 70
     0
  9
$TDCREATE
 40
2457917.616736111
  9
$TDUCREATE
 40
2457917.241736111
  9
$TDUPDATE
 40
2457917.616736111
  9
$TDUUPDATE
 40
2457917.241736111
  9
$TDINDWG
 40
0.0000000116
  9
$TDUSRTIMER
 40
0.0000000116
  9
$USRTIMER
 70
     1
  9
$ANGBASE
 50
0.0
  9
$ANGDIR
 70
     0
  9
$PDMODE
 70
     0
  9
$PDSIZE
 40
0.0
  9
$PLINEWID
 40
0.0
  9
$SPLFRAME
 70
     0
  9
$SPLINETYPE
 70
     6
  9
$SPLINESEGS
 70
     8
  9
$HANDSEED
  5
B8
  9
$SURFTAB1
 70
     6
  9
$SURFTAB2
 70
     6
  9
$SURFTYPE
 70
     6
  9
$SURFU
 70
     6
  9
$SURFV
 70
     6
  9
$UCSBASE
  2

  9
$UCSNAME
  2

  9
$UCSORG
 10
0.0
 20
0.0
 30
0.0
  9
$UCSXDIR
 10
1.0
 20
0.0
 30
0.0
  9
$UCSYDIR
 10
0.0
 20
1.0
 30
0.0
  9
$UCSORTHOREF
  2

  9
$UCSORTHOVIEW
 70
     0
  9
$UCSORGTOP
 10
0.0
 20
0.0
 30
0.0
  9
$UCSORGBOTTOM
 10
0.0
 20
0.0
 30
0.0
  9
$UCSORGLEFT
 10
0.0
 20
0.0
 30
0.0
  9
$UCSORGRIGHT
 10
0.0
 20
0.0
 30
0.0
  9
$UCSORGFRONT
 10
0.0
 20
0.0
 30
0.0
  9
$UCSORGBACK
 10
0.0
 20
0.0
 30
0.0
  9
$PUCSBASE
  2

  9
$PUCSNAME
  2

  9
$PUCSORG
 10
0.0
 20
0.0
 30
0.0
  9
$PUCSXDIR
 10
1.0
 20
0.0
 30
0.0
  9
$PUCSYDIR
 10
0.0
 20
1.0
 30
0.0
  9
$PUCSORTHOREF
  2

  9
$PUCSORTHOVIEW
 70
     0
  9
$PUCSORGTOP
 10
0.0
 20
0.0
 30
0.0
  9
$PUCSORGBOTTOM
 10
0.0
 20
0.0
 30
0.0
  9
$PUCSORGLEFT
 10
0.0
 20
0.0
 30
0.0
  9
$PUCSORGRIGHT
 10
0.0
 20
0.0
 30
0.0
  9
$PUCSORGFRONT
 10
0.0
 20
0.0
 30
0.0
  9
$PUCSORGBACK
 10
0.0
 20
0.0
 30
0.0
  9
$USERI1
 70
     0
  9
$USERI2
 70
     0
  9
$USERI3
 70
     0
  9
$USERI4
 70
     0
  9
$USERI5
 70
     0
  9
$USERR1
 40
0.0
  9
$USERR2
 40
0.0
  9
$USERR3
 40
0.0
  9
$USERR4
 40
0.0
  9
$USERR5
 40
0.0
  9
$WORLDVIEW
 70
     1
  9
$SHADEDGE
 70
     3
  9
$SHADEDIF
 70
    70
  9
$TILEMODE
 70
     1
  9
$MAXACTVP
 70
    64
  9
$PINSBASE
 10
0.0
 20
0.0
 30
0.0
  9
$PLIMCHECK
 70
     0
  9
$PEXTMIN
 10
1.000000000000000E+20
 20
1.000000000000000E+20
 30
1.000000000000000E+20
  9
$PEXTMAX
 10
-1.000000000000000E+20
 20
-1.000000000000000E+20
 30
-1.000000000000000E+20
  9
$PLIMMIN
 10
0.0
 20
0.0
  9
$PLIMMAX
 10
12.0
 20
9.0
  9
$UNITMODE
 70
     0
  9
$VISRETAIN
 70
     1
  9
$PLINEGEN
 70
     0
  9
$PSLTSCALE
 70
     1
  9
$TREEDEPTH
 70
  3020
  9
$CMLSTYLE
  2
Standard
  9
$CMLJUST
 70
     0
  9
$CMLSCALE
 40
1.0
  9
$PROXYGRAPHICS
 70
     1
  9
$MEASUREMENT
 70
     0
  9
$CELWEIGHT
370
    -1
  9
$ENDCAPS
280
     0
  9
$JOINSTYLE
280
     0
  9
$LWDISPLAY
290
     1
  9
$INSUNITS
 70
     1
  9
$HYPERLINKBASE
  1

  9
$STYLESHEET
  1

  9
$XEDIT
290
     1
  9
$CEPSNTYPE
380
     0
  9
$PSTYLEMODE
290
     1
  9
$FINGERPRINTGUID
  2
{1DC8D7E8-84D4-B7DE-EF77-E08E00F995C9}
  9
$VERSIONGUID
  2
{FAEB1C32-E019-11D5-929B-00C0DF256EC4}
  9
$EXTNAMES
290
     1
  9
$PSVPSCALE
 40
0.0
  9
$OLESTARTUP
290
     0
  9
$SORTENTS
280
   127
  9
$INDEXCTL
280
     0
  9
$HIDETEXT
280
     1
  9
$XCLIPFRAME
280
     2
  9
$HALOGAP
280
     0
  9
$OBSCOLOR
 70
   257
  9
$OBSLTYPE
280
     0
  9
$INTERSECTIONDISPLAY
280
     0
  9
$INTERSECTIONCOLOR
 70
   257
  9
$DIMASSOC
280
     2
  9
$PROJECTNAME
  1

  9
$CAMERADISPLAY
290
     0
  9
$LENSLENGTH
 40
50.0
  9
$CAMERAHEIGHT
 40
0.0
  9
$STEPSPERSEC
 40
2.0
  9
$STEPSIZE
 40
6.0
  9
$3DDWFPREC
 40
2.0
  9
$PSOLWIDTH
 40
0.25
  9
$PSOLHEIGHT
 40
4.0
  9
$LOFTANG1
 40
1.570796326794897
  9
$LOFTANG2
 40
1.570796326794897
  9
$LOFTMAG1
 40
0.0
  9
$LOFTMAG2
 40
0.0
  9
$LOFTPARAM
 70
     7
  9
$LOFTNORMALS
280
     1
  9
$LATITUDE
 40
37.795
  9
$LONGITUDE
 40
-122.394
  9
$NORTHDIRECTION
 40
0.0
  9
$TIMEZONE
 70
 -8000
  9
$LIGHTGLYPHDISPLAY
280
     1
  9
$TILEMODELIGHTSYNCH
280
     1
  9
$CMATERIAL
347
3C
  9
$SOLIDHIST
280
     1
  9
$SHOWHIST
280
     1
  9
$DWFFRAME
280
     2
  9
$DGNFRAME
280
     2
  9
$REALWORLDSCALE
290
     1
  9
$INTERFERECOLOR
 62
   256
  9
$CSHADOW
280
     0
  9
$SHADOWPLANELOCATION
 40
0.0
  0
ENDSEC
  0
SECTION
  2
CLASSES
  0
CLASS
  1
ACDBDICTIONARYWDFLT
  2
AcDbDictionaryWithDefault
  3
ObjectDBX Classes
 90
        0
 91
        4
280
     0
281
     0
  0
CLASS
  1
VISUALSTYLE
  2
AcDbVisualStyle
  3
ObjectDBX Classes
 90
     4095
 91
        4
280
     0
281
     0
  0
CLASS
  1
MATERIAL
  2
AcDbMaterial
  3
ObjectDBX Classes
 90
     1153
 91
        4
280
     0
281
     0
  0
CLASS
  1
SUN
  2
AcDbSun
  3
SCENEOE
 90
     1024
 91
        4
280
     0
281
     0
  0
ENDSEC
  0
SECTION
  2
TABLES
  0
TABLE
  2
VPORT
  5
8
330
0
100
AcDbSymbolTable
 70
     1
  0
VPORT
  5
29
330
8
100
AcDbSymbolTableRecord
100
AcDbViewportTableRecord
  2
*Active
 70
     0
 10
0.0
 20
0.0
 11
1.0
 21
1.0
 12
0.0
 22
0.0
 13
0.0
 23
0.0
 14
0.5
 24
0.5
 15
0.5
 25
0.5
 16
0.0
 26
0.0
 36
1.0
 17
91.00082462281999
 27
-128.4993055234307
 37
0.0
 40
256.9986110468615
 41
0.7081814508812795
 42
50.0
 43
0.0
 44
0.0
 50
0.0
 51
0.0
 71
     0
 72
   100
 73
     1
 74
     3
 75
     0
 76
     0
 77
     0
 78
     0
281
     0
 65
     1
110
0.0
120
0.0
130
0.0
111
1.0
121
0.0
131
0.0
112
0.0
122
1.0
132
0.0
 79
     0
146
0.0
 60
     3
 61
     5
292
     1
282
     1
141
0.0
142
0.0
 63
   250
361
3F
  0
ENDTAB
  0
TABLE
  2
LTYPE
  5
5
330
0
100
AcDbSymbolTable
 70
     1
  0
LTYPE
  5
14
330
5
100
AcDbSymbolTableRecord
100
AcDbLinetypeTableRecord
  2
ByBlock
 70
     0
  3

 72
    65
 73
     0
 40
0.0
  0
LTYPE
  5
15
330
5
100
AcDbSymbolTableRecord
100
AcDbLinetypeTableRecord
  2
ByLayer
 70
     0
  3

 72
    65
 73
     0
 40
0.0
  0
LTYPE
  5
16
330
5
100
AcDbSymbolTableRecord
100
AcDbLinetypeTableRecord
  2
Continuous
 70
     0
  3
Solid line
 72
    65
 73
     0
 40
0.0
  0
ENDTAB
  0
TABLE
  2
LAYER
  5
2
330
0
100
AcDbSymbolTable
 70
     2
  0
LAYER
  5
10
330
2
100
AcDbSymbolTableRecord
100
AcDbLayerTableRecord
  2
0
 70
     0
 62
     7
  6
Continuous
370
    -3
390
F
347
3E
  0
LAYER
  5
40
330
2
100
AcDbSymbolTableRecord
100
AcDbLayerTableRecord
  2
_U+30EC_U+30A4_U+30E4_U+30FC 1
 70
     0
 62
     7
  6
Continuous
370
    -3
390
F
347
3E
  0
ENDTAB
  0
TABLE
  2
STYLE
  5
3
330
0
100
AcDbSymbolTable
 70
     1
  0
STYLE
  5
11
330
3
100
AcDbSymbolTableRecord
100
AcDbTextStyleTableRecord
  2
Standard
 70
     0
 40
0.0
 41
1.0
 50
0.0
 71
     0
 42
0.2
  3
txt
  4

  0
ENDTAB
  0
TABLE
  2
VIEW
  5
6
330
0
100
AcDbSymbolTable
 70
     0
  0
ENDTAB
  0
TABLE
  2
UCS
  5
7
330
0
100
AcDbSymbolTable
 70
     0
  0
ENDTAB
  0
TABLE
  2
APPID
  5
9
330
0
100
AcDbSymbolTable
 70
     1
  0
APPID
  5
12
330
9
100
AcDbSymbolTableRecord
100
AcDbRegAppTableRecord
  2
ACAD
 70
     0
  0
ENDTAB
  0
TABLE
  2
DIMSTYLE
  5
A
330
0
100
AcDbSymbolTable
 70
     1
100
AcDbDimStyleTable
  0
DIMSTYLE
105
27
330
A
100
AcDbSymbolTableRecord
100
AcDbDimStyleTableRecord
  2
Standard
 70
     0
178
     0
340
11
  0
ENDTAB
  0
TABLE
  2
BLOCK_RECORD
  5
1
330
0
100
AcDbSymbolTable
 70
     7
  0
BLOCK_RECORD
  5
1F
330
1
100
AcDbSymbolTableRecord
100
AcDbBlockTableRecord
  2
*Model_Space
340
22
 70
     0
280
     1
281
     0
  0
BLOCK_RECORD
  5
1B
330
1
100
AcDbSymbolTableRecord
100
AcDbBlockTableRecord
  2
*Paper_Space
340
1E
 70
     0
280
     1
281
     0
  0
BLOCK_RECORD
  5
23
330
1
100
AcDbSymbolTableRecord
100
AcDbBlockTableRecord
  2
*Paper_Space0
340
26
 70
     0
280
     1
281
     0
  0
BLOCK_RECORD
  5
41
330
1
100
AcDbSymbolTableRecord
100
AcDbBlockTableRecord
  2
block 2
340
0
102
{BLKREFS
331
42
102
}
 70
     0
280
     1
281
     0
  0
BLOCK_RECORD
  5
59
330
1
100
AcDbSymbolTableRecord
100
AcDbBlockTableRecord
  2
block 3
340
0
102
{BLKREFS
331
5A
102
}
 70
     0
280
     1
281
     0
  0
BLOCK_RECORD
  5
6E
330
1
100
AcDbSymbolTableRecord
100
AcDbBlockTableRecord
  2
block 4
340
0
102
{BLKREFS
331
6F
102
}
 70
     0
280
     1
281
     0
  0
BLOCK_RECORD
  5
86
330
1
100
AcDbSymbolTableRecord
100
AcDbBlockTableRecord
  2
block 5
340
0
102
{BLKREFS
331
87
102
}
 70
     0
280
     1
281
     0
  0
BLOCK_RECORD
  5
A0
330
1
100
AcDbSymbolTableRecord
100
AcDbBlockTableRecord
  2
block 6
340
0
102
{BLKREFS
331
A1
102
}
 70
     0
280
     1
281
     0
  0
BLOCK_RECORD
  5
AE
330
1
100
AcDbSymbolTableRecord
100
AcDbBlockTableRecord
  2
block 7
340
0
102
{BLKREFS
331
AF
102
}
 70
     0
280
     1
281
     0
  0
ENDTAB
  0
ENDSEC
  0
SECTION
  2
BLOCKS
  0
BLOCK
  5
20
330
1F
100
AcDbEntity
  8
0
100
AcDbBlockBegin
  2
*Model_Space
 70
     0
 10
0.0
 20
0.0
 30
0.0
  3
*Model_Space
  1

  0
ENDBLK
  5
21
330
1F
100
AcDbEntity
  8
0
100
AcDbBlockEnd
  0
BLOCK
  5
1C
330
1B
100
AcDbEntity
 67
     1
  8
0
100
AcDbBlockBegin
  2
*Paper_Space
 70
     0
 10
0.0
 20
0.0
 30
0.0
  3
*Paper_Space
  1

  0
ENDBLK
  5
1D
330
1B
100
AcDbEntity
 67
     1
  8
0
100
AcDbBlockEnd
  0
BLOCK
  5
24
330
23
100
AcDbEntity
  8
0
100
AcDbBlockBegin
  2
*Paper_Space0
 70
     0
 10
0.0
 20
0.0
 30
0.0
  3
*Paper_Space0
  1

  0
ENDBLK
  5
25
330
23
100
AcDbEntity
  8
0
100
AcDbBlockEnd
  0
BLOCK
  5
43
330
41
100
AcDbEntity
  8
0
100
AcDbBlockBegin
  2
block 2
 70
     0
 10
0.0
 20
0.0
 30
0.0
  3
block 2
  1

  0
SPLINE
  5
45
330
41
100
AcDbEntity
  8
_U+30EC_U+30A4_U+30E4_U+30FC 1
 62
   179
420
  2234388
370
     9
100
AcDbSpline
210
0.0
220
0.0
230
1.0
 70
    11
 71
     3
 72
    17
 73
    13
 74
     0
 42
0.0000000001
 43
0.0000000001
 12
1.0
 22
0.0
 32
0.0
 13
1.0
 23
0.0
 33
0.0
 40
0.0
 40
0.0
 40
0.0
 40
0.0
 40
1.0
 40
1.0
 40
1.0
 40
2.0
 40
2.0
 40
2.0
 40
3.0
 40
3.0
 40
3.0
 40
4.0
 40
4.0
 40
4.0
 40
4.0
 10
73.34987118424444
 20
-120.4055602476764
 30
0.0
 10
73.34987118424444
 20
-120.3504563588012
 30
0.0
 10
73.30506840760968
 20
-120.3056535810347
 30
0.0
 10
73.24996452012661
 20
-120.3056535810347
 30
0.0
 10
73.19482535486665
 20
-120.3056535810347
 30
0.0
 10
73.15005785600877
 20
-120.3504563588012
 30
0.0
 10
73.15005785600877
 20
-120.4055602476764
 30
0.0
 10
73.15005785600877
 20
-120.4610521921069
 30
0.0
 10
73.19482535486665
 20
-120.5058196920958
 30
0.0
 10
73.24996452012661
 20
-120.5058196920958
 30
0.0
 10
73.30506840760968
 20
-120.5058196920958
 30
0.0
 10
73.34987118424444
 20
-120.4610521921069
 30
0.0
 10
73.34987118424444
 20
-120.4055602476764
 30
0.0
  0
SPLINE
  5
46
330
41
100
AcDbEntity
  8
_U+30EC_U+30A4_U+30E4_U+30FC 1
 62
   179
420
  2234388
370
     9
100
AcDbSpline
210
0.0
220
0.0
230
1.0
 70
    11
 71
     3
 72
    17
 73
    13
 74
     0
 42
0.0000000001
 43
0.0000000001
 12
1.0
 22
0.0
 32
0.0
 13
1.0
 23
0.0
 33
0.0
 40
0.0
 40
0.0
 40
0.0
 40
0.0
 40
1.0
 40
1.0
 40
1.0
 40
2.0
 40
2.0
 40
2.0
 40
3.0
 40
3.0
 40
3.0
 40
4.0
 40
4.0
 40
4.0
 40
4.0
 10
98.34989110199635
 20
-120.4055602476764
 30
0.0
 10
98.34989110199635
 20
-120.3504563588012
 30
0.0
 10
98.30512360313847
 20
-120.3056535810347
 30
0.0
 10
98.24998443787852
 20
-120.3056535810347
 30
0.0
 10
98.19452777262667
 20
-120.3056535810347
 30
0.0
 10
98.1497249959919
 20
-120.3504563588012
 30
0.0
 10
98.1497249959919
 20
-120.4055602476764
 30
0.0
 10
98.1497249959919
 20
-120.4610521921069
 30
0.0
 10
98.19452777262667
 20
-120.5058196920958
 30
0.0
 10
98.24998443787852
 20
-120.5058196920958
 30
0.0
 10
98.30512360313847
 20
-120.5058196920958
 30
0.0
 10
98.34989110199635
 20
-120.4610521921069
 30
0.0
 10
98.34989110199635
 20
-120.4055602476764
 30
0.0
  0
SPLINE
  5
47
330
41
100
AcDbEntity
  8
_U+30EC_U+30A4_U+30E4_U+30FC 1
 62
   179
420
  2234388
370
     9
100
AcDbSpline
210
0.0
220
0.0
230
1.0
 70
    11
 71
     3
 72
    17
 73
    13
 74
     0
 42
0.0000000001
 43
0.0000000001
 12
1.0
 22
0.0
 32
0.0
 13
1.0
 23
0.0
 33
0.0
 40
0.0
 40
0.0
 40
0.0
 40
0.0
 40
1.0
 40
1.0
 40
1.0
 40
2.0
 40
2.0
 40
2.0
 40
3.0
 40
3.0
 40
3.0
 40
4.0
 40
4.0
 40
4.0
 40
4.0
 10
102.3500055299681
 20
-124.4060249688985
 30
0.0
 10
102.3500055299681
 20
-124.350533024468
 30
0.0
 10
102.3052027522014
 20
-124.3057655244791
 30
0.0
 10
102.2497435025028
 20
-124.3057655244791
 30
0.0
 10
102.1946043372429
 20
-124.3057655244791
 30
0.0
 10
102.149836838385
 20
-124.350533024468
 30
0.0
 10
102.149836838385
 20
-124.4060249688985
 30
0.0
 10
102.149836838385
 20
-124.4611288577737
 30
0.0
 10
102.1946043372429
 20
-124.5059316355401
 30
0.0
 10
102.2497435025028
 20
-124.5059316355401
 30
0.0
 10
102.3052027522014
 20
-124.5059316355401
 30
0.0
 10
102.3500055299681
 20
-124.4611288577737
 30
0.0
 10
102.3500055299681
 20
-124.4060249688985
 30
0.0
  0
SPLINE
  5
48
330
41
100
AcDbEntity
  8
_U+30EC_U+30A4_U+30E4_U+30FC 1
 62
   179
420
  2234388
370
     9
100
AcDbSpline
210
0.0
220
0.0
230
1.0
 70
    11
 71
     3
 72
    17
 73
    13
 74
     0
 42
0.0000000001
 43
0.0000000001
 12
1.0
 22
0.0
 32
0.0
 13
1.0
 23
0.0
 33
0.0
 40
0.0
 40
0.0
 40
0.0
 40
0.0
 40
1.0
 40
1.0
 40
1.0
 40
2.0
 40
2.0
 40
2.0
 40
3.0
 40
3.0
 40
3.0
 40
4.0
 40
4.0
 40
4.0
 40
4.0
 10
102.3500055299681
 20
-125.3057141353402
 30
0.0
 10
102.3500055299681
 20
-125.2505749686874
 30
0.0
 10
102.3052027522014
 20
-125.2058074686985
 30
0.0
 10
102.2497435025028
 20
-125.2058074686985
 30
0.0
 10
102.1946043372429
 20
-125.2058074686985
 30
0.0
 10
102.149836838385
 20
-125.2505749686874
 30
0.0
 10
102.149836838385
 20
-125.3057141353402
 30
0.0
 10
102.149836838385
 20
-125.3608180242154
 30
0.0
 10
102.1946043372429
 20
-125.4056208019818
 30
0.0
 10
102.2497435025028
 20
-125.4056208019818
 30
0.0
 10
102.3052027522014
 20
-125.4056208019818
 30
0.0
 10
102.3500055299681
 20
-125.3608180242154
 30
0.0
 10
102.3500055299681
 20
-125.3057141353402
 30
0.0
  0
SPLINE
  5
49
330
41
100
AcDbEntity
  8
_U+30EC_U+30A4_U+30E4_U+30FC 1
 62
   179
420
  2234388
370
     9
100
AcDbSpline
210
0.0
220
0.0
230
1.0
 70
    11
 71
     3
 72
    17
 73
    13
 74
     0
 42
0.0000000001
 43
0.0000000001
 12
1.0
 22
0.0
 32
0.0
 13
1.0
 23
0.0
 33
0.0
 40
0.0
 40
0.0
 40
0.0
 40
0.0
 40
1.0
 40
1.0
 40
1.0
 40
2.0
 40
2.0
 40
2.0
 40
3.0
 40
3.0
 40
3.0
 40
4.0
 40
4.0
 40
4.0
 40
4.0
 10
102.3500055299681
 20
-132.4060371891204
 30
0.0
 10
102.3500055299681
 20
-132.3509333002455
 30
0.0
 10
102.3052027522014
 20
-132.3061305224788
 30
0.0
 10
102.2497435025028
 20
-132.3061305224788
 30
0.0
 10
102.1946043372429
 20
-132.3061305224788
 30
0.0
 10
102.149836838385
 20
-132.3509333002455
 30
0.0
 10
102.149836838385
 20
-132.4060371891204
 30
0.0
 10
102.149836838385
 20
-132.4611763557735
 30
0.0
 10
102.1946043372429
 20
-132.5059438557627
 30
0.0
 10
102.2497435025028
 20
-132.5059438557627
 30
0.0
 10
102.3052027522014
 20
-132.5059438557627
 30
0.0
 10
102.3500055299681
 20
-132.4611763557735
 30
0.0
 10
102.3500055299681
 20
-132.4060371891204
 30
0.0
  0
SPLINE
  5
4A
330
41
100
AcDbEntity
  8
_U+30EC_U+30A4_U+30E4_U+30FC 1
 62
   179
420
  2234388
370
     9
100
AcDbSpline
210
0.0
220
0.0
230
1.0
 70
    11
 71
     3
 72
    17
 73
    13
 74
     0
 42
0.0000000001
 43
0.0000000001
 12
1.0
 22
0.0
 32
0.0
 13
1.0
 23
0.0
 33
0.0
 40
0.0
 40
0.0
 40
0.0
 40
0.0
 40
1.0
 40
1.0
 40
1.0
 40
2.0
 40
2.0
 40
2.0
 40
3.0
 40
3.0
 40
3.0
 40
4.0
 40
4.0
 40
4.0
 40
4.0
 10
102.3500055299681
 20
-135.4060241328154
 30
0.0
 10
102.3500055299681
 20
-135.3509202439398
 30
0.0
 10
102.3052027522014
 20
-135.3061174661738
 30
0.0
 10
102.2497435025028
 20
-135.3061174661738
 30
0.0
 10
102.1946043372429
 20
-135.3061174661738
 30
0.0
 10
102.149836838385
 20
-135.3509202439398
 30
0.0
 10
102.149836838385
 20
-135.4060241328154
 30
0.0
 10
102.149836838385
 20
-135.4611632994678
 30
0.0
 10
102.1946043372429
 20
-135.505930799457
 30
0.0
 10
102.2497435025028
 20
-135.505930799457
 30
0.0
 10
102.3052027522014
 20
-135.505930799457
 30
0.0
 10
102.3500055299681
 20
-135.4611632994678
 30
0.0
 10
102.3500055299681
 20
-135.4060241328154
 30
0.0
  0
SPLINE
  5
4B
330
41
100
AcDbEntity
  8
_U+30EC_U+30A4_U+30E4_U+30FC 1
 62
   179
420
  2234388
370
     9
100
AcDbSpline
210
0.0
220
0.0
230
1.0
 70
    11
 71
     3
 72
    17
 73
    13
 74
     0
 42
0.0000000001
 43
0.0000000001
 12
1.0
 22
0.0
 32
0.0
 13
1.0
 23
0.0
 33
0.0
 40
0.0
 40
0.0
 40
0.0
 40
0.0
 40
1.0
 40
1.0
 40
1.0
 40
2.0
 40
2.0
 40
2.0
 40
3.0
 40
3.0
 40
3.0
 40
4.0
 40
4.0
 40
4.0
 40
4.0
 10
83.34960398468556
 20
-139.4057832984816
 30
0.0
 10
83.34960398468556
 20
-139.3506794096067
 30
0.0
 10
83.30480120805079
 20
-139.30587663184
 30
0.0
 10
83.24969732056772
 20
-139.30587663184
 30
0.0
 10
83.19455815530777
 20
-139.30587663184
 30
0.0
 10
83.1497906564499
 20
-139.3506794096067
 30
0.0
 10
83.1497906564499
 20
-139.4057832984816
 30
0.0
 10
83.1497906564499
 20
-139.4609224651347
 30
0.0
 10
83.19455815530777
 20
-139.5056899651233
 30
0.0
 10
83.24969732056772
 20
-139.5056899651233
 30
0.0
 10
83.30480120805079
 20
-139.5056899651233
 30
0.0
 10
83.34960398468556
 20
-139.4609224651347
 30
0.0
 10
83.34960398468556
 20
-139.4057832984816
 30
0.0
  0
SPLINE
  5
4C
330
41
100
AcDbEntity
  8
_U+30EC_U+30A4_U+30E4_U+30FC 1
 62
   179
420
  2234388
370
     9
100
AcDbSpline
210
0.0
220
0.0
230
1.0
 70
    11
 71
     3
 72
    17
 73
    13
 74
     0
 42
0.0000000001
 43
0.0000000001
 12
1.0
 22
0.0
 32
0.0
 13
1.0
 23
0.0
 33
0.0
 40
0.0
 40
0.0
 40
0.0
 40
0.0
 40
1.0
 40
1.0
 40
1.0
 40
2.0
 40
2.0
 40
2.0
 40
3.0
 40
3.0
 40
3.0
 40
4.0
 40
4.0
 40
4.0
 40
4.0
 10
73.34987118424444
 20
-139.4057832984816
 30
0.0
 10
73.34987118424444
 20
-139.3506794096067
 30
0.0
 10
73.30506840760968
 20
-139.30587663184
 30
0.0
 10
73.24996452012661
 20
-139.30587663184
 30
0.0
 10
73.19482535486665
 20
-139.30587663184
 30
0.0
 10
73.15005785600877
 20
-139.3506794096067
 30
0.0
 10
73.15005785600877
 20
-139.4057832984816
 30
0.0
 10
73.15005785600877
 20
-139.4609224651347
 30
0.0
 10
73.19482535486665
 20
-139.5056899651233
 30
0.0
 10
73.24996452012661
 20
-139.5056899651233
 30
0.0
 10
73.30506840760968
 20
-139.5056899651233
 30
0.0
 10
73.34987118424444
 20
-139.4609224651347
 30
0.0
 10
73.34987118424444
 20
-139.4057832984816
 30
0.0
  0
POLYLINE
  5
4D
330
41
100
AcDbEntity
  8
_U+30EC_U+30A4_U+30E4_U+30FC 1
 62
   179
420
  2234388
370
     9
100
AcDb2dPolyline
 66
     1
 10
0.0
 20
0.0
 30
0.0
  0
VERTEX
  5
4E
330
4D
100
AcDbEntity
  8
_U+30EC_U+30A4_U+30E4_U+30FC 1
 62
   179
420
  2234388
370
     9
100
AcDbVertex
100
AcDb2dVertex
 10
73.24996452012661
 20
-139.4057832984816
 30
0.0
  0
VERTEX
  5
4F
330
4D
100
AcDbEntity
  8
_U+30EC_U+30A4_U+30E4_U+30FC 1
 62
   179
420
  2234388
370
     9
100
AcDbVertex
100
AcDb2dVertex
 10
83.24969732056772
 20
-139.4057832984816
 30
0.0
  0
SEQEND
  5
50
330
4D
100
AcDbEntity
  8
_U+30EC_U+30A4_U+30E4_U+30FC 1
 62
   179
420
  2234388
370
     9
  0
POLYLINE
  5
51
330
41
100
AcDbEntity
  8
_U+30EC_U+30A4_U+30E4_U+30FC 1
 62
   179
420
  2234388
370
     9
100
AcDb2dPolyline
 66
     1
 10
0.0
 20
0.0
 30
0.0
  0
VERTEX
  5
52
330
51
100
AcDbEntity
  8
_U+30EC_U+30A4_U+30E4_U+30FC 1
 62
   179
420
  2234388
370
     9
100
AcDbVertex
100
AcDb2dVertex
 10
73.24996452012661
 20
-137.9457419099579
 30
0.0
  0
VERTEX
  5
53
330
51
100
AcDbEntity
  8
_U+30EC_U+30A4_U+30E4_U+30FC 1
 62
   179
420
  2234388
370
     9
100
AcDbVertex
100
AcDb2dVertex
 10
73.24996452012661
 20
-140.4055555204542
 30
0.0
  0
SEQEND
  5
54
330
51
100
AcDbEntity
  8
_U+30EC_U+30A4_U+30E4_U+30FC 1
 62
   179
420
  2234388
370
     9
  0
POLYLINE
  5
55
330
41
100
AcDbEntity
  8
_U+30EC_U+30A4_U+30E4_U+30FC 1
 62
   179
420
  2234388
370
     9
100
AcDb2dPolyline
 66
     1
 10
0.0
 20
0.0
 30
0.0
  0
VERTEX
  5
56
330
55
100
AcDbEntity
  8
_U+30EC_U+30A4_U+30E4_U+30FC 1
 62
   179
420
  2234388
370
     9
100
AcDbVertex
100
AcDb2dVertex
 10
83.24969732056772
 20
-137.9457419099579
 30
0.0
  0
VERTEX
  5
57
330
55
100
AcDbEntity
  8
_U+30EC_U+30A4_U+30E4_U+30FC 1
 62
   179
420
  2234388
370
     9
100
AcDbVertex
100
AcDb2dVertex
 10
83.24969732056772
 20
-140.4055555204542
 30
0.0
  0
SEQEND
  5
58
330
55
100
AcDbEntity
  8
_U+30EC_U+30A4_U+30E4_U+30FC 1
 62
   179
420
  2234388
370
     9
  0
INSERT
  5
5A
330
41
100
AcDbEntity
  8
_U+30EC_U+30A4_U+30E4_U+30FC 1
100
AcDbBlockReference
  2
block 3
 10
0.0
 20
0.0
 30
0.0
  0
POLYLINE
  5
62
330
41
100
AcDbEntity
  8
_U+30EC_U+30A4_U+30E4_U+30FC 1
 62
   179
420
  2234388
370
     9
100
AcDb2dPolyline
 66
     1
 10
0.0
 20
0.0
 30
0.0
  0
VERTEX
  5
63
330
62
100
AcDbEntity
  8
_U+30EC_U+30A4_U+30E4_U+30FC 1
 62
   179
420
  2234388
370
     9
100
AcDbVertex
100
AcDb2dVertex
 10
73.24996452012661
 20
-120.4055602476764
 30
0.0
  0
VERTEX
  5
64
330
62
100
AcDbEntity
  8
_U+30EC_U+30A4_U+30E4_U+30FC 1
 62
   179
420
  2234388
370
     9
100
AcDbVertex
100
AcDb2dVertex
 10
98.24998443787852
 20
-120.4055602476764
 30
0.0
  0
SEQEND
  5
65
330
62
100
AcDbEntity
  8
_U+30EC_U+30A4_U+30E4_U+30FC 1
 62
   179
420
  2234388
370
     9
  0
POLYLINE
  5
66
330
41
100
AcDbEntity
  8
_U+30EC_U+30A4_U+30E4_U+30FC 1
 62
   179
420
  2234388
370
     9
100
AcDb2dPolyline
 66
     1
 10
0.0
 20
0.0
 30
0.0
  0
VERTEX
  5
67
330
66
100
AcDbEntity
  8
_U+30EC_U+30A4_U+30E4_U+30FC 1
 62
   179
420
  2234388
370
     9
100
AcDbVertex
100
AcDb2dVertex
 10
73.24996452012661
 20
-121.8656016362004
 30
0.0
  0
VERTEX
  5
68
330
66
100
AcDbEntity
  8
_U+30EC_U+30A4_U+30E4_U+30FC 1
 62
   179
420
  2234388
370
     9
100
AcDbVertex
100
AcDb2dVertex
 10
73.24996452012661
 20
-119.4057880257042
 30
0.0
  0
SEQEND
  5
69
330
66
100
AcDbEntity
  8
_U+30EC_U+30A4_U+30E4_U+30FC 1
 62
   179
420
  2234388
370
     9
  0
POLYLINE
  5
6A
330
41
100
AcDbEntity
  8
_U+30EC_U+30A4_U+30E4_U+30FC 1
 62
   179
420
  2234388
370
     9
100
AcDb2dPolyline
 66
     1
 10
0.0
 20
0.0
 30
0.0
  0
VERTEX
  5
6B
330
6A
100
AcDbEntity
  8
_U+30EC_U+30A4_U+30E4_U+30FC 1
 62
   179
420
  2234388
370
     9
100
AcDbVertex
100
AcDb2dVertex
 10
98.24998443787852
 20
-121.8656016362004
 30
0.0
  0
VERTEX
  5
6C
330
6A
100
AcDbEntity
  8
_U+30EC_U+30A4_U+30E4_U+30FC 1
 62
   179
420
  2234388
370
     9
100
AcDbVertex
100
AcDb2dVertex
 10
98.24998443787852
 20
-119.4057880257042
 30
0.0
  0
SEQEND
  5
6D
330
6A
100
AcDbEntity
  8
_U+30EC_U+30A4_U+30E4_U+30FC 1
 62
   179
420
  2234388
370
     9
  0
INSERT
  5
6F
330
41
100
AcDbEntity
  8
_U+30EC_U+30A4_U+30E4_U+30FC 1
100
AcDbBlockReference
  2
block 4
 10
0.0
 20
0.0
 30
0.0
  0
POLYLINE
  5
76
330
41
100
AcDbEntity
  8
_U+30EC_U+30A4_U+30E4_U+30FC 1
 62
   179
420
  2234388
370
     9
100
AcDb2dPolyline
 66
     1
 10
0.0
 20
0.0
 30
0.0
  0
VERTEX
  5
77
330
76
100
AcDbEntity
  8
_U+30EC_U+30A4_U+30E4_U+30FC 1
 62
   179
420
  2234388
370
     9
100
AcDbVertex
100
AcDb2dVertex
 10
102.2497435025028
 20
-124.4060249688985
 30
0.0
  0
VERTEX
  5
78
330
76
100
AcDbEntity
  8
_U+30EC_U+30A4_U+30E4_U+30FC 1
 62
   179
420
  2234388
370
     9
100
AcDbVertex
100
AcDb2dVertex
 10
102.2497435025028
 20
-120.6357124698411
 30
0.0
  0
SEQEND
  5
79
330
76
100
AcDbEntity
  8
_U+30EC_U+30A4_U+30E4_U+30FC 1
 62
   179
420
  2234388
370
     9
  0
POLYLINE
  5
7A
330
41
100
AcDbEntity
  8
_U+30EC_U+30A4_U+30E4_U+30FC 1
 62
   179
420
  2234388
370
     9
100
AcDb2dPolyline
 66
     1
 10
0.0
 20
0.0
 30
0.0
  0
VERTEX
  5
7B
330
7A
100
AcDbEntity
  8
_U+30EC_U+30A4_U+30E4_U+30FC 1
 62
   179
420
  2234388
370
     9
100
AcDbVertex
100
AcDb2dVertex
 10
102.2497435025028
 20
-124.4060249688985
 30
0.0
  0
VERTEX
  5
7C
330
7A
100
AcDbEntity
  8
_U+30EC_U+30A4_U+30E4_U+30FC 1
 62
   179
420
  2234388
370
     9
100
AcDbVertex
100
AcDb2dVertex
 10
102.2497435025028
 20
-125.4057971908707
 30
0.0
  0
SEQEND
  5
7D
330
7A
100
AcDbEntity
  8
_U+30EC_U+30A4_U+30E4_U+30FC 1
 62
   179
420
  2234388
370
     9
  0
POLYLINE
  5
7E
330
41
100
AcDbEntity
  8
_U+30EC_U+30A4_U+30E4_U+30FC 1
 62
   179
420
  2234388
370
     9
100
AcDb2dPolyline
 66
     1
 10
0.0
 20
0.0
 30
0.0
  0
VERTEX
  5
7F
330
7E
100
AcDbEntity
  8
_U+30EC_U+30A4_U+30E4_U+30FC 1
 62
   179
420
  2234388
370
     9
100
AcDbVertex
100
AcDb2dVertex
 10
100.7897021508627
 20
-124.4060249688985
 30
0.0
  0
VERTEX
  5
80
330
7E
100
AcDbEntity
  8
_U+30EC_U+30A4_U+30E4_U+30FC 1
 62
   179
420
  2234388
370
     9
100
AcDbVertex
100
AcDb2dVertex
 10
103.2498684769875
 20
-124.4060249688985
 30
0.0
  0
SEQEND
  5
81
330
7E
100
AcDbEntity
  8
_U+30EC_U+30A4_U+30E4_U+30FC 1
 62
   179
420
  2234388
370
     9
  0
POLYLINE
  5
82
330
41
100
AcDbEntity
  8
_U+30EC_U+30A4_U+30E4_U+30FC 1
 62
   179
420
  2234388
370
     9
100
AcDb2dPolyline
 66
     1
 10
0.0
 20
0.0
 30
0.0
  0
VERTEX
  5
83
330
82
100
AcDbEntity
  8
_U+30EC_U+30A4_U+30E4_U+30FC 1
 62
   179
420
  2234388
370
     9
100
AcDbVertex
100
AcDb2dVertex
 10
100.7897021508627
 20
-125.3057141353402
 30
0.0
  0
VERTEX
  5
84
330
82
100
AcDbEntity
  8
_U+30EC_U+30A4_U+30E4_U+30FC 1
 62
   179
420
  2234388
370
     9
100
AcDbVertex
100
AcDb2dVertex
 10
103.2498684769875
 20
-125.3057141353402
 30
0.0
  0
SEQEND
  5
85
330
82
100
AcDbEntity
  8
_U+30EC_U+30A4_U+30E4_U+30FC 1
 62
   179
420
  2234388
370
     9
  0
INSERT
  5
87
330
41
100
AcDbEntity
  8
_U+30EC_U+30A4_U+30E4_U+30FC 1
100
AcDbBlockReference
  2
block 5
 10
0.0
 20
0.0
 30
0.0
  0
POLYLINE
  5
98
330
41
100
AcDbEntity
  8
_U+30EC_U+30A4_U+30E4_U+30FC 1
 62
   179
420
  2234388
370
     9
100
AcDb2dPolyline
 66
     1
 10
0.0
 20
0.0
 30
0.0
  0
VERTEX
  5
99
330
98
100
AcDbEntity
  8
_U+30EC_U+30A4_U+30E4_U+30FC 1
 62
   179
420
  2234388
370
     9
100
AcDbVertex
100
AcDb2dVertex
 10
102.2497435025028
 20
-132.4060371891204
 30
0.0
  0
VERTEX
  5
9A
330
98
100
AcDbEntity
  8
_U+30EC_U+30A4_U+30E4_U+30FC 1
 62
   179
420
  2234388
370
     9
100
AcDbVertex
100
AcDb2dVertex
 10
102.2497435025028
 20
-135.4060241328154
 30
0.0
  0
SEQEND
  5
9B
330
98
100
AcDbEntity
  8
_U+30EC_U+30A4_U+30E4_U+30FC 1
 62
   179
420
  2234388
370
     9
  0
POLYLINE
  5
9C
330
41
100
AcDbEntity
  8
_U+30EC_U+30A4_U+30E4_U+30FC 1
 62
   179
420
  2234388
370
     9
100
AcDb2dPolyline
 66
     1
 10
0.0
 20
0.0
 30
0.0
  0
VERTEX
  5
9D
330
9C
100
AcDbEntity
  8
_U+30EC_U+30A4_U+30E4_U+30FC 1
 62
   179
420
  2234388
370
     9
100
AcDbVertex
100
AcDb2dVertex
 10
85.78976781132069
 20
-135.4060241328154
 30
0.0
  0
VERTEX
  5
9E
330
9C
100
AcDbEntity
  8
_U+30EC_U+30A4_U+30E4_U+30FC 1
 62
   179
420
  2234388
370
     9
100
AcDbVertex
100
AcDb2dVertex
 10
103.2498684769875
 20
-135.4060241328154
 30
0.0
  0
SEQEND
  5
9F
330
9C
100
AcDbEntity
  8
_U+30EC_U+30A4_U+30E4_U+30FC 1
 62
   179
420
  2234388
370
     9
  0
INSERT
  5
A1
330
41
100
AcDbEntity
  8
_U+30EC_U+30A4_U+30E4_U+30FC 1
100
AcDbBlockReference
  2
block 6
 10
0.0
 20
0.0
 30
0.0
  0
POLYLINE
  5
A6
330
41
100
AcDbEntity
  8
_U+30EC_U+30A4_U+30E4_U+30FC 1
 62
   179
420
  2234388
370
     9
100
AcDb2dPolyline
 66
     1
 10
0.0
 20
0.0
 30
0.0
  0
VERTEX
  5
A7
330
A6
100
AcDbEntity
  8
_U+30EC_U+30A4_U+30E4_U+30FC 1
 62
   179
420
  2234388
370
     9
100
AcDbVertex
100
AcDb2dVertex
 10
102.2497435025028
 20
-132.4060371891204
 30
0.0
  0
VERTEX
  5
A8
330
A6
100
AcDbEntity
  8
_U+30EC_U+30A4_U+30E4_U+30FC 1
 62
   179
420
  2234388
370
     9
100
AcDbVertex
100
AcDb2dVertex
 10
102.2497435025028
 20
-125.4057971908707
 30
0.0
  0
SEQEND
  5
A9
330
A6
100
AcDbEntity
  8
_U+30EC_U+30A4_U+30E4_U+30FC 1
 62
   179
420
  2234388
370
     9
  0
POLYLINE
  5
AA
330
41
100
AcDbEntity
  8
_U+30EC_U+30A4_U+30E4_U+30FC 1
 62
   179
420
  2234388
370
     9
100
AcDb2dPolyline
 66
     1
 10
0.0
 20
0.0
 30
0.0
  0
VERTEX
  5
AB
330
AA
100
AcDbEntity
  8
_U+30EC_U+30A4_U+30E4_U+30FC 1
 62
   179
420
  2234388
370
     9
100
AcDbVertex
100
AcDb2dVertex
 10
85.78976781132069
 20
-132.4060371891204
 30
0.0
  0
VERTEX
  5
AC
330
AA
100
AcDbEntity
  8
_U+30EC_U+30A4_U+30E4_U+30FC 1
 62
   179
420
  2234388
370
     9
100
AcDbVertex
100
AcDb2dVertex
 10
103.2498684769875
 20
-132.4060371891204
 30
0.0
  0
SEQEND
  5
AD
330
AA
100
AcDbEntity
  8
_U+30EC_U+30A4_U+30E4_U+30FC 1
 62
   179
420
  2234388
370
     9
  0
INSERT
  5
AF
330
41
100
AcDbEntity
  8
_U+30EC_U+30A4_U+30E4_U+30FC 1
100
AcDbBlockReference
  2
block 7
 10
0.0
 20
0.0
 30
0.0
  0
SPLINE
  5
B4
330
41
100
AcDbEntity
  8
_U+30EC_U+30A4_U+30E4_U+30FC 1
 62
   179
420
  2234388
370
    25
100
AcDbSpline
210
0.0
220
0.0
230
1.0
 70
    11
 71
     3
 72
    50
 73
    46
 74
     0
 42
0.0000000001
 43
0.0000000001
 12
1.0
 22
0.0
 32
0.0
 13
1.0
 23
0.0
 33
0.0
 40
0.0
 40
0.0
 40
0.0
 40
0.0
 40
1.0
 40
1.0
 40
1.0
 40
2.0
 40
2.0
 40
2.0
 40
3.0
 40
3.0
 40
3.0
 40
4.0
 40
4.0
 40
4.0
 40
5.0
 40
5.0
 40
5.0
 40
6.0
 40
6.0
 40
6.0
 40
7.0
 40
7.0
 40
7.0
 40
8.0
 40
8.0
 40
8.0
 40
9.0
 40
9.0
 40
9.0
 40
10.0
 40
10.0
 40
10.0
 40
11.0
 40
11.0
 40
11.0
 40
12.0
 40
12.0
 40
12.0
 40
13.0
 40
13.0
 40
13.0
 40
14.0
 40
14.0
 40
14.0
 40
15.0
 40
15.0
 40
15.0
 40
15.0
 10
98.24998443787852
 20
-124.4060249688985
 30
0.0
 10
98.24998443787852
 20
-124.4060249688985
 30
0.0
 10
73.24996452012661
 20
-124.4060249688985
 30
0.0
 10
73.24996452012661
 20
-124.4060249688985
 30
0.0
 10
73.24996452012661
 20
-124.4060249688985
 30
0.0
 10
73.24996452012661
 20
-135.4060241328154
 30
0.0
 10
73.24996452012661
 20
-135.4060241328154
 30
0.0
 10
73.24996452012661
 20
-135.4060241328154
 30
0.0
 10
83.24969732056772
 20
-135.4060241328154
 30
0.0
 10
83.24969732056772
 20
-135.4060241328154
 30
0.0
 10
83.24969732056772
 20
-135.4060241328154
 30
0.0
 10
83.24969732056772
 20
-132.4060371891204
 30
0.0
 10
83.24969732056772
 20
-132.4060371891204
 30
0.0
 10
83.24969732056772
 20
-132.4060371891204
 30
0.0
 10
82.34983178796965
 20
-132.4060371891204
 30
0.0
 10
82.34983178796965
 20
-132.4060371891204
 30
0.0
 10
82.34983178796965
 20
-132.4060371891204
 30
0.0
 10
82.34983178796965
 20
-133.5057160777346
 30
0.0
 10
82.34983178796965
 20
-133.5057160777346
 30
0.0
 10
82.34983178796965
 20
-134.0583071887074
 30
0.0
 10
81.9019804105064
 20
-134.5058410774849
 30
0.0
 10
81.34974209126185
 20
-134.5058410774849
 30
0.0
 10
81.34974209126185
 20
-134.5058410774849
 30
0.0
 10
75.14991974943248
 20
-134.5054882997071
 30
0.0
 10
75.14991974943248
 20
-134.5054882997071
 30
0.0
 10
74.59768331468379
 20
-134.5054882997071
 30
0.0
 10
74.14983005272468
 20
-134.0579544109297
 30
0.0
 10
74.14983005272468
 20
-133.5057160777346
 30
0.0
 10
74.14983005272468
 20
-133.5057160777346
 30
0.0
 10
74.14983005272468
 20
-129.2789444121244
 30
0.0
 10
74.14983005272468
 20
-129.2789444121244
 30
0.0
 10
74.14983005272468
 20
-129.2789444121244
 30
0.0
 10
74.44990282284697
 20
-128.9058113566624
 30
0.0
 10
74.44990282284697
 20
-128.9058113566624
 30
0.0
 10
74.44990282284697
 20
-128.9058113566624
 30
0.0
 10
74.14983005272468
 20
-128.5327135789778
 30
0.0
 10
74.14983005272468
 20
-128.5327135789778
 30
0.0
 10
74.14983005272468
 20
-128.5327135789778
 30
0.0
 10
74.14983005272468
 20
-125.3057141353402
 30
0.0
 10
74.14983005272468
 20
-125.3057141353402
 30
0.0
 10
74.14983005272468
 20
-125.3057141353402
 30
0.0
 10
98.24998443787852
 20
-125.3057141353402
 30
0.0
 10
98.24998443787852
 20
-125.3057141353402
 30
0.0
 10
98.24998443787852
 20
-125.3057141353402
 30
0.0
 10
98.24998443787852
 20
-124.4060249688985
 30
0.0
 10
98.24998443787852
 20
-124.4060249688985
 30
0.0
  0
HATCH
  5
B5
330
41
100
AcDbEntity
  8
_U+30EC_U+30A4_U+30E4_U+30FC 1
 62
   253
420
 11711154
100
AcDbHatch
 10
0.0
 20
0.0
 30
0.0
210
0.0
220
0.0
230
1.0
  2
SOLID
 70
     1
 71
     0
 91
        1
 92
        1
 93
        1
 72
     4
 94
        3
 73
     0
 74
     1
 95
       50
 96
       46
 40
0.0
 40
0.0
 40
0.0
 40
0.0
 40
1.0
 40
1.0
 40
1.0
 40
2.0
 40
2.0
 40
2.0
 40
3.0
 40
3.0
 40
3.0
 40
4.0
 40
4.0
 40
4.0
 40
5.0
 40
5.0
 40
5.0
 40
6.0
 40
6.0
 40
6.0
 40
7.0
 40
7.0
 40
7.0
 40
8.0
 40
8.0
 40
8.0
 40
9.0
 40
9.0
 40
9.0
 40
10.0
 40
10.0
 40
10.0
 40
11.0
 40
11.0
 40
11.0
 40
12.0
 40
12.0
 40
12.0
 40
13.0
 40
13.0
 40
13.0
 40
14.0
 40
14.0
 40
14.0
 40
15.0
 40
15.0
 40
15.0
 40
15.0
 10
98.24998443787852
 20
-124.4060249688985
 10
98.24998443787852
 20
-124.4060249688985
 10
73.24996452012661
 20
-124.4060249688985
 10
73.24996452012661
 20
-124.4060249688985
 10
73.24996452012661
 20
-124.4060249688985
 10
73.24996452012661
 20
-135.4060241328154
 10
73.24996452012661
 20
-135.4060241328154
 10
73.24996452012661
 20
-135.4060241328154
 10
83.24969732056772
 20
-135.4060241328154
 10
83.24969732056772
 20
-135.4060241328154
 10
83.24969732056772
 20
-135.4060241328154
 10
83.24969732056772
 20
-132.4060371891204
 10
83.24969732056772
 20
-132.4060371891204
 10
83.24969732056772
 20
-132.4060371891204
 10
82.34983178796965
 20
-132.4060371891204
 10
82.34983178796965
 20
-132.4060371891204
 10
82.34983178796965
 20
-132.4060371891204
 10
82.34983178796965
 20
-133.5057160777346
 10
82.34983178796965
 20
-133.5057160777346
 10
82.34983178796965
 20
-134.0583071887074
 10
81.9019804105064
 20
-134.5058410774849
 10
81.34974209126185
 20
-134.5058410774849
 10
81.34974209126185
 20
-134.5058410774849
 10
75.14991974943248
 20
-134.5054882997071
 10
75.14991974943248
 20
-134.5054882997071
 10
74.59768331468379
 20
-134.5054882997071
 10
74.14983005272468
 20
-134.0579544109297
 10
74.14983005272468
 20
-133.5057160777346
 10
74.14983005272468
 20
-133.5057160777346
 10
74.14983005272468
 20
-129.2789444121244
 10
74.14983005272468
 20
-129.2789444121244
 10
74.14983005272468
 20
-129.2789444121244
 10
74.44990282284697
 20
-128.9058113566624
 10
74.44990282284697
 20
-128.9058113566624
 10
74.44990282284697
 20
-128.9058113566624
 10
74.14983005272468
 20
-128.5327135789778
 10
74.14983005272468
 20
-128.5327135789778
 10
74.14983005272468
 20
-128.5327135789778
 10
74.14983005272468
 20
-125.3057141353402
 10
74.14983005272468
 20
-125.3057141353402
 10
74.14983005272468
 20
-125.3057141353402
 10
98.24998443787852
 20
-125.3057141353402
 10
98.24998443787852
 20
-125.3057141353402
 10
98.24998443787852
 20
-125.3057141353402
 10
98.24998443787852
 20
-124.4060249688985
 10
98.24998443787852
 20
-124.4060249688985
 97
        0
 97
        0
 75
     2
 76
     1
 98
        0
  0
ENDBLK
  5
44
330
41
100
AcDbEntity
  8
0
100
AcDbBlockEnd
  0
BLOCK
  5
5B
330
59
100
AcDbEntity
  8
0
100
AcDbBlockBegin
  2
block 3
 70
     0
 10
0.0
 20
0.0
 30
0.0
  3
block 3
  1

  0
SPLINE
  5
5D
330
59
100
AcDbEntity
  8
_U+30EC_U+30A4_U+30E4_U+30FC 1
370
     0
100
AcDbSpline
210
0.0
220
0.0
230
1.0
 70
    11
 71
     3
 72
    26
 73
    22
 74
     0
 42
0.0000000001
 43
0.0000000001
 12
1.0
 22
0.0
 32
0.0
 13
1.0
 23
0.0
 33
0.0
 40
0.0
 40
0.0
 40
0.0
 40
0.0
 40
1.0
 40
1.0
 40
1.0
 40
2.0
 40
2.0
 40
2.0
 40
3.0
 40
3.0
 40
3.0
 40
4.0
 40
4.0
 40
4.0
 40
5.0
 40
5.0
 40
5.0
 40
6.0
 40
6.0
 40
6.0
 40
7.0
 40
7.0
 40
7.0
 40
7.0
 10
77.6126613846767
 20
-138.7605224262474
 30
0.0
 10
77.6126613846767
 20
-138.7605224262474
 30
0.0
 10
77.6126613846767
 20
-137.6563693232248
 30
0.0
 10
77.6126613846767
 20
-137.6563693232248
 30
0.0
 10
77.6126613846767
 20
-137.6563693232248
 30
0.0
 10
77.28262123718976
 20
-137.6563693232248
 30
0.0
 10
77.28262123718976
 20
-137.6563693232248
 30
0.0
 10
77.28262123718976
 20
-137.6563693232248
 30
0.0
 10
77.28262123718976
 20
-137.5082302173591
 30
0.0
 10
77.28262123718976
 20
-137.5082302173591
 30
0.0
 10
77.61472844196786
 20
-137.4934163067725
 30
0.0
 10
77.66123723101872
 20
-137.3304632903202
 30
0.0
 10
77.69086505219187
 20
-137.2160861202099
 30
0.0
 10
77.69086505219187
 20
-137.2160861202099
 30
0.0
 10
77.83693710076646
 20
-137.2160861202099
 30
0.0
 10
77.83693710076646
 20
-137.2160861202099
 30
0.0
 10
77.83693710076646
 20
-137.2160861202099
 30
0.0
 10
77.83693710076646
 20
-138.7605224262474
 30
0.0
 10
77.83693710076646
 20
-138.7605224262474
 30
0.0
 10
77.83693710076646
 20
-138.7605224262474
 30
0.0
 10
77.6126613846767
 20
-138.7605224262474
 30
0.0
 10
77.6126613846767
 20
-138.7605224262474
 30
0.0
  0
HATCH
  5
5E
330
59
100
AcDbEntity
  8
_U+30EC_U+30A4_U+30E4_U+30FC 1
 62
   179
420
  2234388
100
AcDbHatch
 10
0.0
 20
0.0
 30
0.0
210
0.0
220
0.0
230
1.0
  2
SOLID
 70
     1
 71
     0
 91
        1
 92
        1
 93
        1
 72
     4
 94
        3
 73
     0
 74
     1
 95
       26
 96
       22
 40
0.0
 40
0.0
 40
0.0
 40
0.0
 40
1.0
 40
1.0
 40
1.0
 40
2.0
 40
2.0
 40
2.0
 40
3.0
 40
3.0
 40
3.0
 40
4.0
 40
4.0
 40
4.0
 40
5.0
 40
5.0
 40
5.0
 40
6.0
 40
6.0
 40
6.0
 40
7.0
 40
7.0
 40
7.0
 40
7.0
 10
77.6126613846767
 20
-138.7605224262474
 10
77.6126613846767
 20
-138.7605224262474
 10
77.6126613846767
 20
-137.6563693232248
 10
77.6126613846767
 20
-137.6563693232248
 10
77.6126613846767
 20
-137.6563693232248
 10
77.28262123718976
 20
-137.6563693232248
 10
77.28262123718976
 20
-137.6563693232248
 10
77.28262123718976
 20
-137.6563693232248
 10
77.28262123718976
 20
-137.5082302173591
 10
77.28262123718976
 20
-137.5082302173591
 10
77.61472844196786
 20
-137.4934163067725
 10
77.66123723101872
 20
-137.3304632903202
 10
77.69086505219187
 20
-137.2160861202099
 10
77.69086505219187
 20
-137.2160861202099
 10
77.83693710076646
 20
-137.2160861202099
 10
77.83693710076646
 20
-137.2160861202099
 10
77.83693710076646
 20
-137.2160861202099
 10
77.83693710076646
 20
-138.7605224262474
 10
77.83693710076646
 20
-138.7605224262474
 10
77.83693710076646
 20
-138.7605224262474
 10
77.6126613846767
 20
-138.7605224262474
 10
77.6126613846767
 20
-138.7605224262474
 97
        0
 97
        0
 75
     2
 76
     1
 98
        0
  0
SPLINE
  5
5F
330
59
100
AcDbEntity
  8
_U+30EC_U+30A4_U+30E4_U+30FC 1
370
     0
100
AcDbSpline
210
0.0
220
0.0
230
1.0
 70
    11
 71
     3
 72
    29
 73
    25
 74
     0
 42
0.0000000001
 43
0.0000000001
 12
1.0
 22
0.0
 32
0.0
 13
1.0
 23
0.0
 33
0.0
 40
0.0
 40
0.0
 40
0.0
 40
0.0
 40
1.0
 40
1.0
 40
1.0
 40
2.0
 40
2.0
 40
2.0
 40
3.0
 40
3.0
 40
3.0
 40
4.0
 40
4.0
 40
4.0
 40
5.0
 40
5.0
 40
5.0
 40
6.0
 40
6.0
 40
6.0
 40
7.0
 40
7.0
 40
7.0
 40
8.0
 40
8.0
 40
8.0
 40
8.0
 10
79.23581812255216
 20
-138.5827554992085
 30
0.0
 10
79.12798663386384
 20
-138.7922173047117
 30
0.0
 10
78.95452607618151
 20
-138.8111653298805
 30
0.0
 10
78.83808184878006
 20
-138.8111653298805
 30
0.0
 10
78.67736814439316
 20
-138.8111653298805
 30
0.0
 10
78.53560246517513
 20
-138.7646565408297
 30
0.0
 10
78.44034557500797
 20
-138.5827554992085
 30
0.0
 10
78.33682045567622
 20
-138.3881076042919
 30
0.0
 10
78.31770017573308
 20
-138.1514295444552
 30
0.0
 10
78.31770017573308
 20
-137.9884765280029
 30
0.0
 10
78.31770017573308
 20
-137.8444715367195
 30
0.0
 10
78.3345811436108
 20
-137.5926350567477
 30
0.0
 10
78.44034557500797
 20
-137.3938530472488
 30
0.0
 10
78.54834931847056
 20
-137.1909369231676
 30
0.0
 10
78.70906302285746
 20
-137.1675102738679
 30
0.0
 10
78.83808184878006
 20
-137.1675102738679
 30
0.0
 10
78.99672849587583
 20
-137.1675102738679
 30
0.0
 10
79.140561232385
 20
-137.2119520056276
 30
0.0
 10
79.23581812255216
 20
-137.3938530472488
 30
0.0
 10
79.33520912730162
 20
-137.5864338848742
 30
0.0
 10
79.35846352182705
 20
-137.8148437155463
 30
0.0
 10
79.35846352182705
 20
-137.9884765280029
 30
0.0
 10
79.35846352182705
 20
-138.1596977736198
 30
0.0
 10
79.33744843936704
 20
-138.390174661583
 30
0.0
 10
79.23581812255216
 20
-138.5827554992085
 30
0.0
  0
SPLINE
  5
60
330
59
100
AcDbEntity
  8
_U+30EC_U+30A4_U+30E4_U+30FC 1
370
     0
100
AcDbSpline
210
0.0
220
0.0
230
1.0
 70
    11
 71
     3
 72
    17
 73
    13
 74
     0
 42
0.0000000001
 43
0.0000000001
 12
1.0
 22
0.0
 32
0.0
 13
1.0
 23
0.0
 33
0.0
 40
0.0
 40
0.0
 40
0.0
 40
0.0
 40
1.0
 40
1.0
 40
1.0
 40
2.0
 40
2.0
 40
2.0
 40
3.0
 40
3.0
 40
3.0
 40
4.0
 40
4.0
 40
4.0
 40
4.0
 10
78.83808184878006
 20
-137.3600911114933
 30
0.0
 10
78.58848468087372
 20
-137.3600911114933
 30
0.0
 10
78.54197589182284
 20
-137.6436224699294
 30
0.0
 10
78.54197589182284
 20
-137.9884765280029
 30
0.0
 10
78.54197589182284
 20
-138.3078368794855
 30
0.0
 10
78.5779771396437
 20
-138.6165174349639
 30
0.0
 10
78.83808184878006
 20
-138.6165174349639
 30
0.0
 10
79.08561195939527
 20
-138.6165174349639
 30
0.0
 10
79.13436006051155
 20
-138.3353976433675
 30
0.0
 10
79.13436006051155
 20
-137.9884765280029
 30
0.0
 10
79.13436006051155
 20
-137.6687716669717
 30
0.0
 10
79.09611950062528
 20
-137.3600911114933
 30
0.0
 10
78.83808184878006
 20
-137.3600911114933
 30
0.0
  0
HATCH
  5
61
330
59
100
AcDbEntity
  8
_U+30EC_U+30A4_U+30E4_U+30FC 1
 62
   179
420
  2234388
100
AcDbHatch
 10
0.0
 20
0.0
 30
0.0
210
0.0
220
0.0
230
1.0
  2
SOLID
 70
     1
 71
     0
 91
        2
 92
        1
 93
        1
 72
     4
 94
        3
 73
     0
 74
     1
 95
       29
 96
       25
 40
0.0
 40
0.0
 40
0.0
 40
0.0
 40
1.0
 40
1.0
 40
1.0
 40
2.0
 40
2.0
 40
2.0
 40
3.0
 40
3.0
 40
3.0
 40
4.0
 40
4.0
 40
4.0
 40
5.0
 40
5.0
 40
5.0
 40
6.0
 40
6.0
 40
6.0
 40
7.0
 40
7.0
 40
7.0
 40
8.0
 40
8.0
 40
8.0
 40
8.0
 10
79.23581812255216
 20
-138.5827554992085
 10
79.12798663386384
 20
-138.7922173047117
 10
78.95452607618151
 20
-138.8111653298805
 10
78.83808184878006
 20
-138.8111653298805
 10
78.67736814439316
 20
-138.8111653298805
 10
78.53560246517513
 20
-138.7646565408297
 10
78.44034557500797
 20
-138.5827554992085
 10
78.33682045567622
 20
-138.3881076042919
 10
78.31770017573308
 20
-138.1514295444552
 10
78.31770017573308
 20
-137.9884765280029
 10
78.31770017573308
 20
-137.8444715367195
 10
78.3345811436108
 20
-137.5926350567477
 10
78.44034557500797
 20
-137.3938530472488
 10
78.54834931847056
 20
-137.1909369231676
 10
78.70906302285746
 20
-137.1675102738679
 10
78.83808184878006
 20
-137.1675102738679
 10
78.99672849587583
 20
-137.1675102738679
 10
79.140561232385
 20
-137.2119520056276
 10
79.23581812255216
 20
-137.3938530472488
 10
79.33520912730162
 20
-137.5864338848742
 10
79.35846352182705
 20
-137.8148437155463
 10
79.35846352182705
 20
-137.9884765280029
 10
79.35846352182705
 20
-138.1596977736198
 10
79.33744843936704
 20
-138.390174661583
 10
79.23581812255216
 20
-138.5827554992085
 97
        0
 97
        0
 92
        1
 93
        1
 72
     4
 94
        3
 73
     0
 74
     1
 95
       17
 96
       13
 40
0.0
 40
0.0
 40
0.0
 40
0.0
 40
1.0
 40
1.0
 40
1.0
 40
2.0
 40
2.0
 40
2.0
 40
3.0
 40
3.0
 40
3.0
 40
4.0
 40
4.0
 40
4.0
 40
4.0
 10
78.83808184878006
 20
-137.3600911114933
 10
78.58848468087372
 20
-137.3600911114933
 10
78.54197589182284
 20
-137.6436224699294
 10
78.54197589182284
 20
-137.9884765280029
 10
78.54197589182284
 20
-138.3078368794855
 10
78.5779771396437
 20
-138.6165174349639
 10
78.83808184878006
 20
-138.6165174349639
 10
79.08561195939527
 20
-138.6165174349639
 10
79.13436006051155
 20
-138.3353976433675
 10
79.13436006051155
 20
-137.9884765280029
 10
79.13436006051155
 20
-137.6687716669717
 10
79.09611950062528
 20
-137.3600911114933
 10
78.83808184878006
 20
-137.3600911114933
 97
        0
 97
        0
 75
     2
 76
     1
 98
        0
  0
ENDBLK
  5
5C
330
59
100
AcDbEntity
  8
0
100
AcDbBlockEnd
  0
BLOCK
  5
70
330
6E
100
AcDbEntity
  8
0
100
AcDbBlockBegin
  2
block 4
 70
     0
 10
0.0
 20
0.0
 30
0.0
  3
block 4
  1

  0
SPLINE
  5
72
330
6E
100
AcDbEntity
  8
_U+30EC_U+30A4_U+30E4_U+30FC 1
370
     0
100
AcDbSpline
210
0.0
220
0.0
230
1.0
 70
    11
 71
     3
 72
    44
 73
    40
 74
     0
 42
0.0000000001
 43
0.0000000001
 12
1.0
 22
0.0
 32
0.0
 13
1.0
 23
0.0
 33
0.0
 40
0.0
 40
0.0
 40
0.0
 40
0.0
 40
1.0
 40
1.0
 40
1.0
 40
2.0
 40
2.0
 40
2.0
 40
3.0
 40
3.0
 40
3.0
 40
4.0
 40
4.0
 40
4.0
 40
5.0
 40
5.0
 40
5.0
 40
6.0
 40
6.0
 40
6.0
 40
7.0
 40
7.0
 40
7.0
 40
8.0
 40
8.0
 40
8.0
 40
9.0
 40
9.0
 40
9.0
 40
10.0
 40
10.0
 40
10.0
 40
11.0
 40
11.0
 40
11.0
 40
12.0
 40
12.0
 40
12.0
 40
13.0
 40
13.0
 40
13.0
 40
13.0
 10
85.25439993528363
 20
-119.1789441976358
 30
0.0
 10
85.03649764584158
 20
-119.3375908447316
 30
0.0
 10
84.94330781296557
 20
-119.4116603976644
 30
0.0
 10
84.89473196662354
 20
-119.5554931341736
 30
0.0
 10
84.89473196662354
 20
-119.5554931341736
 30
0.0
 10
85.67315129151575
 20
-119.5554931341736
 30
0.0
 10
85.67315129151575
 20
-119.5554931341736
 30
0.0
 10
85.67315129151575
 20
-119.5554931341736
 30
0.0
 10
85.67315129151575
 20
-119.7606485703203
 30
0.0
 10
85.67315129151575
 20
-119.7606485703203
 30
0.0
 10
85.67315129151575
 20
-119.7606485703203
 30
0.0
 10
84.6451347987172
 20
-119.7606485703203
 30
0.0
 10
84.6451347987172
 20
-119.7606485703203
 30
0.0
 10
84.67682967718149
 20
-119.4030476589513
 30
0.0
 10
84.74228649140123
 20
-119.3248439914362
 30
0.0
 10
85.12744816665217
 20
-119.0264987224135
 30
0.0
 10
85.38341876120623
 20
-118.8277167129146
 30
0.0
 10
85.44887557542597
 20
-118.7600205866295
 30
0.0
 10
85.44887557542597
 20
-118.622561276768
 30
0.0
 10
85.44887557542597
 20
-118.5040499920754
 30
0.0
 10
85.37704533455852
 20
-118.3729641088616
 30
0.0
 10
85.18033038235076
 20
-118.3729641088616
 30
0.0
 10
84.92005341844013
 20
-118.3729641088616
 30
0.0
 10
84.91161293450126
 20
-118.6034409968248
 30
0.0
 10
84.90730656514471
 20
-118.7198852242263
 30
0.0
 10
84.90730656514471
 20
-118.7198852242263
 30
0.0
 10
84.6832031038292
 20
-118.7198852242263
 30
0.0
 10
84.6832031038292
 20
-118.7198852242263
 30
0.0
 10
84.69164358776807
 20
-118.5929334555948
 30
0.0
 10
84.70215112899808
 20
-118.4807955975499
 30
0.0
 10
84.78259410857866
 20
-118.3622843128574
 30
0.0
 10
84.89249265455813
 20
-118.2015706084704
 30
0.0
 10
85.07870006553588
 20
-118.1676364179407
 30
0.0
 10
85.19514429293733
 20
-118.1676364179407
 30
0.0
 10
85.47230222472568
 20
-118.1676364179407
 30
0.0
 10
85.67952471816345
 20
-118.3517767716273
 30
0.0
 10
85.67952471816345
 20
-118.6246283340591
 30
0.0
 10
85.67952471816345
 20
-118.8530381647312
 30
0.0
 10
85.56325274553627
 20
-118.9526014242549
 30
0.0
 10
85.25439993528363
 20
-119.1789441976358
 30
0.0
  0
HATCH
  5
73
330
6E
100
AcDbEntity
  8
_U+30EC_U+30A4_U+30E4_U+30FC 1
 62
   179
420
  2234388
100
AcDbHatch
 10
0.0
 20
0.0
 30
0.0
210
0.0
220
0.0
230
1.0
  2
SOLID
 70
     1
 71
     0
 91
        1
 92
        1
 93
        1
 72
     4
 94
        3
 73
     0
 74
     1
 95
       44
 96
       40
 40
0.0
 40
0.0
 40
0.0
 40
0.0
 40
1.0
 40
1.0
 40
1.0
 40
2.0
 40
2.0
 40
2.0
 40
3.0
 40
3.0
 40
3.0
 40
4.0
 40
4.0
 40
4.0
 40
5.0
 40
5.0
 40
5.0
 40
6.0
 40
6.0
 40
6.0
 40
7.0
 40
7.0
 40
7.0
 40
8.0
 40
8.0
 40
8.0
 40
9.0
 40
9.0
 40
9.0
 40
10.0
 40
10.0
 40
10.0
 40
11.0
 40
11.0
 40
11.0
 40
12.0
 40
12.0
 40
12.0
 40
13.0
 40
13.0
 40
13.0
 40
13.0
 10
85.25439993528363
 20
-119.1789441976358
 10
85.03649764584158
 20
-119.3375908447316
 10
84.94330781296557
 20
-119.4116603976644
 10
84.89473196662354
 20
-119.5554931341736
 10
84.89473196662354
 20
-119.5554931341736
 10
85.67315129151575
 20
-119.5554931341736
 10
85.67315129151575
 20
-119.5554931341736
 10
85.67315129151575
 20
-119.5554931341736
 10
85.67315129151575
 20
-119.7606485703203
 10
85.67315129151575
 20
-119.7606485703203
 10
85.67315129151575
 20
-119.7606485703203
 10
84.6451347987172
 20
-119.7606485703203
 10
84.6451347987172
 20
-119.7606485703203
 10
84.67682967718149
 20
-119.4030476589513
 10
84.74228649140123
 20
-119.3248439914362
 10
85.12744816665217
 20
-119.0264987224135
 10
85.38341876120623
 20
-118.8277167129146
 10
85.44887557542597
 20
-118.7600205866295
 10
85.44887557542597
 20
-118.622561276768
 10
85.44887557542597
 20
-118.5040499920754
 10
85.37704533455852
 20
-118.3729641088616
 10
85.18033038235076
 20
-118.3729641088616
 10
84.92005341844013
 20
-118.3729641088616
 10
84.91161293450126
 20
-118.6034409968248
 10
84.90730656514471
 20
-118.7198852242263
 10
84.90730656514471
 20
-118.7198852242263
 10
84.6832031038292
 20
-118.7198852242263
 10
84.6832031038292
 20
-118.7198852242263
 10
84.69164358776807
 20
-118.5929334555948
 10
84.70215112899808
 20
-118.4807955975499
 10
84.78259410857866
 20
-118.3622843128574
 10
84.89249265455813
 20
-118.2015706084704
 10
85.07870006553588
 20
-118.1676364179407
 10
85.19514429293733
 20
-118.1676364179407
 10
85.47230222472568
 20
-118.1676364179407
 10
85.67952471816345
 20
-118.3517767716273
 10
85.67952471816345
 20
-118.6246283340591
 10
85.67952471816345
 20
-118.8530381647312
 10
85.56325274553627
 20
-118.9526014242549
 10
85.25439993528363
 20
-119.1789441976358
 97
        0
 97
        0
 75
     2
 76
     1
 98
        0
  0
SPLINE
  5
74
330
6E
100
AcDbEntity
  8
_U+30EC_U+30A4_U+30E4_U+30FC 1
370
     0
100
AcDbSpline
210
0.0
220
0.0
230
1.0
 70
    11
 71
     3
 72
    53
 73
    49
 74
     0
 42
0.0000000001
 43
0.0000000001
 12
1.0
 22
0.0
 32
0.0
 13
1.0
 23
0.0
 33
0.0
 40
0.0
 40
0.0
 40
0.0
 40
0.0
 40
1.0
 40
1.0
 40
1.0
 40
2.0
 40
2.0
 40
2.0
 40
3.0
 40
3.0
 40
3.0
 40
4.0
 40
4.0
 40
4.0
 40
5.0
 40
5.0
 40
5.0
 40
6.0
 40
6.0
 40
6.0
 40
7.0
 40
7.0
 40
7.0
 40
8.0
 40
8.0
 40
8.0
 40
9.0
 40
9.0
 40
9.0
 40
10.0
 40
10.0
 40
10.0
 40
11.0
 40
11.0
 40
11.0
 40
12.0
 40
12.0
 40
12.0
 40
13.0
 40
13.0
 40
13.0
 40
14.0
 40
14.0
 40
14.0
 40
15.0
 40
15.0
 40
15.0
 40
16.0
 40
16.0
 40
16.0
 40
16.0
 10
86.31910669500009
 20
-119.8114637287277
 30
0.0
 10
86.24090302748492
 20
-119.8114637287277
 30
0.0
 10
86.13927271067004
 20
-119.7944105060757
 30
0.0
 10
86.03764239385518
 20
-119.7310207491471
 30
0.0
 10
85.8643540909471
 20
-119.6209499483934
 30
0.0
 10
85.84299449893857
 20
-119.4898640651796
 30
0.0
 10
85.82404647376968
 20
-119.3820325764913
 30
0.0
 10
85.82404647376968
 20
-119.3820325764913
 30
0.0
 10
86.0462551325683
 20
-119.3820325764913
 30
0.0
 10
86.0462551325683
 20
-119.3820325764913
 30
0.0
 10
86.10103215078378
 20
-119.5808145859902
 30
0.0
 10
86.2281561741895
 20
-119.6104424071634
 30
0.0
 10
86.32117375229124
 20
-119.6104424071634
 30
0.0
 10
86.46070011944386
 20
-119.6104424071634
 30
0.0
 10
86.6129733398919
 20
-119.5110514024139
 30
0.0
 10
86.6129733398919
 20
-119.2783352023853
 30
0.0
 10
86.6129733398919
 20
-119.0223646078312
 30
0.0
 10
86.43313935556186
 20
-118.9526014242549
 30
0.0
 10
86.31256101357812
 20
-118.9526014242549
 30
0.0
 10
86.28086613511381
 20
-118.9526014242549
 30
0.0
 10
86.13927271067004
 20
-118.9526014242549
 30
0.0
 10
86.0503892471506
 20
-119.0816202501775
 30
0.0
 10
86.0503892471506
 20
-119.0816202501775
 30
0.0
 10
85.87468937740286
 20
-119.0624999702344
 30
0.0
 10
85.87468937740286
 20
-119.0624999702344
 30
0.0
 10
85.87468937740286
 20
-119.0624999702344
 30
0.0
 10
85.9952677193866
 20
-118.216384519057
 30
0.0
 10
85.9952677193866
 20
-118.216384519057
 30
0.0
 10
85.9952677193866
 20
-118.216384519057
 30
0.0
 10
86.77385929905307
 20
-118.216384519057
 30
0.0
 10
86.77385929905307
 20
-118.216384519057
 30
0.0
 10
86.77385929905307
 20
-118.216384519057
 30
0.0
 10
86.77385929905307
 20
-118.4110324139736
 30
0.0
 10
86.77385929905307
 20
-118.4110324139736
 30
0.0
 10
86.77385929905307
 20
-118.4110324139736
 30
0.0
 10
86.15822073583892
 20
-118.4110324139736
 30
0.0
 10
86.15822073583892
 20
-118.4110324139736
 30
0.0
 10
86.15822073583892
 20
-118.4110324139736
 30
0.0
 10
86.09276392161918
 20
-118.8340901395623
 30
0.0
 10
86.09276392161918
 20
-118.8340901395623
 30
0.0
 10
86.15408662125662
 20
-118.8001559490326
 30
0.0
 10
86.23642440335409
 20
-118.7600205866295
 30
0.0
 10
86.35493568804668
 20
-118.7600205866295
 30
0.0
 10
86.6088392253096
 20
-118.7600205866295
 30
0.0
 10
86.84586179469478
 20
-118.9462279976072
 30
0.0
 10
86.84586179469478
 20
-119.2592149224421
 30
0.0
 10
86.84586179469478
 20
-119.5766804714079
 30
0.0
 10
86.62158607860502
 20
-119.8114637287277
 30
0.0
 10
86.31910669500009
 20
-119.8114637287277
 30
0.0
  0
HATCH
  5
75
330
6E
100
AcDbEntity
  8
_U+30EC_U+30A4_U+30E4_U+30FC 1
 62
   179
420
  2234388
100
AcDbHatch
 10
0.0
 20
0.0
 30
0.0
210
0.0
220
0.0
230
1.0
  2
SOLID
 70
     1
 71
     0
 91
        1
 92
        1
 93
        1
 72
     4
 94
        3
 73
     0
 74
     1
 95
       53
 96
       49
 40
0.0
 40
0.0
 40
0.0
 40
0.0
 40
1.0
 40
1.0
 40
1.0
 40
2.0
 40
2.0
 40
2.0
 40
3.0
 40
3.0
 40
3.0
 40
4.0
 40
4.0
 40
4.0
 40
5.0
 40
5.0
 40
5.0
 40
6.0
 40
6.0
 40
6.0
 40
7.0
 40
7.0
 40
7.0
 40
8.0
 40
8.0
 40
8.0
 40
9.0
 40
9.0
 40
9.0
 40
10.0
 40
10.0
 40
10.0
 40
11.0
 40
11.0
 40
11.0
 40
12.0
 40
12.0
 40
12.0
 40
13.0
 40
13.0
 40
13.0
 40
14.0
 40
14.0
 40
14.0
 40
15.0
 40
15.0
 40
15.0
 40
16.0
 40
16.0
 40
16.0
 40
16.0
 10
86.31910669500009
 20
-119.8114637287277
 10
86.24090302748492
 20
-119.8114637287277
 10
86.13927271067004
 20
-119.7944105060757
 10
86.03764239385518
 20
-119.7310207491471
 10
85.8643540909471
 20
-119.6209499483934
 10
85.84299449893857
 20
-119.4898640651796
 10
85.82404647376968
 20
-119.3820325764913
 10
85.82404647376968
 20
-119.3820325764913
 10
86.0462551325683
 20
-119.3820325764913
 10
86.0462551325683
 20
-119.3820325764913
 10
86.10103215078378
 20
-119.5808145859902
 10
86.2281561741895
 20
-119.6104424071634
 10
86.32117375229124
 20
-119.6104424071634
 10
86.46070011944386
 20
-119.6104424071634
 10
86.6129733398919
 20
-119.5110514024139
 10
86.6129733398919
 20
-119.2783352023853
 10
86.6129733398919
 20
-119.0223646078312
 10
86.43313935556186
 20
-118.9526014242549
 10
86.31256101357812
 20
-118.9526014242549
 10
86.28086613511381
 20
-118.9526014242549
 10
86.13927271067004
 20
-118.9526014242549
 10
86.0503892471506
 20
-119.0816202501775
 10
86.0503892471506
 20
-119.0816202501775
 10
85.87468937740286
 20
-119.0624999702344
 10
85.87468937740286
 20
-119.0624999702344
 10
85.87468937740286
 20
-119.0624999702344
 10
85.9952677193866
 20
-118.216384519057
 10
85.9952677193866
 20
-118.216384519057
 10
85.9952677193866
 20
-118.216384519057
 10
86.77385929905307
 20
-118.216384519057
 10
86.77385929905307
 20
-118.216384519057
 10
86.77385929905307
 20
-118.216384519057
 10
86.77385929905307
 20
-118.4110324139736
 10
86.77385929905307
 20
-118.4110324139736
 10
86.77385929905307
 20
-118.4110324139736
 10
86.15822073583892
 20
-118.4110324139736
 10
86.15822073583892
 20
-118.4110324139736
 10
86.15822073583892
 20
-118.4110324139736
 10
86.09276392161918
 20
-118.8340901395623
 10
86.09276392161918
 20
-118.8340901395623
 10
86.15408662125662
 20
-118.8001559490326
 10
86.23642440335409
 20
-118.7600205866295
 10
86.35493568804668
 20
-118.7600205866295
 10
86.6088392253096
 20
-118.7600205866295
 10
86.84586179469478
 20
-118.9462279976072
 10
86.84586179469478
 20
-119.2592149224421
 10
86.84586179469478
 20
-119.5766804714079
 10
86.62158607860502
 20
-119.8114637287277
 10
86.31910669500009
 20
-119.8114637287277
 97
        0
 97
        0
 75
     2
 76
     1
 98
        0
  0
ENDBLK
  5
71
330
6E
100
AcDbEntity
  8
0
100
AcDbBlockEnd
  0
BLOCK
  5
88
330
86
100
AcDbEntity
  8
0
100
AcDbBlockBegin
  2
block 5
 70
     0
 10
0.0
 20
0.0
 30
0.0
  3
block 5
  1

  0
SPLINE
  5
8A
330
86
100
AcDbEntity
  8
_U+30EC_U+30A4_U+30E4_U+30FC 1
370
     0
100
AcDbSpline
210
0.0
220
0.0
230
1.0
 70
    11
 71
     3
 72
    29
 73
    25
 74
     0
 42
0.0000000001
 43
0.0000000001
 12
1.0
 22
0.0
 32
0.0
 13
1.0
 23
0.0
 33
0.0
 40
0.0
 40
0.0
 40
0.0
 40
0.0
 40
1.0
 40
1.0
 40
1.0
 40
2.0
 40
2.0
 40
2.0
 40
3.0
 40
3.0
 40
3.0
 40
4.0
 40
4.0
 40
4.0
 40
5.0
 40
5.0
 40
5.0
 40
6.0
 40
6.0
 40
6.0
 40
7.0
 40
7.0
 40
7.0
 40
8.0
 40
8.0
 40
8.0
 40
8.0
 10
106.247433784202
 20
-125.3994086058029
 30
0.0
 10
106.4568955897052
 20
-125.5075846040398
 30
0.0
 10
106.4758436148741
 20
-125.6808729069478
 30
0.0
 10
106.4758436148741
 20
-125.7973171343493
 30
0.0
 10
106.4758436148741
 20
-125.9582030935104
 30
0.0
 10
106.4293348258232
 20
-126.0997965179542
 30
0.0
 10
106.247433784202
 20
-126.1948811533471
 30
0.0
 10
106.0527858892854
 20
-126.2985785274531
 30
0.0
 10
105.8157633199002
 20
-126.3178710621705
 30
0.0
 10
105.6531548129964
 20
-126.3178710621705
 30
0.0
 10
105.509149821713
 20
-126.3178710621705
 30
0.0
 10
105.2573133417412
 20
-126.3006455847443
 30
0.0
 10
105.0585313322423
 20
-126.1948811533471
 30
0.0
 10
104.8556152081611
 20
-126.0870496646588
 30
0.0
 10
104.8321885588614
 20
-125.9261637054976
 30
0.0
 10
104.8321885588614
 20
-125.7973171343493
 30
0.0
 10
104.8321885588614
 20
-125.6384982324793
 30
0.0
 10
104.8766302906211
 20
-125.4948377507444
 30
0.0
 10
105.0585313322423
 20
-125.3994086058029
 30
0.0
 10
105.2511121698678
 20
-125.3001898558277
 30
0.0
 10
105.4795220005398
 20
-125.276763206528
 30
0.0
 10
105.6531548129964
 20
-125.276763206528
 30
0.0
 10
105.8243760586134
 20
-125.276763206528
 30
0.0
 10
106.0548529465766
 20
-125.2981227985366
 30
0.0
 10
106.247433784202
 20
-125.3994086058029
 30
0.0
  0
SPLINE
  5
8B
330
86
100
AcDbEntity
  8
_U+30EC_U+30A4_U+30E4_U+30FC 1
370
     0
100
AcDbSpline
210
0.0
220
0.0
230
1.0
 70
    11
 71
     3
 72
    17
 73
    13
 74
     0
 42
0.0000000001
 43
0.0000000001
 12
1.0
 22
0.0
 32
0.0
 13
1.0
 23
0.0
 33
0.0
 40
0.0
 40
0.0
 40
0.0
 40
0.0
 40
1.0
 40
1.0
 40
1.0
 40
2.0
 40
2.0
 40
2.0
 40
3.0
 40
3.0
 40
3.0
 40
4.0
 40
4.0
 40
4.0
 40
4.0
 10
105.0247693964869
 20
-125.7973171343493
 30
0.0
 10
105.0247693964869
 20
-126.0470865570299
 30
0.0
 10
105.3083007549229
 20
-126.0935953460808
 30
0.0
 10
105.6531548129964
 20
-126.0935953460808
 30
0.0
 10
105.9725151644791
 20
-126.0935953460808
 30
0.0
 10
106.2811957199575
 20
-126.0574218434857
 30
0.0
 10
106.2811957199575
 20
-125.7973171343493
 30
0.0
 10
106.2811957199575
 20
-125.5496147689598
 30
0.0
 10
106.0000759283611
 20
-125.5010389226178
 30
0.0
 10
105.6531548129964
 20
-125.5010389226178
 30
0.0
 10
105.3334499519652
 20
-125.5010389226178
 30
0.0
 10
105.0247693964869
 20
-125.5392794825041
 30
0.0
 10
105.0247693964869
 20
-125.7973171343493
 30
0.0
  0
HATCH
  5
8C
330
86
100
AcDbEntity
  8
_U+30EC_U+30A4_U+30E4_U+30FC 1
 62
   179
420
  2234388
100
AcDbHatch
 10
0.0
 20
0.0
 30
0.0
210
0.0
220
0.0
230
1.0
  2
SOLID
 70
     1
 71
     0
 91
        2
 92
        1
 93
        1
 72
     4
 94
        3
 73
     0
 74
     1
 95
       29
 96
       25
 40
0.0
 40
0.0
 40
0.0
 40
0.0
 40
1.0
 40
1.0
 40
1.0
 40
2.0
 40
2.0
 40
2.0
 40
3.0
 40
3.0
 40
3.0
 40
4.0
 40
4.0
 40
4.0
 40
5.0
 40
5.0
 40
5.0
 40
6.0
 40
6.0
 40
6.0
 40
7.0
 40
7.0
 40
7.0
 40
8.0
 40
8.0
 40
8.0
 40
8.0
 10
106.247433784202
 20
-125.3994086058029
 10
106.4568955897052
 20
-125.5075846040398
 10
106.4758436148741
 20
-125.6808729069478
 10
106.4758436148741
 20
-125.7973171343493
 10
106.4758436148741
 20
-125.9582030935104
 10
106.4293348258232
 20
-126.0997965179542
 10
106.247433784202
 20
-126.1948811533471
 10
106.0527858892854
 20
-126.2985785274531
 10
105.8157633199002
 20
-126.3178710621705
 10
105.6531548129964
 20
-126.3178710621705
 10
105.509149821713
 20
-126.3178710621705
 10
105.2573133417412
 20
-126.3006455847443
 10
105.0585313322423
 20
-126.1948811533471
 10
104.8556152081611
 20
-126.0870496646588
 10
104.8321885588614
 20
-125.9261637054976
 10
104.8321885588614
 20
-125.7973171343493
 10
104.8321885588614
 20
-125.6384982324793
 10
104.8766302906211
 20
-125.4948377507444
 10
105.0585313322423
 20
-125.3994086058029
 10
105.2511121698678
 20
-125.3001898558277
 10
105.4795220005398
 20
-125.276763206528
 10
105.6531548129964
 20
-125.276763206528
 10
105.8243760586134
 20
-125.276763206528
 10
106.0548529465766
 20
-125.2981227985366
 10
106.247433784202
 20
-125.3994086058029
 97
        0
 97
        0
 92
        1
 93
        1
 72
     4
 94
        3
 73
     0
 74
     1
 95
       17
 96
       13
 40
0.0
 40
0.0
 40
0.0
 40
0.0
 40
1.0
 40
1.0
 40
1.0
 40
2.0
 40
2.0
 40
2.0
 40
3.0
 40
3.0
 40
3.0
 40
4.0
 40
4.0
 40
4.0
 40
4.0
 10
105.0247693964869
 20
-125.7973171343493
 10
105.0247693964869
 20
-126.0470865570299
 10
105.3083007549229
 20
-126.0935953460808
 10
105.6531548129964
 20
-126.0935953460808
 10
105.9725151644791
 20
-126.0935953460808
 10
106.2811957199575
 20
-126.0574218434857
 10
106.2811957199575
 20
-125.7973171343493
 10
106.2811957199575
 20
-125.5496147689598
 10
106.0000759283611
 20
-125.5010389226178
 10
105.6531548129964
 20
-125.5010389226178
 10
105.3334499519652
 20
-125.5010389226178
 10
105.0247693964869
 20
-125.5392794825041
 10
105.0247693964869
 20
-125.7973171343493
 97
        0
 97
        0
 75
     2
 76
     1
 98
        0
  0
POLYLINE
  5
8D
330
86
100
AcDbEntity
  8
_U+30EC_U+30A4_U+30E4_U+30FC 1
370
     0
100
AcDb2dPolyline
 66
     1
 10
0.0
 20
0.0
 30
0.0
  0
VERTEX
  5
8E
330
8D
100
AcDbEntity
  8
_U+30EC_U+30A4_U+30E4_U+30FC 1
370
     0
100
AcDbVertex
100
AcDb2dVertex
 10
106.4252007112409
 20
-125.0604112100543
 30
0.0
  0
VERTEX
  5
8F
330
8D
100
AcDbEntity
  8
_U+30EC_U+30A4_U+30E4_U+30FC 1
370
     0
100
AcDbVertex
100
AcDb2dVertex
 10
106.1733642312692
 20
-125.0604112100543
 30
0.0
  0
VERTEX
  5
90
330
8D
100
AcDbEntity
  8
_U+30EC_U+30A4_U+30E4_U+30FC 1
370
     0
100
AcDbVertex
100
AcDb2dVertex
 10
106.1733642312692
 20
-124.8085747300826
 30
0.0
  0
VERTEX
  5
91
330
8D
100
AcDbEntity
  8
_U+30EC_U+30A4_U+30E4_U+30FC 1
370
     0
100
AcDbVertex
100
AcDb2dVertex
 10
106.4252007112409
 20
-124.8085747300826
 30
0.0
  0
VERTEX
  5
92
330
8D
100
AcDbEntity
  8
_U+30EC_U+30A4_U+30E4_U+30FC 1
370
     0
100
AcDbVertex
100
AcDb2dVertex
 10
106.4252007112409
 20
-125.0604112100543
 30
0.0
  0
SEQEND
  5
93
330
8D
100
AcDbEntity
  8
_U+30EC_U+30A4_U+30E4_U+30FC 1
370
     0
  0
HATCH
  5
94
330
86
100
AcDbEntity
  8
_U+30EC_U+30A4_U+30E4_U+30FC 1
 62
   179
420
  2234388
100
AcDbHatch
 10
0.0
 20
0.0
 30
0.0
210
0.0
220
0.0
230
1.0
  2
SOLID
 70
     1
 71
     0
 91
        1
 92
        1
 93
        4
 72
     1
 10
106.4252007112409
 20
-125.0604112100543
 11
106.1733642312692
 21
-125.0604112100543
 72
     1
 10
106.1733642312692
 20
-125.0604112100543
 11
106.1733642312692
 21
-124.8085747300826
 72
     1
 10
106.1733642312692
 20
-124.8085747300826
 11
106.4252007112409
 21
-124.8085747300826
 72
     1
 10
106.4252007112409
 20
-124.8085747300826
 11
106.4252007112409
 21
-125.0604112100543
 97
        0
 75
     2
 76
     1
 98
        0
  0
SPLINE
  5
95
330
86
100
AcDbEntity
  8
_U+30EC_U+30A4_U+30E4_U+30FC 1
370
     0
100
AcDbSpline
210
0.0
220
0.0
230
1.0
 70
    11
 71
     3
 72
    32
 73
    28
 74
     0
 42
0.0000000001
 43
0.0000000001
 12
1.0
 22
0.0
 32
0.0
 13
1.0
 23
0.0
 33
0.0
 40
0.0
 40
0.0
 40
0.0
 40
0.0
 40
1.0
 40
1.0
 40
1.0
 40
2.0
 40
2.0
 40
2.0
 40
3.0
 40
3.0
 40
3.0
 40
4.0
 40
4.0
 40
4.0
 40
5.0
 40
5.0
 40
5.0
 40
6.0
 40
6.0
 40
6.0
 40
7.0
 40
7.0
 40
7.0
 40
8.0
 40
8.0
 40
8.0
 40
9.0
 40
9.0
 40
9.0
 40
9.0
 10
106.4758436148741
 20
-124.1147324993533
 30
0.0
 10
106.4758436148741
 20
-124.2880208022613
 30
0.0
 10
106.4062526860721
 20
-124.5336561103596
 30
0.0
 10
106.074145481294
 20
-124.5715521606974
 30
0.0
 10
106.074145481294
 20
-124.5715521606974
 30
0.0
 10
106.074145481294
 20
-124.3579562406119
 30
0.0
 10
106.074145481294
 20
-124.3579562406119
 30
0.0
 10
106.1334011236403
 20
-124.3472764446076
 30
0.0
 10
106.2811957199575
 20
-124.3155815661433
 30
0.0
 10
106.2811957199575
 20
-124.1126654420621
 30
0.0
 10
106.2811957199575
 20
-123.8205213449129
 30
0.0
 10
105.9515000820191
 20
-123.7826252945752
 30
0.0
 10
105.7461723910982
 20
-123.7698784412798
 30
0.0
 10
105.8264431159045
 20
-123.8608289620904
 30
0.0
 10
105.8836317009597
 20
-123.9283528336013
 30
0.0
 10
105.8836317009597
 20
-124.1102538752224
 30
0.0
 10
105.8836317009597
 20
-124.2900878595525
 30
0.0
 10
105.7778672695625
 20
-124.5925672431574
 30
0.0
 10
105.3716905118515
 20
-124.5925672431574
 30
0.0
 10
105.0523301603689
 20
-124.5925672431574
 30
0.0
 10
104.8321885588614
 20
-124.3937852336585
 30
0.0
 10
104.8321885588614
 20
-124.076491939467
 30
0.0
 10
104.8321885588614
 20
-123.5624836930677
 30
0.0
 10
105.3865044224381
 20
-123.5518038970634
 30
0.0
 10
105.6001003425236
 20
-123.5518038970634
 30
0.0
 10
105.8305772304868
 20
-123.5518038970634
 30
0.0
 10
106.4758436148741
 20
-123.5710964317808
 30
0.0
 10
106.4758436148741
 20
-124.1147324993533
 30
0.0
  0
SPLINE
  5
96
330
86
100
AcDbEntity
  8
_U+30EC_U+30A4_U+30E4_U+30FC 1
370
     0
100
AcDbSpline
210
0.0
220
0.0
230
1.0
 70
    11
 71
     3
 72
    17
 73
    13
 74
     0
 42
0.0000000001
 43
0.0000000001
 12
1.0
 22
0.0
 32
0.0
 13
1.0
 23
0.0
 33
0.0
 40
0.0
 40
0.0
 40
0.0
 40
0.0
 40
1.0
 40
1.0
 40
1.0
 40
2.0
 40
2.0
 40
2.0
 40
3.0
 40
3.0
 40
3.0
 40
4.0
 40
4.0
 40
4.0
 40
4.0
 10
105.0247693964869
 20
-124.0744248821758
 30
0.0
 10
105.0247693964869
 20
-124.1929361668684
 30
0.0
 10
105.081957981542
 20
-124.3686360366162
 30
0.0
 10
105.3675563972692
 20
-124.3686360366162
 30
0.0
 10
105.5938991706501
 20
-124.3686360366162
 30
0.0
 10
105.688983806043
 20
-124.228765159915
 30
0.0
 10
105.688983806043
 20
-124.0933729073447
 30
0.0
 10
105.688983806043
 20
-123.8312011409172
 30
0.0
 10
105.4795220005398
 20
-123.7929605810309
 30
0.0
 10
105.3630777731384
 20
-123.7929605810309
 30
0.0
 10
105.1877224129392
 20
-123.7929605810309
 30
0.0
 10
105.0247693964869
 20
-123.8883897259724
 30
0.0
 10
105.0247693964869
 20
-124.0744248821758
 30
0.0
  0
HATCH
  5
97
330
86
100
AcDbEntity
  8
_U+30EC_U+30A4_U+30E4_U+30FC 1
 62
   179
420
  2234388
100
AcDbHatch
 10
0.0
 20
0.0
 30
0.0
210
0.0
220
0.0
230
1.0
  2
SOLID
 70
     1
 71
     0
 91
        2
 92
        1
 93
        1
 72
     4
 94
        3
 73
     0
 74
     1
 95
       32
 96
       28
 40
0.0
 40
0.0
 40
0.0
 40
0.0
 40
1.0
 40
1.0
 40
1.0
 40
2.0
 40
2.0
 40
2.0
 40
3.0
 40
3.0
 40
3.0
 40
4.0
 40
4.0
 40
4.0
 40
5.0
 40
5.0
 40
5.0
 40
6.0
 40
6.0
 40
6.0
 40
7.0
 40
7.0
 40
7.0
 40
8.0
 40
8.0
 40
8.0
 40
9.0
 40
9.0
 40
9.0
 40
9.0
 10
106.4758436148741
 20
-124.1147324993533
 10
106.4758436148741
 20
-124.2880208022613
 10
106.4062526860721
 20
-124.5336561103596
 10
106.074145481294
 20
-124.5715521606974
 10
106.074145481294
 20
-124.5715521606974
 10
106.074145481294
 20
-124.3579562406119
 10
106.074145481294
 20
-124.3579562406119
 10
106.1334011236403
 20
-124.3472764446076
 10
106.2811957199575
 20
-124.3155815661433
 10
106.2811957199575
 20
-124.1126654420621
 10
106.2811957199575
 20
-123.8205213449129
 10
105.9515000820191
 20
-123.7826252945752
 10
105.7461723910982
 20
-123.7698784412798
 10
105.8264431159045
 20
-123.8608289620904
 10
105.8836317009597
 20
-123.9283528336013
 10
105.8836317009597
 20
-124.1102538752224
 10
105.8836317009597
 20
-124.2900878595525
 10
105.7778672695625
 20
-124.5925672431574
 10
105.3716905118515
 20
-124.5925672431574
 10
105.0523301603689
 20
-124.5925672431574
 10
104.8321885588614
 20
-124.3937852336585
 10
104.8321885588614
 20
-124.076491939467
 10
104.8321885588614
 20
-123.5624836930677
 10
105.3865044224381
 20
-123.5518038970634
 10
105.6001003425236
 20
-123.5518038970634
 10
105.8305772304868
 20
-123.5518038970634
 10
106.4758436148741
 20
-123.5710964317808
 10
106.4758436148741
 20
-124.1147324993533
 97
        0
 97
        0
 92
        1
 93
        1
 72
     4
 94
        3
 73
     0
 74
     1
 95
       17
 96
       13
 40
0.0
 40
0.0
 40
0.0
 40
0.0
 40
1.0
 40
1.0
 40
1.0
 40
2.0
 40
2.0
 40
2.0
 40
3.0
 40
3.0
 40
3.0
 40
4.0
 40
4.0
 40
4.0
 40
4.0
 10
105.0247693964869
 20
-124.0744248821758
 10
105.0247693964869
 20
-124.1929361668684
 10
105.081957981542
 20
-124.3686360366162
 10
105.3675563972692
 20
-124.3686360366162
 10
105.5938991706501
 20
-124.3686360366162
 10
105.688983806043
 20
-124.228765159915
 10
105.688983806043
 20
-124.0933729073447
 10
105.688983806043
 20
-123.8312011409172
 10
105.4795220005398
 20
-123.7929605810309
 10
105.3630777731384
 20
-123.7929605810309
 10
105.1877224129392
 20
-123.7929605810309
 10
105.0247693964869
 20
-123.8883897259724
 10
105.0247693964869
 20
-124.0744248821758
 97
        0
 97
        0
 75
     2
 76
     1
 98
        0
  0
ENDBLK
  5
89
330
86
100
AcDbEntity
  8
0
100
AcDbBlockEnd
  0
BLOCK
  5
A2
330
A0
100
AcDbEntity
  8
0
100
AcDbBlockBegin
  2
block 6
 70
     0
 10
0.0
 20
0.0
 30
0.0
  3
block 6
  1

  0
SPLINE
  5
A4
330
A0
100
AcDbEntity
  8
_U+30EC_U+30A4_U+30E4_U+30FC 1
370
     0
100
AcDbSpline
210
0.0
220
0.0
230
1.0
 70
    11
 71
     3
 72
    62
 73
    58
 74
     0
 42
0.0000000001
 43
0.0000000001
 12
1.0
 22
0.0
 32
0.0
 13
1.0
 23
0.0
 33
0.0
 40
0.0
 40
0.0
 40
0.0
 40
0.0
 40
1.0
 40
1.0
 40
1.0
 40
2.0
 40
2.0
 40
2.0
 40
3.0
 40
3.0
 40
3.0
 40
4.0
 40
4.0
 40
4.0
 40
5.0
 40
5.0
 40
5.0
 40
6.0
 40
6.0
 40
6.0
 40
7.0
 40
7.0
 40
7.0
 40
8.0
 40
8.0
 40
8.0
 40
9.0
 40
9.0
 40
9.0
 40
10.0
 40
10.0
 40
10.0
 40
11.0
 40
11.0
 40
11.0
 40
12.0
 40
12.0
 40
12.0
 40
13.0
 40
13.0
 40
13.0
 40
14.0
 40
14.0
 40
14.0
 40
15.0
 40
15.0
 40
15.0
 40
16.0
 40
16.0
 40
16.0
 40
17.0
 40
17.0
 40
17.0
 40
18.0
 40
18.0
 40
18.0
 40
19.0
 40
19.0
 40
19.0
 40
19.0
 10
101.6547769928155
 20
-133.915340135792
 30
0.0
 10
101.6547769928155
 20
-134.0107692807334
 30
0.0
 10
101.6337619103555
 20
-134.2284993154012
 30
0.0
 10
101.447726754152
 20
-134.3535562815158
 30
0.0
 10
101.3354166413328
 20
-134.4276258344487
 30
0.0
 10
101.2361978913576
 20
-134.4317599490309
 30
0.0
 10
101.1514485424205
 20
-134.4358940636133
 30
0.0
 10
101.1514485424205
 20
-134.4358940636133
 30
0.0
 10
101.1514485424205
 20
-134.2157524621058
 30
0.0
 10
101.1514485424205
 20
-134.2157524621058
 30
0.0
 10
101.2255180953534
 20
-134.2136854048146
 30
0.0
 10
101.4601290978989
 20
-134.2033501183589
 30
0.0
 10
101.4601290978989
 20
-133.9198187599228
 30
0.0
 10
101.4601290978989
 20
-133.7823594500614
 30
0.0
 10
101.3905381690968
 20
-133.6297417200648
 30
0.0
 10
101.1621283384248
 20
-133.6297417200648
 30
0.0
 10
101.0456841110233
 20
-133.6297417200648
 30
0.0
 10
100.9971082646813
 20
-133.6679822799511
 30
0.0
 10
100.965413386217
 20
-133.6996771584154
 30
0.0
 10
100.8913438332841
 20
-133.7737467113482
 30
0.0
 10
100.8785969799887
 20
-133.8901909387497
 30
0.0
 10
100.8785969799887
 20
-133.9449679569651
 30
0.0
 10
100.8785969799887
 20
-133.9642604916826
 30
0.0
 10
100.8806640372798
 20
-134.0000894847292
 30
0.0
 10
100.8847981518621
 20
-134.0276502486111
 30
0.0
 10
100.8847981518621
 20
-134.0276502486111
 30
0.0
 10
100.6901502569455
 20
-134.0276502486111
 30
0.0
 10
100.6901502569455
 20
-134.0276502486111
 30
0.0
 10
100.6966959383675
 20
-133.9894096887249
 30
0.0
 10
100.6987629956586
 20
-133.9473795238048
 30
0.0
 10
100.6987629956586
 20
-133.9408338423829
 30
0.0
 10
100.6987629956586
 20
-133.8753770281631
 30
0.0
 10
100.6774034036501
 20
-133.6765950186642
 30
0.0
 10
100.4407253438134
 20
-133.6765950186642
 30
0.0
 10
100.2629584167745
 20
-133.6765950186642
 30
0.0
 10
100.2078368890106
 20
-133.8075086471037
 30
0.0
 10
100.2078368890106
 20
-133.9177517026317
 30
0.0
 10
100.2078368890106
 20
-134.1819905263503
 30
0.0
 10
100.4407253438134
 20
-134.1906032650635
 30
0.0
 10
100.5123833299066
 20
-134.1947373796458
 30
0.0
 10
100.5123833299066
 20
-134.1947373796458
 30
0.0
 10
100.5123833299066
 20
-134.3979980132755
 30
0.0
 10
100.5123833299066
 20
-134.3979980132755
 30
0.0
 10
100.3876708733406
 20
-134.3893852745624
 30
0.0
 10
100.0111219368028
 20
-134.3618245106804
 30
0.0
 10
100.0111219368028
 20
-133.9050048493363
 30
0.0
 10
100.0111219368028
 20
-133.6807291332465
 30
0.0
 10
100.1382459602085
 20
-133.439572449279
 30
0.0
 10
100.4341796623915
 20
-133.439572449279
 30
0.0
 10
100.6205593281435
 20
-133.439572449279
 30
0.0
 10
100.7028971102409
 20
-133.5346570846719
 30
0.0
 10
100.7642198098784
 20
-133.6342203441956
 30
0.0
 10
100.7917805737604
 20
-133.5728976445582
 30
0.0
 10
100.8720512985667
 20
-133.390996602937
 30
0.0
 10
101.1493814851293
 20
-133.390996602937
 30
0.0
 10
101.4876898617809
 20
-133.390996602937
 30
0.0
 10
101.6547769928155
 20
-133.6383544587779
 30
0.0
 10
101.6547769928155
 20
-133.915340135792
 30
0.0
  0
HATCH
  5
A5
330
A0
100
AcDbEntity
  8
_U+30EC_U+30A4_U+30E4_U+30FC 1
 62
   179
420
  2234388
100
AcDbHatch
 10
0.0
 20
0.0
 30
0.0
210
0.0
220
0.0
230
1.0
  2
SOLID
 70
     1
 71
     0
 91
        1
 92
        1
 93
        1
 72
     4
 94
        3
 73
     0
 74
     1
 95
       62
 96
       58
 40
0.0
 40
0.0
 40
0.0
 40
0.0
 40
1.0
 40
1.0
 40
1.0
 40
2.0
 40
2.0
 40
2.0
 40
3.0
 40
3.0
 40
3.0
 40
4.0
 40
4.0
 40
4.0
 40
5.0
 40
5.0
 40
5.0
 40
6.0
 40
6.0
 40
6.0
 40
7.0
 40
7.0
 40
7.0
 40
8.0
 40
8.0
 40
8.0
 40
9.0
 40
9.0
 40
9.0
 40
10.0
 40
10.0
 40
10.0
 40
11.0
 40
11.0
 40
11.0
 40
12.0
 40
12.0
 40
12.0
 40
13.0
 40
13.0
 40
13.0
 40
14.0
 40
14.0
 40
14.0
 40
15.0
 40
15.0
 40
15.0
 40
16.0
 40
16.0
 40
16.0
 40
17.0
 40
17.0
 40
17.0
 40
18.0
 40
18.0
 40
18.0
 40
19.0
 40
19.0
 40
19.0
 40
19.0
 10
101.6547769928155
 20
-133.915340135792
 10
101.6547769928155
 20
-134.0107692807334
 10
101.6337619103555
 20
-134.2284993154012
 10
101.447726754152
 20
-134.3535562815158
 10
101.3354166413328
 20
-134.4276258344487
 10
101.2361978913576
 20
-134.4317599490309
 10
101.1514485424205
 20
-134.4358940636133
 10
101.1514485424205
 20
-134.4358940636133
 10
101.1514485424205
 20
-134.2157524621058
 10
101.1514485424205
 20
-134.2157524621058
 10
101.2255180953534
 20
-134.2136854048146
 10
101.4601290978989
 20
-134.2033501183589
 10
101.4601290978989
 20
-133.9198187599228
 10
101.4601290978989
 20
-133.7823594500614
 10
101.3905381690968
 20
-133.6297417200648
 10
101.1621283384248
 20
-133.6297417200648
 10
101.0456841110233
 20
-133.6297417200648
 10
100.9971082646813
 20
-133.6679822799511
 10
100.965413386217
 20
-133.6996771584154
 10
100.8913438332841
 20
-133.7737467113482
 10
100.8785969799887
 20
-133.8901909387497
 10
100.8785969799887
 20
-133.9449679569651
 10
100.8785969799887
 20
-133.9642604916826
 10
100.8806640372798
 20
-134.0000894847292
 10
100.8847981518621
 20
-134.0276502486111
 10
100.8847981518621
 20
-134.0276502486111
 10
100.6901502569455
 20
-134.0276502486111
 10
100.6901502569455
 20
-134.0276502486111
 10
100.6966959383675
 20
-133.9894096887249
 10
100.6987629956586
 20
-133.9473795238048
 10
100.6987629956586
 20
-133.9408338423829
 10
100.6987629956586
 20
-133.8753770281631
 10
100.6774034036501
 20
-133.6765950186642
 10
100.4407253438134
 20
-133.6765950186642
 10
100.2629584167745
 20
-133.6765950186642
 10
100.2078368890106
 20
-133.8075086471037
 10
100.2078368890106
 20
-133.9177517026317
 10
100.2078368890106
 20
-134.1819905263503
 10
100.4407253438134
 20
-134.1906032650635
 10
100.5123833299066
 20
-134.1947373796458
 10
100.5123833299066
 20
-134.1947373796458
 10
100.5123833299066
 20
-134.3979980132755
 10
100.5123833299066
 20
-134.3979980132755
 10
100.3876708733406
 20
-134.3893852745624
 10
100.0111219368028
 20
-134.3618245106804
 10
100.0111219368028
 20
-133.9050048493363
 10
100.0111219368028
 20
-133.6807291332465
 10
100.1382459602085
 20
-133.439572449279
 10
100.4341796623915
 20
-133.439572449279
 10
100.6205593281435
 20
-133.439572449279
 10
100.7028971102409
 20
-133.5346570846719
 10
100.7642198098784
 20
-133.6342203441956
 10
100.7917805737604
 20
-133.5728976445582
 10
100.8720512985667
 20
-133.390996602937
 10
101.1493814851293
 20
-133.390996602937
 10
101.4876898617809
 20
-133.390996602937
 10
101.6547769928155
 20
-133.6383544587779
 10
101.6547769928155
 20
-133.915340135792
 97
        0
 97
        0
 75
     2
 76
     1
 98
        0
  0
ENDBLK
  5
A3
330
A0
100
AcDbEntity
  8
0
100
AcDbBlockEnd
  0
BLOCK
  5
B0
330
AE
100
AcDbEntity
  8
0
100
AcDbBlockBegin
  2
block 7
 70
     0
 10
0.0
 20
0.0
 30
0.0
  3
block 7
  1

  0
SPLINE
  5
B2
330
AE
100
AcDbEntity
  8
_U+30EC_U+30A4_U+30E4_U+30FC 1
370
     0
100
AcDbSpline
210
0.0
220
0.0
230
1.0
 70
    11
 71
     3
 72
    26
 73
    22
 74
     0
 42
0.0000000001
 43
0.0000000001
 12
1.0
 22
0.0
 32
0.0
 13
1.0
 23
0.0
 33
0.0
 40
0.0
 40
0.0
 40
0.0
 40
0.0
 40
1.0
 40
1.0
 40
1.0
 40
2.0
 40
2.0
 40
2.0
 40
3.0
 40
3.0
 40
3.0
 40
4.0
 40
4.0
 40
4.0
 40
5.0
 40
5.0
 40
5.0
 40
6.0
 40
6.0
 40
6.0
 40
7.0
 40
7.0
 40
7.0
 40
7.0
 10
101.6041340891823
 20
-128.9957437828552
 30
0.0
 10
101.6041340891823
 20
-128.9957437828552
 30
0.0
 10
101.6041340891823
 20
-129.2327663522404
 30
0.0
 10
101.6041340891823
 20
-129.2327663522404
 30
0.0
 10
101.2951090241554
 20
-129.2072726456496
 30
0.0
 10
100.7769666631738
 20
-129.0146918080241
 30
0.0
 10
100.2712266459391
 20
-128.6085150503131
 30
0.0
 10
100.2712266459391
 20
-128.6085150503131
 30
0.0
 10
100.2712266459391
 20
-129.4463622723259
 30
0.0
 10
100.2712266459391
 20
-129.4463622723259
 30
0.0
 10
100.2712266459391
 20
-129.4463622723259
 30
0.0
 10
100.0596977831448
 20
-129.4463622723259
 30
0.0
 10
100.0596977831448
 20
-129.4463622723259
 30
0.0
 10
100.0596977831448
 20
-129.4463622723259
 30
0.0
 10
100.0596977831448
 20
-128.371492480928
 30
0.0
 10
100.0596977831448
 20
-128.371492480928
 30
0.0
 10
100.0596977831448
 20
-128.371492480928
 30
0.0
 10
100.2712266459391
 20
-128.371492480928
 30
0.0
 10
100.2712266459391
 20
-128.371492480928
 30
0.0
 10
100.5613036857972
 20
-128.6953314565415
 30
0.0
 10
101.1535155997116
 20
-128.9619818470998
 30
0.0
 10
101.6041340891823
 20
-128.9957437828552
 30
0.0
  0
HATCH
  5
B3
330
AE
100
AcDbEntity
  8
_U+30EC_U+30A4_U+30E4_U+30FC 1
 62
   179
420
  2234388
100
AcDbHatch
 10
0.0
 20
0.0
 30
0.0
210
0.0
220
0.0
230
1.0
  2
SOLID
 70
     1
 71
     0
 91
        1
 92
        1
 93
        1
 72
     4
 94
        3
 73
     0
 74
     1
 95
       26
 96
       22
 40
0.0
 40
0.0
 40
0.0
 40
0.0
 40
1.0
 40
1.0
 40
1.0
 40
2.0
 40
2.0
 40
2.0
 40
3.0
 40
3.0
 40
3.0
 40
4.0
 40
4.0
 40
4.0
 40
5.0
 40
5.0
 40
5.0
 40
6.0
 40
6.0
 40
6.0
 40
7.0
 40
7.0
 40
7.0
 40
7.0
 10
101.6041340891823
 20
-128.9957437828552
 10
101.6041340891823
 20
-128.9957437828552
 10
101.6041340891823
 20
-129.2327663522404
 10
101.6041340891823
 20
-129.2327663522404
 10
101.2951090241554
 20
-129.2072726456496
 10
100.7769666631738
 20
-129.0146918080241
 10
100.2712266459391
 20
-128.6085150503131
 10
100.2712266459391
 20
-128.6085150503131
 10
100.2712266459391
 20
-129.4463622723259
 10
100.2712266459391
 20
-129.4463622723259
 10
100.2712266459391
 20
-129.4463622723259
 10
100.0596977831448
 20
-129.4463622723259
 10
100.0596977831448
 20
-129.4463622723259
 10
100.0596977831448
 20
-129.4463622723259
 10
100.0596977831448
 20
-128.371492480928
 10
100.0596977831448
 20
-128.371492480928
 10
100.0596977831448
 20
-128.371492480928
 10
100.2712266459391
 20
-128.371492480928
 10
100.2712266459391
 20
-128.371492480928
 10
100.5613036857972
 20
-128.6953314565415
 10
101.1535155997116
 20
-128.9619818470998
 10
101.6041340891823
 20
-128.9957437828552
 97
        0
 97
        0
 75
     2
 76
     1
 98
        0
  0
ENDBLK
  5
B1
330
AE
100
AcDbEntity
  8
0
100
AcDbBlockEnd
  0
ENDSEC
  0
SECTION
  2
ENTITIES
  0
INSERT
  5
42
330
1F
100
AcDbEntity
  8
_U+30EC_U+30A4_U+30E4_U+30FC 1
100
AcDbBlockReference
  2
block 2
 10
0.0
 20
0.0
 30
0.0
  0
ENDSEC
  0
SECTION
  2
OBJECTS
  0
DICTIONARY
  5
C
330
0
100
AcDbDictionary
281
     1
  3
ACAD_GROUP
350
D
  3
ACAD_LAYOUT
350
1A
  3
ACAD_MATERIAL
350
3B
  3
ACAD_MLEADERSTYLE
350
B7
  3
ACAD_MLINESTYLE
350
17
  3
ACAD_PLOTSETTINGS
350
19
  3
ACAD_PLOTSTYLENAME
350
E
  3
ACAD_TABLESTYLE
350
B6
  3
ACAD_VISUALSTYLE
350
2A
  0
SUN
  5
3F
330
29
100
AcDbSun
 90
        1
290
     0
 63
     7
421
 16777215
 40
1.0
291
     1
 91
  2455826
 92
 54000000
292
     0
 70
     2
 71
   256
280
     1
  0
DICTIONARY
  5
D
102
{ACAD_REACTORS
330
C
102
}
330
C
100
AcDbDictionary
281
     1
  0
DICTIONARY
  5
1A
102
{ACAD_REACTORS
330
C
102
}
330
C
100
AcDbDictionary
281
     1
  3
Layout1
350
1E
  3
Layout2
350
26
  3
Model
350
22
  0
DICTIONARY
  5
3B
102
{ACAD_REACTORS
330
C
102
}
330
C
100
AcDbDictionary
281
     1
  3
ByBlock
350
3D
  3
ByLayer
350
3C
  3
Global
350
3E
  0
DICTIONARY
  5
B7
102
{ACAD_REACTORS
330
C
102
}
330
C
100
AcDbDictionary
281
     1
  0
DICTIONARY
  5
17
102
{ACAD_REACTORS
330
C
102
}
330
C
100
AcDbDictionary
281
     1
  3
Standard
350
18
  0
DICTIONARY
  5
19
102
{ACAD_REACTORS
330
C
102
}
330
C
100
AcDbDictionary
281
     1
  0
ACDBDICTIONARYWDFLT
  5
E
102
{ACAD_REACTORS
330
C
102
}
330
C
100
AcDbDictionary
281
     1
  3
Normal
350
F
100
AcDbDictionaryWithDefault
340
F
  0
DICTIONARY
  5
B6
102
{ACAD_REACTORS
330
C
102
}
330
C
100
AcDbDictionary
281
     1
  0
DICTIONARY
  5
2A
102
{ACAD_REACTORS
330
C
102
}
330
C
100
AcDbDictionary
281
     1
  3
2dWireframe
350
2F
  3
3D Hidden
350
31
  3
3dWireframe
350
30
  3
Basic
350
32
  3
Brighten
350
36
  3
ColorChange
350
3A
  3
Conceptual
350
34
  3
Dim
350
35
  3
Facepattern
350
39
  3
Flat
350
2B
  3
FlatWithEdges
350
2C
  3
Gouraud
350
2D
  3
GouraudWithEdges
350
2E
  3
Linepattern
350
38
  3
Realistic
350
33
  3
Thicken
350
37
  0
LAYOUT
  5
1E
102
{ACAD_REACTORS
330
1A
102
}
330
1A
100
AcDbPlotSettings
  1

  2
none_device
  4

  6

 40
0.0
 41
0.0
 42
0.0
 43
0.0
 44
0.0
 45
0.0
 46
0.0
 47
0.0
 48
0.0
 49
0.0
140
0.0
141
0.0
142
1.0
143
1.0
 70
   688
 72
     0
 73
     0
 74
     5
  7

 75
    16
 76
     0
 77
     2
 78
   300
147
1.0
148
0.0
149
0.0
100
AcDbLayout
  1
Layout1
 70
     1
 71
     1
 10
0.0
 20
0.0
 11
12.0
 21
9.0
 12
0.0
 22
0.0
 32
0.0
 14
1.000000000000000E+20
 24
1.000000000000000E+20
 34
1.000000000000000E+20
 15
-1.000000000000000E+20
 25
-1.000000000000000E+20
 35
-1.000000000000000E+20
146
0.0
 13
0.0
 23
0.0
 33
0.0
 16
1.0
 26
0.0
 36
0.0
 17
0.0
 27
1.0
 37
0.0
 76
     0
330
1B
  0
LAYOUT
  5
26
102
{ACAD_REACTORS
330
1A
102
}
330
1A
100
AcDbPlotSettings
  1

  2
none_device
  4

  6

 40
0.0
 41
0.0
 42
0.0
 43
0.0
 44
0.0
 45
0.0
 46
0.0
 47
0.0
 48
0.0
 49
0.0
140
0.0
141
0.0
142
1.0
143
1.0
 70
   688
 72
     0
 73
     0
 74
     5
  7

 75
    16
 76
     0
 77
     2
 78
   300
147
1.0
148
0.0
149
0.0
100
AcDbLayout
  1
Layout2
 70
     1
 71
     2
 10
0.0
 20
0.0
 11
0.0
 21
0.0
 12
0.0
 22
0.0
 32
0.0
 14
0.0
 24
0.0
 34
0.0
 15
0.0
 25
0.0
 35
0.0
146
0.0
 13
0.0
 23
0.0
 33
0.0
 16
1.0
 26
0.0
 36
0.0
 17
0.0
 27
1.0
 37
0.0
 76
     0
330
23
  0
LAYOUT
  5
22
102
{ACAD_REACTORS
330
1A
102
}
330
1A
100
AcDbPlotSettings
  1

  2
none_device
  4

  6

 40
0.0
 41
0.0
 42
0.0
 43
0.0
 44
0.0
 45
0.0
 46
0.0
 47
0.0
 48
0.0
 49
0.0
140
0.0
141
0.0
142
1.0
143
1.0
 70
  1712
 72
     0
 73
     0
 74
     0
  7

 75
     0
 76
     0
 77
     2
 78
   300
147
1.0
148
0.0
149
0.0
100
AcDbLayout
  1
Model
 70
     1
 71
     0
 10
0.0
 20
0.0
 11
12.0
 21
9.0
 12
0.0
 22
0.0
 32
0.0
 14
1.000000000000000E+20
 24
1.000000000000000E+20
 34
1.000000000000000E+20
 15
-1.000000000000000E+20
 25
-1.000000000000000E+20
 35
-1.000000000000000E+20
146
0.0
 13
0.0
 23
0.0
 33
0.0
 16
1.0
 26
0.0
 36
0.0
 17
0.0
 27
1.0
 37
0.0
 76
     0
330
1F
331
29
  0
MATERIAL
  5
3D
102
{ACAD_REACTORS
330
3B
102
}
330
3B
100
AcDbMaterial
  1
ByBlock
 72
     1
 94
      127
  0
MATERIAL
  5
3C
102
{ACAD_REACTORS
330
3B
102
}
330
3B
100
AcDbMaterial
  1
ByLayer
 72
     1
 94
      127
  0
MATERIAL
  5
3E
102
{ACAD_REACTORS
330
3B
102
}
330
3B
100
AcDbMaterial
  1
Global
 72
     1
 94
      127
  0
MLINESTYLE
  5
18
102
{ACAD_REACTORS
330
17
102
}
330
17
100
AcDbMlineStyle
  2
Standard
 70
     0
  3

 62
   256
 51
90.0
 52
90.0
 71
     2
 49
0.5
 62
   256
  6
BYLAYER
 49
-0.5
 62
   256
  6
BYLAYER
  0
ACDBPLACEHOLDER
  5
F
102
{ACAD_REACTORS
330
E
102
}
330
E
  0
VISUALSTYLE
  5
2F
102
{ACAD_REACTORS
330
2A
102
}
330
2A
100
AcDbVisualStyle
  2
2dWireframe
 70
     4
177
     2
291
     0
 71
     0
176
     1
 72
     2
176
     1
 73
     0
176
     1
 90
        0
176
     1
 40
-0.6
176
     1
 41
-30.0
176
     1
 62
     5
 63
     7
421
 16777215
176
     1
 74
     1
176
     1
 91
        4
176
     1
 64
     7
176
     1
 65
   257
176
     1
 75
     1
176
     1
175
     1
176
     1
 42
1.0
176
     1
 92
        0
176
     1
 66
   257
176
     1
 43
1.0
176
     1
 76
     1
176
     1
 77
     6
176
     1
 78
     2
176
     1
 67
     7
176
     1
 79
     5
176
     1
170
     0
176
     1
171
     0
176
     1
290
     0
176
     1
 93
        1
176
     1
 44
0.0
176
     1
173
     0
176
     1
  0
VISUALSTYLE
  5
31
102
{ACAD_REACTORS
330
2A
102
}
330
2A
100
AcDbVisualStyle
  2
3D Hidden
 70
     6
177
     2
291
     0
 71
     1
176
     1
 72
     2
176
     1
 73
     2
176
     1
 90
        0
176
     1
 40
-0.6
176
     1
 41
-30.0
176
     1
 62
     5
 63
     7
421
 16777215
176
     1
 74
     2
176
     1
 91
        2
176
     1
 64
     7
176
     1
 65
   257
176
     1
 75
     2
176
     1
175
     1
176
     1
 42
40.0
176
     1
 92
        0
176
     1
 66
   257
176
     1
 43
1.0
176
     1
 76
     1
176
     1
 77
     6
176
     1
 78
     2
176
     1
 67
     7
176
     1
 79
     3
176
     1
170
     0
176
     1
171
     0
176
     1
290
     0
176
     1
 93
        1
176
     1
 44
0.0
176
     1
173
     0
176
     1
  0
VISUALSTYLE
  5
30
102
{ACAD_REACTORS
330
2A
102
}
330
2A
100
AcDbVisualStyle
  2
3dWireframe
 70
     5
177
     2
291
     0
 71
     0
176
     1
 72
     2
176
     1
 73
     0
176
     1
 90
        0
176
     1
 40
-0.6
176
     1
 41
-30.0
176
     1
 62
     5
 63
     7
421
 16777215
176
     1
 74
     1
176
     1
 91
        4
176
     1
 64
     7
176
     1
 65
   257
176
     1
 75
     1
176
     1
175
     1
176
     1
 42
1.0
176
     1
 92
        0
176
     1
 66
   257
176
     1
 43
1.0
176
     1
 76
     1
176
     1
 77
     6
176
     1
 78
     2
176
     1
 67
     7
176
     1
 79
     5
176
     1
170
     0
176
     1
171
     0
176
     1
290
     0
176
     1
 93
        1
176
     1
 44
0.0
176
     1
173
     0
176
     1
  0
VISUALSTYLE
  5
32
102
{ACAD_REACTORS
330
2A
102
}
330
2A
100
AcDbVisualStyle
  2
Basic
 70
     7
177
     2
291
     1
 71
     1
176
     1
 72
     0
176
     1
 73
     1
176
     1
 90
        0
176
     1
 40
-0.6
176
     1
 41
-30.0
176
     1
 62
     5
 63
     7
421
 16777215
176
     1
 74
     0
176
     1
 91
        4
176
     1
 64
     7
176
     1
 65
   257
176
     1
 75
     1
176
     1
175
     1
176
     1
 42
1.0
176
     1
 92
        8
176
     1
 66
     7
176
     1
 43
1.0
176
     1
 76
     1
176
     1
 77
     6
176
     1
 78
     2
176
     1
 67
     7
176
     1
 79
     5
176
     1
170
     0
176
     1
171
     0
176
     1
290
     0
176
     1
 93
        1
176
     1
 44
0.0
176
     1
173
     0
176
     1
  0
VISUALSTYLE
  5
36
102
{ACAD_REACTORS
330
2A
102
}
330
2A
100
AcDbVisualStyle
  2
Brighten
 70
    12
177
     2
291
     1
 71
     2
176
     1
 72
     2
176
     1
 73
     0
176
     1
 90
        0
176
     1
 40
-0.6
176
     1
 41
-30.0
176
     1
 62
     5
 63
     7
421
 16777215
176
     1
 74
     1
176
     1
 91
        4
176
     1
 64
     7
176
     1
 65
   257
176
     1
 75
     1
176
     1
175
     1
176
     1
 42
1.0
176
     1
 92
        8
176
     1
 66
     7
176
     1
 43
1.0
176
     1
 76
     1
176
     1
 77
     6
176
     1
 78
     2
176
     1
 67
     7
176
     1
 79
     5
176
     1
170
     0
176
     1
171
     0
176
     1
290
     0
176
     1
 93
        1
176
     1
 44
50.0
176
     1
173
     0
176
     1
  0
VISUALSTYLE
  5
3A
102
{ACAD_REACTORS
330
2A
102
}
330
2A
100
AcDbVisualStyle
  2
ColorChange
 70
    16
177
     2
291
     1
 71
     2
176
     1
 72
     2
176
     1
 73
     3
176
     1
 90
        0
176
     1
 40
-0.6
176
     1
 41
-30.0
176
     1
 62
     5
 63
     8
421
  8421504
176
     1
 74
     1
176
     1
 91
        4
176
     1
 64
     7
176
     1
 65
   257
176
     1
 75
     1
176
     1
175
     1
176
     1
 42
1.0
176
     1
 92
        8
176
     1
 66
     8
424
  8421504
176
     1
 43
1.0
176
     1
 76
     1
176
     1
 77
     6
176
     1
 78
     2
176
     1
 67
     7
176
     1
 79
     5
176
     1
170
     0
176
     1
171
     0
176
     1
290
     0
176
     1
 93
        1
176
     1
 44
0.0
176
     1
173
     0
176
     1
  0
VISUALSTYLE
  5
34
102
{ACAD_REACTORS
330
2A
102
}
330
2A
100
AcDbVisualStyle
  2
Conceptual
 70
     9
177
     2
291
     0
 71
     3
176
     1
 72
     2
176
     1
 73
     0
176
     1
 90
        0
176
     1
 40
-0.6
176
     1
 41
-30.0
176
     1
 62
     5
 63
     7
421
 16777215
176
     1
 74
     2
176
     1
 91
        2
176
     1
 64
     7
176
     1
 65
   257
176
     1
 75
     1
176
     1
175
     1
176
     1
 42
40.0
176
     1
 92
        8
176
     1
 66
     7
176
     1
 43
1.0
176
     1
 76
     1
176
     1
 77
     6
176
     1
 78
     2
176
     1
 67
     7
176
     1
 79
     3
176
     1
170
     0
176
     1
171
     0
176
     1
290
     0
176
     1
 93
        1
176
     1
 44
0.0
176
     1
173
     0
176
     1
  0
VISUALSTYLE
  5
35
102
{ACAD_REACTORS
330
2A
102
}
330
2A
100
AcDbVisualStyle
  2
Dim
 70
    11
177
     2
291
     1
 71
     2
176
     1
 72
     2
176
     1
 73
     0
176
     1
 90
        0
176
     1
 40
-0.6
176
     1
 41
-30.0
176
     1
 62
     5
 63
     7
421
 16777215
176
     1
 74
     1
176
     1
 91
        4
176
     1
 64
     7
176
     1
 65
   257
176
     1
 75
     1
176
     1
175
     1
176
     1
 42
1.0
176
     1
 92
        8
176
     1
 66
     7
176
     1
 43
1.0
176
     1
 76
     1
176
     1
 77
     6
176
     1
 78
     2
176
     1
 67
     7
176
     1
 79
     5
176
     1
170
     0
176
     1
171
     0
176
     1
290
     0
176
     1
 93
        1
176
     1
 44
-50.0
176
     1
173
     0
176
     1
  0
VISUALSTYLE
  5
39
102
{ACAD_REACTORS
330
2A
102
}
330
2A
100
AcDbVisualStyle
  2
Facepattern
 70
    15
177
     2
291
     1
 71
     2
176
     1
 72
     2
176
     1
 73
     0
176
     1
 90
        0
176
     1
 40
-0.6
176
     1
 41
-30.0
176
     1
 62
     5
 63
     7
421
 16777215
176
     1
 74
     1
176
     1
 91
        4
176
     1
 64
     7
176
     1
 65
   257
176
     1
 75
     1
176
     1
175
     1
176
     1
 42
1.0
176
     1
 92
        8
176
     1
 66
     7
176
     1
 43
1.0
176
     1
 76
     1
176
     1
 77
     6
176
     1
 78
     2
176
     1
 67
     7
176
     1
 79
     5
176
     1
170
     0
176
     1
171
     0
176
     1
290
     0
176
     1
 93
        1
176
     1
 44
0.0
176
     1
173
     0
176
     1
  0
VISUALSTYLE
  5
2B
102
{ACAD_REACTORS
330
2A
102
}
330
2A
100
AcDbVisualStyle
  2
Flat
 70
     0
177
     2
291
     1
 71
     2
176
     1
 72
     1
176
     1
 73
     1
176
     1
 90
        2
176
     1
 40
-0.6
176
     1
 41
30.0
176
     1
 62
     5
 63
     7
421
 16777215
176
     1
 74
     0
176
     1
 91
        4
176
     1
 64
     7
176
     1
 65
   257
176
     1
 75
     1
176
     1
175
     1
176
     1
 42
1.0
176
     1
 92
        8
176
     1
 66
     7
176
     1
 43
1.0
176
     1
 76
     1
176
     1
 77
     6
176
     1
 78
     2
176
     1
 67
     7
176
     1
 79
     5
176
     1
170
     0
176
     1
171
     0
176
     1
290
     0
176
     1
 93
       13
176
     1
 44
0.0
176
     1
173
     0
176
     1
  0
VISUALSTYLE
  5
2C
102
{ACAD_REACTORS
330
2A
102
}
330
2A
100
AcDbVisualStyle
  2
FlatWithEdges
 70
     1
177
     2
291
     1
 71
     2
176
     1
 72
     1
176
     1
 73
     1
176
     1
 90
        2
176
     1
 40
-0.6
176
     1
 41
30.0
176
     1
 62
     5
 63
     7
421
 16777215
176
     1
 74
     1
176
     1
 91
        4
176
     1
 64
     7
176
     1
 65
   257
176
     1
 75
     1
176
     1
175
     1
176
     1
 42
1.0
176
     1
 92
        0
176
     1
 66
   257
176
     1
 43
1.0
176
     1
 76
     1
176
     1
 77
     6
176
     1
 78
     2
176
     1
 67
     7
176
     1
 79
     5
176
     1
170
     0
176
     1
171
     0
176
     1
290
     0
176
     1
 93
       13
176
     1
 44
0.0
176
     1
173
     0
176
     1
  0
VISUALSTYLE
  5
2D
102
{ACAD_REACTORS
330
2A
102
}
330
2A
100
AcDbVisualStyle
  2
Gouraud
 70
     2
177
     2
291
     1
 71
     2
176
     1
 72
     2
176
     1
 73
     1
176
     1
 90
        2
176
     1
 40
-0.6
176
     1
 41
30.0
176
     1
 62
     5
 63
     7
421
 16777215
176
     1
 74
     0
176
     1
 91
        4
176
     1
 64
     7
176
     1
 65
   257
176
     1
 75
     1
176
     1
175
     1
176
     1
 42
1.0
176
     1
 92
        0
176
     1
 66
     7
176
     1
 43
1.0
176
     1
 76
     1
176
     1
 77
     6
176
     1
 78
     2
176
     1
 67
     7
176
     1
 79
     5
176
     1
170
     0
176
     1
171
     0
176
     1
290
     0
176
     1
 93
       13
176
     1
 44
0.0
176
     1
173
     0
176
     1
  0
VISUALSTYLE
  5
2E
102
{ACAD_REACTORS
330
2A
102
}
330
2A
100
AcDbVisualStyle
  2
GouraudWithEdges
 70
     3
177
     2
291
     1
 71
     2
176
     1
 72
     2
176
     1
 73
     1
176
     1
 90
        2
176
     1
 40
-0.6
176
     1
 41
30.0
176
     1
 62
     5
 63
     7
421
 16777215
176
     1
 74
     1
176
     1
 91
        4
176
     1
 64
     7
176
     1
 65
   257
176
     1
 75
     1
176
     1
175
     1
176
     1
 42
1.0
176
     1
 92
        0
176
     1
 66
   257
176
     1
 43
1.0
176
     1
 76
     1
176
     1
 77
     6
176
     1
 78
     2
176
     1
 67
     7
176
     1
 79
     5
176
     1
170
     0
176
     1
171
     0
176
     1
290
     0
176
     1
 93
       13
176
     1
 44
0.0
176
     1
173
     0
176
     1
  0
VISUALSTYLE
  5
38
102
{ACAD_REACTORS
330
2A
102
}
330
2A
100
AcDbVisualStyle
  2
Linepattern
 70
    14
177
     2
291
     1
 71
     2
176
     1
 72
     2
176
     1
 73
     0
176
     1
 90
        0
176
     1
 40
-0.6
176
     1
 41
-30.0
176
     1
 62
     5
 63
     7
421
 16777215
176
     1
 74
     1
176
     1
 91
        4
176
     1
 64
     7
176
     1
 65
   257
176
     1
 75
     7
176
     1
175
     7
176
     1
 42
1.0
176
     1
 92
        8
176
     1
 66
     7
176
     1
 43
1.0
176
     1
 76
     1
176
     1
 77
     6
176
     1
 78
     2
176
     1
 67
     7
176
     1
 79
     5
176
     1
170
     0
176
     1
171
     0
176
     1
290
     0
176
     1
 93
        1
176
     1
 44
0.0
176
     1
173
     0
176
     1
  0
VISUALSTYLE
  5
33
102
{ACAD_REACTORS
330
2A
102
}
330
2A
100
AcDbVisualStyle
  2
Realistic
 70
     8
177
     2
291
     0
 71
     2
176
     1
 72
     2
176
     1
 73
     0
176
     1
 90
        0
176
     1
 40
-0.6
176
     1
 41
-30.0
176
     1
 62
     5
 63
     7
421
 16777215
176
     1
 74
     1
176
     1
 91
        0
176
     1
 64
     7
176
     1
 65
   257
176
     1
 75
     1
176
     1
175
     1
176
     1
 42
1.0
176
     1
 92
        8
176
     1
 66
     8
424
  7895160
176
     1
 43
1.0
176
     1
 76
     1
176
     1
 77
     6
176
     1
 78
     2
176
     1
 67
     7
176
     1
 79
     5
176
     1
170
     0
176
     1
171
     0
176
     1
290
     0
176
     1
 93
       13
176
     1
 44
0.0
176
     1
173
     0
176
     1
  0
VISUALSTYLE
  5
37
102
{ACAD_REACTORS
330
2A
102
}
330
2A
100
AcDbVisualStyle
  2
Thicken
 70
    13
177
     2
291
     1
 71
     2
176
     1
 72
     2
176
     1
 73
     0
176
     1
 90
        0
176
     1
 40
-0.6
176
     1
 41
-30.0
176
     1
 62
     5
 63
     7
421
 16777215
176
     1
 74
     1
176
     1
 91
        4
176
     1
 64
     7
176
     1
 65
   257
176
     1
 75
     1
176
     1
175
     1
176
     1
 42
1.0
176
     1
 92
       12
176
     1
 66
     7
176
     1
 43
1.0
176
     1
 76
     1
176
     1
 77
     6
176
     1
 78
     2
176
     1
 67
     7
176
     1
 79
     5
176
     1
170
     0
176
     1
171
     0
176
     1
290
     0
176
     1
 93
        1
176
     1
 44
0.0
176
     1
173
     0
176
     1
  0
ENDSEC
  0
EOF
