  0
SECTION
  2
HEADER
  9
$ACADVER
  1
AC1024
  9
$ACADMAINTVER
 70
     6
  9
$DWGCODEPAGE
  3
UNDEFINED
  9
$INSBASE
 10
0.0
 20
0.0
 30
0.0
  9
$EXTMIN
 10
1.000000000000000E+20
 20
1.000000000000000E+20
 30
1.000000000000000E+20
  9
$EXTMAX
 10
-1.000000000000000E+20
 20
-1.000000000000000E+20
 30
-1.000000000000000E+20
  9
$LIMMIN
 10
0.0
 20
0.0
  9
$LIMMAX
 10
12.0
 20
9.0
  9
$ORTHOMODE
 70
     0
  9
$REGENMODE
 70
     1
  9
$FILLMODE
 70
     1
  9
$QTEXTMODE
 70
     0
  9
$MIRRTEXT
 70
     1
  9
$LTSCALE
 40
1.0
  9
$ATTMODE
 70
     1
  9
$TEXTSIZE
 40
0.2
  9
$TRACEWID
 40
0.05
  9
$TEXTSTYLE
  7
Standard
  9
$CLAYER
  8
0
  9
$CELTYPE
  6
ByLayer
  9
$CECOLOR
 62
   256
  9
$CELTSCALE
 40
1.0
  9
$DISPSILH
 70
     0
  9
$DIMSCALE
 40
1.0
  9
$DIMASZ
 40
0.18
  9
$DIMEXO
 40
0.0625
  9
$DIMDLI
 40
0.38
  9
$DIMRND
 40
0.0
  9
$DIMDLE
 40
0.0
  9
$DIMEXE
 40
0.18
  9
$DIMTP
 40
0.0
  9
$DIMTM
 40
0.0
  9
$DIMTXT
 40
0.18
  9
$DIMCEN
 40
0.09
  9
$DIMTSZ
 40
0.0
  9
$DIMTOL
 70
     0
  9
$DIMLIM
 70
     0
  9
$DIMTIH
 70
     1
  9
$DIMTOH
 70
     1
  9
$DIMSE1
 70
     0
  9
$DIMSE2
 70
     0
  9
$DIMTAD
 70
     0
  9
$DIMZIN
 70
     0
  9
$DIMBLK
  1

  9
$DIMASO
 70
     1
  9
$DIMSHO
 70
     1
  9
$DIMPOST
  1

  9
$DIMAPOST
  1

  9
$DIMALT
 70
     0
  9
$DIMALTD
 70
     2
  9
$DIMALTF
 40
25.4
  9
$DIMLFAC
 40
1.0
  9
$DIMTOFL
 70
     0
  9
$DIMTVP
 40
0.0
  9
$DIMTIX
 70
     0
  9
$DIMSOXD
 70
     0
  9
$DIMSAH
 70
     0
  9
$DIMBLK1
  1

  9
$DIMBLK2
  1

  9
$DIMSTYLE
  2
Standard
  9
$DIMCLRD
 70
     0
  9
$DIMCLRE
 70
     0
  9
$DIMCLRT
 70
     0
  9
$DIMTFAC
 40
1.0
  9
$DIMGAP
 40
0.09
  9
$DIMJUST
 70
     0
  9
$DIMSD1
 70
     0
  9
$DIMSD2
 70
     0
  9
$DIMTOLJ
 70
     1
  9
$DIMTZIN
 70
     0
  9
$DIMALTZ
 70
     0
  9
$DIMALTTZ
 70
     0
  9
$DIMUPT
 70
     0
  9
$DIMDEC
 70
     4
  9
$DIMTDEC
 70
     4
  9
$DIMALTU
 70
     2
  9
$DIMALTTD
 70
     2
  9
$DIMTXSTY
  7
Standard
  9
$DIMAUNIT
 70
     0
  9
$DIMADEC
 70
     0
  9
$DIMALTRND
 40
0.0
  9
$DIMAZIN
 70
     0
  9
$DIMDSEP
 70
    46
  9
$DIMATFIT
 70
     3
  9
$DIMFRAC
 70
     0
  9
$DIMLDRBLK
  1

  9
$DIMLUNIT
 70
     2
  9
$DIMLWD
 70
    -2
  9
$DIMLWE
 70
    -2
  9
$DIMTMOVE
 70
     0
  9
$DIMFXL
 40
1.0
  9
$DIMFXLON
 70
     0
  9
$DIMJOGANG
 40
0.7853981633974483
  9
$DIMTFILL
 70
     0
  9
$DIMTFILLCLR
 70
     0
  9
$DIMARCSYM
 70
     0
  9
$DIMLTYPE
  6

  9
$DIMLTEX1
  6

  9
$DIMLTEX2
  6

  9
$DIMTXTDIRECTION
 70
     0
  9
$LUNITS
 70
     2
  9
$LUPREC
 70
     4
  9
$SKETCHINC
 40
0.1
  9
$FILLETRAD
 40
0.5
  9
$AUNITS
 70
     0
  9
$AUPREC
 70
     0
  9
$MENU
  1
.
  9
$ELEVATION
 40
0.0
  9
$PELEVATION
 40
0.0
  9
$THICKNESS
 40
0.0
  9
$LIMCHECK
 70
     0
  9
$CHAMFERA
 40
0.5
  9
$CHAMFERB
 40
0.5
  9
$CHAMFERC
 40
1.0
  9
$CHAMFERD
 40
0.0
  9
$SKPOLY
 70
     0
  9
$TDCREATE
 40
2457917.616701377
  9
$TDUCREATE
 40
2457917.241701389
  9
$TDUPDATE
 40
2457917.616701377
  9
$TDUUPDATE
 40
2457917.241701389
  9
$TDINDWG
 40
0.0000000116
  9
$TDUSRTIMER
 40
0.0000000116
  9
$USRTIMER
 70
     1
  9
$ANGBASE
 50
0.0
  9
$ANGDIR
 70
     0
  9
$PDMODE
 70
     0
  9
$PDSIZE
 40
0.0
  9
$PLINEWID
 40
0.0
  9
$SPLFRAME
 70
     0
  9
$SPLINETYPE
 70
     6
  9
$SPLINESEGS
 70
     8
  9
$HANDSEED
  5
B5
  9
$SURFTAB1
 70
     6
  9
$SURFTAB2
 70
     6
  9
$SURFTYPE
 70
     6
  9
$SURFU
 70
     6
  9
$SURFV
 70
     6
  9
$UCSBASE
  2

  9
$UCSNAME
  2

  9
$UCSORG
 10
0.0
 20
0.0
 30
0.0
  9
$UCSXDIR
 10
1.0
 20
0.0
 30
0.0
  9
$UCSYDIR
 10
0.0
 20
1.0
 30
0.0
  9
$UCSORTHOREF
  2

  9
$UCSORTHOVIEW
 70
     0
  9
$UCSORGTOP
 10
0.0
 20
0.0
 30
0.0
  9
$UCSORGBOTTOM
 10
0.0
 20
0.0
 30
0.0
  9
$UCSORGLEFT
 10
0.0
 20
0.0
 30
0.0
  9
$UCSORGRIGHT
 10
0.0
 20
0.0
 30
0.0
  9
$UCSORGFRONT
 10
0.0
 20
0.0
 30
0.0
  9
$UCSORGBACK
 10
0.0
 20
0.0
 30
0.0
  9
$PUCSBASE
  2

  9
$PUCSNAME
  2

  9
$PUCSORG
 10
0.0
 20
0.0
 30
0.0
  9
$PUCSXDIR
 10
1.0
 20
0.0
 30
0.0
  9
$PUCSYDIR
 10
0.0
 20
1.0
 30
0.0
  9
$PUCSORTHOREF
  2

  9
$PUCSORTHOVIEW
 70
     0
  9
$PUCSORGTOP
 10
0.0
 20
0.0
 30
0.0
  9
$PUCSORGBOTTOM
 10
0.0
 20
0.0
 30
0.0
  9
$PUCSORGLEFT
 10
0.0
 20
0.0
 30
0.0
  9
$PUCSORGRIGHT
 10
0.0
 20
0.0
 30
0.0
  9
$PUCSORGFRONT
 10
0.0
 20
0.0
 30
0.0
  9
$PUCSORGBACK
 10
0.0
 20
0.0
 30
0.0
  9
$USERI1
 70
     0
  9
$USERI2
 70
     0
  9
$USERI3
 70
     0
  9
$USERI4
 70
     0
  9
$USERI5
 70
     0
  9
$USERR1
 40
0.0
  9
$USERR2
 40
0.0
  9
$USERR3
 40
0.0
  9
$USERR4
 40
0.0
  9
$USERR5
 40
0.0
  9
$WORLDVIEW
 70
     1
  9
$SHADEDGE
 70
     3
  9
$SHADEDIF
 70
    70
  9
$TILEMODE
 70
     1
  9
$MAXACTVP
 70
    64
  9
$PINSBASE
 10
0.0
 20
0.0
 30
0.0
  9
$PLIMCHECK
 70
     0
  9
$PEXTMIN
 10
1.000000000000000E+20
 20
1.000000000000000E+20
 30
1.000000000000000E+20
  9
$PEXTMAX
 10
-1.000000000000000E+20
 20
-1.000000000000000E+20
 30
-1.000000000000000E+20
  9
$PLIMMIN
 10
0.0
 20
0.0
  9
$PLIMMAX
 10
12.0
 20
9.0
  9
$UNITMODE
 70
     0
  9
$VISRETAIN
 70
     1
  9
$PLINEGEN
 70
     0
  9
$PSLTSCALE
 70
     1
  9
$TREEDEPTH
 70
  3020
  9
$CMLSTYLE
  2
Standard
  9
$CMLJUST
 70
     0
  9
$CMLSCALE
 40
1.0
  9
$PROXYGRAPHICS
 70
     1
  9
$MEASUREMENT
 70
     0
  9
$CELWEIGHT
370
    -1
  9
$ENDCAPS
280
     0
  9
$JOINSTYLE
280
     0
  9
$LWDISPLAY
290
     1
  9
$INSUNITS
 70
     1
  9
$HYPERLINKBASE
  1

  9
$STYLESHEET
  1

  9
$XEDIT
290
     1
  9
$CEPSNTYPE
380
     0
  9
$PSTYLEMODE
290
     1
  9
$FINGERPRINTGUID
  2
{FD885520-5753-8358-7B3B-7E5E859AB769}
  9
$VERSIONGUID
  2
{FAEB1C32-E019-11D5-929B-00C0DF256EC4}
  9
$EXTNAMES
290
     1
  9
$PSVPSCALE
 40
0.0
  9
$OLESTARTUP
290
     0
  9
$SORTENTS
280
   127
  9
$INDEXCTL
280
     0
  9
$HIDETEXT
280
     1
  9
$XCLIPFRAME
280
     2
  9
$HALOGAP
280
     0
  9
$OBSCOLOR
 70
   257
  9
$OBSLTYPE
280
     0
  9
$INTERSECTIONDISPLAY
280
     0
  9
$INTERSECTIONCOLOR
 70
   257
  9
$DIMASSOC
280
     2
  9
$PROJECTNAME
  1

  9
$CAMERADISPLAY
290
     0
  9
$LENSLENGTH
 40
50.0
  9
$CAMERAHEIGHT
 40
0.0
  9
$STEPSPERSEC
 40
2.0
  9
$STEPSIZE
 40
6.0
  9
$3DDWFPREC
 40
2.0
  9
$PSOLWIDTH
 40
0.25
  9
$PSOLHEIGHT
 40
4.0
  9
$LOFTANG1
 40
1.570796326794897
  9
$LOFTANG2
 40
1.570796326794897
  9
$LOFTMAG1
 40
0.0
  9
$LOFTMAG2
 40
0.0
  9
$LOFTPARAM
 70
     7
  9
$LOFTNORMALS
280
     1
  9
$LATITUDE
 40
37.795
  9
$LONGITUDE
 40
-122.394
  9
$NORTHDIRECTION
 40
0.0
  9
$TIMEZONE
 70
 -8000
  9
$LIGHTGLYPHDISPLAY
280
     1
  9
$TILEMODELIGHTSYNCH
280
     1
  9
$CMATERIAL
347
3C
  9
$SOLIDHIST
280
     1
  9
$SHOWHIST
280
     1
  9
$DWFFRAME
280
     2
  9
$DGNFRAME
280
     2
  9
$REALWORLDSCALE
290
     1
  9
$INTERFERECOLOR
 62
   256
  9
$CSHADOW
280
     0
  9
$SHADOWPLANELOCATION
 40
0.0
  0
ENDSEC
  0
SECTION
  2
CLASSES
  0
CLASS
  1
ACDBDICTIONARYWDFLT
  2
AcDbDictionaryWithDefault
  3
ObjectDBX Classes
 90
        0
 91
        4
280
     0
281
     0
  0
CLASS
  1
VISUALSTYLE
  2
AcDbVisualStyle
  3
ObjectDBX Classes
 90
     4095
 91
        4
280
     0
281
     0
  0
CLASS
  1
MATERIAL
  2
AcDbMaterial
  3
ObjectDBX Classes
 90
     1153
 91
        4
280
     0
281
     0
  0
CLASS
  1
SUN
  2
AcDbSun
  3
SCENEOE
 90
     1024
 91
        4
280
     0
281
     0
  0
ENDSEC
  0
SECTION
  2
TABLES
  0
TABLE
  2
VPORT
  5
8
330
0
100
AcDbSymbolTable
 70
     1
  0
VPORT
  5
29
330
8
100
AcDbSymbolTableRecord
100
AcDbViewportTableRecord
  2
*Active
 70
     0
 10
0.0
 20
0.0
 11
1.0
 21
1.0
 12
0.0
 22
0.0
 13
0.0
 23
0.0
 14
0.5
 24
0.5
 15
0.5
 25
0.5
 16
0.0
 26
0.0
 36
1.0
 17
91.00082462281999
 27
-128.4993055234307
 37
0.0
 40
256.9986110468615
 41
0.7081814508812795
 42
50.0
 43
0.0
 44
0.0
 50
0.0
 51
0.0
 71
     0
 72
   100
 73
     1
 74
     3
 75
     0
 76
     0
 77
     0
 78
     0
281
     0
 65
     1
110
0.0
120
0.0
130
0.0
111
1.0
121
0.0
131
0.0
112
0.0
122
1.0
132
0.0
 79
     0
146
0.0
 60
     3
 61
     5
292
     1
282
     1
141
0.0
142
0.0
 63
   250
361
3F
  0
ENDTAB
  0
TABLE
  2
LTYPE
  5
5
330
0
100
AcDbSymbolTable
 70
     1
  0
LTYPE
  5
14
330
5
100
AcDbSymbolTableRecord
100
AcDbLinetypeTableRecord
  2
ByBlock
 70
     0
  3

 72
    65
 73
     0
 40
0.0
  0
LTYPE
  5
15
330
5
100
AcDbSymbolTableRecord
100
AcDbLinetypeTableRecord
  2
ByLayer
 70
     0
  3

 72
    65
 73
     0
 40
0.0
  0
LTYPE
  5
16
330
5
100
AcDbSymbolTableRecord
100
AcDbLinetypeTableRecord
  2
Continuous
 70
     0
  3
Solid line
 72
    65
 73
     0
 40
0.0
  0
ENDTAB
  0
TABLE
  2
LAYER
  5
2
330
0
100
AcDbSymbolTable
 70
     2
  0
LAYER
  5
10
330
2
100
AcDbSymbolTableRecord
100
AcDbLayerTableRecord
  2
0
 70
     0
 62
     7
  6
Continuous
370
    -3
390
F
347
3E
  0
LAYER
  5
40
330
2
100
AcDbSymbolTableRecord
100
AcDbLayerTableRecord
  2
_U+30EC_U+30A4_U+30E4_U+30FC 1
 70
     0
 62
     7
  6
Continuous
370
    -3
390
F
347
3E
  0
ENDTAB
  0
TABLE
  2
STYLE
  5
3
330
0
100
AcDbSymbolTable
 70
     1
  0
STYLE
  5
11
330
3
100
AcDbSymbolTableRecord
100
AcDbTextStyleTableRecord
  2
Standard
 70
     0
 40
0.0
 41
1.0
 50
0.0
 71
     0
 42
0.2
  3
txt
  4

  0
ENDTAB
  0
TABLE
  2
VIEW
  5
6
330
0
100
AcDbSymbolTable
 70
     0
  0
ENDTAB
  0
TABLE
  2
UCS
  5
7
330
0
100
AcDbSymbolTable
 70
     0
  0
ENDTAB
  0
TABLE
  2
APPID
  5
9
330
0
100
AcDbSymbolTable
 70
     1
  0
APPID
  5
12
330
9
100
AcDbSymbolTableRecord
100
AcDbRegAppTableRecord
  2
ACAD
 70
     0
  0
ENDTAB
  0
TABLE
  2
DIMSTYLE
  5
A
330
0
100
AcDbSymbolTable
 70
     1
100
AcDbDimStyleTable
  0
DIMSTYLE
105
27
330
A
100
AcDbSymbolTableRecord
100
AcDbDimStyleTableRecord
  2
Standard
 70
     0
178
     0
340
11
  0
ENDTAB
  0
TABLE
  2
BLOCK_RECORD
  5
1
330
0
100
AcDbSymbolTable
 70
     6
  0
BLOCK_RECORD
  5
1F
330
1
100
AcDbSymbolTableRecord
100
AcDbBlockTableRecord
  2
*Model_Space
340
22
 70
     0
280
     1
281
     0
  0
BLOCK_RECORD
  5
1B
330
1
100
AcDbSymbolTableRecord
100
AcDbBlockTableRecord
  2
*Paper_Space
340
1E
 70
     0
280
     1
281
     0
  0
BLOCK_RECORD
  5
23
330
1
100
AcDbSymbolTableRecord
100
AcDbBlockTableRecord
  2
*Paper_Space0
340
26
 70
     0
280
     1
281
     0
  0
BLOCK_RECORD
  5
74
330
1
100
AcDbSymbolTableRecord
100
AcDbBlockTableRecord
  2
block 2
340
0
102
{BLKREFS
331
75
102
}
 70
     0
280
     1
281
     0
  0
BLOCK_RECORD
  5
7D
330
1
100
AcDbSymbolTableRecord
100
AcDbBlockTableRecord
  2
block 3
340
0
102
{BLKREFS
331
7E
102
}
 70
     0
280
     1
281
     0
  0
BLOCK_RECORD
  5
83
330
1
100
AcDbSymbolTableRecord
100
AcDbBlockTableRecord
  2
block 4
340
0
102
{BLKREFS
331
84
102
}
 70
     0
280
     1
281
     0
  0
BLOCK_RECORD
  5
98
330
1
100
AcDbSymbolTableRecord
100
AcDbBlockTableRecord
  2
block 5
340
0
102
{BLKREFS
331
99
102
}
 70
     0
280
     1
281
     0
  0
BLOCK_RECORD
  5
AA
330
1
100
AcDbSymbolTableRecord
100
AcDbBlockTableRecord
  2
block 6
340
0
102
{BLKREFS
331
AB
102
}
 70
     0
280
     1
281
     0
  0
ENDTAB
  0
ENDSEC
  0
SECTION
  2
BLOCKS
  0
BLOCK
  5
20
330
1F
100
AcDbEntity
  8
0
100
AcDbBlockBegin
  2
*Model_Space
 70
     0
 10
0.0
 20
0.0
 30
0.0
  3
*Model_Space
  1

  0
ENDBLK
  5
21
330
1F
100
AcDbEntity
  8
0
100
AcDbBlockEnd
  0
BLOCK
  5
1C
330
1B
100
AcDbEntity
 67
     1
  8
0
100
AcDbBlockBegin
  2
*Paper_Space
 70
     0
 10
0.0
 20
0.0
 30
0.0
  3
*Paper_Space
  1

  0
ENDBLK
  5
1D
330
1B
100
AcDbEntity
 67
     1
  8
0
100
AcDbBlockEnd
  0
BLOCK
  5
24
330
23
100
AcDbEntity
  8
0
100
AcDbBlockBegin
  2
*Paper_Space0
 70
     0
 10
0.0
 20
0.0
 30
0.0
  3
*Paper_Space0
  1

  0
ENDBLK
  5
25
330
23
100
AcDbEntity
  8
0
100
AcDbBlockEnd
  0
BLOCK
  5
76
330
74
100
AcDbEntity
  8
0
100
AcDbBlockBegin
  2
block 2
 70
     0
 10
0.0
 20
0.0
 30
0.0
  3
block 2
  1

  0
SPLINE
  5
78
330
74
100
AcDbEntity
  8
_U+30EC_U+30A4_U+30E4_U+30FC 1
370
     0
100
AcDbSpline
210
0.0
220
0.0
230
1.0
 70
    11
 71
     3
 72
    26
 73
    22
 74
     0
 42
0.0000000001
 43
0.0000000001
 12
1.0
 22
0.0
 32
0.0
 13
1.0
 23
0.0
 33
0.0
 40
0.0
 40
0.0
 40
0.0
 40
0.0
 40
1.0
 40
1.0
 40
1.0
 40
2.0
 40
2.0
 40
2.0
 40
3.0
 40
3.0
 40
3.0
 40
4.0
 40
4.0
 40
4.0
 40
5.0
 40
5.0
 40
5.0
 40
6.0
 40
6.0
 40
6.0
 40
7.0
 40
7.0
 40
7.0
 40
7.0
 10
105.8436685933307
 20
-128.7170355580985
 30
0.0
 10
105.8436685933307
 20
-128.7170355580985
 30
0.0
 10
104.7398599998567
 20
-128.7170355580985
 30
0.0
 10
104.7398599998567
 20
-128.7170355580985
 30
0.0
 10
104.7398599998567
 20
-128.7170355580985
 30
0.0
 10
104.7398599998567
 20
-129.0470757055855
 30
0.0
 10
104.7398599998567
 20
-129.0470757055855
 30
0.0
 10
104.7398599998567
 20
-129.0470757055855
 30
0.0
 10
104.591720893991
 20
-129.0470757055855
 30
0.0
 10
104.591720893991
 20
-129.0470757055855
 30
0.0
 10
104.5765624738559
 20
-128.7149685008074
 30
0.0
 10
104.4139539669521
 20
-128.6684597117565
 30
0.0
 10
104.2995767968418
 20
-128.6388318905834
 30
0.0
 10
104.2995767968418
 20
-128.6388318905834
 30
0.0
 10
104.2995767968418
 20
-128.4927598420088
 30
0.0
 10
104.2995767968418
 20
-128.4927598420088
 30
0.0
 10
104.2995767968418
 20
-128.4927598420088
 30
0.0
 10
105.8436685933307
 20
-128.4927598420088
 30
0.0
 10
105.8436685933307
 20
-128.4927598420088
 30
0.0
 10
105.8436685933307
 20
-128.4927598420088
 30
0.0
 10
105.8436685933307
 20
-128.7170355580985
 30
0.0
 10
105.8436685933307
 20
-128.7170355580985
 30
0.0
  0
HATCH
  5
79
330
74
100
AcDbEntity
  8
_U+30EC_U+30A4_U+30E4_U+30FC 1
 62
     7
420
 16777215
100
AcDbHatch
 10
0.0
 20
0.0
 30
0.0
210
0.0
220
0.0
230
1.0
  2
SOLID
 70
     1
 71
     0
 91
        1
 92
        1
 93
        1
 72
     4
 94
        3
 73
     0
 74
     1
 95
       26
 96
       22
 40
0.0
 40
0.0
 40
0.0
 40
0.0
 40
1.0
 40
1.0
 40
1.0
 40
2.0
 40
2.0
 40
2.0
 40
3.0
 40
3.0
 40
3.0
 40
4.0
 40
4.0
 40
4.0
 40
5.0
 40
5.0
 40
5.0
 40
6.0
 40
6.0
 40
6.0
 40
7.0
 40
7.0
 40
7.0
 40
7.0
 10
105.8436685933307
 20
-128.7170355580985
 10
105.8436685933307
 20
-128.7170355580985
 10
104.7398599998567
 20
-128.7170355580985
 10
104.7398599998567
 20
-128.7170355580985
 10
104.7398599998567
 20
-128.7170355580985
 10
104.7398599998567
 20
-129.0470757055855
 10
104.7398599998567
 20
-129.0470757055855
 10
104.7398599998567
 20
-129.0470757055855
 10
104.591720893991
 20
-129.0470757055855
 10
104.591720893991
 20
-129.0470757055855
 10
104.5765624738559
 20
-128.7149685008074
 10
104.4139539669521
 20
-128.6684597117565
 10
104.2995767968418
 20
-128.6388318905834
 10
104.2995767968418
 20
-128.6388318905834
 10
104.2995767968418
 20
-128.4927598420088
 10
104.2995767968418
 20
-128.4927598420088
 10
104.2995767968418
 20
-128.4927598420088
 10
105.8436685933307
 20
-128.4927598420088
 10
105.8436685933307
 20
-128.4927598420088
 10
105.8436685933307
 20
-128.4927598420088
 10
105.8436685933307
 20
-128.7170355580985
 10
105.8436685933307
 20
-128.7170355580985
 97
        0
 97
        0
 75
     2
 76
     1
 98
        0
  0
SPLINE
  5
7A
330
74
100
AcDbEntity
  8
_U+30EC_U+30A4_U+30E4_U+30FC 1
370
     0
100
AcDbSpline
210
0.0
220
0.0
230
1.0
 70
    11
 71
     3
 72
    29
 73
    25
 74
     0
 42
0.0000000001
 43
0.0000000001
 12
1.0
 22
0.0
 32
0.0
 13
1.0
 23
0.0
 33
0.0
 40
0.0
 40
0.0
 40
0.0
 40
0.0
 40
1.0
 40
1.0
 40
1.0
 40
2.0
 40
2.0
 40
2.0
 40
3.0
 40
3.0
 40
3.0
 40
4.0
 40
4.0
 40
4.0
 40
5.0
 40
5.0
 40
5.0
 40
6.0
 40
6.0
 40
6.0
 40
7.0
 40
7.0
 40
7.0
 40
8.0
 40
8.0
 40
8.0
 40
8.0
 10
105.6659016662919
 20
-127.0937065654488
 30
0.0
 10
105.8753634717951
 20
-127.2018825636856
 30
0.0
 10
105.8946560065124
 20
-127.3751708665937
 30
0.0
 10
105.8946560065124
 20
-127.4916150939952
 30
0.0
 10
105.8946560065124
 20
-127.6525010531563
 30
0.0
 10
105.8478027079131
 20
-127.7940944776001
 30
0.0
 10
105.6659016662919
 20
-127.889179112993
 30
0.0
 10
105.4715982809238
 20
-127.992876487099
 30
0.0
 10
105.2345757115386
 20
-128.0121690218164
 30
0.0
 10
105.0719672046348
 20
-128.0121690218164
 30
0.0
 10
104.9279622133513
 20
-128.0121690218164
 30
0.0
 10
104.6757812238311
 20
-127.9949435443902
 30
0.0
 10
104.4773437238807
 20
-127.889179112993
 30
0.0
 10
104.2740830902509
 20
-127.7813476243047
 30
0.0
 10
104.2506564409512
 20
-127.6204616651435
 30
0.0
 10
104.2506564409512
 20
-127.4916150939952
 30
0.0
 10
104.2506564409512
 20
-127.3327961921251
 30
0.0
 10
104.2954426822595
 20
-127.1891357103902
 30
0.0
 10
104.4773437238807
 20
-127.0937065654488
 30
0.0
 10
104.6695800519576
 20
-126.9944878154736
 30
0.0
 10
104.8983343921782
 20
-126.9710611661739
 30
0.0
 10
105.0719672046348
 20
-126.9710611661739
 30
0.0
 10
105.2428439407032
 20
-126.9710611661739
 30
0.0
 10
105.4736653382149
 20
-126.9924207581825
 30
0.0
 10
105.6659016662919
 20
-127.0937065654488
 30
0.0
  0
SPLINE
  5
7B
330
74
100
AcDbEntity
  8
_U+30EC_U+30A4_U+30E4_U+30FC 1
370
     0
100
AcDbSpline
210
0.0
220
0.0
230
1.0
 70
    11
 71
     3
 72
    17
 73
    13
 74
     0
 42
0.0000000001
 43
0.0000000001
 12
1.0
 22
0.0
 32
0.0
 13
1.0
 23
0.0
 33
0.0
 40
0.0
 40
0.0
 40
0.0
 40
0.0
 40
1.0
 40
1.0
 40
1.0
 40
2.0
 40
2.0
 40
2.0
 40
3.0
 40
3.0
 40
3.0
 40
4.0
 40
4.0
 40
4.0
 40
4.0
 10
104.4435817881252
 20
-127.4916150939952
 30
0.0
 10
104.4435817881252
 20
-127.7413845166758
 30
0.0
 10
104.7267686370128
 20
-127.7878933057266
 30
0.0
 10
105.0719672046348
 20
-127.7878933057266
 30
0.0
 10
105.3909830465689
 20
-127.7878933057266
 30
0.0
 10
105.6996636020473
 20
-127.7517198031315
 30
0.0
 10
105.6996636020473
 20
-127.4916150939952
 30
0.0
 10
105.6996636020473
 20
-127.2439127286057
 30
0.0
 10
105.4185438104509
 20
-127.1953368822637
 30
0.0
 10
105.0719672046348
 20
-127.1953368822637
 30
0.0
 10
104.7522623436036
 20
-127.1953368822637
 30
0.0
 10
104.4435817881252
 20
-127.23357744215
 30
0.0
 10
104.4435817881252
 20
-127.4916150939952
 30
0.0
  0
HATCH
  5
7C
330
74
100
AcDbEntity
  8
_U+30EC_U+30A4_U+30E4_U+30FC 1
 62
     7
420
 16777215
100
AcDbHatch
 10
0.0
 20
0.0
 30
0.0
210
0.0
220
0.0
230
1.0
  2
SOLID
 70
     1
 71
     0
 91
        2
 92
        1
 93
        1
 72
     4
 94
        3
 73
     0
 74
     1
 95
       29
 96
       25
 40
0.0
 40
0.0
 40
0.0
 40
0.0
 40
1.0
 40
1.0
 40
1.0
 40
2.0
 40
2.0
 40
2.0
 40
3.0
 40
3.0
 40
3.0
 40
4.0
 40
4.0
 40
4.0
 40
5.0
 40
5.0
 40
5.0
 40
6.0
 40
6.0
 40
6.0
 40
7.0
 40
7.0
 40
7.0
 40
8.0
 40
8.0
 40
8.0
 40
8.0
 10
105.6659016662919
 20
-127.0937065654488
 10
105.8753634717951
 20
-127.2018825636856
 10
105.8946560065124
 20
-127.3751708665937
 10
105.8946560065124
 20
-127.4916150939952
 10
105.8946560065124
 20
-127.6525010531563
 10
105.8478027079131
 20
-127.7940944776001
 10
105.6659016662919
 20
-127.889179112993
 10
105.4715982809238
 20
-127.992876487099
 10
105.2345757115386
 20
-128.0121690218164
 10
105.0719672046348
 20
-128.0121690218164
 10
104.9279622133513
 20
-128.0121690218164
 10
104.6757812238311
 20
-127.9949435443902
 10
104.4773437238807
 20
-127.889179112993
 10
104.2740830902509
 20
-127.7813476243047
 10
104.2506564409512
 20
-127.6204616651435
 10
104.2506564409512
 20
-127.4916150939952
 10
104.2506564409512
 20
-127.3327961921251
 10
104.2954426822595
 20
-127.1891357103902
 10
104.4773437238807
 20
-127.0937065654488
 10
104.6695800519576
 20
-126.9944878154736
 10
104.8983343921782
 20
-126.9710611661739
 10
105.0719672046348
 20
-126.9710611661739
 10
105.2428439407032
 20
-126.9710611661739
 10
105.4736653382149
 20
-126.9924207581825
 10
105.6659016662919
 20
-127.0937065654488
 97
        0
 97
        0
 92
        1
 93
        1
 72
     4
 94
        3
 73
     0
 74
     1
 95
       17
 96
       13
 40
0.0
 40
0.0
 40
0.0
 40
0.0
 40
1.0
 40
1.0
 40
1.0
 40
2.0
 40
2.0
 40
2.0
 40
3.0
 40
3.0
 40
3.0
 40
4.0
 40
4.0
 40
4.0
 40
4.0
 10
104.4435817881252
 20
-127.4916150939952
 10
104.4435817881252
 20
-127.7413845166758
 10
104.7267686370128
 20
-127.7878933057266
 10
105.0719672046348
 20
-127.7878933057266
 10
105.3909830465689
 20
-127.7878933057266
 10
105.6996636020473
 20
-127.7517198031315
 10
105.6996636020473
 20
-127.4916150939952
 10
105.6996636020473
 20
-127.2439127286057
 10
105.4185438104509
 20
-127.1953368822637
 10
105.0719672046348
 20
-127.1953368822637
 10
104.7522623436036
 20
-127.1953368822637
 10
104.4435817881252
 20
-127.23357744215
 10
104.4435817881252
 20
-127.4916150939952
 97
        0
 97
        0
 75
     2
 76
     1
 98
        0
  0
ENDBLK
  5
77
330
74
100
AcDbEntity
  8
0
100
AcDbBlockEnd
  0
BLOCK
  5
7F
330
7D
100
AcDbEntity
  8
0
100
AcDbBlockBegin
  2
block 3
 70
     0
 10
0.0
 20
0.0
 30
0.0
  3
block 3
  1

  0
SPLINE
  5
81
330
7D
100
AcDbEntity
  8
_U+30EC_U+30A4_U+30E4_U+30FC 1
370
     0
100
AcDbSpline
210
0.0
220
0.0
230
1.0
 70
    11
 71
     3
 72
    26
 73
    22
 74
     0
 42
0.0000000001
 43
0.0000000001
 12
1.0
 22
0.0
 32
0.0
 13
1.0
 23
0.0
 33
0.0
 40
0.0
 40
0.0
 40
0.0
 40
0.0
 40
1.0
 40
1.0
 40
1.0
 40
2.0
 40
2.0
 40
2.0
 40
3.0
 40
3.0
 40
3.0
 40
4.0
 40
4.0
 40
4.0
 40
5.0
 40
5.0
 40
5.0
 40
6.0
 40
6.0
 40
6.0
 40
7.0
 40
7.0
 40
7.0
 40
7.0
 10
105.8436685933307
 20
-133.8915689769438
 30
0.0
 10
105.8436685933307
 20
-133.8915689769438
 30
0.0
 10
104.7398599998567
 20
-133.8915689769438
 30
0.0
 10
104.7398599998567
 20
-133.8915689769438
 30
0.0
 10
104.7398599998567
 20
-133.8915689769438
 30
0.0
 10
104.7398599998567
 20
-134.2216091244307
 30
0.0
 10
104.7398599998567
 20
-134.2216091244307
 30
0.0
 10
104.7398599998567
 20
-134.2216091244307
 30
0.0
 10
104.591720893991
 20
-134.2216091244307
 30
0.0
 10
104.591720893991
 20
-134.2216091244307
 30
0.0
 10
104.5765624738559
 20
-133.8895019196526
 30
0.0
 10
104.4139539669521
 20
-133.8429931306018
 30
0.0
 10
104.2995767968418
 20
-133.8133653094286
 30
0.0
 10
104.2995767968418
 20
-133.8133653094286
 30
0.0
 10
104.2995767968418
 20
-133.667293260854
 30
0.0
 10
104.2995767968418
 20
-133.667293260854
 30
0.0
 10
104.2995767968418
 20
-133.667293260854
 30
0.0
 10
105.8436685933307
 20
-133.667293260854
 30
0.0
 10
105.8436685933307
 20
-133.667293260854
 30
0.0
 10
105.8436685933307
 20
-133.667293260854
 30
0.0
 10
105.8436685933307
 20
-133.8915689769438
 30
0.0
 10
105.8436685933307
 20
-133.8915689769438
 30
0.0
  0
HATCH
  5
82
330
7D
100
AcDbEntity
  8
_U+30EC_U+30A4_U+30E4_U+30FC 1
 62
     7
420
 16777215
100
AcDbHatch
 10
0.0
 20
0.0
 30
0.0
210
0.0
220
0.0
230
1.0
  2
SOLID
 70
     1
 71
     0
 91
        1
 92
        1
 93
        1
 72
     4
 94
        3
 73
     0
 74
     1
 95
       26
 96
       22
 40
0.0
 40
0.0
 40
0.0
 40
0.0
 40
1.0
 40
1.0
 40
1.0
 40
2.0
 40
2.0
 40
2.0
 40
3.0
 40
3.0
 40
3.0
 40
4.0
 40
4.0
 40
4.0
 40
5.0
 40
5.0
 40
5.0
 40
6.0
 40
6.0
 40
6.0
 40
7.0
 40
7.0
 40
7.0
 40
7.0
 10
105.8436685933307
 20
-133.8915689769438
 10
105.8436685933307
 20
-133.8915689769438
 10
104.7398599998567
 20
-133.8915689769438
 10
104.7398599998567
 20
-133.8915689769438
 10
104.7398599998567
 20
-133.8915689769438
 10
104.7398599998567
 20
-134.2216091244307
 10
104.7398599998567
 20
-134.2216091244307
 10
104.7398599998567
 20
-134.2216091244307
 10
104.591720893991
 20
-134.2216091244307
 10
104.591720893991
 20
-134.2216091244307
 10
104.5765624738559
 20
-133.8895019196526
 10
104.4139539669521
 20
-133.8429931306018
 10
104.2995767968418
 20
-133.8133653094286
 10
104.2995767968418
 20
-133.8133653094286
 10
104.2995767968418
 20
-133.667293260854
 10
104.2995767968418
 20
-133.667293260854
 10
104.2995767968418
 20
-133.667293260854
 10
105.8436685933307
 20
-133.667293260854
 10
105.8436685933307
 20
-133.667293260854
 10
105.8436685933307
 20
-133.667293260854
 10
105.8436685933307
 20
-133.8915689769438
 10
105.8436685933307
 20
-133.8915689769438
 97
        0
 97
        0
 75
     2
 76
     1
 98
        0
  0
ENDBLK
  5
80
330
7D
100
AcDbEntity
  8
0
100
AcDbBlockEnd
  0
BLOCK
  5
85
330
83
100
AcDbEntity
  8
0
100
AcDbBlockBegin
  2
block 4
 70
     0
 10
0.0
 20
0.0
 30
0.0
  3
block 4
  1

  0
SPLINE
  5
87
330
83
100
AcDbEntity
  8
_U+30EC_U+30A4_U+30E4_U+30FC 1
370
     0
100
AcDbSpline
210
0.0
220
0.0
230
1.0
 70
    11
 71
     3
 72
    32
 73
    28
 74
     0
 42
0.0000000001
 43
0.0000000001
 12
1.0
 22
0.0
 32
0.0
 13
1.0
 23
0.0
 33
0.0
 40
0.0
 40
0.0
 40
0.0
 40
0.0
 40
1.0
 40
1.0
 40
1.0
 40
2.0
 40
2.0
 40
2.0
 40
3.0
 40
3.0
 40
3.0
 40
4.0
 40
4.0
 40
4.0
 40
5.0
 40
5.0
 40
5.0
 40
6.0
 40
6.0
 40
6.0
 40
7.0
 40
7.0
 40
7.0
 40
8.0
 40
8.0
 40
8.0
 40
9.0
 40
9.0
 40
9.0
 40
9.0
 10
95.76917586581466
 20
-126.3409532019217
 30
0.0
 10
95.76917586581466
 20
-126.8570285056121
 30
0.0
 10
95.21520451178648
 20
-126.8656412443253
 30
0.0
 10
95.00126408215246
 20
-126.8656412443253
 30
0.0
 10
94.77078719418925
 20
-126.8656412443253
 30
0.0
 10
94.12345375251081
 20
-126.8463487096079
 30
0.0
 10
94.12345375251081
 20
-126.3027126420354
 30
0.0
 10
94.12345375251081
 20
-126.1294243391274
 30
0.0
 10
94.19338919086138
 20
-125.8837890310291
 30
0.0
 10
94.52549639563946
 20
-125.8458929806913
 30
0.0
 10
94.52549639563946
 20
-125.8458929806913
 30
0.0
 10
94.52549639563946
 20
-126.0594889007768
 30
0.0
 10
94.52549639563946
 20
-126.0594889007768
 30
0.0
 10
94.46830781058432
 20
-126.0701686967811
 30
0.0
 10
94.32016870471857
 20
-126.1018635752454
 30
0.0
 10
94.32016870471857
 20
-126.3047796993266
 30
0.0
 10
94.32016870471857
 20
-126.5969237964758
 30
0.0
 10
94.64814179491435
 20
-126.6368869041047
 30
0.0
 10
94.85312497628672
 20
-126.6496337574001
 30
0.0
 10
94.77492130877155
 20
-126.5566161792983
 30
0.0
 10
94.71566566642525
 20
-126.4887477982389
 30
0.0
 10
94.71566566642525
 20
-126.3068467566177
 30
0.0
 10
94.71566566642525
 20
-126.1270127722877
 30
0.0
 10
94.8238416646621
 20
-125.8245333886828
 30
0.0
 10
95.23001842237305
 20
-125.8245333886828
 30
0.0
 10
95.54937877385572
 20
-125.8245333886828
 30
0.0
 10
95.76917586581466
 20
-126.0236599077302
 30
0.0
 10
95.76917586581466
 20
-126.3409532019217
 30
0.0
  0
SPLINE
  5
88
330
83
100
AcDbEntity
  8
_U+30EC_U+30A4_U+30E4_U+30FC 1
370
     0
100
AcDbSpline
210
0.0
220
0.0
230
1.0
 70
    11
 71
     3
 72
    17
 73
    13
 74
     0
 42
0.0000000001
 43
0.0000000001
 12
1.0
 22
0.0
 32
0.0
 13
1.0
 23
0.0
 33
0.0
 40
0.0
 40
0.0
 40
0.0
 40
0.0
 40
1.0
 40
1.0
 40
1.0
 40
2.0
 40
2.0
 40
2.0
 40
3.0
 40
3.0
 40
3.0
 40
4.0
 40
4.0
 40
4.0
 40
4.0
 10
94.91031356134187
 20
-126.324072234044
 30
0.0
 10
94.91031356134187
 20
-126.5862440004715
 30
0.0
 10
95.1218424241362
 20
-126.6241400508092
 30
0.0
 10
95.23828665153765
 20
-126.6241400508092
 30
0.0
 10
95.4139865212854
 20
-126.6241400508092
 30
0.0
 10
95.57693953773772
 20
-126.5290554154164
 30
0.0
 10
95.57693953773772
 20
-126.345087316504
 30
0.0
 10
95.57693953773772
 20
-126.2245089745203
 30
0.0
 10
95.51768389539141
 20
-126.0488091047725
 30
0.0
 10
95.2320854796642
 20
-126.0488091047725
 30
0.0
 10
95.00780976357444
 20
-126.0488091047725
 30
0.0
 10
94.91031356134187
 20
-126.1883354719251
 30
0.0
 10
94.91031356134187
 20
-126.324072234044
 30
0.0
  0
HATCH
  5
89
330
83
100
AcDbEntity
  8
_U+30EC_U+30A4_U+30E4_U+30FC 1
 62
     7
420
 16777215
100
AcDbHatch
 10
0.0
 20
0.0
 30
0.0
210
0.0
220
0.0
230
1.0
  2
SOLID
 70
     1
 71
     0
 91
        2
 92
        1
 93
        1
 72
     4
 94
        3
 73
     0
 74
     1
 95
       32
 96
       28
 40
0.0
 40
0.0
 40
0.0
 40
0.0
 40
1.0
 40
1.0
 40
1.0
 40
2.0
 40
2.0
 40
2.0
 40
3.0
 40
3.0
 40
3.0
 40
4.0
 40
4.0
 40
4.0
 40
5.0
 40
5.0
 40
5.0
 40
6.0
 40
6.0
 40
6.0
 40
7.0
 40
7.0
 40
7.0
 40
8.0
 40
8.0
 40
8.0
 40
9.0
 40
9.0
 40
9.0
 40
9.0
 10
95.76917586581466
 20
-126.3409532019217
 10
95.76917586581466
 20
-126.8570285056121
 10
95.21520451178648
 20
-126.8656412443253
 10
95.00126408215246
 20
-126.8656412443253
 10
94.77078719418925
 20
-126.8656412443253
 10
94.12345375251081
 20
-126.8463487096079
 10
94.12345375251081
 20
-126.3027126420354
 10
94.12345375251081
 20
-126.1294243391274
 10
94.19338919086138
 20
-125.8837890310291
 10
94.52549639563946
 20
-125.8458929806913
 10
94.52549639563946
 20
-125.8458929806913
 10
94.52549639563946
 20
-126.0594889007768
 10
94.52549639563946
 20
-126.0594889007768
 10
94.46830781058432
 20
-126.0701686967811
 10
94.32016870471857
 20
-126.1018635752454
 10
94.32016870471857
 20
-126.3047796993266
 10
94.32016870471857
 20
-126.5969237964758
 10
94.64814179491435
 20
-126.6368869041047
 10
94.85312497628672
 20
-126.6496337574001
 10
94.77492130877155
 20
-126.5566161792983
 10
94.71566566642525
 20
-126.4887477982389
 10
94.71566566642525
 20
-126.3068467566177
 10
94.71566566642525
 20
-126.1270127722877
 10
94.8238416646621
 20
-125.8245333886828
 10
95.23001842237305
 20
-125.8245333886828
 10
95.54937877385572
 20
-125.8245333886828
 10
95.76917586581466
 20
-126.0236599077302
 10
95.76917586581466
 20
-126.3409532019217
 97
        0
 97
        0
 92
        1
 93
        1
 72
     4
 94
        3
 73
     0
 74
     1
 95
       17
 96
       13
 40
0.0
 40
0.0
 40
0.0
 40
0.0
 40
1.0
 40
1.0
 40
1.0
 40
2.0
 40
2.0
 40
2.0
 40
3.0
 40
3.0
 40
3.0
 40
4.0
 40
4.0
 40
4.0
 40
4.0
 10
94.91031356134187
 20
-126.324072234044
 10
94.91031356134187
 20
-126.5862440004715
 10
95.1218424241362
 20
-126.6241400508092
 10
95.23828665153765
 20
-126.6241400508092
 10
95.4139865212854
 20
-126.6241400508092
 10
95.57693953773772
 20
-126.5290554154164
 10
95.57693953773772
 20
-126.345087316504
 10
95.57693953773772
 20
-126.2245089745203
 10
95.51768389539141
 20
-126.0488091047725
 10
95.2320854796642
 20
-126.0488091047725
 10
95.00780976357444
 20
-126.0488091047725
 10
94.91031356134187
 20
-126.1883354719251
 10
94.91031356134187
 20
-126.324072234044
 97
        0
 97
        0
 75
     2
 76
     1
 98
        0
  0
ENDBLK
  5
86
330
83
100
AcDbEntity
  8
0
100
AcDbBlockEnd
  0
BLOCK
  5
9A
330
98
100
AcDbEntity
  8
0
100
AcDbBlockBegin
  2
block 5
 70
     0
 10
0.0
 20
0.0
 30
0.0
  3
block 5
  1

  0
SPLINE
  5
9C
330
98
100
AcDbEntity
  8
_U+30EC_U+30A4_U+30E4_U+30FC 1
370
     0
100
AcDbSpline
210
0.0
220
0.0
230
1.0
 70
    11
 71
     3
 72
    62
 73
    58
 74
     0
 42
0.0000000001
 43
0.0000000001
 12
1.0
 22
0.0
 32
0.0
 13
1.0
 23
0.0
 33
0.0
 40
0.0
 40
0.0
 40
0.0
 40
0.0
 40
1.0
 40
1.0
 40
1.0
 40
2.0
 40
2.0
 40
2.0
 40
3.0
 40
3.0
 40
3.0
 40
4.0
 40
4.0
 40
4.0
 40
5.0
 40
5.0
 40
5.0
 40
6.0
 40
6.0
 40
6.0
 40
7.0
 40
7.0
 40
7.0
 40
8.0
 40
8.0
 40
8.0
 40
9.0
 40
9.0
 40
9.0
 40
10.0
 40
10.0
 40
10.0
 40
11.0
 40
11.0
 40
11.0
 40
12.0
 40
12.0
 40
12.0
 40
13.0
 40
13.0
 40
13.0
 40
14.0
 40
14.0
 40
14.0
 40
15.0
 40
15.0
 40
15.0
 40
16.0
 40
16.0
 40
16.0
 40
17.0
 40
17.0
 40
17.0
 40
18.0
 40
18.0
 40
18.0
 40
19.0
 40
19.0
 40
19.0
 40
19.0
 10
88.02270641245613
 20
-120.036083954366
 30
0.0
 10
87.92727726751471
 20
-120.036083954366
 30
0.0
 10
87.70954723284692
 20
-120.015068871906
 30
0.0
 10
87.58449026673236
 20
-119.8290337157025
 30
0.0
 10
87.51042071379948
 20
-119.7167236028833
 30
0.0
 10
87.50628659921718
 20
-119.6175048529081
 30
0.0
 10
87.50215248463488
 20
-119.532755503971
 30
0.0
 10
87.50215248463488
 20
-119.532755503971
 30
0.0
 10
87.72229408614234
 20
-119.532755503971
 30
0.0
 10
87.72229408614234
 20
-119.532755503971
 30
0.0
 10
87.7243611434335
 20
-119.6068250569039
 30
0.0
 10
87.73469642988924
 20
-119.8414360594494
 30
0.0
 10
88.0182277883253
 20
-119.8414360594494
 30
0.0
 10
88.15568709818677
 20
-119.8414360594494
 30
0.0
 10
88.30830482818334
 20
-119.7718451306473
 30
0.0
 10
88.30830482818334
 20
-119.5434352999753
 30
0.0
 10
88.30830482818334
 20
-119.4269910725738
 30
0.0
 10
88.27006426829708
 20
-119.3784152262318
 30
0.0
 10
88.23836938983277
 20
-119.3467203477675
 30
0.0
 10
88.1642998368999
 20
-119.2726507948346
 30
0.0
 10
88.04785560949846
 20
-119.2599039415392
 30
0.0
 10
87.99307859128298
 20
-119.2599039415392
 30
0.0
 10
87.97378605656559
 20
-119.2599039415392
 30
0.0
 10
87.937957063519
 20
-119.2619709988303
 30
0.0
 10
87.91039629963699
 20
-119.2661051134126
 30
0.0
 10
87.91039629963699
 20
-119.2661051134126
 30
0.0
 10
87.91039629963699
 20
-119.071457218496
 30
0.0
 10
87.91039629963699
 20
-119.071457218496
 30
0.0
 10
87.94863685952326
 20
-119.078002899918
 30
0.0
 10
87.99066702444331
 20
-119.0800699572092
 30
0.0
 10
87.99721270586528
 20
-119.0800699572092
 30
0.0
 10
88.06266952008504
 20
-119.0800699572092
 30
0.0
 10
88.26145152958395
 20
-119.0587103652006
 30
0.0
 10
88.26145152958395
 20
-118.8220323053639
 30
0.0
 10
88.26145152958395
 20
-118.644265378325
 30
0.0
 10
88.13053790114445
 20
-118.5891438505611
 30
0.0
 10
88.02029484561646
 20
-118.5891438505611
 30
0.0
 10
87.75605602189779
 20
-118.5891438505611
 30
0.0
 10
87.74744328318467
 20
-118.8220323053639
 30
0.0
 10
87.74330916860237
 20
-118.8936902914571
 30
0.0
 10
87.74330916860237
 20
-118.8936902914571
 30
0.0
 10
87.54004853497263
 20
-118.8936902914571
 30
0.0
 10
87.54004853497263
 20
-118.8936902914571
 30
0.0
 10
87.54866127368575
 20
-118.7689778348911
 30
0.0
 10
87.57622203756776
 20
-118.3924288983533
 30
0.0
 10
88.03304169891189
 20
-118.3924288983533
 30
0.0
 10
88.25731741500165
 20
-118.3924288983533
 30
0.0
 10
88.49847409896914
 20
-118.519552921759
 30
0.0
 10
88.49847409896914
 20
-118.815486623942
 30
0.0
 10
88.49847409896914
 20
-119.001866289694
 30
0.0
 10
88.40338946357625
 20
-119.0842040717915
 30
0.0
 10
88.30382620405253
 20
-119.1455267714289
 30
0.0
 10
88.36514890368997
 20
-119.1730875353109
 30
0.0
 10
88.54704994531116
 20
-119.2533582601172
 30
0.0
 10
88.54704994531116
 20
-119.5306884466798
 30
0.0
 10
88.54704994531116
 20
-119.8689968233314
 30
0.0
 10
88.29969208947021
 20
-120.036083954366
 30
0.0
 10
88.02270641245613
 20
-120.036083954366
 30
0.0
  0
HATCH
  5
9D
330
98
100
AcDbEntity
  8
_U+30EC_U+30A4_U+30E4_U+30FC 1
 62
     7
420
 16777215
100
AcDbHatch
 10
0.0
 20
0.0
 30
0.0
210
0.0
220
0.0
230
1.0
  2
SOLID
 70
     1
 71
     0
 91
        1
 92
        1
 93
        1
 72
     4
 94
        3
 73
     0
 74
     1
 95
       62
 96
       58
 40
0.0
 40
0.0
 40
0.0
 40
0.0
 40
1.0
 40
1.0
 40
1.0
 40
2.0
 40
2.0
 40
2.0
 40
3.0
 40
3.0
 40
3.0
 40
4.0
 40
4.0
 40
4.0
 40
5.0
 40
5.0
 40
5.0
 40
6.0
 40
6.0
 40
6.0
 40
7.0
 40
7.0
 40
7.0
 40
8.0
 40
8.0
 40
8.0
 40
9.0
 40
9.0
 40
9.0
 40
10.0
 40
10.0
 40
10.0
 40
11.0
 40
11.0
 40
11.0
 40
12.0
 40
12.0
 40
12.0
 40
13.0
 40
13.0
 40
13.0
 40
14.0
 40
14.0
 40
14.0
 40
15.0
 40
15.0
 40
15.0
 40
16.0
 40
16.0
 40
16.0
 40
17.0
 40
17.0
 40
17.0
 40
18.0
 40
18.0
 40
18.0
 40
19.0
 40
19.0
 40
19.0
 40
19.0
 10
88.02270641245613
 20
-120.036083954366
 10
87.92727726751471
 20
-120.036083954366
 10
87.70954723284692
 20
-120.015068871906
 10
87.58449026673236
 20
-119.8290337157025
 10
87.51042071379948
 20
-119.7167236028833
 10
87.50628659921718
 20
-119.6175048529081
 10
87.50215248463488
 20
-119.532755503971
 10
87.50215248463488
 20
-119.532755503971
 10
87.72229408614234
 20
-119.532755503971
 10
87.72229408614234
 20
-119.532755503971
 10
87.7243611434335
 20
-119.6068250569039
 10
87.73469642988924
 20
-119.8414360594494
 10
88.0182277883253
 20
-119.8414360594494
 10
88.15568709818677
 20
-119.8414360594494
 10
88.30830482818334
 20
-119.7718451306473
 10
88.30830482818334
 20
-119.5434352999753
 10
88.30830482818334
 20
-119.4269910725738
 10
88.27006426829708
 20
-119.3784152262318
 10
88.23836938983277
 20
-119.3467203477675
 10
88.1642998368999
 20
-119.2726507948346
 10
88.04785560949846
 20
-119.2599039415392
 10
87.99307859128298
 20
-119.2599039415392
 10
87.97378605656559
 20
-119.2599039415392
 10
87.937957063519
 20
-119.2619709988303
 10
87.91039629963699
 20
-119.2661051134126
 10
87.91039629963699
 20
-119.2661051134126
 10
87.91039629963699
 20
-119.071457218496
 10
87.91039629963699
 20
-119.071457218496
 10
87.94863685952326
 20
-119.078002899918
 10
87.99066702444331
 20
-119.0800699572092
 10
87.99721270586528
 20
-119.0800699572092
 10
88.06266952008504
 20
-119.0800699572092
 10
88.26145152958395
 20
-119.0587103652006
 10
88.26145152958395
 20
-118.8220323053639
 10
88.26145152958395
 20
-118.644265378325
 10
88.13053790114445
 20
-118.5891438505611
 10
88.02029484561646
 20
-118.5891438505611
 10
87.75605602189779
 20
-118.5891438505611
 10
87.74744328318467
 20
-118.8220323053639
 10
87.74330916860237
 20
-118.8936902914571
 10
87.74330916860237
 20
-118.8936902914571
 10
87.54004853497263
 20
-118.8936902914571
 10
87.54004853497263
 20
-118.8936902914571
 10
87.54866127368575
 20
-118.7689778348911
 10
87.57622203756776
 20
-118.3924288983533
 10
88.03304169891189
 20
-118.3924288983533
 10
88.25731741500165
 20
-118.3924288983533
 10
88.49847409896914
 20
-118.519552921759
 10
88.49847409896914
 20
-118.815486623942
 10
88.49847409896914
 20
-119.001866289694
 10
88.40338946357625
 20
-119.0842040717915
 10
88.30382620405253
 20
-119.1455267714289
 10
88.36514890368997
 20
-119.1730875353109
 10
88.54704994531116
 20
-119.2533582601172
 10
88.54704994531116
 20
-119.5306884466798
 10
88.54704994531116
 20
-119.8689968233314
 10
88.29969208947021
 20
-120.036083954366
 10
88.02270641245613
 20
-120.036083954366
 97
        0
 97
        0
 75
     2
 76
     1
 98
        0
  0
ENDBLK
  5
9B
330
98
100
AcDbEntity
  8
0
100
AcDbBlockEnd
  0
BLOCK
  5
AC
330
AA
100
AcDbEntity
  8
0
100
AcDbBlockBegin
  2
block 6
 70
     0
 10
0.0
 20
0.0
 30
0.0
  3
block 6
  1

  0
SPLINE
  5
AE
330
AA
100
AcDbEntity
  8
_U+30EC_U+30A4_U+30E4_U+30FC 1
370
     0
100
AcDbSpline
210
0.0
220
0.0
230
1.0
 70
    11
 71
     3
 72
    44
 73
    40
 74
     0
 42
0.0000000001
 43
0.0000000001
 12
1.0
 22
0.0
 32
0.0
 13
1.0
 23
0.0
 33
0.0
 40
0.0
 40
0.0
 40
0.0
 40
0.0
 40
1.0
 40
1.0
 40
1.0
 40
2.0
 40
2.0
 40
2.0
 40
3.0
 40
3.0
 40
3.0
 40
4.0
 40
4.0
 40
4.0
 40
5.0
 40
5.0
 40
5.0
 40
6.0
 40
6.0
 40
6.0
 40
7.0
 40
7.0
 40
7.0
 40
8.0
 40
8.0
 40
8.0
 40
9.0
 40
9.0
 40
9.0
 40
10.0
 40
10.0
 40
10.0
 40
11.0
 40
11.0
 40
11.0
 40
12.0
 40
12.0
 40
12.0
 40
13.0
 40
13.0
 40
13.0
 40
13.0
 10
87.60791691603205
 20
-137.1668212547708
 30
0.0
 10
87.39018688136426
 20
-137.3256401566408
 30
0.0
 10
87.29716930326252
 20
-137.3997097095737
 30
0.0
 10
87.24824894737196
 20
-137.5433701913086
 30
0.0
 10
87.24824894737196
 20
-137.5433701913086
 30
0.0
 10
88.02684052703843
 20
-137.5433701913086
 30
0.0
 10
88.02684052703843
 20
-137.5433701913086
 30
0.0
 10
88.02684052703843
 20
-137.5433701913086
 30
0.0
 10
88.02684052703843
 20
-137.7486978822295
 30
0.0
 10
88.02684052703843
 20
-137.7486978822295
 30
0.0
 10
88.02684052703843
 20
-137.7486978822295
 30
0.0
 10
86.99882403423989
 20
-137.7486978822295
 30
0.0
 10
86.99882403423989
 20
-137.7486978822295
 30
0.0
 10
87.03051891270418
 20
-137.3910969708606
 30
0.0
 10
87.09597572692392
 20
-137.3128933033454
 30
0.0
 10
87.48113740217485
 20
-137.0145480343228
 30
0.0
 10
87.73710799672892
 20
-136.8157660248238
 30
0.0
 10
87.80256481094867
 20
-136.7478976437644
 30
0.0
 10
87.80256481094867
 20
-136.6104383339029
 30
0.0
 10
87.80256481094867
 20
-136.4919270492103
 30
0.0
 10
87.73056231530694
 20
-136.3610134207709
 30
0.0
 10
87.53384736309918
 20
-136.3610134207709
 30
0.0
 10
87.27374265396281
 20
-136.3610134207709
 30
0.0
 10
87.26547442479821
 20
-136.5914903087341
 30
0.0
 10
87.26099580066739
 20
-136.7079345361355
 30
0.0
 10
87.26099580066739
 20
-136.7079345361355
 30
0.0
 10
87.03672008457762
 20
-136.7079345361355
 30
0.0
 10
87.03672008457762
 20
-136.7079345361355
 30
0.0
 10
87.04533282329075
 20
-136.5808105127298
 30
0.0
 10
87.05601261929503
 20
-136.4688449094592
 30
0.0
 10
87.13628334410134
 20
-136.3503336247666
 30
0.0
 10
87.24618189008082
 20
-136.1894476656054
 30
0.0
 10
87.43256155583283
 20
-136.15568572985
 30
0.0
 10
87.54866127368575
 20
-136.15568572985
 30
0.0
 10
87.82599146024836
 20
-136.15568572985
 30
0.0
 10
88.03338620846041
 20
-136.3396538287623
 30
0.0
 10
88.03338620846041
 20
-136.6125053911941
 30
0.0
 10
88.03338620846041
 20
-136.8412597314147
 30
0.0
 10
87.91694198105897
 20
-136.9404784813899
 30
0.0
 10
87.60791691603205
 20
-137.1668212547708
 30
0.0
  0
HATCH
  5
AF
330
AA
100
AcDbEntity
  8
_U+30EC_U+30A4_U+30E4_U+30FC 1
 62
     7
420
 16777215
100
AcDbHatch
 10
0.0
 20
0.0
 30
0.0
210
0.0
220
0.0
230
1.0
  2
SOLID
 70
     1
 71
     0
 91
        1
 92
        1
 93
        1
 72
     4
 94
        3
 73
     0
 74
     1
 95
       44
 96
       40
 40
0.0
 40
0.0
 40
0.0
 40
0.0
 40
1.0
 40
1.0
 40
1.0
 40
2.0
 40
2.0
 40
2.0
 40
3.0
 40
3.0
 40
3.0
 40
4.0
 40
4.0
 40
4.0
 40
5.0
 40
5.0
 40
5.0
 40
6.0
 40
6.0
 40
6.0
 40
7.0
 40
7.0
 40
7.0
 40
8.0
 40
8.0
 40
8.0
 40
9.0
 40
9.0
 40
9.0
 40
10.0
 40
10.0
 40
10.0
 40
11.0
 40
11.0
 40
11.0
 40
12.0
 40
12.0
 40
12.0
 40
13.0
 40
13.0
 40
13.0
 40
13.0
 10
87.60791691603205
 20
-137.1668212547708
 10
87.39018688136426
 20
-137.3256401566408
 10
87.29716930326252
 20
-137.3997097095737
 10
87.24824894737196
 20
-137.5433701913086
 10
87.24824894737196
 20
-137.5433701913086
 10
88.02684052703843
 20
-137.5433701913086
 10
88.02684052703843
 20
-137.5433701913086
 10
88.02684052703843
 20
-137.5433701913086
 10
88.02684052703843
 20
-137.7486978822295
 10
88.02684052703843
 20
-137.7486978822295
 10
88.02684052703843
 20
-137.7486978822295
 10
86.99882403423989
 20
-137.7486978822295
 10
86.99882403423989
 20
-137.7486978822295
 10
87.03051891270418
 20
-137.3910969708606
 10
87.09597572692392
 20
-137.3128933033454
 10
87.48113740217485
 20
-137.0145480343228
 10
87.73710799672892
 20
-136.8157660248238
 10
87.80256481094867
 20
-136.7478976437644
 10
87.80256481094867
 20
-136.6104383339029
 10
87.80256481094867
 20
-136.4919270492103
 10
87.73056231530694
 20
-136.3610134207709
 10
87.53384736309918
 20
-136.3610134207709
 10
87.27374265396281
 20
-136.3610134207709
 10
87.26547442479821
 20
-136.5914903087341
 10
87.26099580066739
 20
-136.7079345361355
 10
87.26099580066739
 20
-136.7079345361355
 10
87.03672008457762
 20
-136.7079345361355
 10
87.03672008457762
 20
-136.7079345361355
 10
87.04533282329075
 20
-136.5808105127298
 10
87.05601261929503
 20
-136.4688449094592
 10
87.13628334410134
 20
-136.3503336247666
 10
87.24618189008082
 20
-136.1894476656054
 10
87.43256155583283
 20
-136.15568572985
 10
87.54866127368575
 20
-136.15568572985
 10
87.82599146024836
 20
-136.15568572985
 10
88.03338620846041
 20
-136.3396538287623
 10
88.03338620846041
 20
-136.6125053911941
 10
88.03338620846041
 20
-136.8412597314147
 10
87.91694198105897
 20
-136.9404784813899
 10
87.60791691603205
 20
-137.1668212547708
 97
        0
 97
        0
 75
     2
 76
     1
 98
        0
  0
SPLINE
  5
B0
330
AA
100
AcDbEntity
  8
_U+30EC_U+30A4_U+30E4_U+30FC 1
370
     0
100
AcDbSpline
210
0.0
220
0.0
230
1.0
 70
    11
 71
     3
 72
    53
 73
    49
 74
     0
 42
0.0000000001
 43
0.0000000001
 12
1.0
 22
0.0
 32
0.0
 13
1.0
 23
0.0
 33
0.0
 40
0.0
 40
0.0
 40
0.0
 40
0.0
 40
1.0
 40
1.0
 40
1.0
 40
2.0
 40
2.0
 40
2.0
 40
3.0
 40
3.0
 40
3.0
 40
4.0
 40
4.0
 40
4.0
 40
5.0
 40
5.0
 40
5.0
 40
6.0
 40
6.0
 40
6.0
 40
7.0
 40
7.0
 40
7.0
 40
8.0
 40
8.0
 40
8.0
 40
9.0
 40
9.0
 40
9.0
 40
10.0
 40
10.0
 40
10.0
 40
11.0
 40
11.0
 40
11.0
 40
12.0
 40
12.0
 40
12.0
 40
13.0
 40
13.0
 40
13.0
 40
14.0
 40
14.0
 40
14.0
 40
15.0
 40
15.0
 40
15.0
 40
16.0
 40
16.0
 40
16.0
 40
16.0
 10
88.67279593052278
 20
-137.7993407858627
 30
0.0
 10
88.59459226300761
 20
-137.7993407858627
 30
0.0
 10
88.49296194619274
 20
-137.7824598179849
 30
0.0
 10
88.39133162937786
 20
-137.7190700610564
 30
0.0
 10
88.2180433264698
 20
-137.6091715150769
 30
0.0
 10
88.19668373446125
 20
-137.4779133770889
 30
0.0
 10
88.17773570929238
 20
-137.3700818884005
 30
0.0
 10
88.17773570929238
 20
-137.3700818884005
 30
0.0
 10
88.39994436809098
 20
-137.3700818884005
 30
0.0
 10
88.39994436809098
 20
-137.3700818884005
 30
0.0
 10
88.45472138630646
 20
-137.5688638978995
 30
0.0
 10
88.58184540971219
 20
-137.5984917190726
 30
0.0
 10
88.67486298781392
 20
-137.5984917190726
 30
0.0
 10
88.81438935496655
 20
-137.5984917190726
 30
0.0
 10
88.96666257541459
 20
-137.4989284595489
 30
0.0
 10
88.96666257541459
 20
-137.2663845142945
 30
0.0
 10
88.96666257541459
 20
-137.0104139197405
 30
0.0
 10
88.78682859108454
 20
-136.9404784813899
 30
0.0
 10
88.6662502491008
 20
-136.9404784813899
 30
0.0
 10
88.6345553706365
 20
-136.9404784813899
 30
0.0
 10
88.49296194619274
 20
-136.9404784813899
 30
0.0
 10
88.40407848267328
 20
-137.0696695620867
 30
0.0
 10
88.40407848267328
 20
-137.0696695620867
 30
0.0
 10
88.22837861292555
 20
-137.0507215369179
 30
0.0
 10
88.22837861292555
 20
-137.0507215369179
 30
0.0
 10
88.22837861292555
 20
-137.0507215369179
 30
0.0
 10
88.3489569549093
 20
-136.204261576192
 30
0.0
 10
88.3489569549093
 20
-136.204261576192
 30
0.0
 10
88.3489569549093
 20
-136.204261576192
 30
0.0
 10
89.12754853457575
 20
-136.204261576192
 30
0.0
 10
89.12754853457575
 20
-136.204261576192
 30
0.0
 10
89.12754853457575
 20
-136.204261576192
 30
0.0
 10
89.12754853457575
 20
-136.3989094711086
 30
0.0
 10
89.12754853457575
 20
-136.3989094711086
 30
0.0
 10
89.12754853457575
 20
-136.3989094711086
 30
0.0
 10
88.5119099713616
 20
-136.3989094711086
 30
0.0
 10
88.5119099713616
 20
-136.3989094711086
 30
0.0
 10
88.5119099713616
 20
-136.3989094711086
 30
0.0
 10
88.44645315714186
 20
-136.8219671966973
 30
0.0
 10
88.44645315714186
 20
-136.8219671966973
 30
0.0
 10
88.5077758567793
 20
-136.7882052609419
 30
0.0
 10
88.59011363887679
 20
-136.7478976437644
 30
0.0
 10
88.70862492356937
 20
-136.7478976437644
 30
0.0
 10
88.96252846083229
 20
-136.7478976437644
 30
0.0
 10
89.19955103021748
 20
-136.9342773095164
 30
0.0
 10
89.19955103021748
 20
-137.2474364891256
 30
0.0
 10
89.19955103021748
 20
-137.5647297833171
 30
0.0
 10
88.97527531412771
 20
-137.7993407858627
 30
0.0
 10
88.67279593052278
 20
-137.7993407858627
 30
0.0
  0
HATCH
  5
B1
330
AA
100
AcDbEntity
  8
_U+30EC_U+30A4_U+30E4_U+30FC 1
 62
     7
420
 16777215
100
AcDbHatch
 10
0.0
 20
0.0
 30
0.0
210
0.0
220
0.0
230
1.0
  2
SOLID
 70
     1
 71
     0
 91
        1
 92
        1
 93
        1
 72
     4
 94
        3
 73
     0
 74
     1
 95
       53
 96
       49
 40
0.0
 40
0.0
 40
0.0
 40
0.0
 40
1.0
 40
1.0
 40
1.0
 40
2.0
 40
2.0
 40
2.0
 40
3.0
 40
3.0
 40
3.0
 40
4.0
 40
4.0
 40
4.0
 40
5.0
 40
5.0
 40
5.0
 40
6.0
 40
6.0
 40
6.0
 40
7.0
 40
7.0
 40
7.0
 40
8.0
 40
8.0
 40
8.0
 40
9.0
 40
9.0
 40
9.0
 40
10.0
 40
10.0
 40
10.0
 40
11.0
 40
11.0
 40
11.0
 40
12.0
 40
12.0
 40
12.0
 40
13.0
 40
13.0
 40
13.0
 40
14.0
 40
14.0
 40
14.0
 40
15.0
 40
15.0
 40
15.0
 40
16.0
 40
16.0
 40
16.0
 40
16.0
 10
88.67279593052278
 20
-137.7993407858627
 10
88.59459226300761
 20
-137.7993407858627
 10
88.49296194619274
 20
-137.7824598179849
 10
88.39133162937786
 20
-137.7190700610564
 10
88.2180433264698
 20
-137.6091715150769
 10
88.19668373446125
 20
-137.4779133770889
 10
88.17773570929238
 20
-137.3700818884005
 10
88.17773570929238
 20
-137.3700818884005
 10
88.39994436809098
 20
-137.3700818884005
 10
88.39994436809098
 20
-137.3700818884005
 10
88.45472138630646
 20
-137.5688638978995
 10
88.58184540971219
 20
-137.5984917190726
 10
88.67486298781392
 20
-137.5984917190726
 10
88.81438935496655
 20
-137.5984917190726
 10
88.96666257541459
 20
-137.4989284595489
 10
88.96666257541459
 20
-137.2663845142945
 10
88.96666257541459
 20
-137.0104139197405
 10
88.78682859108454
 20
-136.9404784813899
 10
88.6662502491008
 20
-136.9404784813899
 10
88.6345553706365
 20
-136.9404784813899
 10
88.49296194619274
 20
-136.9404784813899
 10
88.40407848267328
 20
-137.0696695620867
 10
88.40407848267328
 20
-137.0696695620867
 10
88.22837861292555
 20
-137.0507215369179
 10
88.22837861292555
 20
-137.0507215369179
 10
88.22837861292555
 20
-137.0507215369179
 10
88.3489569549093
 20
-136.204261576192
 10
88.3489569549093
 20
-136.204261576192
 10
88.3489569549093
 20
-136.204261576192
 10
89.12754853457575
 20
-136.204261576192
 10
89.12754853457575
 20
-136.204261576192
 10
89.12754853457575
 20
-136.204261576192
 10
89.12754853457575
 20
-136.3989094711086
 10
89.12754853457575
 20
-136.3989094711086
 10
89.12754853457575
 20
-136.3989094711086
 10
88.5119099713616
 20
-136.3989094711086
 10
88.5119099713616
 20
-136.3989094711086
 10
88.5119099713616
 20
-136.3989094711086
 10
88.44645315714186
 20
-136.8219671966973
 10
88.44645315714186
 20
-136.8219671966973
 10
88.5077758567793
 20
-136.7882052609419
 10
88.59011363887679
 20
-136.7478976437644
 10
88.70862492356937
 20
-136.7478976437644
 10
88.96252846083229
 20
-136.7478976437644
 10
89.19955103021748
 20
-136.9342773095164
 10
89.19955103021748
 20
-137.2474364891256
 10
89.19955103021748
 20
-137.5647297833171
 10
88.97527531412771
 20
-137.7993407858627
 10
88.67279593052278
 20
-137.7993407858627
 97
        0
 97
        0
 75
     2
 76
     1
 98
        0
  0
ENDBLK
  5
AD
330
AA
100
AcDbEntity
  8
0
100
AcDbBlockEnd
  0
ENDSEC
  0
SECTION
  2
ENTITIES
  0
POLYLINE
  5
41
330
1F
100
AcDbEntity
  8
_U+30EC_U+30A4_U+30E4_U+30FC 1
370
     0
100
AcDb2dPolyline
 66
     1
 10
0.0
 20
0.0
 30
0.0
  0
VERTEX
  5
42
330
41
100
AcDbEntity
  8
_U+30EC_U+30A4_U+30E4_U+30FC 1
370
     0
100
AcDbVertex
100
AcDb2dVertex
 10
90.60186824410933
 20
-133.3444966333303
 30
0.0
  0
VERTEX
  5
43
330
41
100
AcDbEntity
  8
_U+30EC_U+30A4_U+30E4_U+30FC 1
370
     0
100
AcDbVertex
100
AcDb2dVertex
 10
90.60186824410933
 20
-123.3445871913862
 30
0.0
  0
VERTEX
  5
44
330
41
100
AcDbEntity
  8
_U+30EC_U+30A4_U+30E4_U+30FC 1
370
     0
100
AcDbVertex
100
AcDb2dVertex
 10
89.60191965850903
 20
-123.3445871913862
 30
0.0
  0
VERTEX
  5
45
330
41
100
AcDbEntity
  8
_U+30EC_U+30A4_U+30E4_U+30FC 1
370
     0
100
AcDbVertex
100
AcDb2dVertex
 10
89.60191965850903
 20
-129.3447374676641
 30
0.0
  0
VERTEX
  5
46
330
41
100
AcDbEntity
  8
_U+30EC_U+30A4_U+30E4_U+30FC 1
370
     0
100
AcDbVertex
100
AcDb2dVertex
 10
86.60193279060063
 20
-129.3447374676641
 30
0.0
  0
VERTEX
  5
47
330
41
100
AcDbEntity
  8
_U+30EC_U+30A4_U+30E4_U+30FC 1
370
     0
100
AcDbVertex
100
AcDb2dVertex
 10
86.60193279060063
 20
-123.3445871913862
 30
0.0
  0
VERTEX
  5
48
330
41
100
AcDbEntity
  8
_U+30EC_U+30A4_U+30E4_U+30FC 1
370
     0
100
AcDbVertex
100
AcDb2dVertex
 10
85.60201948277721
 20
-123.3445871913862
 30
0.0
  0
VERTEX
  5
49
330
41
100
AcDbEntity
  8
_U+30EC_U+30A4_U+30E4_U+30FC 1
370
     0
100
AcDbVertex
100
AcDb2dVertex
 10
85.60201948277721
 20
-133.3444966333303
 30
0.0
  0
VERTEX
  5
4A
330
41
100
AcDbEntity
  8
_U+30EC_U+30A4_U+30E4_U+30FC 1
370
     0
100
AcDbVertex
100
AcDb2dVertex
 10
75.60659057111518
 20
-133.3444966333303
 30
0.0
  0
VERTEX
  5
4B
330
41
100
AcDbEntity
  8
_U+30EC_U+30A4_U+30E4_U+30FC 1
370
     0
100
AcDbVertex
100
AcDb2dVertex
 10
75.60659057111518
 20
-134.3445863553025
 30
0.0
  0
VERTEX
  5
4C
330
41
100
AcDbEntity
  8
_U+30EC_U+30A4_U+30E4_U+30FC 1
370
     0
100
AcDbVertex
100
AcDb2dVertex
 10
86.60193279060063
 20
-134.3445863553025
 30
0.0
  0
VERTEX
  5
4D
330
41
100
AcDbEntity
  8
_U+30EC_U+30A4_U+30E4_U+30FC 1
370
     0
100
AcDbVertex
100
AcDb2dVertex
 10
86.60193279060063
 20
-130.344509689636
 30
0.0
  0
VERTEX
  5
4E
330
41
100
AcDbEntity
  8
_U+30EC_U+30A4_U+30E4_U+30FC 1
370
     0
100
AcDbVertex
100
AcDb2dVertex
 10
89.60191965850903
 20
-130.344509689636
 30
0.0
  0
VERTEX
  5
4F
330
41
100
AcDbEntity
  8
_U+30EC_U+30A4_U+30E4_U+30FC 1
370
     0
100
AcDbVertex
100
AcDb2dVertex
 10
89.60191965850903
 20
-134.3445863553025
 30
0.0
  0
VERTEX
  5
50
330
41
100
AcDbEntity
  8
_U+30EC_U+30A4_U+30E4_U+30FC 1
370
     0
100
AcDbVertex
100
AcDb2dVertex
 10
100.6005805304052
 20
-134.3445863553025
 30
0.0
  0
VERTEX
  5
51
330
41
100
AcDbEntity
  8
_U+30EC_U+30A4_U+30E4_U+30FC 1
370
     0
100
AcDbVertex
100
AcDb2dVertex
 10
100.6005805304052
 20
-133.3444966333303
 30
0.0
  0
VERTEX
  5
52
330
41
100
AcDbEntity
  8
_U+30EC_U+30A4_U+30E4_U+30FC 1
370
     0
100
AcDbVertex
100
AcDb2dVertex
 10
90.60186824410933
 20
-133.3444966333303
 30
0.0
  0
SEQEND
  5
54
330
41
100
AcDbEntity
  8
_U+30EC_U+30A4_U+30E4_U+30FC 1
370
     0
  0
HATCH
  5
53
330
1F
100
AcDbEntity
  8
_U+30EC_U+30A4_U+30E4_U+30FC 1
 62
   253
420
 11711154
100
AcDbHatch
 10
0.0
 20
0.0
 30
0.0
210
0.0
220
0.0
230
1.0
  2
SOLID
 70
     1
 71
     0
 91
        1
 92
        1
 93
       16
 72
     1
 10
90.60186824410933
 20
-133.3444966333303
 11
90.60186824410933
 21
-123.3445871913862
 72
     1
 10
90.60186824410933
 20
-123.3445871913862
 11
89.60191965850903
 21
-123.3445871913862
 72
     1
 10
89.60191965850903
 20
-123.3445871913862
 11
89.60191965850903
 21
-129.3447374676641
 72
     1
 10
89.60191965850903
 20
-129.3447374676641
 11
86.60193279060063
 21
-129.3447374676641
 72
     1
 10
86.60193279060063
 20
-129.3447374676641
 11
86.60193279060063
 21
-123.3445871913862
 72
     1
 10
86.60193279060063
 20
-123.3445871913862
 11
85.60201948277721
 21
-123.3445871913862
 72
     1
 10
85.60201948277721
 20
-123.3445871913862
 11
85.60201948277721
 21
-133.3444966333303
 72
     1
 10
85.60201948277721
 20
-133.3444966333303
 11
75.60659057111518
 21
-133.3444966333303
 72
     1
 10
75.60659057111518
 20
-133.3444966333303
 11
75.60659057111518
 21
-134.3445863553025
 72
     1
 10
75.60659057111518
 20
-134.3445863553025
 11
86.60193279060063
 21
-134.3445863553025
 72
     1
 10
86.60193279060063
 20
-134.3445863553025
 11
86.60193279060063
 21
-130.344509689636
 72
     1
 10
86.60193279060063
 20
-130.344509689636
 11
89.60191965850903
 21
-130.344509689636
 72
     1
 10
89.60191965850903
 20
-130.344509689636
 11
89.60191965850903
 21
-134.3445863553025
 72
     1
 10
89.60191965850903
 20
-134.3445863553025
 11
100.6005805304052
 21
-134.3445863553025
 72
     1
 10
100.6005805304052
 20
-134.3445863553025
 11
100.6005805304052
 21
-133.3444966333303
 72
     1
 10
100.6005805304052
 20
-133.3444966333303
 11
90.60186824410933
 21
-133.3444966333303
 97
        0
 75
     2
 76
     1
 98
        0
  0
SPLINE
  5
55
330
1F
100
AcDbEntity
  8
_U+30EC_U+30A4_U+30E4_U+30FC 1
 62
     7
420
 16777215
370
     9
100
AcDbSpline
210
0.0
220
0.0
230
1.0
 70
    11
 71
     3
 72
    17
 73
    13
 74
     0
 42
0.0000000001
 43
0.0000000001
 12
1.0
 22
0.0
 32
0.0
 13
1.0
 23
0.0
 33
0.0
 40
0.0
 40
0.0
 40
0.0
 40
0.0
 40
1.0
 40
1.0
 40
1.0
 40
2.0
 40
2.0
 40
2.0
 40
3.0
 40
3.0
 40
3.0
 40
4.0
 40
4.0
 40
4.0
 40
4.0
 10
100.7004846531388
 20
-138.3454038543026
 30
0.0
 10
100.7004846531388
 20
-138.2902646876496
 30
0.0
 10
100.6556818765041
 20
-138.245497187661
 30
0.0
 10
100.6005805304052
 20
-138.245497187661
 30
0.0
 10
100.5457916015298
 20
-138.245497187661
 30
0.0
 10
100.5006713249032
 20
-138.2902646876496
 30
0.0
 10
100.5006713249032
 20
-138.3454038543026
 30
0.0
 10
100.5006713249032
 20
-138.4005077431775
 30
0.0
 10
100.5457916015298
 20
-138.4453105209443
 30
0.0
 10
100.6005805304052
 20
-138.4453105209443
 30
0.0
 10
100.6556818765041
 20
-138.4453105209443
 30
0.0
 10
100.7004846531388
 20
-138.4005077431775
 30
0.0
 10
100.7004846531388
 20
-138.3454038543026
 30
0.0
  0
SPLINE
  5
56
330
1F
100
AcDbEntity
  8
_U+30EC_U+30A4_U+30E4_U+30FC 1
 62
     7
420
 16777215
370
     9
100
AcDbSpline
210
0.0
220
0.0
230
1.0
 70
    11
 71
     3
 72
    17
 73
    13
 74
     0
 42
0.0000000001
 43
0.0000000001
 12
1.0
 22
0.0
 32
0.0
 13
1.0
 23
0.0
 33
0.0
 40
0.0
 40
0.0
 40
0.0
 40
0.0
 40
1.0
 40
1.0
 40
1.0
 40
2.0
 40
2.0
 40
2.0
 40
3.0
 40
3.0
 40
3.0
 40
4.0
 40
4.0
 40
4.0
 40
4.0
 10
75.70716942551768
 20
-138.3454038543026
 30
0.0
 10
75.70716942551768
 20
-138.2902646876496
 30
0.0
 10
75.6624000141358
 20
-138.245497187661
 30
0.0
 10
75.60659057111518
 20
-138.245497187661
 30
0.0
 10
75.55145140585523
 20
-138.245497187661
 30
0.0
 10
75.50668390699734
 20
-138.2902646876496
 30
0.0
 10
75.50668390699734
 20
-138.3454038543026
 30
0.0
 10
75.50668390699734
 20
-138.4005077431775
 30
0.0
 10
75.55145140585523
 20
-138.4453105209443
 30
0.0
 10
75.60659057111518
 20
-138.4453105209443
 30
0.0
 10
75.6624000141358
 20
-138.4453105209443
 30
0.0
 10
75.70716942551768
 20
-138.4005077431775
 30
0.0
 10
75.70716942551768
 20
-138.3454038543026
 30
0.0
  0
SPLINE
  5
57
330
1F
100
AcDbEntity
  8
_U+30EC_U+30A4_U+30E4_U+30FC 1
 62
     7
420
 16777215
370
     9
100
AcDbSpline
210
0.0
220
0.0
230
1.0
 70
    11
 71
     3
 72
    17
 73
    13
 74
     0
 42
0.0000000001
 43
0.0000000001
 12
1.0
 22
0.0
 32
0.0
 13
1.0
 23
0.0
 33
0.0
 40
0.0
 40
0.0
 40
0.0
 40
0.0
 40
1.0
 40
1.0
 40
1.0
 40
2.0
 40
2.0
 40
2.0
 40
3.0
 40
3.0
 40
3.0
 40
4.0
 40
4.0
 40
4.0
 40
4.0
 10
103.5006581928116
 20
-134.3425402441922
 30
0.0
 10
103.5006581928116
 20
-134.3976441330671
 30
0.0
 10
103.5457784694382
 20
-134.4424469108339
 30
0.0
 10
103.6009176346982
 20
-134.4424469108339
 30
0.0
 10
103.6560215221812
 20
-134.4424469108339
 30
0.0
 10
103.700824298816
 20
-134.3976441330671
 30
0.0
 10
103.700824298816
 20
-134.3425402441922
 30
0.0
 10
103.700824298816
 20
-134.2874010775391
 30
0.0
 10
103.6560215221812
 20
-134.2426335775506
 30
0.0
 10
103.6009176346982
 20
-134.2426335775506
 30
0.0
 10
103.5457784694382
 20
-134.2426335775506
 30
0.0
 10
103.5006581928116
 20
-134.2874010775391
 30
0.0
 10
103.5006581928116
 20
-134.3425402441922
 30
0.0
  0
SPLINE
  5
58
330
1F
100
AcDbEntity
  8
_U+30EC_U+30A4_U+30E4_U+30FC 1
 62
     7
420
 16777215
370
     9
100
AcDbSpline
210
0.0
220
0.0
230
1.0
 70
    11
 71
     3
 72
    17
 73
    13
 74
     0
 42
0.0000000001
 43
0.0000000001
 12
1.0
 22
0.0
 32
0.0
 13
1.0
 23
0.0
 33
0.0
 40
0.0
 40
0.0
 40
0.0
 40
0.0
 40
1.0
 40
1.0
 40
1.0
 40
2.0
 40
2.0
 40
2.0
 40
3.0
 40
3.0
 40
3.0
 40
4.0
 40
4.0
 40
4.0
 40
4.0
 10
103.5006581928116
 20
-123.3445871913862
 30
0.0
 10
103.5006581928116
 20
-123.3996910802611
 30
0.0
 10
103.5457784694382
 20
-123.4444938580278
 30
0.0
 10
103.6009176346982
 20
-123.4444938580278
 30
0.0
 10
103.6560215221812
 20
-123.4444938580278
 30
0.0
 10
103.700824298816
 20
-123.3996910802611
 30
0.0
 10
103.700824298816
 20
-123.3445871913862
 30
0.0
 10
103.700824298816
 20
-123.2887777469554
 30
0.0
 10
103.6560215221812
 20
-123.243974969189
 30
0.0
 10
103.6009176346982
 20
-123.243974969189
 30
0.0
 10
103.5457784694382
 20
-123.243974969189
 30
0.0
 10
103.5006581928116
 20
-123.2887777469554
 30
0.0
 10
103.5006581928116
 20
-123.3445871913862
 30
0.0
  0
POLYLINE
  5
59
330
1F
100
AcDbEntity
  8
_U+30EC_U+30A4_U+30E4_U+30FC 1
 62
     7
420
 16777215
370
     9
100
AcDb2dPolyline
 66
     1
 10
0.0
 20
0.0
 30
0.0
  0
VERTEX
  5
5A
330
59
100
AcDbEntity
  8
_U+30EC_U+30A4_U+30E4_U+30FC 1
 62
     7
420
 16777215
370
     9
100
AcDbVertex
100
AcDb2dVertex
 10
103.6009176346982
 20
-123.3425058024978
 30
0.0
  0
VERTEX
  5
5B
330
59
100
AcDbEntity
  8
_U+30EC_U+30A4_U+30E4_U+30FC 1
 62
     7
420
 16777215
370
     9
100
AcDbVertex
100
AcDb2dVertex
 10
103.6009176346982
 20
-134.3425402441922
 30
0.0
  0
SEQEND
  5
5C
330
59
100
AcDbEntity
  8
_U+30EC_U+30A4_U+30E4_U+30FC 1
 62
     7
420
 16777215
370
     9
  0
POLYLINE
  5
5D
330
1F
100
AcDbEntity
  8
_U+30EC_U+30A4_U+30E4_U+30FC 1
 62
     7
420
 16777215
370
     9
100
AcDb2dPolyline
 66
     1
 10
0.0
 20
0.0
 30
0.0
  0
VERTEX
  5
5E
330
5D
100
AcDbEntity
  8
_U+30EC_U+30A4_U+30E4_U+30FC 1
 62
     7
420
 16777215
370
     9
100
AcDbVertex
100
AcDb2dVertex
 10
90.60186824410933
 20
-123.3445871913862
 30
0.0
  0
VERTEX
  5
5F
330
5D
100
AcDbEntity
  8
_U+30EC_U+30A4_U+30E4_U+30FC 1
 62
     7
420
 16777215
370
     9
100
AcDbVertex
100
AcDb2dVertex
 10
104.6006898314141
 20
-123.3445871913862
 30
0.0
  0
SEQEND
  5
60
330
5D
100
AcDbEntity
  8
_U+30EC_U+30A4_U+30E4_U+30FC 1
 62
     7
420
 16777215
370
     9
  0
POLYLINE
  5
61
330
1F
100
AcDbEntity
  8
_U+30EC_U+30A4_U+30E4_U+30FC 1
 62
     7
420
 16777215
370
     9
100
AcDb2dPolyline
 66
     1
 10
0.0
 20
0.0
 30
0.0
  0
VERTEX
  5
62
330
61
100
AcDbEntity
  8
_U+30EC_U+30A4_U+30E4_U+30FC 1
 62
     7
420
 16777215
370
     9
100
AcDbVertex
100
AcDb2dVertex
 10
102.1405235052893
 20
-134.3425402441922
 30
0.0
  0
VERTEX
  5
63
330
61
100
AcDbEntity
  8
_U+30EC_U+30A4_U+30E4_U+30FC 1
 62
     7
420
 16777215
370
     9
100
AcDbVertex
100
AcDb2dVertex
 10
104.6006898314141
 20
-134.3425402441922
 30
0.0
  0
SEQEND
  5
64
330
61
100
AcDbEntity
  8
_U+30EC_U+30A4_U+30E4_U+30FC 1
 62
     7
420
 16777215
370
     9
  0
SPLINE
  5
65
330
1F
100
AcDbEntity
  8
_U+30EC_U+30A4_U+30E4_U+30FC 1
 62
     7
420
 16777215
370
     9
100
AcDbSpline
210
0.0
220
0.0
230
1.0
 70
    11
 71
     3
 72
    17
 73
    13
 74
     0
 42
0.0000000001
 43
0.0000000001
 12
1.0
 22
0.0
 32
0.0
 13
1.0
 23
0.0
 33
0.0
 40
0.0
 40
0.0
 40
0.0
 40
0.0
 40
1.0
 40
1.0
 40
1.0
 40
2.0
 40
2.0
 40
2.0
 40
3.0
 40
3.0
 40
3.0
 40
4.0
 40
4.0
 40
4.0
 40
4.0
 10
93.26770400943153
 20
-129.3447374676641
 30
0.0
 10
93.26770400943153
 20
-129.399841356539
 30
0.0
 10
93.3124715082894
 20
-129.4446441343057
 30
0.0
 10
93.36761067354936
 20
-129.4446441343057
 30
0.0
 10
93.42271456103244
 20
-129.4446441343057
 30
0.0
 10
93.46751733766719
 20
-129.399841356539
 30
0.0
 10
93.46751733766719
 20
-129.3447374676641
 30
0.0
 10
93.46751733766719
 20
-129.289598301011
 30
0.0
 10
93.42271456103244
 20
-129.2448308010225
 30
0.0
 10
93.36761067354936
 20
-129.2448308010225
 30
0.0
 10
93.3124715082894
 20
-129.2448308010225
 30
0.0
 10
93.26770400943153
 20
-129.289598301011
 30
0.0
 10
93.26770400943153
 20
-129.3447374676641
 30
0.0
  0
SPLINE
  5
66
330
1F
100
AcDbEntity
  8
_U+30EC_U+30A4_U+30E4_U+30FC 1
 62
     7
420
 16777215
370
     9
100
AcDbSpline
210
0.0
220
0.0
230
1.0
 70
    11
 71
     3
 72
    17
 73
    13
 74
     0
 42
0.0000000001
 43
0.0000000001
 12
1.0
 22
0.0
 32
0.0
 13
1.0
 23
0.0
 33
0.0
 40
0.0
 40
0.0
 40
0.0
 40
0.0
 40
1.0
 40
1.0
 40
1.0
 40
2.0
 40
2.0
 40
2.0
 40
3.0
 40
3.0
 40
3.0
 40
4.0
 40
4.0
 40
4.0
 40
4.0
 10
93.26770400943153
 20
-123.3445871913862
 30
0.0
 10
93.26770400943153
 20
-123.3996910802611
 30
0.0
 10
93.3124715082894
 20
-123.4444938580278
 30
0.0
 10
93.36761067354936
 20
-123.4444938580278
 30
0.0
 10
93.42271456103244
 20
-123.4444938580278
 30
0.0
 10
93.46751733766719
 20
-123.3996910802611
 30
0.0
 10
93.46751733766719
 20
-123.3445871913862
 30
0.0
 10
93.46751733766719
 20
-123.2894480247331
 30
0.0
 10
93.42271456103244
 20
-123.2446805247442
 30
0.0
 10
93.36761067354936
 20
-123.2446805247442
 30
0.0
 10
93.3124715082894
 20
-123.2446805247442
 30
0.0
 10
93.26770400943153
 20
-123.2894480247331
 30
0.0
 10
93.26770400943153
 20
-123.3445871913862
 30
0.0
  0
POLYLINE
  5
67
330
1F
100
AcDbEntity
  8
_U+30EC_U+30A4_U+30E4_U+30FC 1
 62
     7
420
 16777215
370
     9
100
AcDb2dPolyline
 66
     1
 10
0.0
 20
0.0
 30
0.0
  0
VERTEX
  5
68
330
67
100
AcDbEntity
  8
_U+30EC_U+30A4_U+30E4_U+30FC 1
 62
     7
420
 16777215
370
     9
100
AcDbVertex
100
AcDb2dVertex
 10
93.36761067354936
 20
-123.3445871913862
 30
0.0
  0
VERTEX
  5
69
330
67
100
AcDbEntity
  8
_U+30EC_U+30A4_U+30E4_U+30FC 1
 62
     7
420
 16777215
370
     9
100
AcDbVertex
100
AcDb2dVertex
 10
93.36761067354936
 20
-129.3447374676641
 30
0.0
  0
SEQEND
  5
6A
330
67
100
AcDbEntity
  8
_U+30EC_U+30A4_U+30E4_U+30FC 1
 62
     7
420
 16777215
370
     9
  0
POLYLINE
  5
6B
330
1F
100
AcDbEntity
  8
_U+30EC_U+30A4_U+30E4_U+30FC 1
 62
     7
420
 16777215
370
     9
100
AcDb2dPolyline
 66
     1
 10
0.0
 20
0.0
 30
0.0
  0
VERTEX
  5
6C
330
6B
100
AcDbEntity
  8
_U+30EC_U+30A4_U+30E4_U+30FC 1
 62
     7
420
 16777215
370
     9
100
AcDbVertex
100
AcDb2dVertex
 10
91.90756932190924
 20
-129.3447374676641
 30
0.0
  0
VERTEX
  5
6D
330
6B
100
AcDbEntity
  8
_U+30EC_U+30A4_U+30E4_U+30FC 1
 62
     7
420
 16777215
370
     9
100
AcDbVertex
100
AcDb2dVertex
 10
94.36734997640802
 20
-129.3447374676641
 30
0.0
  0
SEQEND
  5
6E
330
6B
100
AcDbEntity
  8
_U+30EC_U+30A4_U+30E4_U+30FC 1
 62
     7
420
 16777215
370
     9
  0
SPLINE
  5
6F
330
1F
100
AcDbEntity
  8
_U+30EC_U+30A4_U+30E4_U+30FC 1
 62
     7
420
 16777215
370
     9
100
AcDbSpline
210
0.0
220
0.0
230
1.0
 70
    11
 71
     3
 72
    17
 73
    13
 74
     0
 42
0.0000000001
 43
0.0000000001
 12
1.0
 22
0.0
 32
0.0
 13
1.0
 23
0.0
 33
0.0
 40
0.0
 40
0.0
 40
0.0
 40
0.0
 40
1.0
 40
1.0
 40
1.0
 40
2.0
 40
2.0
 40
2.0
 40
3.0
 40
3.0
 40
3.0
 40
4.0
 40
4.0
 40
4.0
 40
4.0
 10
103.5006581928116
 20
-133.3424152444419
 30
0.0
 10
103.5006581928116
 20
-133.397554411095
 30
0.0
 10
103.5457784694382
 20
-133.4423219110836
 30
0.0
 10
103.6009176346982
 20
-133.4423219110836
 30
0.0
 10
103.6560215221812
 20
-133.4423219110836
 30
0.0
 10
103.700824298816
 20
-133.397554411095
 30
0.0
 10
103.700824298816
 20
-133.3424152444419
 30
0.0
 10
103.700824298816
 20
-133.287311355567
 30
0.0
 10
103.6560215221812
 20
-133.2425085778003
 30
0.0
 10
103.6009176346982
 20
-133.2425085778003
 30
0.0
 10
103.5457784694382
 20
-133.2425085778003
 30
0.0
 10
103.5006581928116
 20
-133.287311355567
 30
0.0
 10
103.5006581928116
 20
-133.3424152444419
 30
0.0
  0
POLYLINE
  5
70
330
1F
100
AcDbEntity
  8
_U+30EC_U+30A4_U+30E4_U+30FC 1
 62
     7
420
 16777215
370
     9
100
AcDb2dPolyline
 66
     1
 10
0.0
 20
0.0
 30
0.0
  0
VERTEX
  5
71
330
70
100
AcDbEntity
  8
_U+30EC_U+30A4_U+30E4_U+30FC 1
 62
     7
420
 16777215
370
     9
100
AcDbVertex
100
AcDb2dVertex
 10
102.1405235052893
 20
-133.3424152444419
 30
0.0
  0
VERTEX
  5
72
330
70
100
AcDbEntity
  8
_U+30EC_U+30A4_U+30E4_U+30FC 1
 62
     7
420
 16777215
370
     9
100
AcDbVertex
100
AcDb2dVertex
 10
104.6006898314141
 20
-133.3424152444419
 30
0.0
  0
SEQEND
  5
73
330
70
100
AcDbEntity
  8
_U+30EC_U+30A4_U+30E4_U+30FC 1
 62
     7
420
 16777215
370
     9
  0
INSERT
  5
75
330
1F
100
AcDbEntity
  8
_U+30EC_U+30A4_U+30E4_U+30FC 1
100
AcDbBlockReference
  2
block 2
 10
0.0
 20
0.0
 30
0.0
  0
INSERT
  5
7E
330
1F
100
AcDbEntity
  8
_U+30EC_U+30A4_U+30E4_U+30FC 1
100
AcDbBlockReference
  2
block 3
 10
0.0
 20
0.0
 30
0.0
  0
INSERT
  5
84
330
1F
100
AcDbEntity
  8
_U+30EC_U+30A4_U+30E4_U+30FC 1
100
AcDbBlockReference
  2
block 4
 10
0.0
 20
0.0
 30
0.0
  0
SPLINE
  5
8A
330
1F
100
AcDbEntity
  8
_U+30EC_U+30A4_U+30E4_U+30FC 1
 62
     7
420
 16777215
370
     9
100
AcDbSpline
210
0.0
220
0.0
230
1.0
 70
    11
 71
     3
 72
    17
 73
    13
 74
     0
 42
0.0000000001
 43
0.0000000001
 12
1.0
 22
0.0
 32
0.0
 13
1.0
 23
0.0
 33
0.0
 40
0.0
 40
0.0
 40
0.0
 40
0.0
 40
1.0
 40
1.0
 40
1.0
 40
2.0
 40
2.0
 40
2.0
 40
3.0
 40
3.0
 40
3.0
 40
4.0
 40
4.0
 40
4.0
 40
4.0
 10
86.56524390264775
 20
-120.4639802476619
 30
0.0
 10
86.51014001516468
 20
-120.4639802476619
 30
0.0
 10
86.46533723852991
 20
-120.5087477476504
 30
0.0
 10
86.46533723852991
 20
-120.5638869143035
 30
0.0
 10
86.46533723852991
 20
-120.6189908031784
 30
0.0
 10
86.51014001516468
 20
-120.6637935809452
 30
0.0
 10
86.56524390264775
 20
-120.6637935809452
 30
0.0
 10
86.6203830679077
 20
-120.6637935809452
 30
0.0
 10
86.66515275611148
 20
-120.6189908031784
 30
0.0
 10
86.66515275611148
 20
-120.5638869143035
 30
0.0
 10
86.66515275611148
 20
-120.5087477476504
 30
0.0
 10
86.6203830679077
 20
-120.4639802476619
 30
0.0
 10
86.56524390264775
 20
-120.4639802476619
 30
0.0
  0
POLYLINE
  5
8B
330
1F
100
AcDbEntity
  8
_U+30EC_U+30A4_U+30E4_U+30FC 1
 62
     7
420
 16777215
370
     9
100
AcDb2dPolyline
 66
     1
 10
0.0
 20
0.0
 30
0.0
  0
VERTEX
  5
8C
330
8B
100
AcDbEntity
  8
_U+30EC_U+30A4_U+30E4_U+30FC 1
 62
     7
420
 16777215
370
     9
100
AcDbVertex
100
AcDb2dVertex
 10
89.5499202153912
 20
-120.5638869143035
 30
0.0
  0
VERTEX
  5
8D
330
8B
100
AcDbEntity
  8
_U+30EC_U+30A4_U+30E4_U+30FC 1
 62
     7
420
 16777215
370
     9
100
AcDbVertex
100
AcDb2dVertex
 10
86.56524390264775
 20
-120.5638869143035
 30
0.0
  0
SEQEND
  5
8E
330
8B
100
AcDbEntity
  8
_U+30EC_U+30A4_U+30E4_U+30FC 1
 62
     7
420
 16777215
370
     9
  0
POLYLINE
  5
8F
330
1F
100
AcDbEntity
  8
_U+30EC_U+30A4_U+30E4_U+30FC 1
 62
     7
420
 16777215
370
     9
100
AcDb2dPolyline
 66
     1
 10
0.0
 20
0.0
 30
0.0
  0
VERTEX
  5
90
330
8F
100
AcDbEntity
  8
_U+30EC_U+30A4_U+30E4_U+30FC 1
 62
     7
420
 16777215
370
     9
100
AcDbVertex
100
AcDb2dVertex
 10
86.56524390264775
 20
-119.1038455257795
 30
0.0
  0
VERTEX
  5
91
330
8F
100
AcDbEntity
  8
_U+30EC_U+30A4_U+30E4_U+30FC 1
 62
     7
420
 16777215
370
     9
100
AcDbVertex
100
AcDb2dVertex
 10
86.56524390264775
 20
-121.5636238584979
 30
0.0
  0
SEQEND
  5
92
330
8F
100
AcDbEntity
  8
_U+30EC_U+30A4_U+30E4_U+30FC 1
 62
     7
420
 16777215
370
     9
  0
SPLINE
  5
93
330
1F
100
AcDbEntity
  8
_U+30EC_U+30A4_U+30E4_U+30FC 1
 62
     7
420
 16777215
370
     9
100
AcDbSpline
210
0.0
220
0.0
230
1.0
 70
    11
 71
     3
 72
    17
 73
    13
 74
     0
 42
0.0000000001
 43
0.0000000001
 12
1.0
 22
0.0
 32
0.0
 13
1.0
 23
0.0
 33
0.0
 40
0.0
 40
0.0
 40
0.0
 40
0.0
 40
1.0
 40
1.0
 40
1.0
 40
2.0
 40
2.0
 40
2.0
 40
3.0
 40
3.0
 40
3.0
 40
4.0
 40
4.0
 40
4.0
 40
4.0
 10
89.53457438244938
 20
-120.4639802476619
 30
0.0
 10
89.47947049496631
 20
-120.4639802476619
 30
0.0
 10
89.43466771833154
 20
-120.5087477476504
 30
0.0
 10
89.43466771833154
 20
-120.5638869143035
 30
0.0
 10
89.43466771833154
 20
-120.6189908031784
 30
0.0
 10
89.47947049496631
 20
-120.6637935809452
 30
0.0
 10
89.53457438244938
 20
-120.6637935809452
 30
0.0
 10
89.58971354770932
 20
-120.6637935809452
 30
0.0
 10
89.63448331092484
 20
-120.6189908031784
 30
0.0
 10
89.63448331092484
 20
-120.5638869143035
 30
0.0
 10
89.63448331092484
 20
-120.5087477476504
 30
0.0
 10
89.58971354770932
 20
-120.4639802476619
 30
0.0
 10
89.53457438244938
 20
-120.4639802476619
 30
0.0
  0
POLYLINE
  5
94
330
1F
100
AcDbEntity
  8
_U+30EC_U+30A4_U+30E4_U+30FC 1
 62
     7
420
 16777215
370
     9
100
AcDb2dPolyline
 66
     1
 10
0.0
 20
0.0
 30
0.0
  0
VERTEX
  5
95
330
94
100
AcDbEntity
  8
_U+30EC_U+30A4_U+30E4_U+30FC 1
 62
     7
420
 16777215
370
     9
100
AcDbVertex
100
AcDb2dVertex
 10
89.5499202153912
 20
-119.1038455257795
 30
0.0
  0
VERTEX
  5
96
330
94
100
AcDbEntity
  8
_U+30EC_U+30A4_U+30E4_U+30FC 1
 62
     7
420
 16777215
370
     9
100
AcDbVertex
100
AcDb2dVertex
 10
89.5499202153912
 20
-121.5636238584979
 30
0.0
  0
SEQEND
  5
97
330
94
100
AcDbEntity
  8
_U+30EC_U+30A4_U+30E4_U+30FC 1
 62
     7
420
 16777215
370
     9
  0
INSERT
  5
99
330
1F
100
AcDbEntity
  8
_U+30EC_U+30A4_U+30E4_U+30FC 1
100
AcDbBlockReference
  2
block 5
 10
0.0
 20
0.0
 30
0.0
  0
POLYLINE
  5
9E
330
1F
100
AcDbEntity
  8
_U+30EC_U+30A4_U+30E4_U+30FC 1
 62
     7
420
 16777215
370
     9
100
AcDb2dPolyline
 66
     1
 10
0.0
 20
0.0
 30
0.0
  0
VERTEX
  5
9F
330
9E
100
AcDbEntity
  8
_U+30EC_U+30A4_U+30E4_U+30FC 1
 62
     7
420
 16777215
370
     9
100
AcDbVertex
100
AcDb2dVertex
 10
75.60366251563433
 20
-138.3454038543026
 30
0.0
  0
VERTEX
  5
A0
330
9E
100
AcDbEntity
  8
_U+30EC_U+30A4_U+30E4_U+30FC 1
 62
     7
420
 16777215
370
     9
100
AcDbVertex
100
AcDb2dVertex
 10
100.6036824333862
 20
-138.3454038543026
 30
0.0
  0
SEQEND
  5
A1
330
9E
100
AcDbEntity
  8
_U+30EC_U+30A4_U+30E4_U+30FC 1
 62
     7
420
 16777215
370
     9
  0
POLYLINE
  5
A2
330
1F
100
AcDbEntity
  8
_U+30EC_U+30A4_U+30E4_U+30FC 1
 62
     7
420
 16777215
370
     9
100
AcDb2dPolyline
 66
     1
 10
0.0
 20
0.0
 30
0.0
  0
VERTEX
  5
A3
330
A2
100
AcDbEntity
  8
_U+30EC_U+30A4_U+30E4_U+30FC 1
 62
     7
420
 16777215
370
     9
100
AcDbVertex
100
AcDb2dVertex
 10
75.60659057111518
 20
-135.8845671882513
 30
0.0
  0
VERTEX
  5
A4
330
A2
100
AcDbEntity
  8
_U+30EC_U+30A4_U+30E4_U+30FC 1
 62
     7
420
 16777215
370
     9
100
AcDbVertex
100
AcDb2dVertex
 10
75.60659057111518
 20
-139.345140798497
 30
0.0
  0
SEQEND
  5
A5
330
A2
100
AcDbEntity
  8
_U+30EC_U+30A4_U+30E4_U+30FC 1
 62
     7
420
 16777215
370
     9
  0
POLYLINE
  5
A6
330
1F
100
AcDbEntity
  8
_U+30EC_U+30A4_U+30E4_U+30FC 1
 62
     7
420
 16777215
370
     9
100
AcDb2dPolyline
 66
     1
 10
0.0
 20
0.0
 30
0.0
  0
VERTEX
  5
A7
330
A6
100
AcDbEntity
  8
_U+30EC_U+30A4_U+30E4_U+30FC 1
 62
     7
420
 16777215
370
     9
100
AcDbVertex
100
AcDb2dVertex
 10
100.6005805304052
 20
-135.8845671882513
 30
0.0
  0
VERTEX
  5
A8
330
A6
100
AcDbEntity
  8
_U+30EC_U+30A4_U+30E4_U+30FC 1
 62
     7
420
 16777215
370
     9
100
AcDbVertex
100
AcDb2dVertex
 10
100.6005805304052
 20
-139.345140798497
 30
0.0
  0
SEQEND
  5
A9
330
A6
100
AcDbEntity
  8
_U+30EC_U+30A4_U+30E4_U+30FC 1
 62
     7
420
 16777215
370
     9
  0
INSERT
  5
AB
330
1F
100
AcDbEntity
  8
_U+30EC_U+30A4_U+30E4_U+30FC 1
100
AcDbBlockReference
  2
block 6
 10
0.0
 20
0.0
 30
0.0
  0
SPLINE
  5
B2
330
1F
100
AcDbEntity
  8
_U+30EC_U+30A4_U+30E4_U+30FC 1
 62
     7
420
 16777215
370
    25
100
AcDbSpline
210
0.0
220
0.0
230
1.0
 70
    11
 71
     3
 72
    59
 73
    55
 74
     0
 42
0.0000000001
 43
0.0000000001
 12
1.0
 22
0.0
 32
0.0
 13
1.0
 23
0.0
 33
0.0
 40
0.0
 40
0.0
 40
0.0
 40
0.0
 40
1.0
 40
1.0
 40
1.0
 40
2.0
 40
2.0
 40
2.0
 40
3.0
 40
3.0
 40
3.0
 40
4.0
 40
4.0
 40
4.0
 40
5.0
 40
5.0
 40
5.0
 40
6.0
 40
6.0
 40
6.0
 40
7.0
 40
7.0
 40
7.0
 40
8.0
 40
8.0
 40
8.0
 40
9.0
 40
9.0
 40
9.0
 40
10.0
 40
10.0
 40
10.0
 40
11.0
 40
11.0
 40
11.0
 40
12.0
 40
12.0
 40
12.0
 40
13.0
 40
13.0
 40
13.0
 40
14.0
 40
14.0
 40
14.0
 40
15.0
 40
15.0
 40
15.0
 40
16.0
 40
16.0
 40
16.0
 40
17.0
 40
17.0
 40
17.0
 40
18.0
 40
18.0
 40
18.0
 40
18.0
 10
100.6005805304052
 20
-134.3445863553025
 30
0.0
 10
100.6005805304052
 20
-134.3445863553025
 30
0.0
 10
100.6005805304052
 20
-134.1196199664701
 30
0.0
 10
100.6005805304052
 20
-133.8447002443165
 30
0.0
 10
100.6005805304052
 20
-133.569780522163
 30
0.0
 10
100.3756116058715
 20
-133.3444966333303
 30
0.0
 10
100.1006944194193
 20
-133.3444966333303
 30
0.0
 10
100.1006944194193
 20
-133.3444966333303
 30
0.0
 10
90.60186824410933
 20
-133.3444966333303
 30
0.0
 10
90.60186824410933
 20
-133.3444966333303
 30
0.0
 10
90.60186824410933
 20
-133.3444966333303
 30
0.0
 10
90.60186824410933
 20
-123.3445871913862
 30
0.0
 10
90.60186824410933
 20
-123.3445871913862
 30
0.0
 10
90.60186824410933
 20
-123.3445871913862
 30
0.0
 10
89.60191965850903
 20
-123.3445871913862
 30
0.0
 10
89.60191965850903
 20
-123.3445871913862
 30
0.0
 10
89.60191965850903
 20
-123.3445871913862
 30
0.0
 10
89.60191965850903
 20
-129.3447374676641
 30
0.0
 10
89.60191965850903
 20
-129.3447374676641
 30
0.0
 10
89.60191965850903
 20
-129.3447374676641
 30
0.0
 10
86.60193279060063
 20
-129.3447374676641
 30
0.0
 10
86.60193279060063
 20
-129.3447374676641
 30
0.0
 10
86.60193279060063
 20
-129.3447374676641
 30
0.0
 10
86.60193279060063
 20
-123.3445871913862
 30
0.0
 10
86.60193279060063
 20
-123.3445871913862
 30
0.0
 10
86.60193279060063
 20
-123.3445871913862
 30
0.0
 10
85.60201948277721
 20
-123.3445871913862
 30
0.0
 10
85.60201948277721
 20
-123.3445871913862
 30
0.0
 10
85.60201948277721
 20
-123.3445871913862
 30
0.0
 10
85.60201948277721
 20
-133.3444966333303
 30
0.0
 10
85.60201948277721
 20
-133.3444966333303
 30
0.0
 10
85.60201948277721
 20
-133.3444966333303
 30
0.0
 10
76.10665305835752
 20
-133.3444966333303
 30
0.0
 10
76.10665305835752
 20
-133.3444966333303
 30
0.0
 10
75.8315569542647
 20
-133.3444966333303
 30
0.0
 10
75.60659057111518
 20
-133.569780522163
 30
0.0
 10
75.60659057111518
 20
-133.8447002443165
 30
0.0
 10
75.60659057111518
 20
-134.1196199664701
 30
0.0
 10
75.60659057111518
 20
-134.3445863553025
 30
0.0
 10
75.60659057111518
 20
-134.3445863553025
 30
0.0
 10
75.60659057111518
 20
-134.3445863553025
 30
0.0
 10
86.60193279060063
 20
-134.3445863553025
 30
0.0
 10
86.60193279060063
 20
-134.3445863553025
 30
0.0
 10
86.60193279060063
 20
-134.3445863553025
 30
0.0
 10
86.60193279060063
 20
-130.344509689636
 30
0.0
 10
86.60193279060063
 20
-130.344509689636
 30
0.0
 10
86.60193279060063
 20
-130.344509689636
 30
0.0
 10
89.60191965850903
 20
-130.344509689636
 30
0.0
 10
89.60191965850903
 20
-130.344509689636
 30
0.0
 10
89.60191965850903
 20
-130.344509689636
 30
0.0
 10
89.60191965850903
 20
-134.3445863553025
 30
0.0
 10
89.60191965850903
 20
-134.3445863553025
 30
0.0
 10
89.60191965850903
 20
-134.3445863553025
 30
0.0
 10
100.6005805304052
 20
-134.3445863553025
 30
0.0
 10
100.6005805304052
 20
-134.3445863553025
 30
0.0
  0
ENDSEC
  0
SECTION
  2
OBJECTS
  0
DICTIONARY
  5
C
330
0
100
AcDbDictionary
281
     1
  3
ACAD_GROUP
350
D
  3
ACAD_LAYOUT
350
1A
  3
ACAD_MATERIAL
350
3B
  3
ACAD_MLEADERSTYLE
350
B4
  3
ACAD_MLINESTYLE
350
17
  3
ACAD_PLOTSETTINGS
350
19
  3
ACAD_PLOTSTYLENAME
350
E
  3
ACAD_TABLESTYLE
350
B3
  3
ACAD_VISUALSTYLE
350
2A
  0
SUN
  5
3F
330
29
100
AcDbSun
 90
        1
290
     0
 63
     7
421
 16777215
 40
1.0
291
     1
 91
  2455826
 92
 54000000
292
     0
 70
     2
 71
   256
280
     1
  0
DICTIONARY
  5
D
102
{ACAD_REACTORS
330
C
102
}
330
C
100
AcDbDictionary
281
     1
  0
DICTIONARY
  5
1A
102
{ACAD_REACTORS
330
C
102
}
330
C
100
AcDbDictionary
281
     1
  3
Layout1
350
1E
  3
Layout2
350
26
  3
Model
350
22
  0
DICTIONARY
  5
3B
102
{ACAD_REACTORS
330
C
102
}
330
C
100
AcDbDictionary
281
     1
  3
ByBlock
350
3D
  3
ByLayer
350
3C
  3
Global
350
3E
  0
DICTIONARY
  5
B4
102
{ACAD_REACTORS
330
C
102
}
330
C
100
AcDbDictionary
281
     1
  0
DICTIONARY
  5
17
102
{ACAD_REACTORS
330
C
102
}
330
C
100
AcDbDictionary
281
     1
  3
Standard
350
18
  0
DICTIONARY
  5
19
102
{ACAD_REACTORS
330
C
102
}
330
C
100
AcDbDictionary
281
     1
  0
ACDBDICTIONARYWDFLT
  5
E
102
{ACAD_REACTORS
330
C
102
}
330
C
100
AcDbDictionary
281
     1
  3
Normal
350
F
100
AcDbDictionaryWithDefault
340
F
  0
DICTIONARY
  5
B3
102
{ACAD_REACTORS
330
C
102
}
330
C
100
AcDbDictionary
281
     1
  0
DICTIONARY
  5
2A
102
{ACAD_REACTORS
330
C
102
}
330
C
100
AcDbDictionary
281
     1
  3
2dWireframe
350
2F
  3
3D Hidden
350
31
  3
3dWireframe
350
30
  3
Basic
350
32
  3
Brighten
350
36
  3
ColorChange
350
3A
  3
Conceptual
350
34
  3
Dim
350
35
  3
Facepattern
350
39
  3
Flat
350
2B
  3
FlatWithEdges
350
2C
  3
Gouraud
350
2D
  3
GouraudWithEdges
350
2E
  3
Linepattern
350
38
  3
Realistic
350
33
  3
Thicken
350
37
  0
LAYOUT
  5
1E
102
{ACAD_REACTORS
330
1A
102
}
330
1A
100
AcDbPlotSettings
  1

  2
none_device
  4

  6

 40
0.0
 41
0.0
 42
0.0
 43
0.0
 44
0.0
 45
0.0
 46
0.0
 47
0.0
 48
0.0
 49
0.0
140
0.0
141
0.0
142
1.0
143
1.0
 70
   688
 72
     0
 73
     0
 74
     5
  7

 75
    16
 76
     0
 77
     2
 78
   300
147
1.0
148
0.0
149
0.0
100
AcDbLayout
  1
Layout1
 70
     1
 71
     1
 10
0.0
 20
0.0
 11
12.0
 21
9.0
 12
0.0
 22
0.0
 32
0.0
 14
1.000000000000000E+20
 24
1.000000000000000E+20
 34
1.000000000000000E+20
 15
-1.000000000000000E+20
 25
-1.000000000000000E+20
 35
-1.000000000000000E+20
146
0.0
 13
0.0
 23
0.0
 33
0.0
 16
1.0
 26
0.0
 36
0.0
 17
0.0
 27
1.0
 37
0.0
 76
     0
330
1B
  0
LAYOUT
  5
26
102
{ACAD_REACTORS
330
1A
102
}
330
1A
100
AcDbPlotSettings
  1

  2
none_device
  4

  6

 40
0.0
 41
0.0
 42
0.0
 43
0.0
 44
0.0
 45
0.0
 46
0.0
 47
0.0
 48
0.0
 49
0.0
140
0.0
141
0.0
142
1.0
143
1.0
 70
   688
 72
     0
 73
     0
 74
     5
  7

 75
    16
 76
     0
 77
     2
 78
   300
147
1.0
148
0.0
149
0.0
100
AcDbLayout
  1
Layout2
 70
     1
 71
     2
 10
0.0
 20
0.0
 11
0.0
 21
0.0
 12
0.0
 22
0.0
 32
0.0
 14
0.0
 24
0.0
 34
0.0
 15
0.0
 25
0.0
 35
0.0
146
0.0
 13
0.0
 23
0.0
 33
0.0
 16
1.0
 26
0.0
 36
0.0
 17
0.0
 27
1.0
 37
0.0
 76
     0
330
23
  0
LAYOUT
  5
22
102
{ACAD_REACTORS
330
1A
102
}
330
1A
100
AcDbPlotSettings
  1

  2
none_device
  4

  6

 40
0.0
 41
0.0
 42
0.0
 43
0.0
 44
0.0
 45
0.0
 46
0.0
 47
0.0
 48
0.0
 49
0.0
140
0.0
141
0.0
142
1.0
143
1.0
 70
  1712
 72
     0
 73
     0
 74
     0
  7

 75
     0
 76
     0
 77
     2
 78
   300
147
1.0
148
0.0
149
0.0
100
AcDbLayout
  1
Model
 70
     1
 71
     0
 10
0.0
 20
0.0
 11
12.0
 21
9.0
 12
0.0
 22
0.0
 32
0.0
 14
1.000000000000000E+20
 24
1.000000000000000E+20
 34
1.000000000000000E+20
 15
-1.000000000000000E+20
 25
-1.000000000000000E+20
 35
-1.000000000000000E+20
146
0.0
 13
0.0
 23
0.0
 33
0.0
 16
1.0
 26
0.0
 36
0.0
 17
0.0
 27
1.0
 37
0.0
 76
     0
330
1F
331
29
  0
MATERIAL
  5
3D
102
{ACAD_REACTORS
330
3B
102
}
330
3B
100
AcDbMaterial
  1
ByBlock
 72
     1
 94
      127
  0
MATERIAL
  5
3C
102
{ACAD_REACTORS
330
3B
102
}
330
3B
100
AcDbMaterial
  1
ByLayer
 72
     1
 94
      127
  0
MATERIAL
  5
3E
102
{ACAD_REACTORS
330
3B
102
}
330
3B
100
AcDbMaterial
  1
Global
 72
     1
 94
      127
  0
MLINESTYLE
  5
18
102
{ACAD_REACTORS
330
17
102
}
330
17
100
AcDbMlineStyle
  2
Standard
 70
     0
  3

 62
   256
 51
90.0
 52
90.0
 71
     2
 49
0.5
 62
   256
  6
BYLAYER
 49
-0.5
 62
   256
  6
BYLAYER
  0
ACDBPLACEHOLDER
  5
F
102
{ACAD_REACTORS
330
E
102
}
330
E
  0
VISUALSTYLE
  5
2F
102
{ACAD_REACTORS
330
2A
102
}
330
2A
100
AcDbVisualStyle
  2
2dWireframe
 70
     4
177
     2
291
     0
 71
     0
176
     1
 72
     2
176
     1
 73
     0
176
     1
 90
        0
176
     1
 40
-0.6
176
     1
 41
-30.0
176
     1
 62
     5
 63
     7
421
 16777215
176
     1
 74
     1
176
     1
 91
        4
176
     1
 64
     7
176
     1
 65
   257
176
     1
 75
     1
176
     1
175
     1
176
     1
 42
1.0
176
     1
 92
        0
176
     1
 66
   257
176
     1
 43
1.0
176
     1
 76
     1
176
     1
 77
     6
176
     1
 78
     2
176
     1
 67
     7
176
     1
 79
     5
176
     1
170
     0
176
     1
171
     0
176
     1
290
     0
176
     1
 93
        1
176
     1
 44
0.0
176
     1
173
     0
176
     1
  0
VISUALSTYLE
  5
31
102
{ACAD_REACTORS
330
2A
102
}
330
2A
100
AcDbVisualStyle
  2
3D Hidden
 70
     6
177
     2
291
     0
 71
     1
176
     1
 72
     2
176
     1
 73
     2
176
     1
 90
        0
176
     1
 40
-0.6
176
     1
 41
-30.0
176
     1
 62
     5
 63
     7
421
 16777215
176
     1
 74
     2
176
     1
 91
        2
176
     1
 64
     7
176
     1
 65
   257
176
     1
 75
     2
176
     1
175
     1
176
     1
 42
40.0
176
     1
 92
        0
176
     1
 66
   257
176
     1
 43
1.0
176
     1
 76
     1
176
     1
 77
     6
176
     1
 78
     2
176
     1
 67
     7
176
     1
 79
     3
176
     1
170
     0
176
     1
171
     0
176
     1
290
     0
176
     1
 93
        1
176
     1
 44
0.0
176
     1
173
     0
176
     1
  0
VISUALSTYLE
  5
30
102
{ACAD_REACTORS
330
2A
102
}
330
2A
100
AcDbVisualStyle
  2
3dWireframe
 70
     5
177
     2
291
     0
 71
     0
176
     1
 72
     2
176
     1
 73
     0
176
     1
 90
        0
176
     1
 40
-0.6
176
     1
 41
-30.0
176
     1
 62
     5
 63
     7
421
 16777215
176
     1
 74
     1
176
     1
 91
        4
176
     1
 64
     7
176
     1
 65
   257
176
     1
 75
     1
176
     1
175
     1
176
     1
 42
1.0
176
     1
 92
        0
176
     1
 66
   257
176
     1
 43
1.0
176
     1
 76
     1
176
     1
 77
     6
176
     1
 78
     2
176
     1
 67
     7
176
     1
 79
     5
176
     1
170
     0
176
     1
171
     0
176
     1
290
     0
176
     1
 93
        1
176
     1
 44
0.0
176
     1
173
     0
176
     1
  0
VISUALSTYLE
  5
32
102
{ACAD_REACTORS
330
2A
102
}
330
2A
100
AcDbVisualStyle
  2
Basic
 70
     7
177
     2
291
     1
 71
     1
176
     1
 72
     0
176
     1
 73
     1
176
     1
 90
        0
176
     1
 40
-0.6
176
     1
 41
-30.0
176
     1
 62
     5
 63
     7
421
 16777215
176
     1
 74
     0
176
     1
 91
        4
176
     1
 64
     7
176
     1
 65
   257
176
     1
 75
     1
176
     1
175
     1
176
     1
 42
1.0
176
     1
 92
        8
176
     1
 66
     7
176
     1
 43
1.0
176
     1
 76
     1
176
     1
 77
     6
176
     1
 78
     2
176
     1
 67
     7
176
     1
 79
     5
176
     1
170
     0
176
     1
171
     0
176
     1
290
     0
176
     1
 93
        1
176
     1
 44
0.0
176
     1
173
     0
176
     1
  0
VISUALSTYLE
  5
36
102
{ACAD_REACTORS
330
2A
102
}
330
2A
100
AcDbVisualStyle
  2
Brighten
 70
    12
177
     2
291
     1
 71
     2
176
     1
 72
     2
176
     1
 73
     0
176
     1
 90
        0
176
     1
 40
-0.6
176
     1
 41
-30.0
176
     1
 62
     5
 63
     7
421
 16777215
176
     1
 74
     1
176
     1
 91
        4
176
     1
 64
     7
176
     1
 65
   257
176
     1
 75
     1
176
     1
175
     1
176
     1
 42
1.0
176
     1
 92
        8
176
     1
 66
     7
176
     1
 43
1.0
176
     1
 76
     1
176
     1
 77
     6
176
     1
 78
     2
176
     1
 67
     7
176
     1
 79
     5
176
     1
170
     0
176
     1
171
     0
176
     1
290
     0
176
     1
 93
        1
176
     1
 44
50.0
176
     1
173
     0
176
     1
  0
VISUALSTYLE
  5
3A
102
{ACAD_REACTORS
330
2A
102
}
330
2A
100
AcDbVisualStyle
  2
ColorChange
 70
    16
177
     2
291
     1
 71
     2
176
     1
 72
     2
176
     1
 73
     3
176
     1
 90
        0
176
     1
 40
-0.6
176
     1
 41
-30.0
176
     1
 62
     5
 63
     8
421
  8421504
176
     1
 74
     1
176
     1
 91
        4
176
     1
 64
     7
176
     1
 65
   257
176
     1
 75
     1
176
     1
175
     1
176
     1
 42
1.0
176
     1
 92
        8
176
     1
 66
     8
424
  8421504
176
     1
 43
1.0
176
     1
 76
     1
176
     1
 77
     6
176
     1
 78
     2
176
     1
 67
     7
176
     1
 79
     5
176
     1
170
     0
176
     1
171
     0
176
     1
290
     0
176
     1
 93
        1
176
     1
 44
0.0
176
     1
173
     0
176
     1
  0
VISUALSTYLE
  5
34
102
{ACAD_REACTORS
330
2A
102
}
330
2A
100
AcDbVisualStyle
  2
Conceptual
 70
     9
177
     2
291
     0
 71
     3
176
     1
 72
     2
176
     1
 73
     0
176
     1
 90
        0
176
     1
 40
-0.6
176
     1
 41
-30.0
176
     1
 62
     5
 63
     7
421
 16777215
176
     1
 74
     2
176
     1
 91
        2
176
     1
 64
     7
176
     1
 65
   257
176
     1
 75
     1
176
     1
175
     1
176
     1
 42
40.0
176
     1
 92
        8
176
     1
 66
     7
176
     1
 43
1.0
176
     1
 76
     1
176
     1
 77
     6
176
     1
 78
     2
176
     1
 67
     7
176
     1
 79
     3
176
     1
170
     0
176
     1
171
     0
176
     1
290
     0
176
     1
 93
        1
176
     1
 44
0.0
176
     1
173
     0
176
     1
  0
VISUALSTYLE
  5
35
102
{ACAD_REACTORS
330
2A
102
}
330
2A
100
AcDbVisualStyle
  2
Dim
 70
    11
177
     2
291
     1
 71
     2
176
     1
 72
     2
176
     1
 73
     0
176
     1
 90
        0
176
     1
 40
-0.6
176
     1
 41
-30.0
176
     1
 62
     5
 63
     7
421
 16777215
176
     1
 74
     1
176
     1
 91
        4
176
     1
 64
     7
176
     1
 65
   257
176
     1
 75
     1
176
     1
175
     1
176
     1
 42
1.0
176
     1
 92
        8
176
     1
 66
     7
176
     1
 43
1.0
176
     1
 76
     1
176
     1
 77
     6
176
     1
 78
     2
176
     1
 67
     7
176
     1
 79
     5
176
     1
170
     0
176
     1
171
     0
176
     1
290
     0
176
     1
 93
        1
176
     1
 44
-50.0
176
     1
173
     0
176
     1
  0
VISUALSTYLE
  5
39
102
{ACAD_REACTORS
330
2A
102
}
330
2A
100
AcDbVisualStyle
  2
Facepattern
 70
    15
177
     2
291
     1
 71
     2
176
     1
 72
     2
176
     1
 73
     0
176
     1
 90
        0
176
     1
 40
-0.6
176
     1
 41
-30.0
176
     1
 62
     5
 63
     7
421
 16777215
176
     1
 74
     1
176
     1
 91
        4
176
     1
 64
     7
176
     1
 65
   257
176
     1
 75
     1
176
     1
175
     1
176
     1
 42
1.0
176
     1
 92
        8
176
     1
 66
     7
176
     1
 43
1.0
176
     1
 76
     1
176
     1
 77
     6
176
     1
 78
     2
176
     1
 67
     7
176
     1
 79
     5
176
     1
170
     0
176
     1
171
     0
176
     1
290
     0
176
     1
 93
        1
176
     1
 44
0.0
176
     1
173
     0
176
     1
  0
VISUALSTYLE
  5
2B
102
{ACAD_REACTORS
330
2A
102
}
330
2A
100
AcDbVisualStyle
  2
Flat
 70
     0
177
     2
291
     1
 71
     2
176
     1
 72
     1
176
     1
 73
     1
176
     1
 90
        2
176
     1
 40
-0.6
176
     1
 41
30.0
176
     1
 62
     5
 63
     7
421
 16777215
176
     1
 74
     0
176
     1
 91
        4
176
     1
 64
     7
176
     1
 65
   257
176
     1
 75
     1
176
     1
175
     1
176
     1
 42
1.0
176
     1
 92
        8
176
     1
 66
     7
176
     1
 43
1.0
176
     1
 76
     1
176
     1
 77
     6
176
     1
 78
     2
176
     1
 67
     7
176
     1
 79
     5
176
     1
170
     0
176
     1
171
     0
176
     1
290
     0
176
     1
 93
       13
176
     1
 44
0.0
176
     1
173
     0
176
     1
  0
VISUALSTYLE
  5
2C
102
{ACAD_REACTORS
330
2A
102
}
330
2A
100
AcDbVisualStyle
  2
FlatWithEdges
 70
     1
177
     2
291
     1
 71
     2
176
     1
 72
     1
176
     1
 73
     1
176
     1
 90
        2
176
     1
 40
-0.6
176
     1
 41
30.0
176
     1
 62
     5
 63
     7
421
 16777215
176
     1
 74
     1
176
     1
 91
        4
176
     1
 64
     7
176
     1
 65
   257
176
     1
 75
     1
176
     1
175
     1
176
     1
 42
1.0
176
     1
 92
        0
176
     1
 66
   257
176
     1
 43
1.0
176
     1
 76
     1
176
     1
 77
     6
176
     1
 78
     2
176
     1
 67
     7
176
     1
 79
     5
176
     1
170
     0
176
     1
171
     0
176
     1
290
     0
176
     1
 93
       13
176
     1
 44
0.0
176
     1
173
     0
176
     1
  0
VISUALSTYLE
  5
2D
102
{ACAD_REACTORS
330
2A
102
}
330
2A
100
AcDbVisualStyle
  2
Gouraud
 70
     2
177
     2
291
     1
 71
     2
176
     1
 72
     2
176
     1
 73
     1
176
     1
 90
        2
176
     1
 40
-0.6
176
     1
 41
30.0
176
     1
 62
     5
 63
     7
421
 16777215
176
     1
 74
     0
176
     1
 91
        4
176
     1
 64
     7
176
     1
 65
   257
176
     1
 75
     1
176
     1
175
     1
176
     1
 42
1.0
176
     1
 92
        0
176
     1
 66
     7
176
     1
 43
1.0
176
     1
 76
     1
176
     1
 77
     6
176
     1
 78
     2
176
     1
 67
     7
176
     1
 79
     5
176
     1
170
     0
176
     1
171
     0
176
     1
290
     0
176
     1
 93
       13
176
     1
 44
0.0
176
     1
173
     0
176
     1
  0
VISUALSTYLE
  5
2E
102
{ACAD_REACTORS
330
2A
102
}
330
2A
100
AcDbVisualStyle
  2
GouraudWithEdges
 70
     3
177
     2
291
     1
 71
     2
176
     1
 72
     2
176
     1
 73
     1
176
     1
 90
        2
176
     1
 40
-0.6
176
     1
 41
30.0
176
     1
 62
     5
 63
     7
421
 16777215
176
     1
 74
     1
176
     1
 91
        4
176
     1
 64
     7
176
     1
 65
   257
176
     1
 75
     1
176
     1
175
     1
176
     1
 42
1.0
176
     1
 92
        0
176
     1
 66
   257
176
     1
 43
1.0
176
     1
 76
     1
176
     1
 77
     6
176
     1
 78
     2
176
     1
 67
     7
176
     1
 79
     5
176
     1
170
     0
176
     1
171
     0
176
     1
290
     0
176
     1
 93
       13
176
     1
 44
0.0
176
     1
173
     0
176
     1
  0
VISUALSTYLE
  5
38
102
{ACAD_REACTORS
330
2A
102
}
330
2A
100
AcDbVisualStyle
  2
Linepattern
 70
    14
177
     2
291
     1
 71
     2
176
     1
 72
     2
176
     1
 73
     0
176
     1
 90
        0
176
     1
 40
-0.6
176
     1
 41
-30.0
176
     1
 62
     5
 63
     7
421
 16777215
176
     1
 74
     1
176
     1
 91
        4
176
     1
 64
     7
176
     1
 65
   257
176
     1
 75
     7
176
     1
175
     7
176
     1
 42
1.0
176
     1
 92
        8
176
     1
 66
     7
176
     1
 43
1.0
176
     1
 76
     1
176
     1
 77
     6
176
     1
 78
     2
176
     1
 67
     7
176
     1
 79
     5
176
     1
170
     0
176
     1
171
     0
176
     1
290
     0
176
     1
 93
        1
176
     1
 44
0.0
176
     1
173
     0
176
     1
  0
VISUALSTYLE
  5
33
102
{ACAD_REACTORS
330
2A
102
}
330
2A
100
AcDbVisualStyle
  2
Realistic
 70
     8
177
     2
291
     0
 71
     2
176
     1
 72
     2
176
     1
 73
     0
176
     1
 90
        0
176
     1
 40
-0.6
176
     1
 41
-30.0
176
     1
 62
     5
 63
     7
421
 16777215
176
     1
 74
     1
176
     1
 91
        0
176
     1
 64
     7
176
     1
 65
   257
176
     1
 75
     1
176
     1
175
     1
176
     1
 42
1.0
176
     1
 92
        8
176
     1
 66
     8
424
  7895160
176
     1
 43
1.0
176
     1
 76
     1
176
     1
 77
     6
176
     1
 78
     2
176
     1
 67
     7
176
     1
 79
     5
176
     1
170
     0
176
     1
171
     0
176
     1
290
     0
176
     1
 93
       13
176
     1
 44
0.0
176
     1
173
     0
176
     1
  0
VISUALSTYLE
  5
37
102
{ACAD_REACTORS
330
2A
102
}
330
2A
100
AcDbVisualStyle
  2
Thicken
 70
    13
177
     2
291
     1
 71
     2
176
     1
 72
     2
176
     1
 73
     0
176
     1
 90
        0
176
     1
 40
-0.6
176
     1
 41
-30.0
176
     1
 62
     5
 63
     7
421
 16777215
176
     1
 74
     1
176
     1
 91
        4
176
     1
 64
     7
176
     1
 65
   257
176
     1
 75
     1
176
     1
175
     1
176
     1
 42
1.0
176
     1
 92
       12
176
     1
 66
     7
176
     1
 43
1.0
176
     1
 76
     1
176
     1
 77
     6
176
     1
 78
     2
176
     1
 67
     7
176
     1
 79
     5
176
     1
170
     0
176
     1
171
     0
176
     1
290
     0
176
     1
 93
        1
176
     1
 44
0.0
176
     1
173
     0
176
     1
  0
ENDSEC
  0
EOF
