  0
SECTION
  2
HEADER
  9
$ACADVER
  1
AC1024
  9
$ACADMAINTVER
 70
     6
  9
$DWGCODEPAGE
  3
UNDEFINED
  9
$INSBASE
 10
0.0
 20
0.0
 30
0.0
  9
$EXTMIN
 10
1.000000000000000E+20
 20
1.000000000000000E+20
 30
1.000000000000000E+20
  9
$EXTMAX
 10
-1.000000000000000E+20
 20
-1.000000000000000E+20
 30
-1.000000000000000E+20
  9
$LIMMIN
 10
0.0
 20
0.0
  9
$LIMMAX
 10
12.0
 20
9.0
  9
$ORTHOMODE
 70
     0
  9
$REGENMODE
 70
     1
  9
$FILLMODE
 70
     1
  9
$QTEXTMODE
 70
     0
  9
$MIRRTEXT
 70
     1
  9
$LTSCALE
 40
1.0
  9
$ATTMODE
 70
     1
  9
$TEXTSIZE
 40
0.2
  9
$TRACEWID
 40
0.05
  9
$TEXTSTYLE
  7
Standard
  9
$CLAYER
  8
0
  9
$CELTYPE
  6
ByLayer
  9
$CECOLOR
 62
   256
  9
$CELTSCALE
 40
1.0
  9
$DISPSILH
 70
     0
  9
$DIMSCALE
 40
1.0
  9
$DIMASZ
 40
0.18
  9
$DIMEXO
 40
0.0625
  9
$DIMDLI
 40
0.38
  9
$DIMRND
 40
0.0
  9
$DIMDLE
 40
0.0
  9
$DIMEXE
 40
0.18
  9
$DIMTP
 40
0.0
  9
$DIMTM
 40
0.0
  9
$DIMTXT
 40
0.18
  9
$DIMCEN
 40
0.09
  9
$DIMTSZ
 40
0.0
  9
$DIMTOL
 70
     0
  9
$DIMLIM
 70
     0
  9
$DIMTIH
 70
     1
  9
$DIMTOH
 70
     1
  9
$DIMSE1
 70
     0
  9
$DIMSE2
 70
     0
  9
$DIMTAD
 70
     0
  9
$DIMZIN
 70
     0
  9
$DIMBLK
  1

  9
$DIMASO
 70
     1
  9
$DIMSHO
 70
     1
  9
$DIMPOST
  1

  9
$DIMAPOST
  1

  9
$DIMALT
 70
     0
  9
$DIMALTD
 70
     2
  9
$DIMALTF
 40
25.4
  9
$DIMLFAC
 40
1.0
  9
$DIMTOFL
 70
     0
  9
$DIMTVP
 40
0.0
  9
$DIMTIX
 70
     0
  9
$DIMSOXD
 70
     0
  9
$DIMSAH
 70
     0
  9
$DIMBLK1
  1

  9
$DIMBLK2
  1

  9
$DIMSTYLE
  2
Standard
  9
$DIMCLRD
 70
     0
  9
$DIMCLRE
 70
     0
  9
$DIMCLRT
 70
     0
  9
$DIMTFAC
 40
1.0
  9
$DIMGAP
 40
0.09
  9
$DIMJUST
 70
     0
  9
$DIMSD1
 70
     0
  9
$DIMSD2
 70
     0
  9
$DIMTOLJ
 70
     1
  9
$DIMTZIN
 70
     0
  9
$DIMALTZ
 70
     0
  9
$DIMALTTZ
 70
     0
  9
$DIMUPT
 70
     0
  9
$DIMDEC
 70
     4
  9
$DIMTDEC
 70
     4
  9
$DIMALTU
 70
     2
  9
$DIMALTTD
 70
     2
  9
$DIMTXSTY
  7
Standard
  9
$DIMAUNIT
 70
     0
  9
$DIMADEC
 70
     0
  9
$DIMALTRND
 40
0.0
  9
$DIMAZIN
 70
     0
  9
$DIMDSEP
 70
    46
  9
$DIMATFIT
 70
     3
  9
$DIMFRAC
 70
     0
  9
$DIMLDRBLK
  1

  9
$DIMLUNIT
 70
     2
  9
$DIMLWD
 70
    -2
  9
$DIMLWE
 70
    -2
  9
$DIMTMOVE
 70
     0
  9
$DIMFXL
 40
1.0
  9
$DIMFXLON
 70
     0
  9
$DIMJOGANG
 40
0.7853981633974483
  9
$DIMTFILL
 70
     0
  9
$DIMTFILLCLR
 70
     0
  9
$DIMARCSYM
 70
     0
  9
$DIMLTYPE
  6

  9
$DIMLTEX1
  6

  9
$DIMLTEX2
  6

  9
$DIMTXTDIRECTION
 70
     0
  9
$LUNITS
 70
     2
  9
$LUPREC
 70
     4
  9
$SKETCHINC
 40
0.1
  9
$FILLETRAD
 40
0.5
  9
$AUNITS
 70
     0
  9
$AUPREC
 70
     0
  9
$MENU
  1
.
  9
$ELEVATION
 40
0.0
  9
$PELEVATION
 40
0.0
  9
$THICKNESS
 40
0.0
  9
$LIMCHECK
 70
     0
  9
$CHAMFERA
 40
0.5
  9
$CHAMFERB
 40
0.5
  9
$CHAMFERC
 40
1.0
  9
$CHAMFERD
 40
0.0
  9
$SKPOLY
 70
     0
  9
$TDCREATE
 40
2457917.616655093
  9
$TDUCREATE
 40
2457917.241655093
  9
$TDUPDATE
 40
2457917.616655093
  9
$TDUUPDATE
 40
2457917.241655093
  9
$TDINDWG
 40
0.0000000116
  9
$TDUSRTIMER
 40
0.0000000116
  9
$USRTIMER
 70
     1
  9
$ANGBASE
 50
0.0
  9
$ANGDIR
 70
     0
  9
$PDMODE
 70
     0
  9
$PDSIZE
 40
0.0
  9
$PLINEWID
 40
0.0
  9
$SPLFRAME
 70
     0
  9
$SPLINETYPE
 70
     6
  9
$SPLINESEGS
 70
     8
  9
$HANDSEED
  5
B1
  9
$SURFTAB1
 70
     6
  9
$SURFTAB2
 70
     6
  9
$SURFTYPE
 70
     6
  9
$SURFU
 70
     6
  9
$SURFV
 70
     6
  9
$UCSBASE
  2

  9
$UCSNAME
  2

  9
$UCSORG
 10
0.0
 20
0.0
 30
0.0
  9
$UCSXDIR
 10
1.0
 20
0.0
 30
0.0
  9
$UCSYDIR
 10
0.0
 20
1.0
 30
0.0
  9
$UCSORTHOREF
  2

  9
$UCSORTHOVIEW
 70
     0
  9
$UCSORGTOP
 10
0.0
 20
0.0
 30
0.0
  9
$UCSORGBOTTOM
 10
0.0
 20
0.0
 30
0.0
  9
$UCSORGLEFT
 10
0.0
 20
0.0
 30
0.0
  9
$UCSORGRIGHT
 10
0.0
 20
0.0
 30
0.0
  9
$UCSORGFRONT
 10
0.0
 20
0.0
 30
0.0
  9
$UCSORGBACK
 10
0.0
 20
0.0
 30
0.0
  9
$PUCSBASE
  2

  9
$PUCSNAME
  2

  9
$PUCSORG
 10
0.0
 20
0.0
 30
0.0
  9
$PUCSXDIR
 10
1.0
 20
0.0
 30
0.0
  9
$PUCSYDIR
 10
0.0
 20
1.0
 30
0.0
  9
$PUCSORTHOREF
  2

  9
$PUCSORTHOVIEW
 70
     0
  9
$PUCSORGTOP
 10
0.0
 20
0.0
 30
0.0
  9
$PUCSORGBOTTOM
 10
0.0
 20
0.0
 30
0.0
  9
$PUCSORGLEFT
 10
0.0
 20
0.0
 30
0.0
  9
$PUCSORGRIGHT
 10
0.0
 20
0.0
 30
0.0
  9
$PUCSORGFRONT
 10
0.0
 20
0.0
 30
0.0
  9
$PUCSORGBACK
 10
0.0
 20
0.0
 30
0.0
  9
$USERI1
 70
     0
  9
$USERI2
 70
     0
  9
$USERI3
 70
     0
  9
$USERI4
 70
     0
  9
$USERI5
 70
     0
  9
$USERR1
 40
0.0
  9
$USERR2
 40
0.0
  9
$USERR3
 40
0.0
  9
$USERR4
 40
0.0
  9
$USERR5
 40
0.0
  9
$WORLDVIEW
 70
     1
  9
$SHADEDGE
 70
     3
  9
$SHADEDIF
 70
    70
  9
$TILEMODE
 70
     1
  9
$MAXACTVP
 70
    64
  9
$PINSBASE
 10
0.0
 20
0.0
 30
0.0
  9
$PLIMCHECK
 70
     0
  9
$PEXTMIN
 10
1.000000000000000E+20
 20
1.000000000000000E+20
 30
1.000000000000000E+20
  9
$PEXTMAX
 10
-1.000000000000000E+20
 20
-1.000000000000000E+20
 30
-1.000000000000000E+20
  9
$PLIMMIN
 10
0.0
 20
0.0
  9
$PLIMMAX
 10
12.0
 20
9.0
  9
$UNITMODE
 70
     0
  9
$VISRETAIN
 70
     1
  9
$PLINEGEN
 70
     0
  9
$PSLTSCALE
 70
     1
  9
$TREEDEPTH
 70
  3020
  9
$CMLSTYLE
  2
Standard
  9
$CMLJUST
 70
     0
  9
$CMLSCALE
 40
1.0
  9
$PROXYGRAPHICS
 70
     1
  9
$MEASUREMENT
 70
     0
  9
$CELWEIGHT
370
    -1
  9
$ENDCAPS
280
     0
  9
$JOINSTYLE
280
     0
  9
$LWDISPLAY
290
     1
  9
$INSUNITS
 70
     1
  9
$HYPERLINKBASE
  1

  9
$STYLESHEET
  1

  9
$XEDIT
290
     1
  9
$CEPSNTYPE
380
     0
  9
$PSTYLEMODE
290
     1
  9
$FINGERPRINTGUID
  2
{C82787E8-2AAB-9206-662A-0774A36B797F}
  9
$VERSIONGUID
  2
{FAEB1C32-E019-11D5-929B-00C0DF256EC4}
  9
$EXTNAMES
290
     1
  9
$PSVPSCALE
 40
0.0
  9
$OLESTARTUP
290
     0
  9
$SORTENTS
280
   127
  9
$INDEXCTL
280
     0
  9
$HIDETEXT
280
     1
  9
$XCLIPFRAME
280
     2
  9
$HALOGAP
280
     0
  9
$OBSCOLOR
 70
   257
  9
$OBSLTYPE
280
     0
  9
$INTERSECTIONDISPLAY
280
     0
  9
$INTERSECTIONCOLOR
 70
   257
  9
$DIMASSOC
280
     2
  9
$PROJECTNAME
  1

  9
$CAMERADISPLAY
290
     0
  9
$LENSLENGTH
 40
50.0
  9
$CAMERAHEIGHT
 40
0.0
  9
$STEPSPERSEC
 40
2.0
  9
$STEPSIZE
 40
6.0
  9
$3DDWFPREC
 40
2.0
  9
$PSOLWIDTH
 40
0.25
  9
$PSOLHEIGHT
 40
4.0
  9
$LOFTANG1
 40
1.570796326794897
  9
$LOFTANG2
 40
1.570796326794897
  9
$LOFTMAG1
 40
0.0
  9
$LOFTMAG2
 40
0.0
  9
$LOFTPARAM
 70
     7
  9
$LOFTNORMALS
280
     1
  9
$LATITUDE
 40
37.795
  9
$LONGITUDE
 40
-122.394
  9
$NORTHDIRECTION
 40
0.0
  9
$TIMEZONE
 70
 -8000
  9
$LIGHTGLYPHDISPLAY
280
     1
  9
$TILEMODELIGHTSYNCH
280
     1
  9
$CMATERIAL
347
3C
  9
$SOLIDHIST
280
     1
  9
$SHOWHIST
280
     1
  9
$DWFFRAME
280
     2
  9
$DGNFRAME
280
     2
  9
$REALWORLDSCALE
290
     1
  9
$INTERFERECOLOR
 62
   256
  9
$CSHADOW
280
     0
  9
$SHADOWPLANELOCATION
 40
0.0
  0
ENDSEC
  0
SECTION
  2
CLASSES
  0
CLASS
  1
ACDBDICTIONARYWDFLT
  2
AcDbDictionaryWithDefault
  3
ObjectDBX Classes
 90
        0
 91
        4
280
     0
281
     0
  0
CLASS
  1
VISUALSTYLE
  2
AcDbVisualStyle
  3
ObjectDBX Classes
 90
     4095
 91
        4
280
     0
281
     0
  0
CLASS
  1
MATERIAL
  2
AcDbMaterial
  3
ObjectDBX Classes
 90
     1153
 91
        4
280
     0
281
     0
  0
CLASS
  1
SUN
  2
AcDbSun
  3
SCENEOE
 90
     1024
 91
        4
280
     0
281
     0
  0
ENDSEC
  0
SECTION
  2
TABLES
  0
TABLE
  2
VPORT
  5
8
330
0
100
AcDbSymbolTable
 70
     1
  0
VPORT
  5
29
330
8
100
AcDbSymbolTableRecord
100
AcDbViewportTableRecord
  2
*Active
 70
     0
 10
0.0
 20
0.0
 11
1.0
 21
1.0
 12
0.0
 22
0.0
 13
0.0
 23
0.0
 14
0.5
 24
0.5
 15
0.5
 25
0.5
 16
0.0
 26
0.0
 36
1.0
 17
91.00082462281999
 27
-128.4993055234307
 37
0.0
 40
256.9986110468615
 41
0.7081814508812795
 42
50.0
 43
0.0
 44
0.0
 50
0.0
 51
0.0
 71
     0
 72
   100
 73
     1
 74
     3
 75
     0
 76
     0
 77
     0
 78
     0
281
     0
 65
     1
110
0.0
120
0.0
130
0.0
111
1.0
121
0.0
131
0.0
112
0.0
122
1.0
132
0.0
 79
     0
146
0.0
 60
     3
 61
     5
292
     1
282
     1
141
0.0
142
0.0
 63
   250
361
3F
  0
ENDTAB
  0
TABLE
  2
LTYPE
  5
5
330
0
100
AcDbSymbolTable
 70
     1
  0
LTYPE
  5
14
330
5
100
AcDbSymbolTableRecord
100
AcDbLinetypeTableRecord
  2
ByBlock
 70
     0
  3

 72
    65
 73
     0
 40
0.0
  0
LTYPE
  5
15
330
5
100
AcDbSymbolTableRecord
100
AcDbLinetypeTableRecord
  2
ByLayer
 70
     0
  3

 72
    65
 73
     0
 40
0.0
  0
LTYPE
  5
16
330
5
100
AcDbSymbolTableRecord
100
AcDbLinetypeTableRecord
  2
Continuous
 70
     0
  3
Solid line
 72
    65
 73
     0
 40
0.0
  0
ENDTAB
  0
TABLE
  2
LAYER
  5
2
330
0
100
AcDbSymbolTable
 70
     2
  0
LAYER
  5
10
330
2
100
AcDbSymbolTableRecord
100
AcDbLayerTableRecord
  2
0
 70
     0
 62
     7
  6
Continuous
370
    -3
390
F
347
3E
  0
LAYER
  5
40
330
2
100
AcDbSymbolTableRecord
100
AcDbLayerTableRecord
  2
_U+30EC_U+30A4_U+30E4_U+30FC 1
 70
     0
 62
     7
  6
Continuous
370
    -3
390
F
347
3E
  0
ENDTAB
  0
TABLE
  2
STYLE
  5
3
330
0
100
AcDbSymbolTable
 70
     1
  0
STYLE
  5
11
330
3
100
AcDbSymbolTableRecord
100
AcDbTextStyleTableRecord
  2
Standard
 70
     0
 40
0.0
 41
1.0
 50
0.0
 71
     0
 42
0.2
  3
txt
  4

  0
ENDTAB
  0
TABLE
  2
VIEW
  5
6
330
0
100
AcDbSymbolTable
 70
     0
  0
ENDTAB
  0
TABLE
  2
UCS
  5
7
330
0
100
AcDbSymbolTable
 70
     0
  0
ENDTAB
  0
TABLE
  2
APPID
  5
9
330
0
100
AcDbSymbolTable
 70
     1
  0
APPID
  5
12
330
9
100
AcDbSymbolTableRecord
100
AcDbRegAppTableRecord
  2
ACAD
 70
     0
  0
ENDTAB
  0
TABLE
  2
DIMSTYLE
  5
A
330
0
100
AcDbSymbolTable
 70
     1
100
AcDbDimStyleTable
  0
DIMSTYLE
105
27
330
A
100
AcDbSymbolTableRecord
100
AcDbDimStyleTableRecord
  2
Standard
 70
     0
178
     0
340
11
  0
ENDTAB
  0
TABLE
  2
BLOCK_RECORD
  5
1
330
0
100
AcDbSymbolTable
 70
     5
  0
BLOCK_RECORD
  5
1F
330
1
100
AcDbSymbolTableRecord
100
AcDbBlockTableRecord
  2
*Model_Space
340
22
 70
     0
280
     1
281
     0
  0
BLOCK_RECORD
  5
1B
330
1
100
AcDbSymbolTableRecord
100
AcDbBlockTableRecord
  2
*Paper_Space
340
1E
 70
     0
280
     1
281
     0
  0
BLOCK_RECORD
  5
23
330
1
100
AcDbSymbolTableRecord
100
AcDbBlockTableRecord
  2
*Paper_Space0
340
26
 70
     0
280
     1
281
     0
  0
BLOCK_RECORD
  5
64
330
1
100
AcDbSymbolTableRecord
100
AcDbBlockTableRecord
  2
block 2
340
0
102
{BLKREFS
331
65
102
}
 70
     0
280
     1
281
     0
  0
BLOCK_RECORD
  5
6A
330
1
100
AcDbSymbolTableRecord
100
AcDbBlockTableRecord
  2
block 3
340
0
102
{BLKREFS
331
6B
102
}
 70
     0
280
     1
281
     0
  0
BLOCK_RECORD
  5
81
330
1
100
AcDbSymbolTableRecord
100
AcDbBlockTableRecord
  2
block 4
340
0
102
{BLKREFS
331
82
102
}
 70
     0
280
     1
281
     0
  0
BLOCK_RECORD
  5
99
330
1
100
AcDbSymbolTableRecord
100
AcDbBlockTableRecord
  2
block 5
340
0
102
{BLKREFS
331
9A
102
}
 70
     0
280
     1
281
     0
  0
ENDTAB
  0
ENDSEC
  0
SECTION
  2
BLOCKS
  0
BLOCK
  5
20
330
1F
100
AcDbEntity
  8
0
100
AcDbBlockBegin
  2
*Model_Space
 70
     0
 10
0.0
 20
0.0
 30
0.0
  3
*Model_Space
  1

  0
ENDBLK
  5
21
330
1F
100
AcDbEntity
  8
0
100
AcDbBlockEnd
  0
BLOCK
  5
1C
330
1B
100
AcDbEntity
 67
     1
  8
0
100
AcDbBlockBegin
  2
*Paper_Space
 70
     0
 10
0.0
 20
0.0
 30
0.0
  3
*Paper_Space
  1

  0
ENDBLK
  5
1D
330
1B
100
AcDbEntity
 67
     1
  8
0
100
AcDbBlockEnd
  0
BLOCK
  5
24
330
23
100
AcDbEntity
  8
0
100
AcDbBlockBegin
  2
*Paper_Space0
 70
     0
 10
0.0
 20
0.0
 30
0.0
  3
*Paper_Space0
  1

  0
ENDBLK
  5
25
330
23
100
AcDbEntity
  8
0
100
AcDbBlockEnd
  0
BLOCK
  5
66
330
64
100
AcDbEntity
  8
0
100
AcDbBlockBegin
  2
block 2
 70
     0
 10
0.0
 20
0.0
 30
0.0
  3
block 2
  1

  0
SPLINE
  5
68
330
64
100
AcDbEntity
  8
_U+30EC_U+30A4_U+30E4_U+30FC 1
370
     0
100
AcDbSpline
210
0.0
220
0.0
230
1.0
 70
    11
 71
     3
 72
    26
 73
    22
 74
     0
 42
0.0000000001
 43
0.0000000001
 12
1.0
 22
0.0
 32
0.0
 13
1.0
 23
0.0
 33
0.0
 40
0.0
 40
0.0
 40
0.0
 40
0.0
 40
1.0
 40
1.0
 40
1.0
 40
2.0
 40
2.0
 40
2.0
 40
3.0
 40
3.0
 40
3.0
 40
4.0
 40
4.0
 40
4.0
 40
5.0
 40
5.0
 40
5.0
 40
6.0
 40
6.0
 40
6.0
 40
7.0
 40
7.0
 40
7.0
 40
7.0
 10
105.0481960457866
 20
-133.3196831263923
 30
0.0
 10
105.0481960457866
 20
-133.3196831263923
 30
0.0
 10
103.944042942764
 20
-133.3196831263923
 30
0.0
 10
103.944042942764
 20
-133.3196831263923
 30
0.0
 10
103.944042942764
 20
-133.3196831263923
 30
0.0
 10
103.944042942764
 20
-133.6497232738792
 30
0.0
 10
103.944042942764
 20
-133.6497232738792
 30
0.0
 10
103.944042942764
 20
-133.6497232738792
 30
0.0
 10
103.7959038368982
 20
-133.6497232738792
 30
0.0
 10
103.7959038368982
 20
-133.6497232738792
 30
0.0
 10
103.7810899263117
 20
-133.3176160691011
 30
0.0
 10
103.6181369098594
 20
-133.2714517895988
 30
0.0
 10
103.5037597397491
 20
-133.2418239684256
 30
0.0
 10
103.5037597397491
 20
-133.2418239684256
 30
0.0
 10
103.5037597397491
 20
-133.0957519198511
 30
0.0
 10
103.5037597397491
 20
-133.0957519198511
 30
0.0
 10
103.5037597397491
 20
-133.0957519198511
 30
0.0
 10
105.0481960457866
 20
-133.0957519198511
 30
0.0
 10
105.0481960457866
 20
-133.0957519198511
 30
0.0
 10
105.0481960457866
 20
-133.0957519198511
 30
0.0
 10
105.0481960457866
 20
-133.3196831263923
 30
0.0
 10
105.0481960457866
 20
-133.3196831263923
 30
0.0
  0
HATCH
  5
69
330
64
100
AcDbEntity
  8
_U+30EC_U+30A4_U+30E4_U+30FC 1
 62
     7
420
 16777215
100
AcDbHatch
 10
0.0
 20
0.0
 30
0.0
210
0.0
220
0.0
230
1.0
  2
SOLID
 70
     1
 71
     0
 91
        1
 92
        1
 93
        1
 72
     4
 94
        3
 73
     0
 74
     1
 95
       26
 96
       22
 40
0.0
 40
0.0
 40
0.0
 40
0.0
 40
1.0
 40
1.0
 40
1.0
 40
2.0
 40
2.0
 40
2.0
 40
3.0
 40
3.0
 40
3.0
 40
4.0
 40
4.0
 40
4.0
 40
5.0
 40
5.0
 40
5.0
 40
6.0
 40
6.0
 40
6.0
 40
7.0
 40
7.0
 40
7.0
 40
7.0
 10
105.0481960457866
 20
-133.3196831263923
 10
105.0481960457866
 20
-133.3196831263923
 10
103.944042942764
 20
-133.3196831263923
 10
103.944042942764
 20
-133.3196831263923
 10
103.944042942764
 20
-133.3196831263923
 10
103.944042942764
 20
-133.6497232738792
 10
103.944042942764
 20
-133.6497232738792
 10
103.944042942764
 20
-133.6497232738792
 10
103.7959038368982
 20
-133.6497232738792
 10
103.7959038368982
 20
-133.6497232738792
 10
103.7810899263117
 20
-133.3176160691011
 10
103.6181369098594
 20
-133.2714517895988
 10
103.5037597397491
 20
-133.2418239684256
 10
103.5037597397491
 20
-133.2418239684256
 10
103.5037597397491
 20
-133.0957519198511
 10
103.5037597397491
 20
-133.0957519198511
 10
103.5037597397491
 20
-133.0957519198511
 10
105.0481960457866
 20
-133.0957519198511
 10
105.0481960457866
 20
-133.0957519198511
 10
105.0481960457866
 20
-133.0957519198511
 10
105.0481960457866
 20
-133.3196831263923
 10
105.0481960457866
 20
-133.3196831263923
 97
        0
 97
        0
 75
     2
 76
     1
 98
        0
  0
ENDBLK
  5
67
330
64
100
AcDbEntity
  8
0
100
AcDbBlockEnd
  0
BLOCK
  5
6C
330
6A
100
AcDbEntity
  8
0
100
AcDbBlockBegin
  2
block 3
 70
     0
 10
0.0
 20
0.0
 30
0.0
  3
block 3
  1

  0
SPLINE
  5
6E
330
6A
100
AcDbEntity
  8
_U+30EC_U+30A4_U+30E4_U+30FC 1
370
     0
100
AcDbSpline
210
0.0
220
0.0
230
1.0
 70
    11
 71
     3
 72
    26
 73
    22
 74
     0
 42
0.0000000001
 43
0.0000000001
 12
1.0
 22
0.0
 32
0.0
 13
1.0
 23
0.0
 33
0.0
 40
0.0
 40
0.0
 40
0.0
 40
0.0
 40
1.0
 40
1.0
 40
1.0
 40
2.0
 40
2.0
 40
2.0
 40
3.0
 40
3.0
 40
3.0
 40
4.0
 40
4.0
 40
4.0
 40
5.0
 40
5.0
 40
5.0
 40
6.0
 40
6.0
 40
6.0
 40
7.0
 40
7.0
 40
7.0
 40
7.0
 10
105.0481960457866
 20
-128.4085272573944
 30
0.0
 10
105.0481960457866
 20
-128.4085272573944
 30
0.0
 10
103.944042942764
 20
-128.4085272573944
 30
0.0
 10
103.944042942764
 20
-128.4085272573944
 30
0.0
 10
103.944042942764
 20
-128.4085272573944
 30
0.0
 10
103.944042942764
 20
-128.7385674048813
 30
0.0
 10
103.944042942764
 20
-128.7385674048813
 30
0.0
 10
103.944042942764
 20
-128.7385674048813
 30
0.0
 10
103.7959038368982
 20
-128.7385674048813
 30
0.0
 10
103.7959038368982
 20
-128.7385674048813
 30
0.0
 10
103.7810899263117
 20
-128.4064602001033
 30
0.0
 10
103.6181369098594
 20
-128.3599514110524
 30
0.0
 10
103.5037597397491
 20
-128.3303235898792
 30
0.0
 10
103.5037597397491
 20
-128.3303235898792
 30
0.0
 10
103.5037597397491
 20
-128.1842515413046
 30
0.0
 10
103.5037597397491
 20
-128.1842515413046
 30
0.0
 10
103.5037597397491
 20
-128.1842515413046
 30
0.0
 10
105.0481960457866
 20
-128.1842515413046
 30
0.0
 10
105.0481960457866
 20
-128.1842515413046
 30
0.0
 10
105.0481960457866
 20
-128.1842515413046
 30
0.0
 10
105.0481960457866
 20
-128.4085272573944
 30
0.0
 10
105.0481960457866
 20
-128.4085272573944
 30
0.0
  0
HATCH
  5
6F
330
6A
100
AcDbEntity
  8
_U+30EC_U+30A4_U+30E4_U+30FC 1
 62
     7
420
 16777215
100
AcDbHatch
 10
0.0
 20
0.0
 30
0.0
210
0.0
220
0.0
230
1.0
  2
SOLID
 70
     1
 71
     0
 91
        1
 92
        1
 93
        1
 72
     4
 94
        3
 73
     0
 74
     1
 95
       26
 96
       22
 40
0.0
 40
0.0
 40
0.0
 40
0.0
 40
1.0
 40
1.0
 40
1.0
 40
2.0
 40
2.0
 40
2.0
 40
3.0
 40
3.0
 40
3.0
 40
4.0
 40
4.0
 40
4.0
 40
5.0
 40
5.0
 40
5.0
 40
6.0
 40
6.0
 40
6.0
 40
7.0
 40
7.0
 40
7.0
 40
7.0
 10
105.0481960457866
 20
-128.4085272573944
 10
105.0481960457866
 20
-128.4085272573944
 10
103.944042942764
 20
-128.4085272573944
 10
103.944042942764
 20
-128.4085272573944
 10
103.944042942764
 20
-128.4085272573944
 10
103.944042942764
 20
-128.7385674048813
 10
103.944042942764
 20
-128.7385674048813
 10
103.944042942764
 20
-128.7385674048813
 10
103.7959038368982
 20
-128.7385674048813
 10
103.7959038368982
 20
-128.7385674048813
 10
103.7810899263117
 20
-128.4064602001033
 10
103.6181369098594
 20
-128.3599514110524
 10
103.5037597397491
 20
-128.3303235898792
 10
103.5037597397491
 20
-128.3303235898792
 10
103.5037597397491
 20
-128.1842515413046
 10
103.5037597397491
 20
-128.1842515413046
 10
103.5037597397491
 20
-128.1842515413046
 10
105.0481960457866
 20
-128.1842515413046
 10
105.0481960457866
 20
-128.1842515413046
 10
105.0481960457866
 20
-128.1842515413046
 10
105.0481960457866
 20
-128.4085272573944
 10
105.0481960457866
 20
-128.4085272573944
 97
        0
 97
        0
 75
     2
 76
     1
 98
        0
  0
SPLINE
  5
70
330
6A
100
AcDbEntity
  8
_U+30EC_U+30A4_U+30E4_U+30FC 1
370
     0
100
AcDbSpline
210
0.0
220
0.0
230
1.0
 70
    11
 71
     3
 72
    29
 73
    25
 74
     0
 42
0.0000000001
 43
0.0000000001
 12
1.0
 22
0.0
 32
0.0
 13
1.0
 23
0.0
 33
0.0
 40
0.0
 40
0.0
 40
0.0
 40
0.0
 40
1.0
 40
1.0
 40
1.0
 40
2.0
 40
2.0
 40
2.0
 40
3.0
 40
3.0
 40
3.0
 40
4.0
 40
4.0
 40
4.0
 40
5.0
 40
5.0
 40
5.0
 40
6.0
 40
6.0
 40
6.0
 40
7.0
 40
7.0
 40
7.0
 40
8.0
 40
8.0
 40
8.0
 40
8.0
 10
104.8704291187477
 20
-126.7853705195189
 30
0.0
 10
105.0798909242509
 20
-126.8932020082073
 30
0.0
 10
105.0988389494197
 20
-127.0666625658896
 30
0.0
 10
105.0988389494197
 20
-127.183106793291
 30
0.0
 10
105.0988389494197
 20
-127.3438204976779
 30
0.0
 10
105.0523301603689
 20
-127.485586176896
 30
0.0
 10
104.8704291187477
 20
-127.5808430670631
 30
0.0
 10
104.6757812238311
 20
-127.6843681863949
 30
0.0
 10
104.4391031639944
 20
-127.703488466338
 30
0.0
 10
104.2761501475421
 20
-127.703488466338
 30
0.0
 10
104.1321451562586
 20
-127.703488466338
 30
0.0
 10
103.8803086762869
 20
-127.6866074984603
 30
0.0
 10
103.681526666788
 20
-127.5808430670631
 30
0.0
 10
103.4786105427067
 20
-127.4728393236006
 30
0.0
 10
103.455183893407
 20
-127.3121256192136
 30
0.0
 10
103.455183893407
 20
-127.183106793291
 30
0.0
 10
103.455183893407
 20
-127.0244601461953
 30
0.0
 10
103.4996256251668
 20
-126.8806274096861
 30
0.0
 10
103.681526666788
 20
-126.7853705195189
 30
0.0
 10
103.8741075044134
 20
-126.6859795147695
 30
0.0
 10
104.1025173350855
 20
-126.662725120244
 30
0.0
 10
104.2761501475421
 20
-126.662725120244
 30
0.0
 10
104.447371393159
 20
-126.662725120244
 30
0.0
 10
104.6778482811222
 20
-126.6837402027041
 30
0.0
 10
104.8704291187477
 20
-126.7853705195189
 30
0.0
  0
SPLINE
  5
71
330
6A
100
AcDbEntity
  8
_U+30EC_U+30A4_U+30E4_U+30FC 1
370
     0
100
AcDbSpline
210
0.0
220
0.0
230
1.0
 70
    11
 71
     3
 72
    17
 73
    13
 74
     0
 42
0.0000000001
 43
0.0000000001
 12
1.0
 22
0.0
 32
0.0
 13
1.0
 23
0.0
 33
0.0
 40
0.0
 40
0.0
 40
0.0
 40
0.0
 40
1.0
 40
1.0
 40
1.0
 40
2.0
 40
2.0
 40
2.0
 40
3.0
 40
3.0
 40
3.0
 40
4.0
 40
4.0
 40
4.0
 40
4.0
 10
103.6477647310325
 20
-127.183106793291
 30
0.0
 10
103.6477647310325
 20
-127.4327039611974
 30
0.0
 10
103.9312960894686
 20
-127.4792127502483
 30
0.0
 10
104.2761501475421
 20
-127.4792127502483
 30
0.0
 10
104.5955104990247
 20
-127.4792127502483
 30
0.0
 10
104.9041910545031
 20
-127.4432115024274
 30
0.0
 10
104.9041910545031
 20
-127.183106793291
 30
0.0
 10
104.9041910545031
 20
-126.9355766826758
 30
0.0
 10
104.6230712629067
 20
-126.8868285815596
 30
0.0
 10
104.2761501475421
 20
-126.8868285815596
 30
0.0
 10
103.9564452865109
 20
-126.8868285815596
 30
0.0
 10
103.6477647310325
 20
-126.9248968866716
 30
0.0
 10
103.6477647310325
 20
-127.183106793291
 30
0.0
  0
HATCH
  5
72
330
6A
100
AcDbEntity
  8
_U+30EC_U+30A4_U+30E4_U+30FC 1
 62
     7
420
 16777215
100
AcDbHatch
 10
0.0
 20
0.0
 30
0.0
210
0.0
220
0.0
230
1.0
  2
SOLID
 70
     1
 71
     0
 91
        2
 92
        1
 93
        1
 72
     4
 94
        3
 73
     0
 74
     1
 95
       29
 96
       25
 40
0.0
 40
0.0
 40
0.0
 40
0.0
 40
1.0
 40
1.0
 40
1.0
 40
2.0
 40
2.0
 40
2.0
 40
3.0
 40
3.0
 40
3.0
 40
4.0
 40
4.0
 40
4.0
 40
5.0
 40
5.0
 40
5.0
 40
6.0
 40
6.0
 40
6.0
 40
7.0
 40
7.0
 40
7.0
 40
8.0
 40
8.0
 40
8.0
 40
8.0
 10
104.8704291187477
 20
-126.7853705195189
 10
105.0798909242509
 20
-126.8932020082073
 10
105.0988389494197
 20
-127.0666625658896
 10
105.0988389494197
 20
-127.183106793291
 10
105.0988389494197
 20
-127.3438204976779
 10
105.0523301603689
 20
-127.485586176896
 10
104.8704291187477
 20
-127.5808430670631
 10
104.6757812238311
 20
-127.6843681863949
 10
104.4391031639944
 20
-127.703488466338
 10
104.2761501475421
 20
-127.703488466338
 10
104.1321451562586
 20
-127.703488466338
 10
103.8803086762869
 20
-127.6866074984603
 10
103.681526666788
 20
-127.5808430670631
 10
103.4786105427067
 20
-127.4728393236006
 10
103.455183893407
 20
-127.3121256192136
 10
103.455183893407
 20
-127.183106793291
 10
103.455183893407
 20
-127.0244601461953
 10
103.4996256251668
 20
-126.8806274096861
 10
103.681526666788
 20
-126.7853705195189
 10
103.8741075044134
 20
-126.6859795147695
 10
104.1025173350855
 20
-126.662725120244
 10
104.2761501475421
 20
-126.662725120244
 10
104.447371393159
 20
-126.662725120244
 10
104.6778482811222
 20
-126.6837402027041
 10
104.8704291187477
 20
-126.7853705195189
 97
        0
 97
        0
 92
        1
 93
        1
 72
     4
 94
        3
 73
     0
 74
     1
 95
       17
 96
       13
 40
0.0
 40
0.0
 40
0.0
 40
0.0
 40
1.0
 40
1.0
 40
1.0
 40
2.0
 40
2.0
 40
2.0
 40
3.0
 40
3.0
 40
3.0
 40
4.0
 40
4.0
 40
4.0
 40
4.0
 10
103.6477647310325
 20
-127.183106793291
 10
103.6477647310325
 20
-127.4327039611974
 10
103.9312960894686
 20
-127.4792127502483
 10
104.2761501475421
 20
-127.4792127502483
 10
104.5955104990247
 20
-127.4792127502483
 10
104.9041910545031
 20
-127.4432115024274
 10
104.9041910545031
 20
-127.183106793291
 10
104.9041910545031
 20
-126.9355766826758
 10
104.6230712629067
 20
-126.8868285815596
 10
104.2761501475421
 20
-126.8868285815596
 10
103.9564452865109
 20
-126.8868285815596
 10
103.6477647310325
 20
-126.9248968866716
 10
103.6477647310325
 20
-127.183106793291
 97
        0
 97
        0
 75
     2
 76
     1
 98
        0
  0
ENDBLK
  5
6D
330
6A
100
AcDbEntity
  8
0
100
AcDbBlockEnd
  0
BLOCK
  5
83
330
81
100
AcDbEntity
  8
0
100
AcDbBlockBegin
  2
block 4
 70
     0
 10
0.0
 20
0.0
 30
0.0
  3
block 4
  1

  0
SPLINE
  5
85
330
81
100
AcDbEntity
  8
_U+30EC_U+30A4_U+30E4_U+30FC 1
370
     0
100
AcDbSpline
210
0.0
220
0.0
230
1.0
 70
    11
 71
     3
 72
    44
 73
    40
 74
     0
 42
0.0000000001
 43
0.0000000001
 12
1.0
 22
0.0
 32
0.0
 13
1.0
 23
0.0
 33
0.0
 40
0.0
 40
0.0
 40
0.0
 40
0.0
 40
1.0
 40
1.0
 40
1.0
 40
2.0
 40
2.0
 40
2.0
 40
3.0
 40
3.0
 40
3.0
 40
4.0
 40
4.0
 40
4.0
 40
5.0
 40
5.0
 40
5.0
 40
6.0
 40
6.0
 40
6.0
 40
7.0
 40
7.0
 40
7.0
 40
8.0
 40
8.0
 40
8.0
 40
9.0
 40
9.0
 40
9.0
 40
10.0
 40
10.0
 40
10.0
 40
11.0
 40
11.0
 40
11.0
 40
12.0
 40
12.0
 40
12.0
 40
13.0
 40
13.0
 40
13.0
 40
13.0
 10
88.04044865420516
 20
-135.92210825595
 30
0.0
 10
87.82271861953738
 20
-136.08092715782
 30
0.0
 10
87.72970104143563
 20
-136.1549967107529
 30
0.0
 10
87.68078068554509
 20
-136.2990017020364
 30
0.0
 10
87.68078068554509
 20
-136.2990017020364
 30
0.0
 10
88.45937226521156
 20
-136.2990017020364
 30
0.0
 10
88.45937226521156
 20
-136.2990017020364
 30
0.0
 10
88.45937226521156
 20
-136.2990017020364
 30
0.0
 10
88.45937226521156
 20
-136.5039848834087
 30
0.0
 10
88.45937226521156
 20
-136.5039848834087
 30
0.0
 10
88.45937226521156
 20
-136.5039848834087
 30
0.0
 10
87.431355772413
 20
-136.5039848834087
 30
0.0
 10
87.431355772413
 20
-136.5039848834087
 30
0.0
 10
87.46305065087729
 20
-136.1463839720398
 30
0.0
 10
87.52850746509705
 20
-136.0681803045246
 30
0.0
 10
87.91366914034798
 20
-135.769835035502
 30
0.0
 10
88.16963973490203
 20
-135.5710530260031
 30
0.0
 10
88.23509654912179
 20
-135.5031846449436
 30
0.0
 10
88.23509654912179
 20
-135.3660698446307
 30
0.0
 10
88.23509654912179
 20
-135.2475585599381
 30
0.0
 10
88.16309405348007
 20
-135.1163004219501
 30
0.0
 10
87.9663791012723
 20
-135.1163004219501
 30
0.0
 10
87.70627439213594
 20
-135.1163004219501
 30
0.0
 10
87.69800616297134
 20
-135.3467773099133
 30
0.0
 10
87.69352753884051
 20
-135.4632215373148
 30
0.0
 10
87.69352753884051
 20
-135.4632215373148
 30
0.0
 10
87.46925182275075
 20
-135.4632215373148
 30
0.0
 10
87.46925182275075
 20
-135.4632215373148
 30
0.0
 10
87.47786456146387
 20
-135.3364420234576
 30
0.0
 10
87.48854435746814
 20
-135.2241319106384
 30
0.0
 10
87.56881508227447
 20
-135.1056206259458
 30
0.0
 10
87.67871362825393
 20
-134.9450791763332
 30
0.0
 10
87.86509329400596
 20
-134.9109727310292
 30
0.0
 10
87.98119301185888
 20
-134.9109727310292
 30
0.0
 10
88.25852319842149
 20
-134.9109727310292
 30
0.0
 10
88.46591794663352
 20
-135.0952853394901
 30
0.0
 10
88.46591794663352
 20
-135.3681369019219
 30
0.0
 10
88.46591794663352
 20
-135.5962022230454
 30
0.0
 10
88.34947371923208
 20
-135.6961099921176
 30
0.0
 10
88.04044865420516
 20
-135.92210825595
 30
0.0
  0
HATCH
  5
86
330
81
100
AcDbEntity
  8
_U+30EC_U+30A4_U+30E4_U+30FC 1
 62
     7
420
 16777215
100
AcDbHatch
 10
0.0
 20
0.0
 30
0.0
210
0.0
220
0.0
230
1.0
  2
SOLID
 70
     1
 71
     0
 91
        1
 92
        1
 93
        1
 72
     4
 94
        3
 73
     0
 74
     1
 95
       44
 96
       40
 40
0.0
 40
0.0
 40
0.0
 40
0.0
 40
1.0
 40
1.0
 40
1.0
 40
2.0
 40
2.0
 40
2.0
 40
3.0
 40
3.0
 40
3.0
 40
4.0
 40
4.0
 40
4.0
 40
5.0
 40
5.0
 40
5.0
 40
6.0
 40
6.0
 40
6.0
 40
7.0
 40
7.0
 40
7.0
 40
8.0
 40
8.0
 40
8.0
 40
9.0
 40
9.0
 40
9.0
 40
10.0
 40
10.0
 40
10.0
 40
11.0
 40
11.0
 40
11.0
 40
12.0
 40
12.0
 40
12.0
 40
13.0
 40
13.0
 40
13.0
 40
13.0
 10
88.04044865420516
 20
-135.92210825595
 10
87.82271861953738
 20
-136.08092715782
 10
87.72970104143563
 20
-136.1549967107529
 10
87.68078068554509
 20
-136.2990017020364
 10
87.68078068554509
 20
-136.2990017020364
 10
88.45937226521156
 20
-136.2990017020364
 10
88.45937226521156
 20
-136.2990017020364
 10
88.45937226521156
 20
-136.2990017020364
 10
88.45937226521156
 20
-136.5039848834087
 10
88.45937226521156
 20
-136.5039848834087
 10
88.45937226521156
 20
-136.5039848834087
 10
87.431355772413
 20
-136.5039848834087
 10
87.431355772413
 20
-136.5039848834087
 10
87.46305065087729
 20
-136.1463839720398
 10
87.52850746509705
 20
-136.0681803045246
 10
87.91366914034798
 20
-135.769835035502
 10
88.16963973490203
 20
-135.5710530260031
 10
88.23509654912179
 20
-135.5031846449436
 10
88.23509654912179
 20
-135.3660698446307
 10
88.23509654912179
 20
-135.2475585599381
 10
88.16309405348007
 20
-135.1163004219501
 10
87.9663791012723
 20
-135.1163004219501
 10
87.70627439213594
 20
-135.1163004219501
 10
87.69800616297134
 20
-135.3467773099133
 10
87.69352753884051
 20
-135.4632215373148
 10
87.69352753884051
 20
-135.4632215373148
 10
87.46925182275075
 20
-135.4632215373148
 10
87.46925182275075
 20
-135.4632215373148
 10
87.47786456146387
 20
-135.3364420234576
 10
87.48854435746814
 20
-135.2241319106384
 10
87.56881508227447
 20
-135.1056206259458
 10
87.67871362825393
 20
-134.9450791763332
 10
87.86509329400596
 20
-134.9109727310292
 10
87.98119301185888
 20
-134.9109727310292
 10
88.25852319842149
 20
-134.9109727310292
 10
88.46591794663352
 20
-135.0952853394901
 10
88.46591794663352
 20
-135.3681369019219
 10
88.46591794663352
 20
-135.5962022230454
 10
88.34947371923208
 20
-135.6961099921176
 10
88.04044865420516
 20
-135.92210825595
 97
        0
 97
        0
 75
     2
 76
     1
 98
        0
  0
SPLINE
  5
87
330
81
100
AcDbEntity
  8
_U+30EC_U+30A4_U+30E4_U+30FC 1
370
     0
100
AcDbSpline
210
0.0
220
0.0
230
1.0
 70
    11
 71
     3
 72
    29
 73
    25
 74
     0
 42
0.0000000001
 43
0.0000000001
 12
1.0
 22
0.0
 32
0.0
 13
1.0
 23
0.0
 33
0.0
 40
0.0
 40
0.0
 40
0.0
 40
0.0
 40
1.0
 40
1.0
 40
1.0
 40
2.0
 40
2.0
 40
2.0
 40
3.0
 40
3.0
 40
3.0
 40
4.0
 40
4.0
 40
4.0
 40
5.0
 40
5.0
 40
5.0
 40
6.0
 40
6.0
 40
6.0
 40
7.0
 40
7.0
 40
7.0
 40
8.0
 40
8.0
 40
8.0
 40
8.0
 10
89.12427569386477
 20
-136.5546277870419
 30
0.0
 10
88.85762530330643
 20
-136.5546277870419
 30
0.0
 10
88.60406627559205
 20
-136.4171684771804
 30
0.0
 10
88.60406627559205
 20
-136.0681803045246
 30
0.0
 10
88.60406627559205
 20
-135.8122097099706
 30
0.0
 10
88.74565970003582
 20
-135.7167805650292
 30
0.0
 10
88.85142413143298
 20
-135.6554578653917
 30
0.0
 10
88.72671167486693
 20
-135.5962022230454
 30
0.0
 10
88.65057506464292
 20
-135.4821695624836
 30
0.0
 10
88.65057506464292
 20
-135.3212836033225
 30
0.0
 10
88.65057506464292
 20
-135.0463649835995
 30
0.0
 10
88.84935707414184
 20
-134.9109727310292
 30
0.0
 10
89.12427569386477
 20
-134.9109727310292
 30
0.0
 10
89.40780705230083
 20
-134.9109727310292
 30
0.0
 10
89.59832083263515
 20
-135.0546332127641
 30
0.0
 10
89.59832083263515
 20
-135.3212836033225
 30
0.0
 10
89.59832083263515
 20
-135.4821695624836
 30
0.0
 10
89.51977265557144
 20
-135.5962022230454
 30
0.0
 10
89.3950601990054
 20
-135.6554578653917
 30
0.0
 10
89.48394366252485
 20
-135.7064452785734
 30
0.0
 10
89.64276256439487
 20
-135.8015299139663
 30
0.0
 10
89.64276256439487
 20
-136.0640461899423
 30
0.0
 10
89.64276256439487
 20
-136.4381835596405
 30
0.0
 10
89.3633653205411
 20
-136.5546277870419
 30
0.0
 10
89.12427569386477
 20
-136.5546277870419
 30
0.0
  0
SPLINE
  5
88
330
81
100
AcDbEntity
  8
_U+30EC_U+30A4_U+30E4_U+30FC 1
370
     0
100
AcDbSpline
210
0.0
220
0.0
230
1.0
 70
    11
 71
     3
 72
    17
 73
    13
 74
     0
 42
0.0000000001
 43
0.0000000001
 12
1.0
 22
0.0
 32
0.0
 13
1.0
 23
0.0
 33
0.0
 40
0.0
 40
0.0
 40
0.0
 40
0.0
 40
1.0
 40
1.0
 40
1.0
 40
2.0
 40
2.0
 40
2.0
 40
3.0
 40
3.0
 40
3.0
 40
4.0
 40
4.0
 40
4.0
 40
4.0
 10
89.12427569386477
 20
-135.7636338636285
 30
0.0
 10
88.98061521212985
 20
-135.7636338636285
 30
0.0
 10
88.82799748213328
 20
-135.8504502698569
 30
0.0
 10
88.82799748213328
 20
-136.0533663939381
 30
0.0
 10
88.82799748213328
 20
-136.2583495753104
 30
0.0
 10
88.955121505539
 20
-136.3603244016738
 30
0.0
 10
89.12427569386477
 20
-136.3603244016738
 30
0.0
 10
89.31031085006826
 20
-136.3603244016738
 30
0.0
 10
89.42055390559625
 20
-136.2376790023989
 30
0.0
 10
89.42055390559625
 20
-136.05991207536
 30
0.0
 10
89.42055390559625
 20
-135.8373589070129
 30
0.0
 10
89.25760088914393
 20
-135.7636338636285
 30
0.0
 10
89.12427569386477
 20
-135.7636338636285
 30
0.0
  0
SPLINE
  5
89
330
81
100
AcDbEntity
  8
_U+30EC_U+30A4_U+30E4_U+30FC 1
370
     0
100
AcDbSpline
210
0.0
220
0.0
230
1.0
 70
    11
 71
     3
 72
    17
 73
    13
 74
     0
 42
0.0000000001
 43
0.0000000001
 12
1.0
 22
0.0
 32
0.0
 13
1.0
 23
0.0
 33
0.0
 40
0.0
 40
0.0
 40
0.0
 40
0.0
 40
1.0
 40
1.0
 40
1.0
 40
2.0
 40
2.0
 40
2.0
 40
3.0
 40
3.0
 40
3.0
 40
4.0
 40
4.0
 40
4.0
 40
4.0
 10
89.12427569386477
 20
-135.1035535686547
 30
0.0
 10
88.9592556201213
 20
-135.1035535686547
 30
0.0
 10
88.87485078073269
 20
-135.1986382040476
 30
0.0
 10
88.87485078073269
 20
-135.3340304566179
 30
0.0
 10
88.87485078073269
 20
-135.4570203654413
 30
0.0
 10
88.94650876682587
 20
-135.5755316501339
 30
0.0
 10
89.12427569386477
 20
-135.5755316501339
 30
0.0
 10
89.30204262090366
 20
-135.5755316501339
 30
0.0
 10
89.37404511654537
 20
-135.4570203654413
 30
0.0
 10
89.37404511654537
 20
-135.3340304566179
 30
0.0
 10
89.37404511654537
 20
-135.1986382040476
 30
0.0
 10
89.28722871031708
 20
-135.1035535686547
 30
0.0
 10
89.12427569386477
 20
-135.1035535686547
 30
0.0
  0
HATCH
  5
8A
330
81
100
AcDbEntity
  8
_U+30EC_U+30A4_U+30E4_U+30FC 1
 62
     7
420
 16777215
100
AcDbHatch
 10
0.0
 20
0.0
 30
0.0
210
0.0
220
0.0
230
1.0
  2
SOLID
 70
     1
 71
     0
 91
        3
 92
        1
 93
        1
 72
     4
 94
        3
 73
     0
 74
     1
 95
       29
 96
       25
 40
0.0
 40
0.0
 40
0.0
 40
0.0
 40
1.0
 40
1.0
 40
1.0
 40
2.0
 40
2.0
 40
2.0
 40
3.0
 40
3.0
 40
3.0
 40
4.0
 40
4.0
 40
4.0
 40
5.0
 40
5.0
 40
5.0
 40
6.0
 40
6.0
 40
6.0
 40
7.0
 40
7.0
 40
7.0
 40
8.0
 40
8.0
 40
8.0
 40
8.0
 10
89.12427569386477
 20
-136.5546277870419
 10
88.85762530330643
 20
-136.5546277870419
 10
88.60406627559205
 20
-136.4171684771804
 10
88.60406627559205
 20
-136.0681803045246
 10
88.60406627559205
 20
-135.8122097099706
 10
88.74565970003582
 20
-135.7167805650292
 10
88.85142413143298
 20
-135.6554578653917
 10
88.72671167486693
 20
-135.5962022230454
 10
88.65057506464292
 20
-135.4821695624836
 10
88.65057506464292
 20
-135.3212836033225
 10
88.65057506464292
 20
-135.0463649835995
 10
88.84935707414184
 20
-134.9109727310292
 10
89.12427569386477
 20
-134.9109727310292
 10
89.40780705230083
 20
-134.9109727310292
 10
89.59832083263515
 20
-135.0546332127641
 10
89.59832083263515
 20
-135.3212836033225
 10
89.59832083263515
 20
-135.4821695624836
 10
89.51977265557144
 20
-135.5962022230454
 10
89.3950601990054
 20
-135.6554578653917
 10
89.48394366252485
 20
-135.7064452785734
 10
89.64276256439487
 20
-135.8015299139663
 10
89.64276256439487
 20
-136.0640461899423
 10
89.64276256439487
 20
-136.4381835596405
 10
89.3633653205411
 20
-136.5546277870419
 10
89.12427569386477
 20
-136.5546277870419
 97
        0
 97
        0
 92
        1
 93
        1
 72
     4
 94
        3
 73
     0
 74
     1
 95
       17
 96
       13
 40
0.0
 40
0.0
 40
0.0
 40
0.0
 40
1.0
 40
1.0
 40
1.0
 40
2.0
 40
2.0
 40
2.0
 40
3.0
 40
3.0
 40
3.0
 40
4.0
 40
4.0
 40
4.0
 40
4.0
 10
89.12427569386477
 20
-135.7636338636285
 10
88.98061521212985
 20
-135.7636338636285
 10
88.82799748213328
 20
-135.8504502698569
 10
88.82799748213328
 20
-136.0533663939381
 10
88.82799748213328
 20
-136.2583495753104
 10
88.955121505539
 20
-136.3603244016738
 10
89.12427569386477
 20
-136.3603244016738
 10
89.31031085006826
 20
-136.3603244016738
 10
89.42055390559625
 20
-136.2376790023989
 10
89.42055390559625
 20
-136.05991207536
 10
89.42055390559625
 20
-135.8373589070129
 10
89.25760088914393
 20
-135.7636338636285
 10
89.12427569386477
 20
-135.7636338636285
 97
        0
 97
        0
 92
        1
 93
        1
 72
     4
 94
        3
 73
     0
 74
     1
 95
       17
 96
       13
 40
0.0
 40
0.0
 40
0.0
 40
0.0
 40
1.0
 40
1.0
 40
1.0
 40
2.0
 40
2.0
 40
2.0
 40
3.0
 40
3.0
 40
3.0
 40
4.0
 40
4.0
 40
4.0
 40
4.0
 10
89.12427569386477
 20
-135.1035535686547
 10
88.9592556201213
 20
-135.1035535686547
 10
88.87485078073269
 20
-135.1986382040476
 10
88.87485078073269
 20
-135.3340304566179
 10
88.87485078073269
 20
-135.4570203654413
 10
88.94650876682587
 20
-135.5755316501339
 10
89.12427569386477
 20
-135.5755316501339
 10
89.30204262090366
 20
-135.5755316501339
 10
89.37404511654537
 20
-135.4570203654413
 10
89.37404511654537
 20
-135.3340304566179
 10
89.37404511654537
 20
-135.1986382040476
 10
89.28722871031708
 20
-135.1035535686547
 10
89.12427569386477
 20
-135.1035535686547
 97
        0
 97
        0
 75
     2
 76
     1
 98
        0
  0
ENDBLK
  5
84
330
81
100
AcDbEntity
  8
0
100
AcDbBlockEnd
  0
BLOCK
  5
9B
330
99
100
AcDbEntity
  8
0
100
AcDbBlockBegin
  2
block 5
 70
     0
 10
0.0
 20
0.0
 30
0.0
  3
block 5
  1

  0
SPLINE
  5
9D
330
99
100
AcDbEntity
  8
_U+30EC_U+30A4_U+30E4_U+30FC 1
370
     0
100
AcDbSpline
210
0.0
220
0.0
230
1.0
 70
    11
 71
     3
 72
    32
 73
    28
 74
     0
 42
0.0000000001
 43
0.0000000001
 12
1.0
 22
0.0
 32
0.0
 13
1.0
 23
0.0
 33
0.0
 40
0.0
 40
0.0
 40
0.0
 40
0.0
 40
1.0
 40
1.0
 40
1.0
 40
2.0
 40
2.0
 40
2.0
 40
3.0
 40
3.0
 40
3.0
 40
4.0
 40
4.0
 40
4.0
 40
5.0
 40
5.0
 40
5.0
 40
6.0
 40
6.0
 40
6.0
 40
7.0
 40
7.0
 40
7.0
 40
8.0
 40
8.0
 40
8.0
 40
9.0
 40
9.0
 40
9.0
 40
9.0
 10
88.54102102821197
 20
-120.5275268253369
 30
0.0
 10
88.02494572452154
 20
-120.5275268253369
 30
0.0
 10
88.01667749535694
 20
-119.9732109617602
 30
0.0
 10
88.01667749535694
 20
-119.7596150416747
 30
0.0
 10
88.01667749535694
 20
-119.5289658989372
 30
0.0
 10
88.03562552052583
 20
-118.8816324572588
 30
0.0
 10
88.57926158809825
 20
-118.8816324572588
 30
0.0
 10
88.75254989100631
 20
-118.8816324572588
 30
0.0
 10
88.99818519910463
 20
-118.9513956408351
 30
0.0
 10
89.03608124944238
 20
-119.2835028456132
 30
0.0
 10
89.03608124944238
 20
-119.2835028456132
 30
0.0
 10
88.82248532935688
 20
-119.2835028456132
 30
0.0
 10
88.82248532935688
 20
-119.2835028456132
 30
0.0
 10
88.81180553335261
 20
-119.2264865153323
 30
0.0
 10
88.7801106548883
 20
-119.0783474094665
 30
0.0
 10
88.57719453080709
 20
-119.0783474094665
 30
0.0
 10
88.28505043365791
 20
-119.0783474094665
 30
0.0
 10
88.24508732602901
 20
-119.4063204996623
 30
0.0
 10
88.23234047273358
 20
-119.6114759358089
 30
0.0
 10
88.32535805083533
 20
-119.5332722682938
 30
0.0
 10
88.39322643189475
 20
-119.4740166259475
 30
0.0
 10
88.57512747351595
 20
-119.4740166259475
 30
0.0
 10
88.75496145784598
 20
-119.4740166259475
 30
0.0
 10
89.05744084145093
 20
-119.5818481146358
 30
0.0
 10
89.05744084145093
 20
-119.9880248723468
 30
0.0
 10
89.05744084145093
 20
-120.3075574786037
 30
0.0
 10
88.85831432240349
 20
-120.5275268253369
 30
0.0
 10
88.54102102821197
 20
-120.5275268253369
 30
0.0
  0
SPLINE
  5
9E
330
99
100
AcDbEntity
  8
_U+30EC_U+30A4_U+30E4_U+30FC 1
370
     0
100
AcDbSpline
210
0.0
220
0.0
230
1.0
 70
    11
 71
     3
 72
    17
 73
    13
 74
     0
 42
0.0000000001
 43
0.0000000001
 12
1.0
 22
0.0
 32
0.0
 13
1.0
 23
0.0
 33
0.0
 40
0.0
 40
0.0
 40
0.0
 40
0.0
 40
1.0
 40
1.0
 40
1.0
 40
2.0
 40
2.0
 40
2.0
 40
3.0
 40
3.0
 40
3.0
 40
4.0
 40
4.0
 40
4.0
 40
4.0
 10
88.55824650563822
 20
-119.6686645208641
 30
0.0
 10
88.29573022966218
 20
-119.6686645208641
 30
0.0
 10
88.25783417932443
 20
-119.8801933836584
 30
0.0
 10
88.25783417932443
 20
-119.9964653562856
 30
0.0
 10
88.25783417932443
 20
-120.1721652260334
 30
0.0
 10
88.35291881471733
 20
-120.3349459877114
 30
0.0
 10
88.53688691362967
 20
-120.3349459877114
 30
0.0
 10
88.65746525561342
 20
-120.3349459877114
 30
0.0
 10
88.83316512536116
 20
-120.2756903453651
 30
0.0
 10
88.83316512536116
 20
-119.9900919296379
 30
0.0
 10
88.83316512536116
 20
-119.7659884683224
 30
0.0
 10
88.69329424866001
 20
-119.6686645208641
 30
0.0
 10
88.55824650563822
 20
-119.6686645208641
 30
0.0
  0
HATCH
  5
9F
330
99
100
AcDbEntity
  8
_U+30EC_U+30A4_U+30E4_U+30FC 1
 62
     7
420
 16777215
100
AcDbHatch
 10
0.0
 20
0.0
 30
0.0
210
0.0
220
0.0
230
1.0
  2
SOLID
 70
     1
 71
     0
 91
        2
 92
        1
 93
        1
 72
     4
 94
        3
 73
     0
 74
     1
 95
       32
 96
       28
 40
0.0
 40
0.0
 40
0.0
 40
0.0
 40
1.0
 40
1.0
 40
1.0
 40
2.0
 40
2.0
 40
2.0
 40
3.0
 40
3.0
 40
3.0
 40
4.0
 40
4.0
 40
4.0
 40
5.0
 40
5.0
 40
5.0
 40
6.0
 40
6.0
 40
6.0
 40
7.0
 40
7.0
 40
7.0
 40
8.0
 40
8.0
 40
8.0
 40
9.0
 40
9.0
 40
9.0
 40
9.0
 10
88.54102102821197
 20
-120.5275268253369
 10
88.02494572452154
 20
-120.5275268253369
 10
88.01667749535694
 20
-119.9732109617602
 10
88.01667749535694
 20
-119.7596150416747
 10
88.01667749535694
 20
-119.5289658989372
 10
88.03562552052583
 20
-118.8816324572588
 10
88.57926158809825
 20
-118.8816324572588
 10
88.75254989100631
 20
-118.8816324572588
 10
88.99818519910463
 20
-118.9513956408351
 10
89.03608124944238
 20
-119.2835028456132
 10
89.03608124944238
 20
-119.2835028456132
 10
88.82248532935688
 20
-119.2835028456132
 10
88.82248532935688
 20
-119.2835028456132
 10
88.81180553335261
 20
-119.2264865153323
 10
88.7801106548883
 20
-119.0783474094665
 10
88.57719453080709
 20
-119.0783474094665
 10
88.28505043365791
 20
-119.0783474094665
 10
88.24508732602901
 20
-119.4063204996623
 10
88.23234047273358
 20
-119.6114759358089
 10
88.32535805083533
 20
-119.5332722682938
 10
88.39322643189475
 20
-119.4740166259475
 10
88.57512747351595
 20
-119.4740166259475
 10
88.75496145784598
 20
-119.4740166259475
 10
89.05744084145093
 20
-119.5818481146358
 10
89.05744084145093
 20
-119.9880248723468
 10
89.05744084145093
 20
-120.3075574786037
 10
88.85831432240349
 20
-120.5275268253369
 10
88.54102102821197
 20
-120.5275268253369
 97
        0
 97
        0
 92
        1
 93
        1
 72
     4
 94
        3
 73
     0
 74
     1
 95
       17
 96
       13
 40
0.0
 40
0.0
 40
0.0
 40
0.0
 40
1.0
 40
1.0
 40
1.0
 40
2.0
 40
2.0
 40
2.0
 40
3.0
 40
3.0
 40
3.0
 40
4.0
 40
4.0
 40
4.0
 40
4.0
 10
88.55824650563822
 20
-119.6686645208641
 10
88.29573022966218
 20
-119.6686645208641
 10
88.25783417932443
 20
-119.8801933836584
 10
88.25783417932443
 20
-119.9964653562856
 10
88.25783417932443
 20
-120.1721652260334
 10
88.35291881471733
 20
-120.3349459877114
 10
88.53688691362967
 20
-120.3349459877114
 10
88.65746525561342
 20
-120.3349459877114
 10
88.83316512536116
 20
-120.2756903453651
 10
88.83316512536116
 20
-119.9900919296379
 10
88.83316512536116
 20
-119.7659884683224
 10
88.69329424866001
 20
-119.6686645208641
 10
88.55824650563822
 20
-119.6686645208641
 97
        0
 97
        0
 75
     2
 76
     1
 98
        0
  0
ENDBLK
  5
9C
330
99
100
AcDbEntity
  8
0
100
AcDbBlockEnd
  0
ENDSEC
  0
SECTION
  2
ENTITIES
  0
POLYLINE
  5
41
330
1F
100
AcDbEntity
  8
_U+30EC_U+30A4_U+30E4_U+30FC 1
370
     0
100
AcDb2dPolyline
 66
     1
 10
0.0
 20
0.0
 30
0.0
  0
VERTEX
  5
42
330
41
100
AcDbEntity
  8
_U+30EC_U+30A4_U+30E4_U+30FC 1
370
     0
100
AcDbVertex
100
AcDb2dVertex
 10
102.5363754396347
 20
-132.7705271890299
 30
0.0
  0
VERTEX
  5
43
330
41
100
AcDbEntity
  8
_U+30EC_U+30A4_U+30E4_U+30FC 1
370
     0
100
AcDbVertex
100
AcDb2dVertex
 10
92.53628986142479
 20
-132.7705271890299
 30
0.0
  0
VERTEX
  5
44
330
41
100
AcDbEntity
  8
_U+30EC_U+30A4_U+30E4_U+30FC 1
370
     0
100
AcDbVertex
100
AcDb2dVertex
 10
92.53628986142479
 20
-122.770794135974
 30
0.0
  0
VERTEX
  5
45
330
41
100
AcDbEntity
  8
_U+30EC_U+30A4_U+30E4_U+30FC 1
370
     0
100
AcDbVertex
100
AcDb2dVertex
 10
91.53620016471697
 20
-122.770794135974
 30
0.0
  0
VERTEX
  5
46
330
41
100
AcDbEntity
  8
_U+30EC_U+30A4_U+30E4_U+30FC 1
370
     0
100
AcDbVertex
100
AcDb2dVertex
 10
91.53620016471697
 20
-132.7705271890299
 30
0.0
  0
VERTEX
  5
47
330
41
100
AcDbEntity
  8
_U+30EC_U+30A4_U+30E4_U+30FC 1
370
     0
100
AcDbVertex
100
AcDb2dVertex
 10
85.53636754000769
 20
-132.7705271890299
 30
0.0
  0
VERTEX
  5
48
330
41
100
AcDbEntity
  8
_U+30EC_U+30A4_U+30E4_U+30FC 1
370
     0
100
AcDbVertex
100
AcDb2dVertex
 10
85.53636754000769
 20
-122.770794135974
 30
0.0
  0
VERTEX
  5
49
330
41
100
AcDbEntity
  8
_U+30EC_U+30A4_U+30E4_U+30FC 1
370
     0
100
AcDbVertex
100
AcDb2dVertex
 10
84.53645423218427
 20
-122.770794135974
 30
0.0
  0
VERTEX
  5
4A
330
41
100
AcDbEntity
  8
_U+30EC_U+30A4_U+30E4_U+30FC 1
370
     0
100
AcDbVertex
100
AcDb2dVertex
 10
84.53645423218427
 20
-132.7705271890299
 30
0.0
  0
VERTEX
  5
4B
330
41
100
AcDbEntity
  8
_U+30EC_U+30A4_U+30E4_U+30FC 1
370
     0
100
AcDbVertex
100
AcDb2dVertex
 10
74.53636865397436
 20
-132.7705271890299
 30
0.0
  0
VERTEX
  5
4C
330
41
100
AcDbEntity
  8
_U+30EC_U+30A4_U+30E4_U+30FC 1
370
     0
100
AcDbVertex
100
AcDb2dVertex
 10
74.53636865397436
 20
-133.7706521887795
 30
0.0
  0
VERTEX
  5
4D
330
41
100
AcDbEntity
  8
_U+30EC_U+30A4_U+30E4_U+30FC 1
370
     0
100
AcDbVertex
100
AcDb2dVertex
 10
102.5363754396347
 20
-133.7706521887795
 30
0.0
  0
VERTEX
  5
4E
330
41
100
AcDbEntity
  8
_U+30EC_U+30A4_U+30E4_U+30FC 1
370
     0
100
AcDbVertex
100
AcDb2dVertex
 10
102.5363754396347
 20
-132.7705271890299
 30
0.0
  0
SEQEND
  5
50
330
41
100
AcDbEntity
  8
_U+30EC_U+30A4_U+30E4_U+30FC 1
370
     0
  0
HATCH
  5
4F
330
1F
100
AcDbEntity
  8
_U+30EC_U+30A4_U+30E4_U+30FC 1
 62
   253
420
 11711154
100
AcDbHatch
 10
0.0
 20
0.0
 30
0.0
210
0.0
220
0.0
230
1.0
  2
SOLID
 70
     1
 71
     0
 91
        1
 92
        1
 93
       12
 72
     1
 10
102.5363754396347
 20
-132.7705271890299
 11
92.53628986142479
 21
-132.7705271890299
 72
     1
 10
92.53628986142479
 20
-132.7705271890299
 11
92.53628986142479
 21
-122.770794135974
 72
     1
 10
92.53628986142479
 20
-122.770794135974
 11
91.53620016471699
 21
-122.770794135974
 72
     1
 10
91.53620016471697
 20
-122.770794135974
 11
91.53620016471697
 21
-132.7705271890299
 72
     1
 10
91.53620016471697
 20
-132.7705271890299
 11
85.53636754000767
 21
-132.7705271890299
 72
     1
 10
85.53636754000769
 20
-132.7705271890299
 11
85.53636754000769
 21
-122.770794135974
 72
     1
 10
85.53636754000769
 20
-122.770794135974
 11
84.53645423218427
 21
-122.770794135974
 72
     1
 10
84.53645423218427
 20
-122.770794135974
 11
84.53645423218427
 21
-132.7705271890299
 72
     1
 10
84.53645423218427
 20
-132.7705271890299
 11
74.53636865397438
 21
-132.7705271890299
 72
     1
 10
74.53636865397436
 20
-132.7705271890299
 11
74.53636865397436
 21
-133.7706521887795
 72
     1
 10
74.53636865397436
 20
-133.7706521887795
 11
102.5363754396347
 21
-133.7706521887795
 72
     1
 10
102.5363754396347
 20
-133.7706521887795
 11
102.5363754396347
 21
-132.7705271890299
 97
        0
 75
     2
 76
     1
 98
        0
  0
SPLINE
  5
51
330
1F
100
AcDbEntity
  8
_U+30EC_U+30A4_U+30E4_U+30FC 1
 62
     7
420
 16777215
370
     9
100
AcDbSpline
210
0.0
220
0.0
230
1.0
 70
    11
 71
     3
 72
    17
 73
    13
 74
     0
 42
0.0000000001
 43
0.0000000001
 12
1.0
 22
0.0
 32
0.0
 13
1.0
 23
0.0
 33
0.0
 40
0.0
 40
0.0
 40
0.0
 40
0.0
 40
1.0
 40
1.0
 40
1.0
 40
2.0
 40
2.0
 40
2.0
 40
3.0
 40
3.0
 40
3.0
 40
4.0
 40
4.0
 40
4.0
 40
4.0
 10
106.1723147913186
 20
-122.770794135974
 30
0.0
 10
106.1723147913186
 20
-122.8259333026267
 30
0.0
 10
106.2171175679534
 20
-122.8707008026156
 30
0.0
 10
106.2722214554364
 20
-122.8707008026156
 30
0.0
 10
106.3273606206964
 20
-122.8707008026156
 30
0.0
 10
106.3721281195543
 20
-122.8259333026267
 30
0.0
 10
106.3721281195543
 20
-122.770794135974
 30
0.0
 10
106.3721281195543
 20
-122.7149846915435
 30
0.0
 10
106.3273606206964
 20
-122.6708874693323
 30
0.0
 10
106.2722214554364
 20
-122.6708874693323
 30
0.0
 10
106.2171175679534
 20
-122.6708874693323
 30
0.0
 10
106.1723147913186
 20
-122.7149846915435
 30
0.0
 10
106.1723147913186
 20
-122.770794135974
 30
0.0
  0
SPLINE
  5
52
330
1F
100
AcDbEntity
  8
_U+30EC_U+30A4_U+30E4_U+30FC 1
 62
     7
420
 16777215
370
     9
100
AcDbSpline
210
0.0
220
0.0
230
1.0
 70
    11
 71
     3
 72
    17
 73
    13
 74
     0
 42
0.0000000001
 43
0.0000000001
 12
1.0
 22
0.0
 32
0.0
 13
1.0
 23
0.0
 33
0.0
 40
0.0
 40
0.0
 40
0.0
 40
0.0
 40
1.0
 40
1.0
 40
1.0
 40
2.0
 40
2.0
 40
2.0
 40
3.0
 40
3.0
 40
3.0
 40
4.0
 40
4.0
 40
4.0
 40
4.0
 10
106.1723147913186
 20
-133.7706521887795
 30
0.0
 10
106.1723147913186
 20
-133.8257560776545
 30
0.0
 10
106.2171175679534
 20
-133.8705588554212
 30
0.0
 10
106.2722214554364
 20
-133.8705588554212
 30
0.0
 10
106.3273606206964
 20
-133.8705588554212
 30
0.0
 10
106.3721281195543
 20
-133.8257560776545
 30
0.0
 10
106.3721281195543
 20
-133.7706521887795
 30
0.0
 10
106.3721281195543
 20
-133.7151955221269
 30
0.0
 10
106.3273606206964
 20
-133.6703927443601
 30
0.0
 10
106.2722214554364
 20
-133.6703927443601
 30
0.0
 10
106.2171175679534
 20
-133.6703927443601
 30
0.0
 10
106.1723147913186
 20
-133.7151955221269
 30
0.0
 10
106.1723147913186
 20
-133.7706521887795
 30
0.0
  0
POLYLINE
  5
53
330
1F
100
AcDbEntity
  8
_U+30EC_U+30A4_U+30E4_U+30FC 1
 62
     7
420
 16777215
370
     9
100
AcDb2dPolyline
 66
     1
 10
0.0
 20
0.0
 30
0.0
  0
VERTEX
  5
54
330
53
100
AcDbEntity
  8
_U+30EC_U+30A4_U+30E4_U+30FC 1
 62
     7
420
 16777215
370
     9
100
AcDbVertex
100
AcDb2dVertex
 10
106.2722214554364
 20
-122.7706177470851
 30
0.0
  0
VERTEX
  5
55
330
53
100
AcDbEntity
  8
_U+30EC_U+30A4_U+30E4_U+30FC 1
 62
     7
420
 16777215
370
     9
100
AcDbVertex
100
AcDb2dVertex
 10
106.2722214554364
 20
-133.7706521887795
 30
0.0
  0
SEQEND
  5
56
330
53
100
AcDbEntity
  8
_U+30EC_U+30A4_U+30E4_U+30FC 1
 62
     7
420
 16777215
370
     9
  0
POLYLINE
  5
57
330
1F
100
AcDbEntity
  8
_U+30EC_U+30A4_U+30E4_U+30FC 1
 62
     7
420
 16777215
370
     9
100
AcDb2dPolyline
 66
     1
 10
0.0
 20
0.0
 30
0.0
  0
VERTEX
  5
58
330
57
100
AcDbEntity
  8
_U+30EC_U+30A4_U+30E4_U+30FC 1
 62
     7
420
 16777215
370
     9
100
AcDbVertex
100
AcDb2dVertex
 10
105.2173453712374
 20
-122.770794135974
 30
0.0
  0
VERTEX
  5
59
330
57
100
AcDbEntity
  8
_U+30EC_U+30A4_U+30E4_U+30FC 1
 62
     7
420
 16777215
370
     9
100
AcDbVertex
100
AcDb2dVertex
 10
107.2726992076899
 20
-122.770794135974
 30
0.0
  0
SEQEND
  5
5A
330
57
100
AcDbEntity
  8
_U+30EC_U+30A4_U+30E4_U+30FC 1
 62
     7
420
 16777215
370
     9
  0
POLYLINE
  5
5B
330
1F
100
AcDbEntity
  8
_U+30EC_U+30A4_U+30E4_U+30FC 1
 62
     7
420
 16777215
370
     9
100
AcDb2dPolyline
 66
     1
 10
0.0
 20
0.0
 30
0.0
  0
VERTEX
  5
5C
330
5B
100
AcDbEntity
  8
_U+30EC_U+30A4_U+30E4_U+30FC 1
 62
     7
420
 16777215
370
     9
100
AcDbVertex
100
AcDb2dVertex
 10
105.2252828710349
 20
-133.7706521887795
 30
0.0
  0
VERTEX
  5
5D
330
5B
100
AcDbEntity
  8
_U+30EC_U+30A4_U+30E4_U+30FC 1
 62
     7
420
 16777215
370
     9
100
AcDbVertex
100
AcDb2dVertex
 10
107.2726992076899
 20
-133.7706521887795
 30
0.0
  0
SEQEND
  5
5E
330
5B
100
AcDbEntity
  8
_U+30EC_U+30A4_U+30E4_U+30FC 1
 62
     7
420
 16777215
370
     9
  0
SPLINE
  5
5F
330
1F
100
AcDbEntity
  8
_U+30EC_U+30A4_U+30E4_U+30FC 1
 62
     7
420
 16777215
370
     9
100
AcDbSpline
210
0.0
220
0.0
230
1.0
 70
    11
 71
     3
 72
    17
 73
    13
 74
     0
 42
0.0000000001
 43
0.0000000001
 12
1.0
 22
0.0
 32
0.0
 13
1.0
 23
0.0
 33
0.0
 40
0.0
 40
0.0
 40
0.0
 40
0.0
 40
1.0
 40
1.0
 40
1.0
 40
2.0
 40
2.0
 40
2.0
 40
3.0
 40
3.0
 40
3.0
 40
4.0
 40
4.0
 40
4.0
 40
4.0
 10
106.1723147913186
 20
-132.770879966807
 30
0.0
 10
106.1723147913186
 20
-132.8259838556826
 30
0.0
 10
106.2171175679534
 20
-132.8707866334493
 30
0.0
 10
106.2722214554364
 20
-132.8707866334493
 30
0.0
 10
106.3273606206964
 20
-132.8707866334493
 30
0.0
 10
106.3721281195543
 20
-132.8259838556826
 30
0.0
 10
106.3721281195543
 20
-132.770879966807
 30
0.0
 10
106.3721281195543
 20
-132.7157408001545
 30
0.0
 10
106.3273606206964
 20
-132.6709733001653
 30
0.0
 10
106.2722214554364
 20
-132.6709733001653
 30
0.0
 10
106.2171175679534
 20
-132.6709733001653
 30
0.0
 10
106.1723147913186
 20
-132.7157408001545
 30
0.0
 10
106.1723147913186
 20
-132.770879966807
 30
0.0
  0
POLYLINE
  5
60
330
1F
100
AcDbEntity
  8
_U+30EC_U+30A4_U+30E4_U+30FC 1
 62
     7
420
 16777215
370
     9
100
AcDb2dPolyline
 66
     1
 10
0.0
 20
0.0
 30
0.0
  0
VERTEX
  5
61
330
60
100
AcDbEntity
  8
_U+30EC_U+30A4_U+30E4_U+30FC 1
 62
     7
420
 16777215
370
     9
100
AcDbVertex
100
AcDb2dVertex
 10
105.2252828710349
 20
-132.770879966807
 30
0.0
  0
VERTEX
  5
62
330
60
100
AcDbEntity
  8
_U+30EC_U+30A4_U+30E4_U+30FC 1
 62
     7
420
 16777215
370
     9
100
AcDbVertex
100
AcDb2dVertex
 10
107.2726992076899
 20
-132.770879966807
 30
0.0
  0
SEQEND
  5
63
330
60
100
AcDbEntity
  8
_U+30EC_U+30A4_U+30E4_U+30FC 1
 62
     7
420
 16777215
370
     9
  0
INSERT
  5
65
330
1F
100
AcDbEntity
  8
_U+30EC_U+30A4_U+30E4_U+30FC 1
100
AcDbBlockReference
  2
block 2
 10
0.0
 20
0.0
 30
0.0
  0
INSERT
  5
6B
330
1F
100
AcDbEntity
  8
_U+30EC_U+30A4_U+30E4_U+30FC 1
100
AcDbBlockReference
  2
block 3
 10
0.0
 20
0.0
 30
0.0
  0
SPLINE
  5
73
330
1F
100
AcDbEntity
  8
_U+30EC_U+30A4_U+30E4_U+30FC 1
 62
     7
420
 16777215
370
     9
100
AcDbSpline
210
0.0
220
0.0
230
1.0
 70
    11
 71
     3
 72
    17
 73
    13
 74
     0
 42
0.0000000001
 43
0.0000000001
 12
1.0
 22
0.0
 32
0.0
 13
1.0
 23
0.0
 33
0.0
 40
0.0
 40
0.0
 40
0.0
 40
0.0
 40
1.0
 40
1.0
 40
1.0
 40
2.0
 40
2.0
 40
2.0
 40
3.0
 40
3.0
 40
3.0
 40
4.0
 40
4.0
 40
4.0
 40
4.0
 10
74.6362753180922
 20
-137.217114687918
 30
0.0
 10
74.6362753180922
 20
-137.1620107990431
 30
0.0
 10
74.59147254145743
 20
-137.1172080212764
 30
0.0
 10
74.53636865397436
 20
-137.1172080212764
 30
0.0
 10
74.48122948871442
 20
-137.1172080212764
 30
0.0
 10
74.43646387027985
 20
-137.1620107990431
 30
0.0
 10
74.43646387027985
 20
-137.217114687918
 30
0.0
 10
74.43646387027985
 20
-137.2722538545711
 30
0.0
 10
74.48122948871442
 20
-137.3170213545597
 30
0.0
 10
74.53636865397436
 20
-137.3170213545597
 30
0.0
 10
74.59147254145743
 20
-137.3170213545597
 30
0.0
 10
74.6362753180922
 20
-137.2722538545711
 30
0.0
 10
74.6362753180922
 20
-137.217114687918
 30
0.0
  0
POLYLINE
  5
74
330
1F
100
AcDbEntity
  8
_U+30EC_U+30A4_U+30E4_U+30FC 1
 62
     7
420
 16777215
370
     9
100
AcDb2dPolyline
 66
     1
 10
0.0
 20
0.0
 30
0.0
  0
VERTEX
  5
75
330
74
100
AcDbEntity
  8
_U+30EC_U+30A4_U+30E4_U+30FC 1
 62
     7
420
 16777215
370
     9
100
AcDbVertex
100
AcDb2dVertex
 10
74.53636865397436
 20
-137.217114687918
 30
0.0
  0
VERTEX
  5
76
330
74
100
AcDbEntity
  8
_U+30EC_U+30A4_U+30E4_U+30FC 1
 62
     7
420
 16777215
370
     9
100
AcDbVertex
100
AcDb2dVertex
 10
102.5363754396347
 20
-137.217114687918
 30
0.0
  0
SEQEND
  5
77
330
74
100
AcDbEntity
  8
_U+30EC_U+30A4_U+30E4_U+30FC 1
 62
     7
420
 16777215
370
     9
  0
POLYLINE
  5
78
330
1F
100
AcDbEntity
  8
_U+30EC_U+30A4_U+30E4_U+30FC 1
 62
     7
420
 16777215
370
     9
100
AcDb2dPolyline
 66
     1
 10
0.0
 20
0.0
 30
0.0
  0
VERTEX
  5
79
330
78
100
AcDbEntity
  8
_U+30EC_U+30A4_U+30E4_U+30FC 1
 62
     7
420
 16777215
370
     9
100
AcDbVertex
100
AcDb2dVertex
 10
74.53636865397436
 20
-134.9571496884832
 30
0.0
  0
VERTEX
  5
7A
330
78
100
AcDbEntity
  8
_U+30EC_U+30A4_U+30E4_U+30FC 1
 62
     7
420
 16777215
370
     9
100
AcDbVertex
100
AcDb2dVertex
 10
74.53636865397436
 20
-138.2175924654454
 30
0.0
  0
SEQEND
  5
7B
330
78
100
AcDbEntity
  8
_U+30EC_U+30A4_U+30E4_U+30FC 1
 62
     7
420
 16777215
370
     9
  0
SPLINE
  5
7C
330
1F
100
AcDbEntity
  8
_U+30EC_U+30A4_U+30E4_U+30FC 1
 62
     7
420
 16777215
370
     9
100
AcDbSpline
210
0.0
220
0.0
230
1.0
 70
    11
 71
     3
 72
    17
 73
    13
 74
     0
 42
0.0000000001
 43
0.0000000001
 12
1.0
 22
0.0
 32
0.0
 13
1.0
 23
0.0
 33
0.0
 40
0.0
 40
0.0
 40
0.0
 40
0.0
 40
1.0
 40
1.0
 40
1.0
 40
2.0
 40
2.0
 40
2.0
 40
3.0
 40
3.0
 40
3.0
 40
4.0
 40
4.0
 40
4.0
 40
4.0
 10
102.6362821037525
 20
-137.217114687918
 30
0.0
 10
102.6362821037525
 20
-137.1620107990431
 30
0.0
 10
102.5914793271178
 20
-137.1172080212764
 30
0.0
 10
102.5363754396347
 20
-137.1172080212764
 30
0.0
 10
102.4812388632684
 20
-137.1172080212764
 30
0.0
 10
102.4364687755168
 20
-137.1620107990431
 30
0.0
 10
102.4364687755168
 20
-137.217114687918
 30
0.0
 10
102.4364687755168
 20
-137.2722538545711
 30
0.0
 10
102.4812388632684
 20
-137.3170213545597
 30
0.0
 10
102.5363754396347
 20
-137.3170213545597
 30
0.0
 10
102.5914793271178
 20
-137.3170213545597
 30
0.0
 10
102.6362821037525
 20
-137.2722538545711
 30
0.0
 10
102.6362821037525
 20
-137.217114687918
 30
0.0
  0
POLYLINE
  5
7D
330
1F
100
AcDbEntity
  8
_U+30EC_U+30A4_U+30E4_U+30FC 1
 62
     7
420
 16777215
370
     9
100
AcDb2dPolyline
 66
     1
 10
0.0
 20
0.0
 30
0.0
  0
VERTEX
  5
7E
330
7D
100
AcDbEntity
  8
_U+30EC_U+30A4_U+30E4_U+30FC 1
 62
     7
420
 16777215
370
     9
100
AcDbVertex
100
AcDb2dVertex
 10
102.5363754396347
 20
-135.1569630217665
 30
0.0
  0
VERTEX
  5
7F
330
7D
100
AcDbEntity
  8
_U+30EC_U+30A4_U+30E4_U+30FC 1
 62
     7
420
 16777215
370
     9
100
AcDbVertex
100
AcDb2dVertex
 10
102.5363754396347
 20
-138.2175924654454
 30
0.0
  0
SEQEND
  5
80
330
7D
100
AcDbEntity
  8
_U+30EC_U+30A4_U+30E4_U+30FC 1
 62
     7
420
 16777215
370
     9
  0
INSERT
  5
82
330
1F
100
AcDbEntity
  8
_U+30EC_U+30A4_U+30E4_U+30FC 1
100
AcDbBlockReference
  2
block 4
 10
0.0
 20
0.0
 30
0.0
  0
SPLINE
  5
8B
330
1F
100
AcDbEntity
  8
_U+30EC_U+30A4_U+30E4_U+30FC 1
 62
     7
420
 16777215
370
     9
100
AcDbSpline
210
0.0
220
0.0
230
1.0
 70
    11
 71
     3
 72
    17
 73
    13
 74
     0
 42
0.0000000001
 43
0.0000000001
 12
1.0
 22
0.0
 32
0.0
 13
1.0
 23
0.0
 33
0.0
 40
0.0
 40
0.0
 40
0.0
 40
0.0
 40
1.0
 40
1.0
 40
1.0
 40
2.0
 40
2.0
 40
2.0
 40
3.0
 40
3.0
 40
3.0
 40
4.0
 40
4.0
 40
4.0
 40
4.0
 10
85.63627420412551
 20
-121.189855803036
 30
0.0
 10
85.63627420412551
 20
-121.1347166363829
 30
0.0
 10
85.59150670526763
 20
-121.089949136394
 30
0.0
 10
85.53636754000769
 20
-121.089949136394
 30
0.0
 10
85.48126365252462
 20
-121.089949136394
 30
0.0
 10
85.43646087588985
 20
-121.1347166363829
 30
0.0
 10
85.43646087588985
 20
-121.189855803036
 30
0.0
 10
85.43646087588985
 20
-121.2449596919109
 30
0.0
 10
85.48126365252462
 20
-121.2897624696776
 30
0.0
 10
85.53636754000769
 20
-121.2897624696776
 30
0.0
 10
85.59150670526763
 20
-121.2897624696776
 30
0.0
 10
85.63627420412551
 20
-121.2449596919109
 30
0.0
 10
85.63627420412551
 20
-121.189855803036
 30
0.0
  0
POLYLINE
  5
8C
330
1F
100
AcDbEntity
  8
_U+30EC_U+30A4_U+30E4_U+30FC 1
 62
     7
420
 16777215
370
     9
100
AcDb2dPolyline
 66
     1
 10
0.0
 20
0.0
 30
0.0
  0
VERTEX
  5
8D
330
8C
100
AcDbEntity
  8
_U+30EC_U+30A4_U+30E4_U+30FC 1
 62
     7
420
 16777215
370
     9
100
AcDbVertex
100
AcDb2dVertex
 10
85.53636754000769
 20
-121.189855803036
 30
0.0
  0
VERTEX
  5
8E
330
8C
100
AcDbEntity
  8
_U+30EC_U+30A4_U+30E4_U+30FC 1
 62
     7
420
 16777215
370
     9
100
AcDbVertex
100
AcDb2dVertex
 10
91.53620016471697
 20
-121.189855803036
 30
0.0
  0
SEQEND
  5
8F
330
8C
100
AcDbEntity
  8
_U+30EC_U+30A4_U+30E4_U+30FC 1
 62
     7
420
 16777215
370
     9
  0
POLYLINE
  5
90
330
1F
100
AcDbEntity
  8
_U+30EC_U+30A4_U+30E4_U+30FC 1
 62
     7
420
 16777215
370
     9
100
AcDb2dPolyline
 66
     1
 10
0.0
 20
0.0
 30
0.0
  0
VERTEX
  5
91
330
90
100
AcDbEntity
  8
_U+30EC_U+30A4_U+30E4_U+30FC 1
 62
     7
420
 16777215
370
     9
100
AcDbVertex
100
AcDb2dVertex
 10
85.53636754000769
 20
-118.929855525823
 30
0.0
  0
VERTEX
  5
92
330
90
100
AcDbEntity
  8
_U+30EC_U+30A4_U+30E4_U+30FC 1
 62
     7
420
 16777215
370
     9
100
AcDbVertex
100
AcDb2dVertex
 10
85.53636754000769
 20
-122.1902983027859
 30
0.0
  0
SEQEND
  5
93
330
90
100
AcDbEntity
  8
_U+30EC_U+30A4_U+30E4_U+30FC 1
 62
     7
420
 16777215
370
     9
  0
SPLINE
  5
94
330
1F
100
AcDbEntity
  8
_U+30EC_U+30A4_U+30E4_U+30FC 1
 62
     7
420
 16777215
370
     9
100
AcDbSpline
210
0.0
220
0.0
230
1.0
 70
    11
 71
     3
 72
    17
 73
    13
 74
     0
 42
0.0000000001
 43
0.0000000001
 12
1.0
 22
0.0
 32
0.0
 13
1.0
 23
0.0
 33
0.0
 40
0.0
 40
0.0
 40
0.0
 40
0.0
 40
1.0
 40
1.0
 40
1.0
 40
2.0
 40
2.0
 40
2.0
 40
3.0
 40
3.0
 40
3.0
 40
4.0
 40
4.0
 40
4.0
 40
4.0
 10
91.63642432882672
 20
-121.189855803036
 30
0.0
 10
91.63642432882672
 20
-121.1347166363829
 30
0.0
 10
91.59165682996883
 20
-121.089949136394
 30
0.0
 10
91.53651766470888
 20
-121.089949136394
 30
0.0
 10
91.48141377722581
 20
-121.089949136394
 30
0.0
 10
91.43661100059104
 20
-121.1347166363829
 30
0.0
 10
91.43661100059104
 20
-121.189855803036
 30
0.0
 10
91.43661100059104
 20
-121.2449596919109
 30
0.0
 10
91.48141377722581
 20
-121.2897624696776
 30
0.0
 10
91.53651766470888
 20
-121.2897624696776
 30
0.0
 10
91.59165682996883
 20
-121.2897624696776
 30
0.0
 10
91.63642432882672
 20
-121.2449596919109
 30
0.0
 10
91.63642432882672
 20
-121.189855803036
 30
0.0
  0
POLYLINE
  5
95
330
1F
100
AcDbEntity
  8
_U+30EC_U+30A4_U+30E4_U+30FC 1
 62
     7
420
 16777215
370
     9
100
AcDb2dPolyline
 66
     1
 10
0.0
 20
0.0
 30
0.0
  0
VERTEX
  5
96
330
95
100
AcDbEntity
  8
_U+30EC_U+30A4_U+30E4_U+30FC 1
 62
     7
420
 16777215
370
     9
100
AcDbVertex
100
AcDb2dVertex
 10
91.53651766470888
 20
-119.1296688591066
 30
0.0
  0
VERTEX
  5
97
330
95
100
AcDbEntity
  8
_U+30EC_U+30A4_U+30E4_U+30FC 1
 62
     7
420
 16777215
370
     9
100
AcDbVertex
100
AcDb2dVertex
 10
91.53651766470888
 20
-122.1902983027859
 30
0.0
  0
SEQEND
  5
98
330
95
100
AcDbEntity
  8
_U+30EC_U+30A4_U+30E4_U+30FC 1
 62
     7
420
 16777215
370
     9
  0
INSERT
  5
9A
330
1F
100
AcDbEntity
  8
_U+30EC_U+30A4_U+30E4_U+30FC 1
100
AcDbBlockReference
  2
block 5
 10
0.0
 20
0.0
 30
0.0
  0
POLYLINE
  5
A0
330
1F
100
AcDbEntity
  8
_U+30EC_U+30A4_U+30E4_U+30FC 1
 62
     7
420
 16777215
370
    25
100
AcDb2dPolyline
 66
     1
 10
0.0
 20
0.0
 30
0.0
  0
VERTEX
  5
A1
330
A0
100
AcDbEntity
  8
_U+30EC_U+30A4_U+30E4_U+30FC 1
 62
     7
420
 16777215
370
    25
100
AcDbVertex
100
AcDb2dVertex
 10
102.5363754396347
 20
-132.7705271890299
 30
0.0
  0
VERTEX
  5
A2
330
A0
100
AcDbEntity
  8
_U+30EC_U+30A4_U+30E4_U+30FC 1
 62
     7
420
 16777215
370
    25
100
AcDbVertex
100
AcDb2dVertex
 10
92.53628986142479
 20
-132.7705271890299
 30
0.0
  0
VERTEX
  5
A3
330
A0
100
AcDbEntity
  8
_U+30EC_U+30A4_U+30E4_U+30FC 1
 62
     7
420
 16777215
370
    25
100
AcDbVertex
100
AcDb2dVertex
 10
92.53628986142479
 20
-122.770794135974
 30
0.0
  0
VERTEX
  5
A4
330
A0
100
AcDbEntity
  8
_U+30EC_U+30A4_U+30E4_U+30FC 1
 62
     7
420
 16777215
370
    25
100
AcDbVertex
100
AcDb2dVertex
 10
91.53620016471697
 20
-122.770794135974
 30
0.0
  0
VERTEX
  5
A5
330
A0
100
AcDbEntity
  8
_U+30EC_U+30A4_U+30E4_U+30FC 1
 62
     7
420
 16777215
370
    25
100
AcDbVertex
100
AcDb2dVertex
 10
91.53620016471697
 20
-132.7705271890299
 30
0.0
  0
VERTEX
  5
A6
330
A0
100
AcDbEntity
  8
_U+30EC_U+30A4_U+30E4_U+30FC 1
 62
     7
420
 16777215
370
    25
100
AcDbVertex
100
AcDb2dVertex
 10
85.53636754000769
 20
-132.7705271890299
 30
0.0
  0
VERTEX
  5
A7
330
A0
100
AcDbEntity
  8
_U+30EC_U+30A4_U+30E4_U+30FC 1
 62
     7
420
 16777215
370
    25
100
AcDbVertex
100
AcDb2dVertex
 10
85.53636754000769
 20
-122.770794135974
 30
0.0
  0
VERTEX
  5
A8
330
A0
100
AcDbEntity
  8
_U+30EC_U+30A4_U+30E4_U+30FC 1
 62
     7
420
 16777215
370
    25
100
AcDbVertex
100
AcDb2dVertex
 10
84.53645423218427
 20
-122.770794135974
 30
0.0
  0
VERTEX
  5
A9
330
A0
100
AcDbEntity
  8
_U+30EC_U+30A4_U+30E4_U+30FC 1
 62
     7
420
 16777215
370
    25
100
AcDbVertex
100
AcDb2dVertex
 10
84.53645423218427
 20
-132.7705271890299
 30
0.0
  0
VERTEX
  5
AA
330
A0
100
AcDbEntity
  8
_U+30EC_U+30A4_U+30E4_U+30FC 1
 62
     7
420
 16777215
370
    25
100
AcDbVertex
100
AcDb2dVertex
 10
74.53636865397436
 20
-132.7705271890299
 30
0.0
  0
VERTEX
  5
AB
330
A0
100
AcDbEntity
  8
_U+30EC_U+30A4_U+30E4_U+30FC 1
 62
     7
420
 16777215
370
    25
100
AcDbVertex
100
AcDb2dVertex
 10
74.53636865397436
 20
-133.7706521887795
 30
0.0
  0
VERTEX
  5
AC
330
A0
100
AcDbEntity
  8
_U+30EC_U+30A4_U+30E4_U+30FC 1
 62
     7
420
 16777215
370
    25
100
AcDbVertex
100
AcDb2dVertex
 10
102.5363754396347
 20
-133.7706521887795
 30
0.0
  0
VERTEX
  5
AD
330
A0
100
AcDbEntity
  8
_U+30EC_U+30A4_U+30E4_U+30FC 1
 62
     7
420
 16777215
370
    25
100
AcDbVertex
100
AcDb2dVertex
 10
102.5363754396347
 20
-132.7705271890299
 30
0.0
  0
SEQEND
  5
AE
330
A0
100
AcDbEntity
  8
_U+30EC_U+30A4_U+30E4_U+30FC 1
 62
     7
420
 16777215
370
    25
  0
ENDSEC
  0
SECTION
  2
OBJECTS
  0
DICTIONARY
  5
C
330
0
100
AcDbDictionary
281
     1
  3
ACAD_GROUP
350
D
  3
ACAD_LAYOUT
350
1A
  3
ACAD_MATERIAL
350
3B
  3
ACAD_MLEADERSTYLE
350
B0
  3
ACAD_MLINESTYLE
350
17
  3
ACAD_PLOTSETTINGS
350
19
  3
ACAD_PLOTSTYLENAME
350
E
  3
ACAD_TABLESTYLE
350
AF
  3
ACAD_VISUALSTYLE
350
2A
  0
SUN
  5
3F
330
29
100
AcDbSun
 90
        1
290
     0
 63
     7
421
 16777215
 40
1.0
291
     1
 91
  2455826
 92
 54000000
292
     0
 70
     2
 71
   256
280
     1
  0
DICTIONARY
  5
D
102
{ACAD_REACTORS
330
C
102
}
330
C
100
AcDbDictionary
281
     1
  0
DICTIONARY
  5
1A
102
{ACAD_REACTORS
330
C
102
}
330
C
100
AcDbDictionary
281
     1
  3
Layout1
350
1E
  3
Layout2
350
26
  3
Model
350
22
  0
DICTIONARY
  5
3B
102
{ACAD_REACTORS
330
C
102
}
330
C
100
AcDbDictionary
281
     1
  3
ByBlock
350
3D
  3
ByLayer
350
3C
  3
Global
350
3E
  0
DICTIONARY
  5
B0
102
{ACAD_REACTORS
330
C
102
}
330
C
100
AcDbDictionary
281
     1
  0
DICTIONARY
  5
17
102
{ACAD_REACTORS
330
C
102
}
330
C
100
AcDbDictionary
281
     1
  3
Standard
350
18
  0
DICTIONARY
  5
19
102
{ACAD_REACTORS
330
C
102
}
330
C
100
AcDbDictionary
281
     1
  0
ACDBDICTIONARYWDFLT
  5
E
102
{ACAD_REACTORS
330
C
102
}
330
C
100
AcDbDictionary
281
     1
  3
Normal
350
F
100
AcDbDictionaryWithDefault
340
F
  0
DICTIONARY
  5
AF
102
{ACAD_REACTORS
330
C
102
}
330
C
100
AcDbDictionary
281
     1
  0
DICTIONARY
  5
2A
102
{ACAD_REACTORS
330
C
102
}
330
C
100
AcDbDictionary
281
     1
  3
2dWireframe
350
2F
  3
3D Hidden
350
31
  3
3dWireframe
350
30
  3
Basic
350
32
  3
Brighten
350
36
  3
ColorChange
350
3A
  3
Conceptual
350
34
  3
Dim
350
35
  3
Facepattern
350
39
  3
Flat
350
2B
  3
FlatWithEdges
350
2C
  3
Gouraud
350
2D
  3
GouraudWithEdges
350
2E
  3
Linepattern
350
38
  3
Realistic
350
33
  3
Thicken
350
37
  0
LAYOUT
  5
1E
102
{ACAD_REACTORS
330
1A
102
}
330
1A
100
AcDbPlotSettings
  1

  2
none_device
  4

  6

 40
0.0
 41
0.0
 42
0.0
 43
0.0
 44
0.0
 45
0.0
 46
0.0
 47
0.0
 48
0.0
 49
0.0
140
0.0
141
0.0
142
1.0
143
1.0
 70
   688
 72
     0
 73
     0
 74
     5
  7

 75
    16
 76
     0
 77
     2
 78
   300
147
1.0
148
0.0
149
0.0
100
AcDbLayout
  1
Layout1
 70
     1
 71
     1
 10
0.0
 20
0.0
 11
12.0
 21
9.0
 12
0.0
 22
0.0
 32
0.0
 14
1.000000000000000E+20
 24
1.000000000000000E+20
 34
1.000000000000000E+20
 15
-1.000000000000000E+20
 25
-1.000000000000000E+20
 35
-1.000000000000000E+20
146
0.0
 13
0.0
 23
0.0
 33
0.0
 16
1.0
 26
0.0
 36
0.0
 17
0.0
 27
1.0
 37
0.0
 76
     0
330
1B
  0
LAYOUT
  5
26
102
{ACAD_REACTORS
330
1A
102
}
330
1A
100
AcDbPlotSettings
  1

  2
none_device
  4

  6

 40
0.0
 41
0.0
 42
0.0
 43
0.0
 44
0.0
 45
0.0
 46
0.0
 47
0.0
 48
0.0
 49
0.0
140
0.0
141
0.0
142
1.0
143
1.0
 70
   688
 72
     0
 73
     0
 74
     5
  7

 75
    16
 76
     0
 77
     2
 78
   300
147
1.0
148
0.0
149
0.0
100
AcDbLayout
  1
Layout2
 70
     1
 71
     2
 10
0.0
 20
0.0
 11
0.0
 21
0.0
 12
0.0
 22
0.0
 32
0.0
 14
0.0
 24
0.0
 34
0.0
 15
0.0
 25
0.0
 35
0.0
146
0.0
 13
0.0
 23
0.0
 33
0.0
 16
1.0
 26
0.0
 36
0.0
 17
0.0
 27
1.0
 37
0.0
 76
     0
330
23
  0
LAYOUT
  5
22
102
{ACAD_REACTORS
330
1A
102
}
330
1A
100
AcDbPlotSettings
  1

  2
none_device
  4

  6

 40
0.0
 41
0.0
 42
0.0
 43
0.0
 44
0.0
 45
0.0
 46
0.0
 47
0.0
 48
0.0
 49
0.0
140
0.0
141
0.0
142
1.0
143
1.0
 70
  1712
 72
     0
 73
     0
 74
     0
  7

 75
     0
 76
     0
 77
     2
 78
   300
147
1.0
148
0.0
149
0.0
100
AcDbLayout
  1
Model
 70
     1
 71
     0
 10
0.0
 20
0.0
 11
12.0
 21
9.0
 12
0.0
 22
0.0
 32
0.0
 14
1.000000000000000E+20
 24
1.000000000000000E+20
 34
1.000000000000000E+20
 15
-1.000000000000000E+20
 25
-1.000000000000000E+20
 35
-1.000000000000000E+20
146
0.0
 13
0.0
 23
0.0
 33
0.0
 16
1.0
 26
0.0
 36
0.0
 17
0.0
 27
1.0
 37
0.0
 76
     0
330
1F
331
29
  0
MATERIAL
  5
3D
102
{ACAD_REACTORS
330
3B
102
}
330
3B
100
AcDbMaterial
  1
ByBlock
 72
     1
 94
      127
  0
MATERIAL
  5
3C
102
{ACAD_REACTORS
330
3B
102
}
330
3B
100
AcDbMaterial
  1
ByLayer
 72
     1
 94
      127
  0
MATERIAL
  5
3E
102
{ACAD_REACTORS
330
3B
102
}
330
3B
100
AcDbMaterial
  1
Global
 72
     1
 94
      127
  0
MLINESTYLE
  5
18
102
{ACAD_REACTORS
330
17
102
}
330
17
100
AcDbMlineStyle
  2
Standard
 70
     0
  3

 62
   256
 51
90.0
 52
90.0
 71
     2
 49
0.5
 62
   256
  6
BYLAYER
 49
-0.5
 62
   256
  6
BYLAYER
  0
ACDBPLACEHOLDER
  5
F
102
{ACAD_REACTORS
330
E
102
}
330
E
  0
VISUALSTYLE
  5
2F
102
{ACAD_REACTORS
330
2A
102
}
330
2A
100
AcDbVisualStyle
  2
2dWireframe
 70
     4
177
     2
291
     0
 71
     0
176
     1
 72
     2
176
     1
 73
     0
176
     1
 90
        0
176
     1
 40
-0.6
176
     1
 41
-30.0
176
     1
 62
     5
 63
     7
421
 16777215
176
     1
 74
     1
176
     1
 91
        4
176
     1
 64
     7
176
     1
 65
   257
176
     1
 75
     1
176
     1
175
     1
176
     1
 42
1.0
176
     1
 92
        0
176
     1
 66
   257
176
     1
 43
1.0
176
     1
 76
     1
176
     1
 77
     6
176
     1
 78
     2
176
     1
 67
     7
176
     1
 79
     5
176
     1
170
     0
176
     1
171
     0
176
     1
290
     0
176
     1
 93
        1
176
     1
 44
0.0
176
     1
173
     0
176
     1
  0
VISUALSTYLE
  5
31
102
{ACAD_REACTORS
330
2A
102
}
330
2A
100
AcDbVisualStyle
  2
3D Hidden
 70
     6
177
     2
291
     0
 71
     1
176
     1
 72
     2
176
     1
 73
     2
176
     1
 90
        0
176
     1
 40
-0.6
176
     1
 41
-30.0
176
     1
 62
     5
 63
     7
421
 16777215
176
     1
 74
     2
176
     1
 91
        2
176
     1
 64
     7
176
     1
 65
   257
176
     1
 75
     2
176
     1
175
     1
176
     1
 42
40.0
176
     1
 92
        0
176
     1
 66
   257
176
     1
 43
1.0
176
     1
 76
     1
176
     1
 77
     6
176
     1
 78
     2
176
     1
 67
     7
176
     1
 79
     3
176
     1
170
     0
176
     1
171
     0
176
     1
290
     0
176
     1
 93
        1
176
     1
 44
0.0
176
     1
173
     0
176
     1
  0
VISUALSTYLE
  5
30
102
{ACAD_REACTORS
330
2A
102
}
330
2A
100
AcDbVisualStyle
  2
3dWireframe
 70
     5
177
     2
291
     0
 71
     0
176
     1
 72
     2
176
     1
 73
     0
176
     1
 90
        0
176
     1
 40
-0.6
176
     1
 41
-30.0
176
     1
 62
     5
 63
     7
421
 16777215
176
     1
 74
     1
176
     1
 91
        4
176
     1
 64
     7
176
     1
 65
   257
176
     1
 75
     1
176
     1
175
     1
176
     1
 42
1.0
176
     1
 92
        0
176
     1
 66
   257
176
     1
 43
1.0
176
     1
 76
     1
176
     1
 77
     6
176
     1
 78
     2
176
     1
 67
     7
176
     1
 79
     5
176
     1
170
     0
176
     1
171
     0
176
     1
290
     0
176
     1
 93
        1
176
     1
 44
0.0
176
     1
173
     0
176
     1
  0
VISUALSTYLE
  5
32
102
{ACAD_REACTORS
330
2A
102
}
330
2A
100
AcDbVisualStyle
  2
Basic
 70
     7
177
     2
291
     1
 71
     1
176
     1
 72
     0
176
     1
 73
     1
176
     1
 90
        0
176
     1
 40
-0.6
176
     1
 41
-30.0
176
     1
 62
     5
 63
     7
421
 16777215
176
     1
 74
     0
176
     1
 91
        4
176
     1
 64
     7
176
     1
 65
   257
176
     1
 75
     1
176
     1
175
     1
176
     1
 42
1.0
176
     1
 92
        8
176
     1
 66
     7
176
     1
 43
1.0
176
     1
 76
     1
176
     1
 77
     6
176
     1
 78
     2
176
     1
 67
     7
176
     1
 79
     5
176
     1
170
     0
176
     1
171
     0
176
     1
290
     0
176
     1
 93
        1
176
     1
 44
0.0
176
     1
173
     0
176
     1
  0
VISUALSTYLE
  5
36
102
{ACAD_REACTORS
330
2A
102
}
330
2A
100
AcDbVisualStyle
  2
Brighten
 70
    12
177
     2
291
     1
 71
     2
176
     1
 72
     2
176
     1
 73
     0
176
     1
 90
        0
176
     1
 40
-0.6
176
     1
 41
-30.0
176
     1
 62
     5
 63
     7
421
 16777215
176
     1
 74
     1
176
     1
 91
        4
176
     1
 64
     7
176
     1
 65
   257
176
     1
 75
     1
176
     1
175
     1
176
     1
 42
1.0
176
     1
 92
        8
176
     1
 66
     7
176
     1
 43
1.0
176
     1
 76
     1
176
     1
 77
     6
176
     1
 78
     2
176
     1
 67
     7
176
     1
 79
     5
176
     1
170
     0
176
     1
171
     0
176
     1
290
     0
176
     1
 93
        1
176
     1
 44
50.0
176
     1
173
     0
176
     1
  0
VISUALSTYLE
  5
3A
102
{ACAD_REACTORS
330
2A
102
}
330
2A
100
AcDbVisualStyle
  2
ColorChange
 70
    16
177
     2
291
     1
 71
     2
176
     1
 72
     2
176
     1
 73
     3
176
     1
 90
        0
176
     1
 40
-0.6
176
     1
 41
-30.0
176
     1
 62
     5
 63
     8
421
  8421504
176
     1
 74
     1
176
     1
 91
        4
176
     1
 64
     7
176
     1
 65
   257
176
     1
 75
     1
176
     1
175
     1
176
     1
 42
1.0
176
     1
 92
        8
176
     1
 66
     8
424
  8421504
176
     1
 43
1.0
176
     1
 76
     1
176
     1
 77
     6
176
     1
 78
     2
176
     1
 67
     7
176
     1
 79
     5
176
     1
170
     0
176
     1
171
     0
176
     1
290
     0
176
     1
 93
        1
176
     1
 44
0.0
176
     1
173
     0
176
     1
  0
VISUALSTYLE
  5
34
102
{ACAD_REACTORS
330
2A
102
}
330
2A
100
AcDbVisualStyle
  2
Conceptual
 70
     9
177
     2
291
     0
 71
     3
176
     1
 72
     2
176
     1
 73
     0
176
     1
 90
        0
176
     1
 40
-0.6
176
     1
 41
-30.0
176
     1
 62
     5
 63
     7
421
 16777215
176
     1
 74
     2
176
     1
 91
        2
176
     1
 64
     7
176
     1
 65
   257
176
     1
 75
     1
176
     1
175
     1
176
     1
 42
40.0
176
     1
 92
        8
176
     1
 66
     7
176
     1
 43
1.0
176
     1
 76
     1
176
     1
 77
     6
176
     1
 78
     2
176
     1
 67
     7
176
     1
 79
     3
176
     1
170
     0
176
     1
171
     0
176
     1
290
     0
176
     1
 93
        1
176
     1
 44
0.0
176
     1
173
     0
176
     1
  0
VISUALSTYLE
  5
35
102
{ACAD_REACTORS
330
2A
102
}
330
2A
100
AcDbVisualStyle
  2
Dim
 70
    11
177
     2
291
     1
 71
     2
176
     1
 72
     2
176
     1
 73
     0
176
     1
 90
        0
176
     1
 40
-0.6
176
     1
 41
-30.0
176
     1
 62
     5
 63
     7
421
 16777215
176
     1
 74
     1
176
     1
 91
        4
176
     1
 64
     7
176
     1
 65
   257
176
     1
 75
     1
176
     1
175
     1
176
     1
 42
1.0
176
     1
 92
        8
176
     1
 66
     7
176
     1
 43
1.0
176
     1
 76
     1
176
     1
 77
     6
176
     1
 78
     2
176
     1
 67
     7
176
     1
 79
     5
176
     1
170
     0
176
     1
171
     0
176
     1
290
     0
176
     1
 93
        1
176
     1
 44
-50.0
176
     1
173
     0
176
     1
  0
VISUALSTYLE
  5
39
102
{ACAD_REACTORS
330
2A
102
}
330
2A
100
AcDbVisualStyle
  2
Facepattern
 70
    15
177
     2
291
     1
 71
     2
176
     1
 72
     2
176
     1
 73
     0
176
     1
 90
        0
176
     1
 40
-0.6
176
     1
 41
-30.0
176
     1
 62
     5
 63
     7
421
 16777215
176
     1
 74
     1
176
     1
 91
        4
176
     1
 64
     7
176
     1
 65
   257
176
     1
 75
     1
176
     1
175
     1
176
     1
 42
1.0
176
     1
 92
        8
176
     1
 66
     7
176
     1
 43
1.0
176
     1
 76
     1
176
     1
 77
     6
176
     1
 78
     2
176
     1
 67
     7
176
     1
 79
     5
176
     1
170
     0
176
     1
171
     0
176
     1
290
     0
176
     1
 93
        1
176
     1
 44
0.0
176
     1
173
     0
176
     1
  0
VISUALSTYLE
  5
2B
102
{ACAD_REACTORS
330
2A
102
}
330
2A
100
AcDbVisualStyle
  2
Flat
 70
     0
177
     2
291
     1
 71
     2
176
     1
 72
     1
176
     1
 73
     1
176
     1
 90
        2
176
     1
 40
-0.6
176
     1
 41
30.0
176
     1
 62
     5
 63
     7
421
 16777215
176
     1
 74
     0
176
     1
 91
        4
176
     1
 64
     7
176
     1
 65
   257
176
     1
 75
     1
176
     1
175
     1
176
     1
 42
1.0
176
     1
 92
        8
176
     1
 66
     7
176
     1
 43
1.0
176
     1
 76
     1
176
     1
 77
     6
176
     1
 78
     2
176
     1
 67
     7
176
     1
 79
     5
176
     1
170
     0
176
     1
171
     0
176
     1
290
     0
176
     1
 93
       13
176
     1
 44
0.0
176
     1
173
     0
176
     1
  0
VISUALSTYLE
  5
2C
102
{ACAD_REACTORS
330
2A
102
}
330
2A
100
AcDbVisualStyle
  2
FlatWithEdges
 70
     1
177
     2
291
     1
 71
     2
176
     1
 72
     1
176
     1
 73
     1
176
     1
 90
        2
176
     1
 40
-0.6
176
     1
 41
30.0
176
     1
 62
     5
 63
     7
421
 16777215
176
     1
 74
     1
176
     1
 91
        4
176
     1
 64
     7
176
     1
 65
   257
176
     1
 75
     1
176
     1
175
     1
176
     1
 42
1.0
176
     1
 92
        0
176
     1
 66
   257
176
     1
 43
1.0
176
     1
 76
     1
176
     1
 77
     6
176
     1
 78
     2
176
     1
 67
     7
176
     1
 79
     5
176
     1
170
     0
176
     1
171
     0
176
     1
290
     0
176
     1
 93
       13
176
     1
 44
0.0
176
     1
173
     0
176
     1
  0
VISUALSTYLE
  5
2D
102
{ACAD_REACTORS
330
2A
102
}
330
2A
100
AcDbVisualStyle
  2
Gouraud
 70
     2
177
     2
291
     1
 71
     2
176
     1
 72
     2
176
     1
 73
     1
176
     1
 90
        2
176
     1
 40
-0.6
176
     1
 41
30.0
176
     1
 62
     5
 63
     7
421
 16777215
176
     1
 74
     0
176
     1
 91
        4
176
     1
 64
     7
176
     1
 65
   257
176
     1
 75
     1
176
     1
175
     1
176
     1
 42
1.0
176
     1
 92
        0
176
     1
 66
     7
176
     1
 43
1.0
176
     1
 76
     1
176
     1
 77
     6
176
     1
 78
     2
176
     1
 67
     7
176
     1
 79
     5
176
     1
170
     0
176
     1
171
     0
176
     1
290
     0
176
     1
 93
       13
176
     1
 44
0.0
176
     1
173
     0
176
     1
  0
VISUALSTYLE
  5
2E
102
{ACAD_REACTORS
330
2A
102
}
330
2A
100
AcDbVisualStyle
  2
GouraudWithEdges
 70
     3
177
     2
291
     1
 71
     2
176
     1
 72
     2
176
     1
 73
     1
176
     1
 90
        2
176
     1
 40
-0.6
176
     1
 41
30.0
176
     1
 62
     5
 63
     7
421
 16777215
176
     1
 74
     1
176
     1
 91
        4
176
     1
 64
     7
176
     1
 65
   257
176
     1
 75
     1
176
     1
175
     1
176
     1
 42
1.0
176
     1
 92
        0
176
     1
 66
   257
176
     1
 43
1.0
176
     1
 76
     1
176
     1
 77
     6
176
     1
 78
     2
176
     1
 67
     7
176
     1
 79
     5
176
     1
170
     0
176
     1
171
     0
176
     1
290
     0
176
     1
 93
       13
176
     1
 44
0.0
176
     1
173
     0
176
     1
  0
VISUALSTYLE
  5
38
102
{ACAD_REACTORS
330
2A
102
}
330
2A
100
AcDbVisualStyle
  2
Linepattern
 70
    14
177
     2
291
     1
 71
     2
176
     1
 72
     2
176
     1
 73
     0
176
     1
 90
        0
176
     1
 40
-0.6
176
     1
 41
-30.0
176
     1
 62
     5
 63
     7
421
 16777215
176
     1
 74
     1
176
     1
 91
        4
176
     1
 64
     7
176
     1
 65
   257
176
     1
 75
     7
176
     1
175
     7
176
     1
 42
1.0
176
     1
 92
        8
176
     1
 66
     7
176
     1
 43
1.0
176
     1
 76
     1
176
     1
 77
     6
176
     1
 78
     2
176
     1
 67
     7
176
     1
 79
     5
176
     1
170
     0
176
     1
171
     0
176
     1
290
     0
176
     1
 93
        1
176
     1
 44
0.0
176
     1
173
     0
176
     1
  0
VISUALSTYLE
  5
33
102
{ACAD_REACTORS
330
2A
102
}
330
2A
100
AcDbVisualStyle
  2
Realistic
 70
     8
177
     2
291
     0
 71
     2
176
     1
 72
     2
176
     1
 73
     0
176
     1
 90
        0
176
     1
 40
-0.6
176
     1
 41
-30.0
176
     1
 62
     5
 63
     7
421
 16777215
176
     1
 74
     1
176
     1
 91
        0
176
     1
 64
     7
176
     1
 65
   257
176
     1
 75
     1
176
     1
175
     1
176
     1
 42
1.0
176
     1
 92
        8
176
     1
 66
     8
424
  7895160
176
     1
 43
1.0
176
     1
 76
     1
176
     1
 77
     6
176
     1
 78
     2
176
     1
 67
     7
176
     1
 79
     5
176
     1
170
     0
176
     1
171
     0
176
     1
290
     0
176
     1
 93
       13
176
     1
 44
0.0
176
     1
173
     0
176
     1
  0
VISUALSTYLE
  5
37
102
{ACAD_REACTORS
330
2A
102
}
330
2A
100
AcDbVisualStyle
  2
Thicken
 70
    13
177
     2
291
     1
 71
     2
176
     1
 72
     2
176
     1
 73
     0
176
     1
 90
        0
176
     1
 40
-0.6
176
     1
 41
-30.0
176
     1
 62
     5
 63
     7
421
 16777215
176
     1
 74
     1
176
     1
 91
        4
176
     1
 64
     7
176
     1
 65
   257
176
     1
 75
     1
176
     1
175
     1
176
     1
 42
1.0
176
     1
 92
       12
176
     1
 66
     7
176
     1
 43
1.0
176
     1
 76
     1
176
     1
 77
     6
176
     1
 78
     2
176
     1
 67
     7
176
     1
 79
     5
176
     1
170
     0
176
     1
171
     0
176
     1
290
     0
176
     1
 93
        1
176
     1
 44
0.0
176
     1
173
     0
176
     1
  0
ENDSEC
  0
EOF
