  0
SECTION
  2
HEADER
  9
$ACADVER
  1
AC1024
  9
$ACADMAINTVER
 70
     6
  9
$DWGCODEPAGE
  3
UNDEFINED
  9
$INSBASE
 10
0.0
 20
0.0
 30
0.0
  9
$EXTMIN
 10
1.000000000000000E+20
 20
1.000000000000000E+20
 30
1.000000000000000E+20
  9
$EXTMAX
 10
-1.000000000000000E+20
 20
-1.000000000000000E+20
 30
-1.000000000000000E+20
  9
$LIMMIN
 10
0.0
 20
0.0
  9
$LIMMAX
 10
12.0
 20
9.0
  9
$ORTHOMODE
 70
     0
  9
$REGENMODE
 70
     1
  9
$FILLMODE
 70
     1
  9
$QTEXTMODE
 70
     0
  9
$MIRRTEXT
 70
     1
  9
$LTSCALE
 40
1.0
  9
$ATTMODE
 70
     1
  9
$TEXTSIZE
 40
0.2
  9
$TRACEWID
 40
0.05
  9
$TEXTSTYLE
  7
Standard
  9
$CLAYER
  8
0
  9
$CELTYPE
  6
ByLayer
  9
$CECOLOR
 62
   256
  9
$CELTSCALE
 40
1.0
  9
$DISPSILH
 70
     0
  9
$DIMSCALE
 40
1.0
  9
$DIMASZ
 40
0.18
  9
$DIMEXO
 40
0.0625
  9
$DIMDLI
 40
0.38
  9
$DIMRND
 40
0.0
  9
$DIMDLE
 40
0.0
  9
$DIMEXE
 40
0.18
  9
$DIMTP
 40
0.0
  9
$DIMTM
 40
0.0
  9
$DIMTXT
 40
0.18
  9
$DIMCEN
 40
0.09
  9
$DIMTSZ
 40
0.0
  9
$DIMTOL
 70
     0
  9
$DIMLIM
 70
     0
  9
$DIMTIH
 70
     1
  9
$DIMTOH
 70
     1
  9
$DIMSE1
 70
     0
  9
$DIMSE2
 70
     0
  9
$DIMTAD
 70
     0
  9
$DIMZIN
 70
     0
  9
$DIMBLK
  1

  9
$DIMASO
 70
     1
  9
$DIMSHO
 70
     1
  9
$DIMPOST
  1

  9
$DIMAPOST
  1

  9
$DIMALT
 70
     0
  9
$DIMALTD
 70
     2
  9
$DIMALTF
 40
25.4
  9
$DIMLFAC
 40
1.0
  9
$DIMTOFL
 70
     0
  9
$DIMTVP
 40
0.0
  9
$DIMTIX
 70
     0
  9
$DIMSOXD
 70
     0
  9
$DIMSAH
 70
     0
  9
$DIMBLK1
  1

  9
$DIMBLK2
  1

  9
$DIMSTYLE
  2
Standard
  9
$DIMCLRD
 70
     0
  9
$DIMCLRE
 70
     0
  9
$DIMCLRT
 70
     0
  9
$DIMTFAC
 40
1.0
  9
$DIMGAP
 40
0.09
  9
$DIMJUST
 70
     0
  9
$DIMSD1
 70
     0
  9
$DIMSD2
 70
     0
  9
$DIMTOLJ
 70
     1
  9
$DIMTZIN
 70
     0
  9
$DIMALTZ
 70
     0
  9
$DIMALTTZ
 70
     0
  9
$DIMUPT
 70
     0
  9
$DIMDEC
 70
     4
  9
$DIMTDEC
 70
     4
  9
$DIMALTU
 70
     2
  9
$DIMALTTD
 70
     2
  9
$DIMTXSTY
  7
Standard
  9
$DIMAUNIT
 70
     0
  9
$DIMADEC
 70
     0
  9
$DIMALTRND
 40
0.0
  9
$DIMAZIN
 70
     0
  9
$DIMDSEP
 70
    46
  9
$DIMATFIT
 70
     3
  9
$DIMFRAC
 70
     0
  9
$DIMLDRBLK
  1

  9
$DIMLUNIT
 70
     2
  9
$DIMLWD
 70
    -2
  9
$DIMLWE
 70
    -2
  9
$DIMTMOVE
 70
     0
  9
$DIMFXL
 40
1.0
  9
$DIMFXLON
 70
     0
  9
$DIMJOGANG
 40
0.7853981633974483
  9
$DIMTFILL
 70
     0
  9
$DIMTFILLCLR
 70
     0
  9
$DIMARCSYM
 70
     0
  9
$DIMLTYPE
  6

  9
$DIMLTEX1
  6

  9
$DIMLTEX2
  6

  9
$DIMTXTDIRECTION
 70
     0
  9
$LUNITS
 70
     2
  9
$LUPREC
 70
     4
  9
$SKETCHINC
 40
0.1
  9
$FILLETRAD
 40
0.5
  9
$AUNITS
 70
     0
  9
$AUPREC
 70
     0
  9
$MENU
  1
.
  9
$ELEVATION
 40
0.0
  9
$PELEVATION
 40
0.0
  9
$THICKNESS
 40
0.0
  9
$LIMCHECK
 70
     0
  9
$CHAMFERA
 40
0.5
  9
$CHAMFERB
 40
0.5
  9
$CHAMFERC
 40
1.0
  9
$CHAMFERD
 40
0.0
  9
$SKPOLY
 70
     0
  9
$TDCREATE
 40
2457917.616620359
  9
$TDUCREATE
 40
2457917.24162037
  9
$TDUPDATE
 40
2457917.616620359
  9
$TDUUPDATE
 40
2457917.24162037
  9
$TDINDWG
 40
0.0000000116
  9
$TDUSRTIMER
 40
0.0000000116
  9
$USRTIMER
 70
     1
  9
$ANGBASE
 50
0.0
  9
$ANGDIR
 70
     0
  9
$PDMODE
 70
     0
  9
$PDSIZE
 40
0.0
  9
$PLINEWID
 40
0.0
  9
$SPLFRAME
 70
     0
  9
$SPLINETYPE
 70
     6
  9
$SPLINESEGS
 70
     8
  9
$HANDSEED
  5
D4
  9
$SURFTAB1
 70
     6
  9
$SURFTAB2
 70
     6
  9
$SURFTYPE
 70
     6
  9
$SURFU
 70
     6
  9
$SURFV
 70
     6
  9
$UCSBASE
  2

  9
$UCSNAME
  2

  9
$UCSORG
 10
0.0
 20
0.0
 30
0.0
  9
$UCSXDIR
 10
1.0
 20
0.0
 30
0.0
  9
$UCSYDIR
 10
0.0
 20
1.0
 30
0.0
  9
$UCSORTHOREF
  2

  9
$UCSORTHOVIEW
 70
     0
  9
$UCSORGTOP
 10
0.0
 20
0.0
 30
0.0
  9
$UCSORGBOTTOM
 10
0.0
 20
0.0
 30
0.0
  9
$UCSORGLEFT
 10
0.0
 20
0.0
 30
0.0
  9
$UCSORGRIGHT
 10
0.0
 20
0.0
 30
0.0
  9
$UCSORGFRONT
 10
0.0
 20
0.0
 30
0.0
  9
$UCSORGBACK
 10
0.0
 20
0.0
 30
0.0
  9
$PUCSBASE
  2

  9
$PUCSNAME
  2

  9
$PUCSORG
 10
0.0
 20
0.0
 30
0.0
  9
$PUCSXDIR
 10
1.0
 20
0.0
 30
0.0
  9
$PUCSYDIR
 10
0.0
 20
1.0
 30
0.0
  9
$PUCSORTHOREF
  2

  9
$PUCSORTHOVIEW
 70
     0
  9
$PUCSORGTOP
 10
0.0
 20
0.0
 30
0.0
  9
$PUCSORGBOTTOM
 10
0.0
 20
0.0
 30
0.0
  9
$PUCSORGLEFT
 10
0.0
 20
0.0
 30
0.0
  9
$PUCSORGRIGHT
 10
0.0
 20
0.0
 30
0.0
  9
$PUCSORGFRONT
 10
0.0
 20
0.0
 30
0.0
  9
$PUCSORGBACK
 10
0.0
 20
0.0
 30
0.0
  9
$USERI1
 70
     0
  9
$USERI2
 70
     0
  9
$USERI3
 70
     0
  9
$USERI4
 70
     0
  9
$USERI5
 70
     0
  9
$USERR1
 40
0.0
  9
$USERR2
 40
0.0
  9
$USERR3
 40
0.0
  9
$USERR4
 40
0.0
  9
$USERR5
 40
0.0
  9
$WORLDVIEW
 70
     1
  9
$SHADEDGE
 70
     3
  9
$SHADEDIF
 70
    70
  9
$TILEMODE
 70
     1
  9
$MAXACTVP
 70
    64
  9
$PINSBASE
 10
0.0
 20
0.0
 30
0.0
  9
$PLIMCHECK
 70
     0
  9
$PEXTMIN
 10
1.000000000000000E+20
 20
1.000000000000000E+20
 30
1.000000000000000E+20
  9
$PEXTMAX
 10
-1.000000000000000E+20
 20
-1.000000000000000E+20
 30
-1.000000000000000E+20
  9
$PLIMMIN
 10
0.0
 20
0.0
  9
$PLIMMAX
 10
12.0
 20
9.0
  9
$UNITMODE
 70
     0
  9
$VISRETAIN
 70
     1
  9
$PLINEGEN
 70
     0
  9
$PSLTSCALE
 70
     1
  9
$TREEDEPTH
 70
  3020
  9
$CMLSTYLE
  2
Standard
  9
$CMLJUST
 70
     0
  9
$CMLSCALE
 40
1.0
  9
$PROXYGRAPHICS
 70
     1
  9
$MEASUREMENT
 70
     0
  9
$CELWEIGHT
370
    -1
  9
$ENDCAPS
280
     0
  9
$JOINSTYLE
280
     0
  9
$LWDISPLAY
290
     1
  9
$INSUNITS
 70
     1
  9
$HYPERLINKBASE
  1

  9
$STYLESHEET
  1

  9
$XEDIT
290
     1
  9
$CEPSNTYPE
380
     0
  9
$PSTYLEMODE
290
     1
  9
$FINGERPRINTGUID
  2
{AC0A785A-C8E5-632F-4F41-611ED0991DC2}
  9
$VERSIONGUID
  2
{FAEB1C32-E019-11D5-929B-00C0DF256EC4}
  9
$EXTNAMES
290
     1
  9
$PSVPSCALE
 40
0.0
  9
$OLESTARTUP
290
     0
  9
$SORTENTS
280
   127
  9
$INDEXCTL
280
     0
  9
$HIDETEXT
280
     1
  9
$XCLIPFRAME
280
     2
  9
$HALOGAP
280
     0
  9
$OBSCOLOR
 70
   257
  9
$OBSLTYPE
280
     0
  9
$INTERSECTIONDISPLAY
280
     0
  9
$INTERSECTIONCOLOR
 70
   257
  9
$DIMASSOC
280
     2
  9
$PROJECTNAME
  1

  9
$CAMERADISPLAY
290
     0
  9
$LENSLENGTH
 40
50.0
  9
$CAMERAHEIGHT
 40
0.0
  9
$STEPSPERSEC
 40
2.0
  9
$STEPSIZE
 40
6.0
  9
$3DDWFPREC
 40
2.0
  9
$PSOLWIDTH
 40
0.25
  9
$PSOLHEIGHT
 40
4.0
  9
$LOFTANG1
 40
1.570796326794897
  9
$LOFTANG2
 40
1.570796326794897
  9
$LOFTMAG1
 40
0.0
  9
$LOFTMAG2
 40
0.0
  9
$LOFTPARAM
 70
     7
  9
$LOFTNORMALS
280
     1
  9
$LATITUDE
 40
37.795
  9
$LONGITUDE
 40
-122.394
  9
$NORTHDIRECTION
 40
0.0
  9
$TIMEZONE
 70
 -8000
  9
$LIGHTGLYPHDISPLAY
280
     1
  9
$TILEMODELIGHTSYNCH
280
     1
  9
$CMATERIAL
347
3C
  9
$SOLIDHIST
280
     1
  9
$SHOWHIST
280
     1
  9
$DWFFRAME
280
     2
  9
$DGNFRAME
280
     2
  9
$REALWORLDSCALE
290
     1
  9
$INTERFERECOLOR
 62
   256
  9
$CSHADOW
280
     0
  9
$SHADOWPLANELOCATION
 40
0.0
  0
ENDSEC
  0
SECTION
  2
CLASSES
  0
CLASS
  1
ACDBDICTIONARYWDFLT
  2
AcDbDictionaryWithDefault
  3
ObjectDBX Classes
 90
        0
 91
        4
280
     0
281
     0
  0
CLASS
  1
VISUALSTYLE
  2
AcDbVisualStyle
  3
ObjectDBX Classes
 90
     4095
 91
        4
280
     0
281
     0
  0
CLASS
  1
MATERIAL
  2
AcDbMaterial
  3
ObjectDBX Classes
 90
     1153
 91
        4
280
     0
281
     0
  0
CLASS
  1
SUN
  2
AcDbSun
  3
SCENEOE
 90
     1024
 91
        4
280
     0
281
     0
  0
ENDSEC
  0
SECTION
  2
TABLES
  0
TABLE
  2
VPORT
  5
8
330
0
100
AcDbSymbolTable
 70
     1
  0
VPORT
  5
29
330
8
100
AcDbSymbolTableRecord
100
AcDbViewportTableRecord
  2
*Active
 70
     0
 10
0.0
 20
0.0
 11
1.0
 21
1.0
 12
0.0
 22
0.0
 13
0.0
 23
0.0
 14
0.5
 24
0.5
 15
0.5
 25
0.5
 16
0.0
 26
0.0
 36
1.0
 17
91.00082462281999
 27
-128.4993055234307
 37
0.0
 40
256.9986110468615
 41
0.7081814508812795
 42
50.0
 43
0.0
 44
0.0
 50
0.0
 51
0.0
 71
     0
 72
   100
 73
     1
 74
     3
 75
     0
 76
     0
 77
     0
 78
     0
281
     0
 65
     1
110
0.0
120
0.0
130
0.0
111
1.0
121
0.0
131
0.0
112
0.0
122
1.0
132
0.0
 79
     0
146
0.0
 60
     3
 61
     5
292
     1
282
     1
141
0.0
142
0.0
 63
   250
361
3F
  0
ENDTAB
  0
TABLE
  2
LTYPE
  5
5
330
0
100
AcDbSymbolTable
 70
     1
  0
LTYPE
  5
14
330
5
100
AcDbSymbolTableRecord
100
AcDbLinetypeTableRecord
  2
ByBlock
 70
     0
  3

 72
    65
 73
     0
 40
0.0
  0
LTYPE
  5
15
330
5
100
AcDbSymbolTableRecord
100
AcDbLinetypeTableRecord
  2
ByLayer
 70
     0
  3

 72
    65
 73
     0
 40
0.0
  0
LTYPE
  5
16
330
5
100
AcDbSymbolTableRecord
100
AcDbLinetypeTableRecord
  2
Continuous
 70
     0
  3
Solid line
 72
    65
 73
     0
 40
0.0
  0
ENDTAB
  0
TABLE
  2
LAYER
  5
2
330
0
100
AcDbSymbolTable
 70
     2
  0
LAYER
  5
10
330
2
100
AcDbSymbolTableRecord
100
AcDbLayerTableRecord
  2
0
 70
     0
 62
     7
  6
Continuous
370
    -3
390
F
347
3E
  0
LAYER
  5
40
330
2
100
AcDbSymbolTableRecord
100
AcDbLayerTableRecord
  2
_U+30EC_U+30A4_U+30E4_U+30FC 1
 70
     0
 62
     7
  6
Continuous
370
    -3
390
F
347
3E
  0
ENDTAB
  0
TABLE
  2
STYLE
  5
3
330
0
100
AcDbSymbolTable
 70
     1
  0
STYLE
  5
11
330
3
100
AcDbSymbolTableRecord
100
AcDbTextStyleTableRecord
  2
Standard
 70
     0
 40
0.0
 41
1.0
 50
0.0
 71
     0
 42
0.2
  3
txt
  4

  0
ENDTAB
  0
TABLE
  2
VIEW
  5
6
330
0
100
AcDbSymbolTable
 70
     0
  0
ENDTAB
  0
TABLE
  2
UCS
  5
7
330
0
100
AcDbSymbolTable
 70
     0
  0
ENDTAB
  0
TABLE
  2
APPID
  5
9
330
0
100
AcDbSymbolTable
 70
     1
  0
APPID
  5
12
330
9
100
AcDbSymbolTableRecord
100
AcDbRegAppTableRecord
  2
ACAD
 70
     0
  0
ENDTAB
  0
TABLE
  2
DIMSTYLE
  5
A
330
0
100
AcDbSymbolTable
 70
     1
100
AcDbDimStyleTable
  0
DIMSTYLE
105
27
330
A
100
AcDbSymbolTableRecord
100
AcDbDimStyleTableRecord
  2
Standard
 70
     0
178
     0
340
11
  0
ENDTAB
  0
TABLE
  2
BLOCK_RECORD
  5
1
330
0
100
AcDbSymbolTable
 70
     8
  0
BLOCK_RECORD
  5
1F
330
1
100
AcDbSymbolTableRecord
100
AcDbBlockTableRecord
  2
*Model_Space
340
22
 70
     0
280
     1
281
     0
  0
BLOCK_RECORD
  5
1B
330
1
100
AcDbSymbolTableRecord
100
AcDbBlockTableRecord
  2
*Paper_Space
340
1E
 70
     0
280
     1
281
     0
  0
BLOCK_RECORD
  5
23
330
1
100
AcDbSymbolTableRecord
100
AcDbBlockTableRecord
  2
*Paper_Space0
340
26
 70
     0
280
     1
281
     0
  0
BLOCK_RECORD
  5
4B
330
1
100
AcDbSymbolTableRecord
100
AcDbBlockTableRecord
  2
block 2
340
0
102
{BLKREFS
331
4C
102
}
 70
     0
280
     1
281
     0
  0
BLOCK_RECORD
  5
5B
330
1
100
AcDbSymbolTableRecord
100
AcDbBlockTableRecord
  2
block 3
340
0
102
{BLKREFS
331
5C
102
}
 70
     0
280
     1
281
     0
  0
BLOCK_RECORD
  5
75
330
1
100
AcDbSymbolTableRecord
100
AcDbBlockTableRecord
  2
block 4
340
0
102
{BLKREFS
331
76
102
}
 70
     0
280
     1
281
     0
  0
BLOCK_RECORD
  5
7E
330
1
100
AcDbSymbolTableRecord
100
AcDbBlockTableRecord
  2
block 5
340
0
102
{BLKREFS
331
7F
102
}
 70
     0
280
     1
281
     0
  0
BLOCK_RECORD
  5
9A
330
1
100
AcDbSymbolTableRecord
100
AcDbBlockTableRecord
  2
block 6
340
0
102
{BLKREFS
331
9B
102
}
 70
     0
280
     1
281
     0
  0
BLOCK_RECORD
  5
AC
330
1
100
AcDbSymbolTableRecord
100
AcDbBlockTableRecord
  2
block 7
340
0
102
{BLKREFS
331
AD
102
}
 70
     0
280
     1
281
     0
  0
BLOCK_RECORD
  5
C7
330
1
100
AcDbSymbolTableRecord
100
AcDbBlockTableRecord
  2
block 8
340
0
102
{BLKREFS
331
C8
102
}
 70
     0
280
     1
281
     0
  0
ENDTAB
  0
ENDSEC
  0
SECTION
  2
BLOCKS
  0
BLOCK
  5
20
330
1F
100
AcDbEntity
  8
0
100
AcDbBlockBegin
  2
*Model_Space
 70
     0
 10
0.0
 20
0.0
 30
0.0
  3
*Model_Space
  1

  0
ENDBLK
  5
21
330
1F
100
AcDbEntity
  8
0
100
AcDbBlockEnd
  0
BLOCK
  5
1C
330
1B
100
AcDbEntity
 67
     1
  8
0
100
AcDbBlockBegin
  2
*Paper_Space
 70
     0
 10
0.0
 20
0.0
 30
0.0
  3
*Paper_Space
  1

  0
ENDBLK
  5
1D
330
1B
100
AcDbEntity
 67
     1
  8
0
100
AcDbBlockEnd
  0
BLOCK
  5
24
330
23
100
AcDbEntity
  8
0
100
AcDbBlockBegin
  2
*Paper_Space0
 70
     0
 10
0.0
 20
0.0
 30
0.0
  3
*Paper_Space0
  1

  0
ENDBLK
  5
25
330
23
100
AcDbEntity
  8
0
100
AcDbBlockEnd
  0
BLOCK
  5
4D
330
4B
100
AcDbEntity
  8
0
100
AcDbBlockBegin
  2
block 2
 70
     0
 10
0.0
 20
0.0
 30
0.0
  3
block 2
  1

  0
SPLINE
  5
4F
330
4B
100
AcDbEntity
  8
_U+30EC_U+30A4_U+30E4_U+30FC 1
370
     0
100
AcDbSpline
210
0.0
220
0.0
230
1.0
 70
    11
 71
     3
 72
    44
 73
    40
 74
     0
 42
0.0000000001
 43
0.0000000001
 12
1.0
 22
0.0
 32
0.0
 13
1.0
 23
0.0
 33
0.0
 40
0.0
 40
0.0
 40
0.0
 40
0.0
 40
1.0
 40
1.0
 40
1.0
 40
2.0
 40
2.0
 40
2.0
 40
3.0
 40
3.0
 40
3.0
 40
4.0
 40
4.0
 40
4.0
 40
5.0
 40
5.0
 40
5.0
 40
6.0
 40
6.0
 40
6.0
 40
7.0
 40
7.0
 40
7.0
 40
8.0
 40
8.0
 40
8.0
 40
9.0
 40
9.0
 40
9.0
 40
10.0
 40
10.0
 40
10.0
 40
11.0
 40
11.0
 40
11.0
 40
12.0
 40
12.0
 40
12.0
 40
13.0
 40
13.0
 40
13.0
 40
13.0
 10
80.6193684694285
 20
-151.0898301488595
 30
0.0
 10
80.40146617998644
 20
-151.2486490507295
 30
0.0
 10
80.30827634711044
 20
-151.3223740941139
 30
0.0
 10
80.25970050076842
 20
-151.4663790853973
 30
0.0
 10
80.25970050076842
 20
-151.4663790853973
 30
0.0
 10
81.03811982566062
 20
-151.4663790853973
 30
0.0
 10
81.03811982566062
 20
-151.4663790853973
 30
0.0
 10
81.03811982566062
 20
-151.4663790853973
 30
0.0
 10
81.03811982566062
 20
-151.6717067763182
 30
0.0
 10
81.03811982566062
 20
-151.6717067763182
 30
0.0
 10
81.03811982566062
 20
-151.6717067763182
 30
0.0
 10
80.01010333286206
 20
-151.6717067763182
 30
0.0
 10
80.01010333286206
 20
-151.6717067763182
 30
0.0
 10
80.04179821132637
 20
-151.3141058649493
 30
0.0
 10
80.10742728032037
 20
-151.2355576878856
 30
0.0
 10
80.49241670079704
 20
-150.9372124188629
 30
0.0
 10
80.74838729535111
 20
-150.7387749189125
 30
0.0
 10
80.81384410957085
 20
-150.6709065378531
 30
0.0
 10
80.81384410957085
 20
-150.5334472279916
 30
0.0
 10
80.81384410957085
 20
-150.414935943299
 30
0.0
 10
80.7420138687034
 20
-150.2840223148596
 30
0.0
 10
80.54529891649563
 20
-150.2840223148596
 30
0.0
 10
80.285021952585
 20
-150.2840223148596
 30
0.0
 10
80.27658146864614
 20
-150.5141546932742
 30
0.0
 10
80.27227509928957
 20
-150.6305989206757
 30
0.0
 10
80.27227509928957
 20
-150.6305989206757
 30
0.0
 10
80.04817163797408
 20
-150.6305989206757
 30
0.0
 10
80.04817163797408
 20
-150.6305989206757
 30
0.0
 10
80.05661212191293
 20
-150.5038194068185
 30
0.0
 10
80.06711966314295
 20
-150.3915092939993
 30
0.0
 10
80.14756264272353
 20
-150.2729980093067
 30
0.0
 10
80.257461188703
 20
-150.1124565596941
 30
0.0
 10
80.44366859968075
 20
-150.0786946239387
 30
0.0
 10
80.5601128270822
 20
-150.0786946239387
 30
0.0
 10
80.83727075887055
 20
-150.0786946239387
 30
0.0
 10
81.04449325230833
 20
-150.262662722851
 30
0.0
 10
81.04449325230833
 20
-150.5355142852828
 30
0.0
 10
81.04449325230833
 20
-150.7639241159549
 30
0.0
 10
80.92822127968114
 20
-150.8634873754786
 30
0.0
 10
80.6193684694285
 20
-151.0898301488595
 30
0.0
  0
HATCH
  5
50
330
4B
100
AcDbEntity
  8
_U+30EC_U+30A4_U+30E4_U+30FC 1
 62
     7
420
 16777215
100
AcDbHatch
 10
0.0
 20
0.0
 30
0.0
210
0.0
220
0.0
230
1.0
  2
SOLID
 70
     1
 71
     0
 91
        1
 92
        1
 93
        1
 72
     4
 94
        3
 73
     0
 74
     1
 95
       44
 96
       40
 40
0.0
 40
0.0
 40
0.0
 40
0.0
 40
1.0
 40
1.0
 40
1.0
 40
2.0
 40
2.0
 40
2.0
 40
3.0
 40
3.0
 40
3.0
 40
4.0
 40
4.0
 40
4.0
 40
5.0
 40
5.0
 40
5.0
 40
6.0
 40
6.0
 40
6.0
 40
7.0
 40
7.0
 40
7.0
 40
8.0
 40
8.0
 40
8.0
 40
9.0
 40
9.0
 40
9.0
 40
10.0
 40
10.0
 40
10.0
 40
11.0
 40
11.0
 40
11.0
 40
12.0
 40
12.0
 40
12.0
 40
13.0
 40
13.0
 40
13.0
 40
13.0
 10
80.6193684694285
 20
-151.0898301488595
 10
80.40146617998644
 20
-151.2486490507295
 10
80.30827634711044
 20
-151.3223740941139
 10
80.25970050076842
 20
-151.4663790853973
 10
80.25970050076842
 20
-151.4663790853973
 10
81.03811982566062
 20
-151.4663790853973
 10
81.03811982566062
 20
-151.4663790853973
 10
81.03811982566062
 20
-151.4663790853973
 10
81.03811982566062
 20
-151.6717067763182
 10
81.03811982566062
 20
-151.6717067763182
 10
81.03811982566062
 20
-151.6717067763182
 10
80.01010333286206
 20
-151.6717067763182
 10
80.01010333286206
 20
-151.6717067763182
 10
80.04179821132637
 20
-151.3141058649493
 10
80.10742728032037
 20
-151.2355576878856
 10
80.49241670079704
 20
-150.9372124188629
 10
80.74838729535111
 20
-150.7387749189125
 10
80.81384410957085
 20
-150.6709065378531
 10
80.81384410957085
 20
-150.5334472279916
 10
80.81384410957085
 20
-150.414935943299
 10
80.7420138687034
 20
-150.2840223148596
 10
80.54529891649563
 20
-150.2840223148596
 10
80.285021952585
 20
-150.2840223148596
 10
80.27658146864614
 20
-150.5141546932742
 10
80.27227509928957
 20
-150.6305989206757
 10
80.27227509928957
 20
-150.6305989206757
 10
80.04817163797408
 20
-150.6305989206757
 10
80.04817163797408
 20
-150.6305989206757
 10
80.05661212191293
 20
-150.5038194068185
 10
80.06711966314295
 20
-150.3915092939993
 10
80.14756264272353
 20
-150.2729980093067
 10
80.257461188703
 20
-150.1124565596941
 10
80.44366859968075
 20
-150.0786946239387
 10
80.5601128270822
 20
-150.0786946239387
 10
80.83727075887055
 20
-150.0786946239387
 10
81.04449325230833
 20
-150.262662722851
 10
81.04449325230833
 20
-150.5355142852828
 10
81.04449325230833
 20
-150.7639241159549
 10
80.92822127968114
 20
-150.8634873754786
 10
80.6193684694285
 20
-151.0898301488595
 97
        0
 97
        0
 75
     2
 76
     1
 98
        0
  0
SPLINE
  5
51
330
4B
100
AcDbEntity
  8
_U+30EC_U+30A4_U+30E4_U+30FC 1
370
     0
100
AcDbSpline
210
0.0
220
0.0
230
1.0
 70
    11
 71
     3
 72
    53
 73
    49
 74
     0
 42
0.0000000001
 43
0.0000000001
 12
1.0
 22
0.0
 32
0.0
 13
1.0
 23
0.0
 33
0.0
 40
0.0
 40
0.0
 40
0.0
 40
0.0
 40
1.0
 40
1.0
 40
1.0
 40
2.0
 40
2.0
 40
2.0
 40
3.0
 40
3.0
 40
3.0
 40
4.0
 40
4.0
 40
4.0
 40
5.0
 40
5.0
 40
5.0
 40
6.0
 40
6.0
 40
6.0
 40
7.0
 40
7.0
 40
7.0
 40
8.0
 40
8.0
 40
8.0
 40
9.0
 40
9.0
 40
9.0
 40
10.0
 40
10.0
 40
10.0
 40
11.0
 40
11.0
 40
11.0
 40
12.0
 40
12.0
 40
12.0
 40
13.0
 40
13.0
 40
13.0
 40
14.0
 40
14.0
 40
14.0
 40
15.0
 40
15.0
 40
15.0
 40
16.0
 40
16.0
 40
16.0
 40
16.0
 10
81.68407522914495
 20
-151.7223496799513
 30
0.0
 10
81.60569930685553
 20
-151.7223496799513
 30
0.0
 10
81.50424124481492
 20
-151.7054687120736
 30
0.0
 10
81.40261092800004
 20
-151.6420789551451
 30
0.0
 10
81.22915037031771
 20
-151.5318358996171
 30
0.0
 10
81.20796303308343
 20
-151.4009222711776
 30
0.0
 10
81.18901500791455
 20
-151.2927462729407
 30
0.0
 10
81.18901500791455
 20
-151.2927462729407
 30
0.0
 10
81.41105141193891
 20
-151.2927462729407
 30
0.0
 10
81.41105141193891
 20
-151.2927462729407
 30
0.0
 10
81.4661729397029
 20
-151.4918727919882
 30
0.0
 10
81.59312470833436
 20
-151.5215006131613
 30
0.0
 10
81.68614228643611
 20
-151.5215006131613
 30
0.0
 10
81.82584090836299
 20
-151.5215006131613
 30
0.0
 10
81.97811412881103
 20
-151.4219373536376
 30
0.0
 10
81.97811412881103
 20
-151.1893934083832
 30
0.0
 10
81.97811412881103
 20
-150.9330783042806
 30
0.0
 10
81.79828014448098
 20
-150.8634873754786
 30
0.0
 10
81.67770180249724
 20
-150.8634873754786
 30
0.0
 10
81.64600692403295
 20
-150.8634873754786
 30
0.0
 10
81.50424124481492
 20
-150.8634873754786
 30
0.0
 10
81.41535778129547
 20
-150.9923339466269
 30
0.0
 10
81.41535778129547
 20
-150.9923339466269
 30
0.0
 10
81.239830166322
 20
-150.9733859214581
 30
0.0
 10
81.239830166322
 20
-150.9733859214581
 30
0.0
 10
81.239830166322
 20
-150.9733859214581
 30
0.0
 10
81.36040850830574
 20
-150.1272704702807
 30
0.0
 10
81.36040850830574
 20
-150.1272704702807
 30
0.0
 10
81.36040850830574
 20
-150.1272704702807
 30
0.0
 10
82.13882783319794
 20
-150.1272704702807
 30
0.0
 10
82.13882783319794
 20
-150.1272704702807
 30
0.0
 10
82.13882783319794
 20
-150.1272704702807
 30
0.0
 10
82.13882783319794
 20
-150.3219183651973
 30
0.0
 10
82.13882783319794
 20
-150.3219183651973
 30
0.0
 10
82.13882783319794
 20
-150.3219183651973
 30
0.0
 10
81.52318926998379
 20
-150.3219183651973
 30
0.0
 10
81.52318926998379
 20
-150.3219183651973
 30
0.0
 10
81.52318926998379
 20
-150.3219183651973
 30
0.0
 10
81.45773245576405
 20
-150.744976090786
 30
0.0
 10
81.45773245576405
 20
-150.744976090786
 30
0.0
 10
81.51905515540149
 20
-150.7112141550305
 30
0.0
 10
81.60156519227323
 20
-150.6709065378531
 30
0.0
 10
81.71990422219156
 20
-150.6709065378531
 30
0.0
 10
81.97380775945447
 20
-150.6709065378531
 30
0.0
 10
82.21083032883966
 20
-150.8572862036051
 30
0.0
 10
82.21083032883966
 20
-151.1701008736658
 30
0.0
 10
82.21083032883966
 20
-151.4877386774058
 30
0.0
 10
81.9865546127499
 20
-151.7223496799513
 30
0.0
 10
81.68407522914495
 20
-151.7223496799513
 30
0.0
  0
HATCH
  5
52
330
4B
100
AcDbEntity
  8
_U+30EC_U+30A4_U+30E4_U+30FC 1
 62
     7
420
 16777215
100
AcDbHatch
 10
0.0
 20
0.0
 30
0.0
210
0.0
220
0.0
230
1.0
  2
SOLID
 70
     1
 71
     0
 91
        1
 92
        1
 93
        1
 72
     4
 94
        3
 73
     0
 74
     1
 95
       53
 96
       49
 40
0.0
 40
0.0
 40
0.0
 40
0.0
 40
1.0
 40
1.0
 40
1.0
 40
2.0
 40
2.0
 40
2.0
 40
3.0
 40
3.0
 40
3.0
 40
4.0
 40
4.0
 40
4.0
 40
5.0
 40
5.0
 40
5.0
 40
6.0
 40
6.0
 40
6.0
 40
7.0
 40
7.0
 40
7.0
 40
8.0
 40
8.0
 40
8.0
 40
9.0
 40
9.0
 40
9.0
 40
10.0
 40
10.0
 40
10.0
 40
11.0
 40
11.0
 40
11.0
 40
12.0
 40
12.0
 40
12.0
 40
13.0
 40
13.0
 40
13.0
 40
14.0
 40
14.0
 40
14.0
 40
15.0
 40
15.0
 40
15.0
 40
16.0
 40
16.0
 40
16.0
 40
16.0
 10
81.68407522914495
 20
-151.7223496799513
 10
81.60569930685553
 20
-151.7223496799513
 10
81.50424124481492
 20
-151.7054687120736
 10
81.40261092800004
 20
-151.6420789551451
 10
81.22915037031771
 20
-151.5318358996171
 10
81.20796303308343
 20
-151.4009222711776
 10
81.18901500791455
 20
-151.2927462729407
 10
81.18901500791455
 20
-151.2927462729407
 10
81.41105141193891
 20
-151.2927462729407
 10
81.41105141193891
 20
-151.2927462729407
 10
81.4661729397029
 20
-151.4918727919882
 10
81.59312470833436
 20
-151.5215006131613
 10
81.68614228643611
 20
-151.5215006131613
 10
81.82584090836299
 20
-151.5215006131613
 10
81.97811412881103
 20
-151.4219373536376
 10
81.97811412881103
 20
-151.1893934083832
 10
81.97811412881103
 20
-150.9330783042806
 10
81.79828014448098
 20
-150.8634873754786
 10
81.67770180249724
 20
-150.8634873754786
 10
81.64600692403295
 20
-150.8634873754786
 10
81.50424124481492
 20
-150.8634873754786
 10
81.41535778129547
 20
-150.9923339466269
 10
81.41535778129547
 20
-150.9923339466269
 10
81.239830166322
 20
-150.9733859214581
 10
81.239830166322
 20
-150.9733859214581
 10
81.239830166322
 20
-150.9733859214581
 10
81.36040850830574
 20
-150.1272704702807
 10
81.36040850830574
 20
-150.1272704702807
 10
81.36040850830574
 20
-150.1272704702807
 10
82.13882783319794
 20
-150.1272704702807
 10
82.13882783319794
 20
-150.1272704702807
 10
82.13882783319794
 20
-150.1272704702807
 10
82.13882783319794
 20
-150.3219183651973
 10
82.13882783319794
 20
-150.3219183651973
 10
82.13882783319794
 20
-150.3219183651973
 10
81.52318926998379
 20
-150.3219183651973
 10
81.52318926998379
 20
-150.3219183651973
 10
81.52318926998379
 20
-150.3219183651973
 10
81.45773245576405
 20
-150.744976090786
 10
81.45773245576405
 20
-150.744976090786
 10
81.51905515540149
 20
-150.7112141550305
 10
81.60156519227323
 20
-150.6709065378531
 10
81.71990422219156
 20
-150.6709065378531
 10
81.97380775945447
 20
-150.6709065378531
 10
82.21083032883966
 20
-150.8572862036051
 10
82.21083032883966
 20
-151.1701008736658
 10
82.21083032883966
 20
-151.4877386774058
 10
81.9865546127499
 20
-151.7223496799513
 10
81.68407522914495
 20
-151.7223496799513
 97
        0
 97
        0
 75
     2
 76
     1
 98
        0
  0
ENDBLK
  5
4E
330
4B
100
AcDbEntity
  8
0
100
AcDbBlockEnd
  0
BLOCK
  5
5D
330
5B
100
AcDbEntity
  8
0
100
AcDbBlockBegin
  2
block 3
 70
     0
 10
0.0
 20
0.0
 30
0.0
  3
block 3
  1

  0
SPLINE
  5
5F
330
5B
100
AcDbEntity
  8
_U+30EC_U+30A4_U+30E4_U+30FC 1
370
     0
100
AcDbSpline
210
0.0
220
0.0
230
1.0
 70
    11
 71
     3
 72
    53
 73
    49
 74
     0
 42
0.0000000001
 43
0.0000000001
 12
1.0
 22
0.0
 32
0.0
 13
1.0
 23
0.0
 33
0.0
 40
0.0
 40
0.0
 40
0.0
 40
0.0
 40
1.0
 40
1.0
 40
1.0
 40
2.0
 40
2.0
 40
2.0
 40
3.0
 40
3.0
 40
3.0
 40
4.0
 40
4.0
 40
4.0
 40
5.0
 40
5.0
 40
5.0
 40
6.0
 40
6.0
 40
6.0
 40
7.0
 40
7.0
 40
7.0
 40
8.0
 40
8.0
 40
8.0
 40
9.0
 40
9.0
 40
9.0
 40
10.0
 40
10.0
 40
10.0
 40
11.0
 40
11.0
 40
11.0
 40
12.0
 40
12.0
 40
12.0
 40
13.0
 40
13.0
 40
13.0
 40
14.0
 40
14.0
 40
14.0
 40
15.0
 40
15.0
 40
15.0
 40
16.0
 40
16.0
 40
16.0
 40
16.0
 10
96.09680444646192
 20
-151.7223496799513
 30
0.0
 10
96.01825626939822
 20
-151.7223496799513
 30
0.0
 10
95.91697046213187
 20
-151.7054687120736
 30
0.0
 10
95.81499563576848
 20
-151.6420789551451
 30
0.0
 10
95.6417073328604
 20
-151.5318358996171
 30
0.0
 10
95.62069225040038
 20
-151.4009222711776
 30
0.0
 10
95.60139971568299
 20
-151.2927462729407
 30
0.0
 10
95.60139971568299
 20
-151.2927462729407
 30
0.0
 10
95.82360837448161
 20
-151.2927462729407
 30
0.0
 10
95.82360837448161
 20
-151.2927462729407
 30
0.0
 10
95.8787299022456
 20
-151.4918727919882
 30
0.0
 10
96.00585392565132
 20
-151.5215006131613
 30
0.0
 10
96.09887150375306
 20
-151.5215006131613
 30
0.0
 10
96.23805336135716
 20
-151.5215006131613
 30
0.0
 10
96.39067109135372
 20
-151.4219373536376
 30
0.0
 10
96.39067109135372
 20
-151.1893934083832
 30
0.0
 10
96.39067109135372
 20
-150.9330783042806
 30
0.0
 10
96.21083710702368
 20
-150.8634873754786
 30
0.0
 10
96.09025876503993
 20
-150.8634873754786
 30
0.0
 10
96.05856388657564
 20
-150.8634873754786
 30
0.0
 10
95.91697046213187
 20
-150.8634873754786
 30
0.0
 10
95.82808699861242
 20
-150.9923339466269
 30
0.0
 10
95.82808699861242
 20
-150.9923339466269
 30
0.0
 10
95.65238712886469
 20
-150.9733859214581
 30
0.0
 10
95.65238712886469
 20
-150.9733859214581
 30
0.0
 10
95.65238712886469
 20
-150.9733859214581
 30
0.0
 10
95.77296547084843
 20
-150.1272704702807
 30
0.0
 10
95.77296547084843
 20
-150.1272704702807
 30
0.0
 10
95.77296547084843
 20
-150.1272704702807
 30
0.0
 10
96.55155705051489
 20
-150.1272704702807
 30
0.0
 10
96.55155705051489
 20
-150.1272704702807
 30
0.0
 10
96.55155705051489
 20
-150.1272704702807
 30
0.0
 10
96.55155705051489
 20
-150.3219183651973
 30
0.0
 10
96.55155705051489
 20
-150.3219183651973
 30
0.0
 10
96.55155705051489
 20
-150.3219183651973
 30
0.0
 10
95.93557397775223
 20
-150.3219183651973
 30
0.0
 10
95.93557397775223
 20
-150.3219183651973
 30
0.0
 10
95.93557397775223
 20
-150.3219183651973
 30
0.0
 10
95.87011716353247
 20
-150.744976090786
 30
0.0
 10
95.87011716353247
 20
-150.744976090786
 30
0.0
 10
95.93143986316993
 20
-150.7112141550305
 30
0.0
 10
96.01412215481592
 20
-150.6709065378531
 30
0.0
 10
96.13263343950851
 20
-150.6709065378531
 30
0.0
 10
96.3861924672229
 20
-150.6709065378531
 30
0.0
 10
96.62321503660809
 20
-150.8572862036051
 30
0.0
 10
96.62321503660809
 20
-151.1701008736658
 30
0.0
 10
96.62321503660809
 20
-151.4877386774058
 30
0.0
 10
96.39928383006685
 20
-151.7223496799513
 30
0.0
 10
96.09680444646192
 20
-151.7223496799513
 30
0.0
  0
HATCH
  5
60
330
5B
100
AcDbEntity
  8
_U+30EC_U+30A4_U+30E4_U+30FC 1
 62
     7
420
 16777215
100
AcDbHatch
 10
0.0
 20
0.0
 30
0.0
210
0.0
220
0.0
230
1.0
  2
SOLID
 70
     1
 71
     0
 91
        1
 92
        1
 93
        1
 72
     4
 94
        3
 73
     0
 74
     1
 95
       53
 96
       49
 40
0.0
 40
0.0
 40
0.0
 40
0.0
 40
1.0
 40
1.0
 40
1.0
 40
2.0
 40
2.0
 40
2.0
 40
3.0
 40
3.0
 40
3.0
 40
4.0
 40
4.0
 40
4.0
 40
5.0
 40
5.0
 40
5.0
 40
6.0
 40
6.0
 40
6.0
 40
7.0
 40
7.0
 40
7.0
 40
8.0
 40
8.0
 40
8.0
 40
9.0
 40
9.0
 40
9.0
 40
10.0
 40
10.0
 40
10.0
 40
11.0
 40
11.0
 40
11.0
 40
12.0
 40
12.0
 40
12.0
 40
13.0
 40
13.0
 40
13.0
 40
14.0
 40
14.0
 40
14.0
 40
15.0
 40
15.0
 40
15.0
 40
16.0
 40
16.0
 40
16.0
 40
16.0
 10
96.09680444646192
 20
-151.7223496799513
 10
96.01825626939822
 20
-151.7223496799513
 10
95.91697046213187
 20
-151.7054687120736
 10
95.81499563576848
 20
-151.6420789551451
 10
95.6417073328604
 20
-151.5318358996171
 10
95.62069225040038
 20
-151.4009222711776
 10
95.60139971568299
 20
-151.2927462729407
 10
95.60139971568299
 20
-151.2927462729407
 10
95.82360837448161
 20
-151.2927462729407
 10
95.82360837448161
 20
-151.2927462729407
 10
95.8787299022456
 20
-151.4918727919882
 10
96.00585392565132
 20
-151.5215006131613
 10
96.09887150375306
 20
-151.5215006131613
 10
96.23805336135716
 20
-151.5215006131613
 10
96.39067109135372
 20
-151.4219373536376
 10
96.39067109135372
 20
-151.1893934083832
 10
96.39067109135372
 20
-150.9330783042806
 10
96.21083710702368
 20
-150.8634873754786
 10
96.09025876503993
 20
-150.8634873754786
 10
96.05856388657564
 20
-150.8634873754786
 10
95.91697046213187
 20
-150.8634873754786
 10
95.82808699861242
 20
-150.9923339466269
 10
95.82808699861242
 20
-150.9923339466269
 10
95.65238712886469
 20
-150.9733859214581
 10
95.65238712886469
 20
-150.9733859214581
 10
95.65238712886469
 20
-150.9733859214581
 10
95.77296547084843
 20
-150.1272704702807
 10
95.77296547084843
 20
-150.1272704702807
 10
95.77296547084843
 20
-150.1272704702807
 10
96.55155705051489
 20
-150.1272704702807
 10
96.55155705051489
 20
-150.1272704702807
 10
96.55155705051489
 20
-150.1272704702807
 10
96.55155705051489
 20
-150.3219183651973
 10
96.55155705051489
 20
-150.3219183651973
 10
96.55155705051489
 20
-150.3219183651973
 10
95.93557397775223
 20
-150.3219183651973
 10
95.93557397775223
 20
-150.3219183651973
 10
95.93557397775223
 20
-150.3219183651973
 10
95.87011716353247
 20
-150.744976090786
 10
95.87011716353247
 20
-150.744976090786
 10
95.93143986316993
 20
-150.7112141550305
 10
96.01412215481592
 20
-150.6709065378531
 10
96.13263343950851
 20
-150.6709065378531
 10
96.3861924672229
 20
-150.6709065378531
 10
96.62321503660809
 20
-150.8572862036051
 10
96.62321503660809
 20
-151.1701008736658
 10
96.62321503660809
 20
-151.4877386774058
 10
96.39928383006685
 20
-151.7223496799513
 10
96.09680444646192
 20
-151.7223496799513
 97
        0
 97
        0
 75
     2
 76
     1
 98
        0
  0
ENDBLK
  5
5E
330
5B
100
AcDbEntity
  8
0
100
AcDbBlockEnd
  0
BLOCK
  5
77
330
75
100
AcDbEntity
  8
0
100
AcDbBlockBegin
  2
block 4
 70
     0
 10
0.0
 20
0.0
 30
0.0
  3
block 4
  1

  0
SPLINE
  5
79
330
75
100
AcDbEntity
  8
_U+30EC_U+30A4_U+30E4_U+30FC 1
370
     0
100
AcDbSpline
210
0.0
220
0.0
230
1.0
 70
    11
 71
     3
 72
    62
 73
    58
 74
     0
 42
0.0000000001
 43
0.0000000001
 12
1.0
 22
0.0
 32
0.0
 13
1.0
 23
0.0
 33
0.0
 40
0.0
 40
0.0
 40
0.0
 40
0.0
 40
1.0
 40
1.0
 40
1.0
 40
2.0
 40
2.0
 40
2.0
 40
3.0
 40
3.0
 40
3.0
 40
4.0
 40
4.0
 40
4.0
 40
5.0
 40
5.0
 40
5.0
 40
6.0
 40
6.0
 40
6.0
 40
7.0
 40
7.0
 40
7.0
 40
8.0
 40
8.0
 40
8.0
 40
9.0
 40
9.0
 40
9.0
 40
10.0
 40
10.0
 40
10.0
 40
11.0
 40
11.0
 40
11.0
 40
12.0
 40
12.0
 40
12.0
 40
13.0
 40
13.0
 40
13.0
 40
14.0
 40
14.0
 40
14.0
 40
15.0
 40
15.0
 40
15.0
 40
16.0
 40
16.0
 40
16.0
 40
17.0
 40
17.0
 40
17.0
 40
18.0
 40
18.0
 40
18.0
 40
19.0
 40
19.0
 40
19.0
 40
19.0
 10
63.90221488202792
 20
-133.1391601229652
 30
0.0
 10
63.90221488202792
 20
-133.2342447583581
 30
0.0
 10
63.88102754479363
 20
-133.4523193025744
 30
0.0
 10
63.69482013381588
 20
-133.5770317591405
 30
0.0
 10
63.582682275771
 20
-133.6511013120733
 30
0.0
 10
63.48329127102154
 20
-133.6552354266557
 30
0.0
 10
63.39871417685866
 20
-133.6593695412379
 30
0.0
 10
63.39871417685866
 20
-133.6593695412379
 30
0.0
 10
63.39871417685866
 20
-133.439572449279
 30
0.0
 10
63.39871417685866
 20
-133.439572449279
 30
0.0
 10
63.47278372979153
 20
-133.4375053919879
 30
0.0
 10
63.70756698711131
 20
-133.4268255959836
 30
0.0
 10
63.70756698711131
 20
-133.1432942375475
 30
0.0
 10
63.70756698711131
 20
-133.005834927686
 30
0.0
 10
63.63780380353499
 20
-132.853561707238
 30
0.0
 10
63.40922171808867
 20
-132.853561707238
 30
0.0
 10
63.29294974546148
 20
-132.853561707238
 30
0.0
 10
63.2442016443452
 20
-132.8918022671243
 30
0.0
 10
63.2125067658809
 20
-132.9234971455886
 30
0.0
 10
63.13843721294803
 20
-132.9972221889729
 30
0.0
 10
63.12586261442687
 20
-133.1136664163744
 30
0.0
 10
63.12586261442687
 20
-133.1687879441384
 30
0.0
 10
63.12586261442687
 20
-133.1877359693072
 30
0.0
 10
63.12792967171802
 20
-133.2239094719024
 30
0.0
 10
63.13206378630032
 20
-133.2514702357844
 30
0.0
 10
63.13206378630032
 20
-133.2514702357844
 30
0.0
 10
62.93741589138371
 20
-133.2514702357844
 30
0.0
 10
62.93741589138371
 20
-133.2514702357844
 30
0.0
 10
62.94378931803141
 20
-133.2132296758981
 30
0.0
 10
62.94602863009683
 20
-133.1708550014295
 30
0.0
 10
62.94602863009683
 20
-133.1646538295561
 30
0.0
 10
62.94602863009683
 20
-133.0991970153363
 30
0.0
 10
62.92484129286255
 20
-132.9000704962889
 30
0.0
 10
62.68781872347736
 20
-132.9000704962889
 30
0.0
 10
62.51022405121272
 20
-132.9000704962889
 30
0.0
 10
62.45510252344873
 20
-133.0313286342769
 30
0.0
 10
62.45510252344873
 20
-133.1412271802564
 30
0.0
 10
62.45510252344873
 20
-133.4058105135236
 30
0.0
 10
62.68781872347736
 20
-133.4140787426882
 30
0.0
 10
62.75982121911908
 20
-133.4182128572704
 30
0.0
 10
62.75982121911908
 20
-133.4182128572704
 30
0.0
 10
62.75982121911908
 20
-133.6214734909002
 30
0.0
 10
62.75982121911908
 20
-133.6214734909002
 30
0.0
 10
62.63493650777877
 20
-133.6132052617356
 30
0.0
 10
62.25838757124096
 20
-133.5856444978536
 30
0.0
 10
62.25838757124096
 20
-133.1288248365095
 30
0.0
 10
62.25838757124096
 20
-132.9042046108712
 30
0.0
 10
62.38533933987242
 20
-132.6630479269037
 30
0.0
 10
62.68144529682964
 20
-132.6630479269037
 30
0.0
 10
62.86765270780739
 20
-132.6630479269037
 30
0.0
 10
62.95016274467913
 20
-132.7581325622966
 30
0.0
 10
63.01148544431658
 20
-132.8580403313688
 30
0.0
 10
63.03904620819858
 20
-132.7963731221829
 30
0.0
 10
63.11948918777916
 20
-132.6144720805617
 30
0.0
 10
63.39664711956751
 20
-132.6144720805617
 30
0.0
 10
63.73512775099331
 20
-132.6144720805617
 30
0.0
 10
63.90221488202792
 20
-132.8621744459511
 30
0.0
 10
63.90221488202792
 20
-133.1391601229652
 30
0.0
  0
HATCH
  5
7A
330
75
100
AcDbEntity
  8
_U+30EC_U+30A4_U+30E4_U+30FC 1
 62
     7
420
 16777215
100
AcDbHatch
 10
0.0
 20
0.0
 30
0.0
210
0.0
220
0.0
230
1.0
  2
SOLID
 70
     1
 71
     0
 91
        1
 92
        1
 93
        1
 72
     4
 94
        3
 73
     0
 74
     1
 95
       62
 96
       58
 40
0.0
 40
0.0
 40
0.0
 40
0.0
 40
1.0
 40
1.0
 40
1.0
 40
2.0
 40
2.0
 40
2.0
 40
3.0
 40
3.0
 40
3.0
 40
4.0
 40
4.0
 40
4.0
 40
5.0
 40
5.0
 40
5.0
 40
6.0
 40
6.0
 40
6.0
 40
7.0
 40
7.0
 40
7.0
 40
8.0
 40
8.0
 40
8.0
 40
9.0
 40
9.0
 40
9.0
 40
10.0
 40
10.0
 40
10.0
 40
11.0
 40
11.0
 40
11.0
 40
12.0
 40
12.0
 40
12.0
 40
13.0
 40
13.0
 40
13.0
 40
14.0
 40
14.0
 40
14.0
 40
15.0
 40
15.0
 40
15.0
 40
16.0
 40
16.0
 40
16.0
 40
17.0
 40
17.0
 40
17.0
 40
18.0
 40
18.0
 40
18.0
 40
19.0
 40
19.0
 40
19.0
 40
19.0
 10
63.90221488202792
 20
-133.1391601229652
 10
63.90221488202792
 20
-133.2342447583581
 10
63.88102754479363
 20
-133.4523193025744
 10
63.69482013381588
 20
-133.5770317591405
 10
63.582682275771
 20
-133.6511013120733
 10
63.48329127102154
 20
-133.6552354266557
 10
63.39871417685866
 20
-133.6593695412379
 10
63.39871417685866
 20
-133.6593695412379
 10
63.39871417685866
 20
-133.439572449279
 10
63.39871417685866
 20
-133.439572449279
 10
63.47278372979153
 20
-133.4375053919879
 10
63.70756698711131
 20
-133.4268255959836
 10
63.70756698711131
 20
-133.1432942375475
 10
63.70756698711131
 20
-133.005834927686
 10
63.63780380353499
 20
-132.853561707238
 10
63.40922171808867
 20
-132.853561707238
 10
63.29294974546148
 20
-132.853561707238
 10
63.2442016443452
 20
-132.8918022671243
 10
63.2125067658809
 20
-132.9234971455886
 10
63.13843721294803
 20
-132.9972221889729
 10
63.12586261442687
 20
-133.1136664163744
 10
63.12586261442687
 20
-133.1687879441384
 10
63.12586261442687
 20
-133.1877359693072
 10
63.12792967171802
 20
-133.2239094719024
 10
63.13206378630032
 20
-133.2514702357844
 10
63.13206378630032
 20
-133.2514702357844
 10
62.93741589138371
 20
-133.2514702357844
 10
62.93741589138371
 20
-133.2514702357844
 10
62.94378931803141
 20
-133.2132296758981
 10
62.94602863009683
 20
-133.1708550014295
 10
62.94602863009683
 20
-133.1646538295561
 10
62.94602863009683
 20
-133.0991970153363
 10
62.92484129286255
 20
-132.9000704962889
 10
62.68781872347736
 20
-132.9000704962889
 10
62.51022405121272
 20
-132.9000704962889
 10
62.45510252344873
 20
-133.0313286342769
 10
62.45510252344873
 20
-133.1412271802564
 10
62.45510252344873
 20
-133.4058105135236
 10
62.68781872347736
 20
-133.4140787426882
 10
62.75982121911908
 20
-133.4182128572704
 10
62.75982121911908
 20
-133.4182128572704
 10
62.75982121911908
 20
-133.6214734909002
 10
62.75982121911908
 20
-133.6214734909002
 10
62.63493650777877
 20
-133.6132052617356
 10
62.25838757124096
 20
-133.5856444978536
 10
62.25838757124096
 20
-133.1288248365095
 10
62.25838757124096
 20
-132.9042046108712
 10
62.38533933987242
 20
-132.6630479269037
 10
62.68144529682964
 20
-132.6630479269037
 10
62.86765270780739
 20
-132.6630479269037
 10
62.95016274467913
 20
-132.7581325622966
 10
63.01148544431658
 20
-132.8580403313688
 10
63.03904620819858
 20
-132.7963731221829
 10
63.11948918777916
 20
-132.6144720805617
 10
63.39664711956751
 20
-132.6144720805617
 10
63.73512775099331
 20
-132.6144720805617
 10
63.90221488202792
 20
-132.8621744459511
 10
63.90221488202792
 20
-133.1391601229652
 97
        0
 97
        0
 75
     2
 76
     1
 98
        0
  0
SPLINE
  5
7B
330
75
100
AcDbEntity
  8
_U+30EC_U+30A4_U+30E4_U+30FC 1
370
     0
100
AcDbSpline
210
0.0
220
0.0
230
1.0
 70
    11
 71
     3
 72
    29
 73
    25
 74
     0
 42
0.0000000001
 43
0.0000000001
 12
1.0
 22
0.0
 32
0.0
 13
1.0
 23
0.0
 33
0.0
 40
0.0
 40
0.0
 40
0.0
 40
0.0
 40
1.0
 40
1.0
 40
1.0
 40
2.0
 40
2.0
 40
2.0
 40
3.0
 40
3.0
 40
3.0
 40
4.0
 40
4.0
 40
4.0
 40
5.0
 40
5.0
 40
5.0
 40
6.0
 40
6.0
 40
6.0
 40
7.0
 40
7.0
 40
7.0
 40
8.0
 40
8.0
 40
8.0
 40
8.0
 10
63.67363279658159
 20
-131.5561387474929
 30
0.0
 10
63.88309460208478
 20
-131.6639702361812
 30
0.0
 10
63.90221488202792
 20
-131.8376030486378
 30
0.0
 10
63.90221488202792
 20
-131.9540472760393
 30
0.0
 10
63.90221488202792
 20
-132.1145887256519
 30
0.0
 10
63.85570609297705
 20
-132.2565266596442
 30
0.0
 10
63.67363279658159
 20
-132.3516112950371
 30
0.0
 10
63.47898490166498
 20
-132.4549641595946
 30
0.0
 10
63.24213458705405
 20
-132.474256694312
 30
0.0
 10
63.07918157060173
 20
-132.474256694312
 30
0.0
 10
62.93534883409256
 20
-132.474256694312
 30
0.0
 10
62.68368460889506
 20
-132.4573757264343
 30
0.0
 10
62.48473034462187
 20
-132.3516112950371
 30
0.0
 10
62.2816419657664
 20
-132.2434352968003
 30
0.0
 10
62.25838757124096
 20
-132.0828938471876
 30
0.0
 10
62.25838757124096
 20
-131.9540472760393
 30
0.0
 10
62.25838757124096
 20
-131.7952283741693
 30
0.0
 10
62.30282930300069
 20
-131.6515678924343
 30
0.0
 10
62.48473034462187
 20
-131.5561387474929
 30
0.0
 10
62.67731118224734
 20
-131.4565754879692
 30
0.0
 10
62.90572101291941
 20
-131.433493348218
 30
0.0
 10
63.07918157060173
 20
-131.433493348218
 30
0.0
 10
63.25057507099292
 20
-131.433493348218
 30
0.0
 10
63.48122421373039
 20
-131.454508430678
 30
0.0
 10
63.67363279658159
 20
-131.5561387474929
 30
0.0
  0
SPLINE
  5
7C
330
75
100
AcDbEntity
  8
_U+30EC_U+30A4_U+30E4_U+30FC 1
370
     0
100
AcDbSpline
210
0.0
220
0.0
230
1.0
 70
    11
 71
     3
 72
    17
 73
    13
 74
     0
 42
0.0000000001
 43
0.0000000001
 12
1.0
 22
0.0
 32
0.0
 13
1.0
 23
0.0
 33
0.0
 40
0.0
 40
0.0
 40
0.0
 40
0.0
 40
1.0
 40
1.0
 40
1.0
 40
2.0
 40
2.0
 40
2.0
 40
3.0
 40
3.0
 40
3.0
 40
4.0
 40
4.0
 40
4.0
 40
4.0
 10
62.45096840886643
 20
-131.9540472760393
 30
0.0
 10
62.45096840886643
 20
-132.2034721891714
 30
0.0
 10
62.73449976730249
 20
-132.2499809782222
 30
0.0
 10
63.07918157060173
 20
-132.2499809782222
 30
0.0
 10
63.39871417685866
 20
-132.2499809782222
 30
0.0
 10
63.70756698711131
 20
-132.2138074756271
 30
0.0
 10
63.70756698711131
 20
-131.9540472760393
 30
0.0
 10
63.70756698711131
 20
-131.7063449106498
 30
0.0
 10
63.42610268596639
 20
-131.6577690643078
 30
0.0
 10
63.07918157060173
 20
-131.6577690643078
 30
0.0
 10
62.75982121911908
 20
-131.6577690643078
 30
0.0
 10
62.45096840886643
 20
-131.6956651146455
 30
0.0
 10
62.45096840886643
 20
-131.9540472760393
 30
0.0
  0
HATCH
  5
7D
330
75
100
AcDbEntity
  8
_U+30EC_U+30A4_U+30E4_U+30FC 1
 62
     7
420
 16777215
100
AcDbHatch
 10
0.0
 20
0.0
 30
0.0
210
0.0
220
0.0
230
1.0
  2
SOLID
 70
     1
 71
     0
 91
        2
 92
        1
 93
        1
 72
     4
 94
        3
 73
     0
 74
     1
 95
       29
 96
       25
 40
0.0
 40
0.0
 40
0.0
 40
0.0
 40
1.0
 40
1.0
 40
1.0
 40
2.0
 40
2.0
 40
2.0
 40
3.0
 40
3.0
 40
3.0
 40
4.0
 40
4.0
 40
4.0
 40
5.0
 40
5.0
 40
5.0
 40
6.0
 40
6.0
 40
6.0
 40
7.0
 40
7.0
 40
7.0
 40
8.0
 40
8.0
 40
8.0
 40
8.0
 10
63.67363279658159
 20
-131.5561387474929
 10
63.88309460208478
 20
-131.6639702361812
 10
63.90221488202792
 20
-131.8376030486378
 10
63.90221488202792
 20
-131.9540472760393
 10
63.90221488202792
 20
-132.1145887256519
 10
63.85570609297705
 20
-132.2565266596442
 10
63.67363279658159
 20
-132.3516112950371
 10
63.47898490166498
 20
-132.4549641595946
 10
63.24213458705405
 20
-132.474256694312
 10
63.07918157060173
 20
-132.474256694312
 10
62.93534883409256
 20
-132.474256694312
 10
62.68368460889506
 20
-132.4573757264343
 10
62.48473034462187
 20
-132.3516112950371
 10
62.2816419657664
 20
-132.2434352968003
 10
62.25838757124096
 20
-132.0828938471876
 10
62.25838757124096
 20
-131.9540472760393
 10
62.25838757124096
 20
-131.7952283741693
 10
62.30282930300069
 20
-131.6515678924343
 10
62.48473034462187
 20
-131.5561387474929
 10
62.67731118224734
 20
-131.4565754879692
 10
62.90572101291941
 20
-131.433493348218
 10
63.07918157060173
 20
-131.433493348218
 10
63.25057507099292
 20
-131.433493348218
 10
63.48122421373039
 20
-131.454508430678
 10
63.67363279658159
 20
-131.5561387474929
 97
        0
 97
        0
 92
        1
 93
        1
 72
     4
 94
        3
 73
     0
 74
     1
 95
       17
 96
       13
 40
0.0
 40
0.0
 40
0.0
 40
0.0
 40
1.0
 40
1.0
 40
1.0
 40
2.0
 40
2.0
 40
2.0
 40
3.0
 40
3.0
 40
3.0
 40
4.0
 40
4.0
 40
4.0
 40
4.0
 10
62.45096840886643
 20
-131.9540472760393
 10
62.45096840886643
 20
-132.2034721891714
 10
62.73449976730249
 20
-132.2499809782222
 10
63.07918157060173
 20
-132.2499809782222
 10
63.39871417685866
 20
-132.2499809782222
 10
63.70756698711131
 20
-132.2138074756271
 10
63.70756698711131
 20
-131.9540472760393
 10
63.70756698711131
 20
-131.7063449106498
 10
63.42610268596639
 20
-131.6577690643078
 10
63.07918157060173
 20
-131.6577690643078
 10
62.75982121911908
 20
-131.6577690643078
 10
62.45096840886643
 20
-131.6956651146455
 10
62.45096840886643
 20
-131.9540472760393
 97
        0
 97
        0
 75
     2
 76
     1
 98
        0
  0
ENDBLK
  5
78
330
75
100
AcDbEntity
  8
0
100
AcDbBlockEnd
  0
BLOCK
  5
80
330
7E
100
AcDbEntity
  8
0
100
AcDbBlockBegin
  2
block 5
 70
     0
 10
0.0
 20
0.0
 30
0.0
  3
block 5
  1

  0
SPLINE
  5
82
330
7E
100
AcDbEntity
  8
_U+30EC_U+30A4_U+30E4_U+30FC 1
370
     0
100
AcDbSpline
210
0.0
220
0.0
230
1.0
 70
    11
 71
     3
 72
    26
 73
    22
 74
     0
 42
0.0000000001
 43
0.0000000001
 12
1.0
 22
0.0
 32
0.0
 13
1.0
 23
0.0
 33
0.0
 40
0.0
 40
0.0
 40
0.0
 40
0.0
 40
1.0
 40
1.0
 40
1.0
 40
2.0
 40
2.0
 40
2.0
 40
3.0
 40
3.0
 40
3.0
 40
4.0
 40
4.0
 40
4.0
 40
5.0
 40
5.0
 40
5.0
 40
6.0
 40
6.0
 40
6.0
 40
7.0
 40
7.0
 40
7.0
 40
7.0
 10
63.85139972362049
 20
-110.679549125976
 30
0.0
 10
63.85139972362049
 20
-110.679549125976
 30
0.0
 10
62.74707436582365
 20
-110.679549125976
 30
0.0
 10
62.74707436582365
 20
-110.679549125976
 30
0.0
 10
62.74707436582365
 20
-110.679549125976
 30
0.0
 10
62.74707436582365
 20
-111.0095892734629
 30
0.0
 10
62.74707436582365
 20
-111.0095892734629
 30
0.0
 10
62.74707436582365
 20
-111.0095892734629
 30
0.0
 10
62.59910751473217
 20
-111.0095892734629
 30
0.0
 10
62.59910751473217
 20
-111.0095892734629
 30
0.0
 10
62.58429360414559
 20
-110.6774820686848
 30
0.0
 10
62.42134058769328
 20
-110.6309732796339
 30
0.0
 10
62.30713567235725
 20
-110.6013454584608
 30
0.0
 10
62.30713567235725
 20
-110.6013454584608
 30
0.0
 10
62.30713567235725
 20
-110.4552734098862
 30
0.0
 10
62.30713567235725
 20
-110.4552734098862
 30
0.0
 10
62.30713567235725
 20
-110.4552734098862
 30
0.0
 10
63.85139972362049
 20
-110.4552734098862
 30
0.0
 10
63.85139972362049
 20
-110.4552734098862
 30
0.0
 10
63.85139972362049
 20
-110.4552734098862
 30
0.0
 10
63.85139972362049
 20
-110.679549125976
 30
0.0
 10
63.85139972362049
 20
-110.679549125976
 30
0.0
  0
HATCH
  5
83
330
7E
100
AcDbEntity
  8
_U+30EC_U+30A4_U+30E4_U+30FC 1
 62
     7
420
 16777215
100
AcDbHatch
 10
0.0
 20
0.0
 30
0.0
210
0.0
220
0.0
230
1.0
  2
SOLID
 70
     1
 71
     0
 91
        1
 92
        1
 93
        1
 72
     4
 94
        3
 73
     0
 74
     1
 95
       26
 96
       22
 40
0.0
 40
0.0
 40
0.0
 40
0.0
 40
1.0
 40
1.0
 40
1.0
 40
2.0
 40
2.0
 40
2.0
 40
3.0
 40
3.0
 40
3.0
 40
4.0
 40
4.0
 40
4.0
 40
5.0
 40
5.0
 40
5.0
 40
6.0
 40
6.0
 40
6.0
 40
7.0
 40
7.0
 40
7.0
 40
7.0
 10
63.85139972362049
 20
-110.679549125976
 10
63.85139972362049
 20
-110.679549125976
 10
62.74707436582365
 20
-110.679549125976
 10
62.74707436582365
 20
-110.679549125976
 10
62.74707436582365
 20
-110.679549125976
 10
62.74707436582365
 20
-111.0095892734629
 10
62.74707436582365
 20
-111.0095892734629
 10
62.74707436582365
 20
-111.0095892734629
 10
62.59910751473217
 20
-111.0095892734629
 10
62.59910751473217
 20
-111.0095892734629
 10
62.58429360414559
 20
-110.6774820686848
 10
62.42134058769328
 20
-110.6309732796339
 10
62.30713567235725
 20
-110.6013454584608
 10
62.30713567235725
 20
-110.6013454584608
 10
62.30713567235725
 20
-110.4552734098862
 10
62.30713567235725
 20
-110.4552734098862
 10
62.30713567235725
 20
-110.4552734098862
 10
63.85139972362049
 20
-110.4552734098862
 10
63.85139972362049
 20
-110.4552734098862
 10
63.85139972362049
 20
-110.4552734098862
 10
63.85139972362049
 20
-110.679549125976
 10
63.85139972362049
 20
-110.679549125976
 97
        0
 97
        0
 75
     2
 76
     1
 98
        0
  0
SPLINE
  5
84
330
7E
100
AcDbEntity
  8
_U+30EC_U+30A4_U+30E4_U+30FC 1
370
     0
100
AcDbSpline
210
0.0
220
0.0
230
1.0
 70
    11
 71
     3
 72
    53
 73
    49
 74
     0
 42
0.0000000001
 43
0.0000000001
 12
1.0
 22
0.0
 32
0.0
 13
1.0
 23
0.0
 33
0.0
 40
0.0
 40
0.0
 40
0.0
 40
0.0
 40
1.0
 40
1.0
 40
1.0
 40
2.0
 40
2.0
 40
2.0
 40
3.0
 40
3.0
 40
3.0
 40
4.0
 40
4.0
 40
4.0
 40
5.0
 40
5.0
 40
5.0
 40
6.0
 40
6.0
 40
6.0
 40
7.0
 40
7.0
 40
7.0
 40
8.0
 40
8.0
 40
8.0
 40
9.0
 40
9.0
 40
9.0
 40
10.0
 40
10.0
 40
10.0
 40
11.0
 40
11.0
 40
11.0
 40
12.0
 40
12.0
 40
12.0
 40
13.0
 40
13.0
 40
13.0
 40
14.0
 40
14.0
 40
14.0
 40
15.0
 40
15.0
 40
15.0
 40
16.0
 40
16.0
 40
16.0
 40
16.0
 10
63.90221488202792
 20
-109.4730766870415
 30
0.0
 10
63.90221488202792
 20
-109.5514526093309
 30
0.0
 10
63.88516165937593
 20
-109.6529106713715
 30
0.0
 10
63.82177190244734
 20
-109.7545409881864
 30
0.0
 10
63.71170110169361
 20
-109.9280015458687
 30
0.0
 10
63.58061521847985
 20
-109.949188883103
 30
0.0
 10
63.47278372979153
 20
-109.9681369082719
 30
0.0
 10
63.47278372979153
 20
-109.9681369082719
 30
0.0
 10
63.47278372979153
 20
-109.7461005042475
 30
0.0
 10
63.47278372979153
 20
-109.7461005042475
 30
0.0
 10
63.67156573929044
 20
-109.6909789764835
 30
0.0
 10
63.70119356046359
 20
-109.564027207852
 30
0.0
 10
63.70119356046359
 20
-109.4710096297503
 30
0.0
 10
63.70119356046359
 20
-109.3313110078234
 30
0.0
 10
63.60180255571414
 20
-109.1790377873754
 30
0.0
 10
63.36908635568551
 20
-109.1790377873754
 30
0.0
 10
63.11311576113145
 20
-109.1790377873754
 30
0.0
 10
63.04335257755514
 20
-109.3588717717054
 30
0.0
 10
63.04335257755514
 20
-109.4794501136892
 30
0.0
 10
63.04335257755514
 20
-109.5111449921535
 30
0.0
 10
63.04335257755514
 20
-109.6529106713715
 30
0.0
 10
63.17237140347774
 20
-109.741794134891
 30
0.0
 10
63.17237140347774
 20
-109.741794134891
 30
0.0
 10
63.15325112353461
 20
-109.9173217498644
 30
0.0
 10
63.15325112353461
 20
-109.9173217498644
 30
0.0
 10
63.15325112353461
 20
-109.9173217498644
 30
0.0
 10
62.30713567235725
 20
-109.7967434078807
 30
0.0
 10
62.30713567235725
 20
-109.7967434078807
 30
0.0
 10
62.30713567235725
 20
-109.7967434078807
 30
0.0
 10
62.30713567235725
 20
-109.0183240829885
 30
0.0
 10
62.30713567235725
 20
-109.0183240829885
 30
0.0
 10
62.30713567235725
 20
-109.0183240829885
 30
0.0
 10
62.50178356727386
 20
-109.0183240829885
 30
0.0
 10
62.50178356727386
 20
-109.0183240829885
 30
0.0
 10
62.50178356727386
 20
-109.0183240829885
 30
0.0
 10
62.50178356727386
 20
-109.6339626462026
 30
0.0
 10
62.50178356727386
 20
-109.6339626462026
 30
0.0
 10
62.50178356727386
 20
-109.6339626462026
 30
0.0
 10
62.92484129286255
 20
-109.6994194604224
 30
0.0
 10
62.92484129286255
 20
-109.6994194604224
 30
0.0
 10
62.89090710233283
 20
-109.6380967607849
 30
0.0
 10
62.85077173992967
 20
-109.5555867239132
 30
0.0
 10
62.85077173992967
 20
-109.4372476939949
 30
0.0
 10
62.85077173992967
 20
-109.1833441567319
 30
0.0
 10
63.03697915090743
 20
-108.9463215873468
 30
0.0
 10
63.34996607574237
 20
-108.9463215873468
 30
0.0
 10
63.66743162470814
 20
-108.9463215873468
 30
0.0
 10
63.90221488202792
 20
-109.1705973034365
 30
0.0
 10
63.90221488202792
 20
-109.4730766870415
 30
0.0
  0
HATCH
  5
85
330
7E
100
AcDbEntity
  8
_U+30EC_U+30A4_U+30E4_U+30FC 1
 62
     7
420
 16777215
100
AcDbHatch
 10
0.0
 20
0.0
 30
0.0
210
0.0
220
0.0
230
1.0
  2
SOLID
 70
     1
 71
     0
 91
        1
 92
        1
 93
        1
 72
     4
 94
        3
 73
     0
 74
     1
 95
       53
 96
       49
 40
0.0
 40
0.0
 40
0.0
 40
0.0
 40
1.0
 40
1.0
 40
1.0
 40
2.0
 40
2.0
 40
2.0
 40
3.0
 40
3.0
 40
3.0
 40
4.0
 40
4.0
 40
4.0
 40
5.0
 40
5.0
 40
5.0
 40
6.0
 40
6.0
 40
6.0
 40
7.0
 40
7.0
 40
7.0
 40
8.0
 40
8.0
 40
8.0
 40
9.0
 40
9.0
 40
9.0
 40
10.0
 40
10.0
 40
10.0
 40
11.0
 40
11.0
 40
11.0
 40
12.0
 40
12.0
 40
12.0
 40
13.0
 40
13.0
 40
13.0
 40
14.0
 40
14.0
 40
14.0
 40
15.0
 40
15.0
 40
15.0
 40
16.0
 40
16.0
 40
16.0
 40
16.0
 10
63.90221488202792
 20
-109.4730766870415
 10
63.90221488202792
 20
-109.5514526093309
 10
63.88516165937593
 20
-109.6529106713715
 10
63.82177190244734
 20
-109.7545409881864
 10
63.71170110169361
 20
-109.9280015458687
 10
63.58061521847985
 20
-109.949188883103
 10
63.47278372979153
 20
-109.9681369082719
 10
63.47278372979153
 20
-109.9681369082719
 10
63.47278372979153
 20
-109.7461005042475
 10
63.47278372979153
 20
-109.7461005042475
 10
63.67156573929044
 20
-109.6909789764835
 10
63.70119356046359
 20
-109.564027207852
 10
63.70119356046359
 20
-109.4710096297503
 10
63.70119356046359
 20
-109.3313110078234
 10
63.60180255571414
 20
-109.1790377873754
 10
63.36908635568551
 20
-109.1790377873754
 10
63.11311576113145
 20
-109.1790377873754
 10
63.04335257755514
 20
-109.3588717717054
 10
63.04335257755514
 20
-109.4794501136892
 10
63.04335257755514
 20
-109.5111449921535
 10
63.04335257755514
 20
-109.6529106713715
 10
63.17237140347774
 20
-109.741794134891
 10
63.17237140347774
 20
-109.741794134891
 10
63.15325112353461
 20
-109.9173217498644
 10
63.15325112353461
 20
-109.9173217498644
 10
63.15325112353461
 20
-109.9173217498644
 10
62.30713567235725
 20
-109.7967434078807
 10
62.30713567235725
 20
-109.7967434078807
 10
62.30713567235725
 20
-109.7967434078807
 10
62.30713567235725
 20
-109.0183240829885
 10
62.30713567235725
 20
-109.0183240829885
 10
62.30713567235725
 20
-109.0183240829885
 10
62.50178356727386
 20
-109.0183240829885
 10
62.50178356727386
 20
-109.0183240829885
 10
62.50178356727386
 20
-109.0183240829885
 10
62.50178356727386
 20
-109.6339626462026
 10
62.50178356727386
 20
-109.6339626462026
 10
62.50178356727386
 20
-109.6339626462026
 10
62.92484129286255
 20
-109.6994194604224
 10
62.92484129286255
 20
-109.6994194604224
 10
62.89090710233283
 20
-109.6380967607849
 10
62.85077173992967
 20
-109.5555867239132
 10
62.85077173992967
 20
-109.4372476939949
 10
62.85077173992967
 20
-109.1833441567319
 10
63.03697915090743
 20
-108.9463215873468
 10
63.34996607574237
 20
-108.9463215873468
 10
63.66743162470814
 20
-108.9463215873468
 10
63.90221488202792
 20
-109.1705973034365
 10
63.90221488202792
 20
-109.4730766870415
 97
        0
 97
        0
 75
     2
 76
     1
 98
        0
  0
ENDBLK
  5
81
330
7E
100
AcDbEntity
  8
0
100
AcDbBlockEnd
  0
BLOCK
  5
9C
330
9A
100
AcDbEntity
  8
0
100
AcDbBlockBegin
  2
block 6
 70
     0
 10
0.0
 20
0.0
 30
0.0
  3
block 6
  1

  0
SPLINE
  5
9E
330
9A
100
AcDbEntity
  8
_U+30EC_U+30A4_U+30E4_U+30FC 1
370
     0
100
AcDbSpline
210
0.0
220
0.0
230
1.0
 70
    11
 71
     3
 72
    26
 73
    22
 74
     0
 42
0.0000000001
 43
0.0000000001
 12
1.0
 22
0.0
 32
0.0
 13
1.0
 23
0.0
 33
0.0
 40
0.0
 40
0.0
 40
0.0
 40
0.0
 40
1.0
 40
1.0
 40
1.0
 40
2.0
 40
2.0
 40
2.0
 40
3.0
 40
3.0
 40
3.0
 40
4.0
 40
4.0
 40
4.0
 40
5.0
 40
5.0
 40
5.0
 40
6.0
 40
6.0
 40
6.0
 40
7.0
 40
7.0
 40
7.0
 40
7.0
 10
117.0898382953803
 20
-141.2916340792604
 30
0.0
 10
117.0898382953803
 20
-141.2916340792604
 30
0.0
 10
115.9853406828092
 20
-141.2916340792604
 30
0.0
 10
115.9853406828092
 20
-141.2916340792604
 30
0.0
 10
115.9853406828092
 20
-141.2916340792604
 30
0.0
 10
115.9853406828092
 20
-141.6216742267474
 30
0.0
 10
115.9853406828092
 20
-141.6216742267474
 30
0.0
 10
115.9853406828092
 20
-141.6216742267474
 30
0.0
 10
115.8372015769435
 20
-141.6216742267474
 30
0.0
 10
115.8372015769435
 20
-141.6216742267474
 30
0.0
 10
115.8227321759054
 20
-141.2895670219693
 30
0.0
 10
115.6597791594531
 20
-141.2434027424669
 30
0.0
 10
115.5457464988913
 20
-141.2137749212938
 30
0.0
 10
115.5457464988913
 20
-141.2137749212938
 30
0.0
 10
115.5457464988913
 20
-141.0677028727192
 30
0.0
 10
115.5457464988913
 20
-141.0677028727192
 30
0.0
 10
115.5457464988913
 20
-141.0677028727192
 30
0.0
 10
117.0898382953803
 20
-141.0677028727192
 30
0.0
 10
117.0898382953803
 20
-141.0677028727192
 30
0.0
 10
117.0898382953803
 20
-141.0677028727192
 30
0.0
 10
117.0898382953803
 20
-141.2916340792604
 30
0.0
 10
117.0898382953803
 20
-141.2916340792604
 30
0.0
  0
HATCH
  5
9F
330
9A
100
AcDbEntity
  8
_U+30EC_U+30A4_U+30E4_U+30FC 1
 62
     7
420
 16777215
100
AcDbHatch
 10
0.0
 20
0.0
 30
0.0
210
0.0
220
0.0
230
1.0
  2
SOLID
 70
     1
 71
     0
 91
        1
 92
        1
 93
        1
 72
     4
 94
        3
 73
     0
 74
     1
 95
       26
 96
       22
 40
0.0
 40
0.0
 40
0.0
 40
0.0
 40
1.0
 40
1.0
 40
1.0
 40
2.0
 40
2.0
 40
2.0
 40
3.0
 40
3.0
 40
3.0
 40
4.0
 40
4.0
 40
4.0
 40
5.0
 40
5.0
 40
5.0
 40
6.0
 40
6.0
 40
6.0
 40
7.0
 40
7.0
 40
7.0
 40
7.0
 10
117.0898382953803
 20
-141.2916340792604
 10
117.0898382953803
 20
-141.2916340792604
 10
115.9853406828092
 20
-141.2916340792604
 10
115.9853406828092
 20
-141.2916340792604
 10
115.9853406828092
 20
-141.2916340792604
 10
115.9853406828092
 20
-141.6216742267474
 10
115.9853406828092
 20
-141.6216742267474
 10
115.9853406828092
 20
-141.6216742267474
 10
115.8372015769435
 20
-141.6216742267474
 10
115.8372015769435
 20
-141.6216742267474
 10
115.8227321759054
 20
-141.2895670219693
 10
115.6597791594531
 20
-141.2434027424669
 10
115.5457464988913
 20
-141.2137749212938
 10
115.5457464988913
 20
-141.2137749212938
 10
115.5457464988913
 20
-141.0677028727192
 10
115.5457464988913
 20
-141.0677028727192
 10
115.5457464988913
 20
-141.0677028727192
 10
117.0898382953803
 20
-141.0677028727192
 10
117.0898382953803
 20
-141.0677028727192
 10
117.0898382953803
 20
-141.0677028727192
 10
117.0898382953803
 20
-141.2916340792604
 10
117.0898382953803
 20
-141.2916340792604
 97
        0
 97
        0
 75
     2
 76
     1
 98
        0
  0
SPLINE
  5
A0
330
9A
100
AcDbEntity
  8
_U+30EC_U+30A4_U+30E4_U+30FC 1
370
     0
100
AcDbSpline
210
0.0
220
0.0
230
1.0
 70
    11
 71
     3
 72
    53
 73
    49
 74
     0
 42
0.0000000001
 43
0.0000000001
 12
1.0
 22
0.0
 32
0.0
 13
1.0
 23
0.0
 33
0.0
 40
0.0
 40
0.0
 40
0.0
 40
0.0
 40
1.0
 40
1.0
 40
1.0
 40
2.0
 40
2.0
 40
2.0
 40
3.0
 40
3.0
 40
3.0
 40
4.0
 40
4.0
 40
4.0
 40
5.0
 40
5.0
 40
5.0
 40
6.0
 40
6.0
 40
6.0
 40
7.0
 40
7.0
 40
7.0
 40
8.0
 40
8.0
 40
8.0
 40
9.0
 40
9.0
 40
9.0
 40
10.0
 40
10.0
 40
10.0
 40
11.0
 40
11.0
 40
11.0
 40
12.0
 40
12.0
 40
12.0
 40
13.0
 40
13.0
 40
13.0
 40
14.0
 40
14.0
 40
14.0
 40
15.0
 40
15.0
 40
15.0
 40
16.0
 40
16.0
 40
16.0
 40
16.0
 10
117.140825708562
 20
-140.0851616403259
 30
0.0
 10
117.140825708562
 20
-140.1637098173896
 30
0.0
 10
117.1236002311358
 20
-140.264995624656
 30
0.0
 10
117.0602104742072
 20
-140.3669704510194
 30
0.0
 10
116.9499674186792
 20
-140.5402587539274
 30
0.0
 10
116.8190537902397
 20
-140.5612738363875
 30
0.0
 10
116.7112223015514
 20
-140.5805663711049
 30
0.0
 10
116.7112223015514
 20
-140.5805663711049
 30
0.0
 10
116.7112223015514
 20
-140.3583577123063
 30
0.0
 10
116.7112223015514
 20
-140.3583577123063
 30
0.0
 10
116.9100043110503
 20
-140.3032361845422
 30
0.0
 10
116.9396321322234
 20
-140.1761121611365
 30
0.0
 10
116.9396321322234
 20
-140.0830945830348
 30
0.0
 10
116.9396321322234
 20
-139.9439127254307
 30
0.0
 10
116.8404133822482
 20
-139.7912949954341
 30
0.0
 10
116.6075249274453
 20
-139.7912949954341
 30
0.0
 10
116.3515543328913
 20
-139.7912949954341
 30
0.0
 10
116.2816188945407
 20
-139.9711289797642
 30
0.0
 10
116.2816188945407
 20
-140.0917073217479
 30
0.0
 10
116.2816188945407
 20
-140.1234022002122
 30
0.0
 10
116.2816188945407
 20
-140.264995624656
 30
0.0
 10
116.4108099752376
 20
-140.3538790881754
 30
0.0
 10
116.4108099752376
 20
-140.3538790881754
 30
0.0
 10
116.3918619500687
 20
-140.5295789579232
 30
0.0
 10
116.3918619500687
 20
-140.5295789579232
 30
0.0
 10
116.3918619500687
 20
-140.5295789579232
 30
0.0
 10
115.5457464988913
 20
-140.4090006159394
 30
0.0
 10
115.5457464988913
 20
-140.4090006159394
 30
0.0
 10
115.5457464988913
 20
-140.4090006159394
 30
0.0
 10
115.5457464988913
 20
-139.630409036273
 30
0.0
 10
115.5457464988913
 20
-139.630409036273
 30
0.0
 10
115.5457464988913
 20
-139.630409036273
 30
0.0
 10
115.7400498842594
 20
-139.630409036273
 30
0.0
 10
115.7400498842594
 20
-139.630409036273
 30
0.0
 10
115.7400498842594
 20
-139.630409036273
 30
0.0
 10
115.7400498842594
 20
-140.2463921090356
 30
0.0
 10
115.7400498842594
 20
-140.2463921090356
 30
0.0
 10
115.7400498842594
 20
-140.2463921090356
 30
0.0
 10
116.1631076098481
 20
-140.3118489232554
 30
0.0
 10
116.1631076098481
 20
-140.3118489232554
 30
0.0
 10
116.1293456740927
 20
-140.2505262236179
 30
0.0
 10
116.0893825664638
 20
-140.1678439319719
 30
0.0
 10
116.0893825664638
 20
-140.0493326472793
 30
0.0
 10
116.0893825664638
 20
-139.795773619565
 30
0.0
 10
116.2754177226673
 20
-139.5587510501798
 30
0.0
 10
116.5882323927279
 20
-139.5587510501798
 30
0.0
 10
116.905870196468
 20
-139.5587510501798
 30
0.0
 10
117.140825708562
 20
-139.782682256721
 30
0.0
 10
117.140825708562
 20
-140.0851616403259
 30
0.0
  0
HATCH
  5
A1
330
9A
100
AcDbEntity
  8
_U+30EC_U+30A4_U+30E4_U+30FC 1
 62
     7
420
 16777215
100
AcDbHatch
 10
0.0
 20
0.0
 30
0.0
210
0.0
220
0.0
230
1.0
  2
SOLID
 70
     1
 71
     0
 91
        1
 92
        1
 93
        1
 72
     4
 94
        3
 73
     0
 74
     1
 95
       53
 96
       49
 40
0.0
 40
0.0
 40
0.0
 40
0.0
 40
1.0
 40
1.0
 40
1.0
 40
2.0
 40
2.0
 40
2.0
 40
3.0
 40
3.0
 40
3.0
 40
4.0
 40
4.0
 40
4.0
 40
5.0
 40
5.0
 40
5.0
 40
6.0
 40
6.0
 40
6.0
 40
7.0
 40
7.0
 40
7.0
 40
8.0
 40
8.0
 40
8.0
 40
9.0
 40
9.0
 40
9.0
 40
10.0
 40
10.0
 40
10.0
 40
11.0
 40
11.0
 40
11.0
 40
12.0
 40
12.0
 40
12.0
 40
13.0
 40
13.0
 40
13.0
 40
14.0
 40
14.0
 40
14.0
 40
15.0
 40
15.0
 40
15.0
 40
16.0
 40
16.0
 40
16.0
 40
16.0
 10
117.140825708562
 20
-140.0851616403259
 10
117.140825708562
 20
-140.1637098173896
 10
117.1236002311358
 20
-140.264995624656
 10
117.0602104742072
 20
-140.3669704510194
 10
116.9499674186792
 20
-140.5402587539274
 10
116.8190537902397
 20
-140.5612738363875
 10
116.7112223015514
 20
-140.5805663711049
 10
116.7112223015514
 20
-140.5805663711049
 10
116.7112223015514
 20
-140.3583577123063
 10
116.7112223015514
 20
-140.3583577123063
 10
116.9100043110503
 20
-140.3032361845422
 10
116.9396321322234
 20
-140.1761121611365
 10
116.9396321322234
 20
-140.0830945830348
 10
116.9396321322234
 20
-139.9439127254307
 10
116.8404133822482
 20
-139.7912949954341
 10
116.6075249274453
 20
-139.7912949954341
 10
116.3515543328913
 20
-139.7912949954341
 10
116.2816188945407
 20
-139.9711289797642
 10
116.2816188945407
 20
-140.0917073217479
 10
116.2816188945407
 20
-140.1234022002122
 10
116.2816188945407
 20
-140.264995624656
 10
116.4108099752376
 20
-140.3538790881754
 10
116.4108099752376
 20
-140.3538790881754
 10
116.3918619500687
 20
-140.5295789579232
 10
116.3918619500687
 20
-140.5295789579232
 10
116.3918619500687
 20
-140.5295789579232
 10
115.5457464988913
 20
-140.4090006159394
 10
115.5457464988913
 20
-140.4090006159394
 10
115.5457464988913
 20
-140.4090006159394
 10
115.5457464988913
 20
-139.630409036273
 10
115.5457464988913
 20
-139.630409036273
 10
115.5457464988913
 20
-139.630409036273
 10
115.7400498842594
 20
-139.630409036273
 10
115.7400498842594
 20
-139.630409036273
 10
115.7400498842594
 20
-139.630409036273
 10
115.7400498842594
 20
-140.2463921090356
 10
115.7400498842594
 20
-140.2463921090356
 10
115.7400498842594
 20
-140.2463921090356
 10
116.1631076098481
 20
-140.3118489232554
 10
116.1631076098481
 20
-140.3118489232554
 10
116.1293456740927
 20
-140.2505262236179
 10
116.0893825664638
 20
-140.1678439319719
 10
116.0893825664638
 20
-140.0493326472793
 10
116.0893825664638
 20
-139.795773619565
 10
116.2754177226673
 20
-139.5587510501798
 10
116.5882323927279
 20
-139.5587510501798
 10
116.905870196468
 20
-139.5587510501798
 10
117.140825708562
 20
-139.782682256721
 10
117.140825708562
 20
-140.0851616403259
 97
        0
 97
        0
 75
     2
 76
     1
 98
        0
  0
POLYLINE
  5
A2
330
9A
100
AcDbEntity
  8
_U+30EC_U+30A4_U+30E4_U+30FC 1
370
     0
100
AcDb2dPolyline
 66
     1
 10
0.0
 20
0.0
 30
0.0
  0
VERTEX
  5
A3
330
A2
100
AcDbEntity
  8
_U+30EC_U+30A4_U+30E4_U+30FC 1
370
     0
100
AcDbVertex
100
AcDb2dVertex
 10
117.0898382953803
 20
-139.3293076908621
 30
0.0
  0
VERTEX
  5
A4
330
A2
100
AcDbEntity
  8
_U+30EC_U+30A4_U+30E4_U+30FC 1
370
     0
100
AcDbVertex
100
AcDb2dVertex
 10
116.8383463249571
 20
-139.3293076908621
 30
0.0
  0
VERTEX
  5
A5
330
A2
100
AcDbEntity
  8
_U+30EC_U+30A4_U+30E4_U+30FC 1
370
     0
100
AcDbVertex
100
AcDb2dVertex
 10
116.8383463249571
 20
-139.0778157204389
 30
0.0
  0
VERTEX
  5
A6
330
A2
100
AcDbEntity
  8
_U+30EC_U+30A4_U+30E4_U+30FC 1
370
     0
100
AcDbVertex
100
AcDb2dVertex
 10
117.0898382953803
 20
-139.0778157204389
 30
0.0
  0
VERTEX
  5
A7
330
A2
100
AcDbEntity
  8
_U+30EC_U+30A4_U+30E4_U+30FC 1
370
     0
100
AcDbVertex
100
AcDb2dVertex
 10
117.0898382953803
 20
-139.3293076908621
 30
0.0
  0
SEQEND
  5
A8
330
A2
100
AcDbEntity
  8
_U+30EC_U+30A4_U+30E4_U+30FC 1
370
     0
  0
HATCH
  5
A9
330
9A
100
AcDbEntity
  8
_U+30EC_U+30A4_U+30E4_U+30FC 1
 62
     7
420
 16777215
100
AcDbHatch
 10
0.0
 20
0.0
 30
0.0
210
0.0
220
0.0
230
1.0
  2
SOLID
 70
     1
 71
     0
 91
        1
 92
        1
 93
        4
 72
     1
 10
117.0898382953803
 20
-139.3293076908621
 11
116.8383463249571
 21
-139.3293076908621
 72
     1
 10
116.8383463249571
 20
-139.3293076908621
 11
116.8383463249571
 21
-139.0778157204389
 72
     1
 10
116.8383463249571
 20
-139.0778157204389
 11
117.0898382953803
 21
-139.0778157204389
 72
     1
 10
117.0898382953803
 20
-139.0778157204389
 11
117.0898382953803
 21
-139.3293076908621
 97
        0
 75
     2
 76
     1
 98
        0
  0
SPLINE
  5
AA
330
9A
100
AcDbEntity
  8
_U+30EC_U+30A4_U+30E4_U+30FC 1
370
     0
100
AcDbSpline
210
0.0
220
0.0
230
1.0
 70
    11
 71
     3
 72
    53
 73
    49
 74
     0
 42
0.0000000001
 43
0.0000000001
 12
1.0
 22
0.0
 32
0.0
 13
1.0
 23
0.0
 33
0.0
 40
0.0
 40
0.0
 40
0.0
 40
0.0
 40
1.0
 40
1.0
 40
1.0
 40
2.0
 40
2.0
 40
2.0
 40
3.0
 40
3.0
 40
3.0
 40
4.0
 40
4.0
 40
4.0
 40
5.0
 40
5.0
 40
5.0
 40
6.0
 40
6.0
 40
6.0
 40
7.0
 40
7.0
 40
7.0
 40
8.0
 40
8.0
 40
8.0
 40
9.0
 40
9.0
 40
9.0
 40
10.0
 40
10.0
 40
10.0
 40
11.0
 40
11.0
 40
11.0
 40
12.0
 40
12.0
 40
12.0
 40
13.0
 40
13.0
 40
13.0
 40
14.0
 40
14.0
 40
14.0
 40
15.0
 40
15.0
 40
15.0
 40
16.0
 40
16.0
 40
16.0
 40
16.0
 10
117.140825708562
 20
-138.3602023308613
 30
0.0
 10
117.140825708562
 20
-138.4384059983765
 30
0.0
 10
117.1236002311358
 20
-138.5400363151914
 30
0.0
 10
117.0602104742072
 20
-138.6416666320063
 30
0.0
 10
116.9499674186792
 20
-138.8152994444629
 30
0.0
 10
116.8190537902397
 20
-138.8363145269229
 30
0.0
 10
116.7112223015514
 20
-138.8552625520917
 30
0.0
 10
116.7112223015514
 20
-138.8552625520917
 30
0.0
 10
116.7112223015514
 20
-138.6333984028417
 30
0.0
 10
116.7112223015514
 20
-138.6333984028417
 30
0.0
 10
116.9100043110503
 20
-138.5782768750776
 30
0.0
 10
116.9396321322234
 20
-138.4511528516719
 30
0.0
 10
116.9396321322234
 20
-138.3581352735702
 30
0.0
 10
116.9396321322234
 20
-138.2186089064176
 30
0.0
 10
116.8404133822482
 20
-138.0663356859695
 30
0.0
 10
116.6075249274453
 20
-138.0663356859695
 30
0.0
 10
116.3515543328913
 20
-138.0663356859695
 30
0.0
 10
116.2816188945407
 20
-138.2461696702996
 30
0.0
 10
116.2816188945407
 20
-138.3667480122833
 30
0.0
 10
116.2816188945407
 20
-138.3984428907476
 30
0.0
 10
116.2816188945407
 20
-138.5400363151914
 30
0.0
 10
116.4108099752376
 20
-138.6289197787108
 30
0.0
 10
116.4108099752376
 20
-138.6289197787108
 30
0.0
 10
116.3918619500687
 20
-138.80427513891
 30
0.0
 10
116.3918619500687
 20
-138.80427513891
 30
0.0
 10
116.3918619500687
 20
-138.80427513891
 30
0.0
 10
115.5457464988913
 20
-138.6836967969263
 30
0.0
 10
115.5457464988913
 20
-138.6836967969263
 30
0.0
 10
115.5457464988913
 20
-138.6836967969263
 30
0.0
 10
115.5457464988913
 20
-137.9054497268084
 30
0.0
 10
115.5457464988913
 20
-137.9054497268084
 30
0.0
 10
115.5457464988913
 20
-137.9054497268084
 30
0.0
 10
115.7400498842594
 20
-137.9054497268084
 30
0.0
 10
115.7400498842594
 20
-137.9054497268084
 30
0.0
 10
115.7400498842594
 20
-137.9054497268084
 30
0.0
 10
115.7400498842594
 20
-138.5210882900225
 30
0.0
 10
115.7400498842594
 20
-138.5210882900225
 30
0.0
 10
115.7400498842594
 20
-138.5210882900225
 30
0.0
 10
116.1631076098481
 20
-138.5865451042422
 30
0.0
 10
116.1631076098481
 20
-138.5865451042422
 30
0.0
 10
116.1293456740927
 20
-138.5252224046048
 30
0.0
 10
116.0893825664638
 20
-138.4425401129588
 30
0.0
 10
116.0893825664638
 20
-138.3243733378147
 30
0.0
 10
116.0893825664638
 20
-138.0704698005518
 30
0.0
 10
116.2754177226673
 20
-137.8334472311666
 30
0.0
 10
116.5882323927279
 20
-137.8334472311666
 30
0.0
 10
116.905870196468
 20
-137.8334472311666
 30
0.0
 10
117.140825708562
 20
-138.0577229472564
 30
0.0
 10
117.140825708562
 20
-138.3602023308613
 30
0.0
  0
HATCH
  5
AB
330
9A
100
AcDbEntity
  8
_U+30EC_U+30A4_U+30E4_U+30FC 1
 62
     7
420
 16777215
100
AcDbHatch
 10
0.0
 20
0.0
 30
0.0
210
0.0
220
0.0
230
1.0
  2
SOLID
 70
     1
 71
     0
 91
        1
 92
        1
 93
        1
 72
     4
 94
        3
 73
     0
 74
     1
 95
       53
 96
       49
 40
0.0
 40
0.0
 40
0.0
 40
0.0
 40
1.0
 40
1.0
 40
1.0
 40
2.0
 40
2.0
 40
2.0
 40
3.0
 40
3.0
 40
3.0
 40
4.0
 40
4.0
 40
4.0
 40
5.0
 40
5.0
 40
5.0
 40
6.0
 40
6.0
 40
6.0
 40
7.0
 40
7.0
 40
7.0
 40
8.0
 40
8.0
 40
8.0
 40
9.0
 40
9.0
 40
9.0
 40
10.0
 40
10.0
 40
10.0
 40
11.0
 40
11.0
 40
11.0
 40
12.0
 40
12.0
 40
12.0
 40
13.0
 40
13.0
 40
13.0
 40
14.0
 40
14.0
 40
14.0
 40
15.0
 40
15.0
 40
15.0
 40
16.0
 40
16.0
 40
16.0
 40
16.0
 10
117.140825708562
 20
-138.3602023308613
 10
117.140825708562
 20
-138.4384059983765
 10
117.1236002311358
 20
-138.5400363151914
 10
117.0602104742072
 20
-138.6416666320063
 10
116.9499674186792
 20
-138.8152994444629
 10
116.8190537902397
 20
-138.8363145269229
 10
116.7112223015514
 20
-138.8552625520917
 10
116.7112223015514
 20
-138.8552625520917
 10
116.7112223015514
 20
-138.6333984028417
 10
116.7112223015514
 20
-138.6333984028417
 10
116.9100043110503
 20
-138.5782768750776
 10
116.9396321322234
 20
-138.4511528516719
 10
116.9396321322234
 20
-138.3581352735702
 10
116.9396321322234
 20
-138.2186089064176
 10
116.8404133822482
 20
-138.0663356859695
 10
116.6075249274453
 20
-138.0663356859695
 10
116.3515543328913
 20
-138.0663356859695
 10
116.2816188945407
 20
-138.2461696702996
 10
116.2816188945407
 20
-138.3667480122833
 10
116.2816188945407
 20
-138.3984428907476
 10
116.2816188945407
 20
-138.5400363151914
 10
116.4108099752376
 20
-138.6289197787108
 10
116.4108099752376
 20
-138.6289197787108
 10
116.3918619500687
 20
-138.80427513891
 10
116.3918619500687
 20
-138.80427513891
 10
116.3918619500687
 20
-138.80427513891
 10
115.5457464988913
 20
-138.6836967969263
 10
115.5457464988913
 20
-138.6836967969263
 10
115.5457464988913
 20
-138.6836967969263
 10
115.5457464988913
 20
-137.9054497268084
 10
115.5457464988913
 20
-137.9054497268084
 10
115.5457464988913
 20
-137.9054497268084
 10
115.7400498842594
 20
-137.9054497268084
 10
115.7400498842594
 20
-137.9054497268084
 10
115.7400498842594
 20
-137.9054497268084
 10
115.7400498842594
 20
-138.5210882900225
 10
115.7400498842594
 20
-138.5210882900225
 10
115.7400498842594
 20
-138.5210882900225
 10
116.1631076098481
 20
-138.5865451042422
 10
116.1631076098481
 20
-138.5865451042422
 10
116.1293456740927
 20
-138.5252224046048
 10
116.0893825664638
 20
-138.4425401129588
 10
116.0893825664638
 20
-138.3243733378147
 10
116.0893825664638
 20
-138.0704698005518
 10
116.2754177226673
 20
-137.8334472311666
 10
116.5882323927279
 20
-137.8334472311666
 10
116.905870196468
 20
-137.8334472311666
 10
117.140825708562
 20
-138.0577229472564
 10
117.140825708562
 20
-138.3602023308613
 97
        0
 97
        0
 75
     2
 76
     1
 98
        0
  0
ENDBLK
  5
9D
330
9A
100
AcDbEntity
  8
0
100
AcDbBlockEnd
  0
BLOCK
  5
AE
330
AC
100
AcDbEntity
  8
0
100
AcDbBlockBegin
  2
block 7
 70
     0
 10
0.0
 20
0.0
 30
0.0
  3
block 7
  1

  0
SPLINE
  5
B0
330
AC
100
AcDbEntity
  8
_U+30EC_U+30A4_U+30E4_U+30FC 1
370
     0
100
AcDbSpline
210
0.0
220
0.0
230
1.0
 70
    11
 71
     3
 72
    26
 73
    22
 74
     0
 42
0.0000000001
 43
0.0000000001
 12
1.0
 22
0.0
 32
0.0
 13
1.0
 23
0.0
 33
0.0
 40
0.0
 40
0.0
 40
0.0
 40
0.0
 40
1.0
 40
1.0
 40
1.0
 40
2.0
 40
2.0
 40
2.0
 40
3.0
 40
3.0
 40
3.0
 40
4.0
 40
4.0
 40
4.0
 40
5.0
 40
5.0
 40
5.0
 40
6.0
 40
6.0
 40
6.0
 40
7.0
 40
7.0
 40
7.0
 40
7.0
 10
117.0898382953803
 20
-130.117122363304
 30
0.0
 10
117.0898382953803
 20
-130.117122363304
 30
0.0
 10
115.9853406828092
 20
-130.117122363304
 30
0.0
 10
115.9853406828092
 20
-130.117122363304
 30
0.0
 10
115.9853406828092
 20
-130.117122363304
 30
0.0
 10
115.9853406828092
 20
-130.447162510791
 30
0.0
 10
115.9853406828092
 20
-130.447162510791
 30
0.0
 10
115.9853406828092
 20
-130.447162510791
 30
0.0
 10
115.8372015769435
 20
-130.447162510791
 30
0.0
 10
115.8372015769435
 20
-130.447162510791
 30
0.0
 10
115.8227321759054
 20
-130.1150553060129
 30
0.0
 10
115.6597791594531
 20
-130.0688910265106
 30
0.0
 10
115.5457464988913
 20
-130.0392632053374
 30
0.0
 10
115.5457464988913
 20
-130.0392632053374
 30
0.0
 10
115.5457464988913
 20
-129.8931911567628
 30
0.0
 10
115.5457464988913
 20
-129.8931911567628
 30
0.0
 10
115.5457464988913
 20
-129.8931911567628
 30
0.0
 10
117.0898382953803
 20
-129.8931911567628
 30
0.0
 10
117.0898382953803
 20
-129.8931911567628
 30
0.0
 10
117.0898382953803
 20
-129.8931911567628
 30
0.0
 10
117.0898382953803
 20
-130.117122363304
 30
0.0
 10
117.0898382953803
 20
-130.117122363304
 30
0.0
  0
HATCH
  5
B1
330
AC
100
AcDbEntity
  8
_U+30EC_U+30A4_U+30E4_U+30FC 1
 62
     7
420
 16777215
100
AcDbHatch
 10
0.0
 20
0.0
 30
0.0
210
0.0
220
0.0
230
1.0
  2
SOLID
 70
     1
 71
     0
 91
        1
 92
        1
 93
        1
 72
     4
 94
        3
 73
     0
 74
     1
 95
       26
 96
       22
 40
0.0
 40
0.0
 40
0.0
 40
0.0
 40
1.0
 40
1.0
 40
1.0
 40
2.0
 40
2.0
 40
2.0
 40
3.0
 40
3.0
 40
3.0
 40
4.0
 40
4.0
 40
4.0
 40
5.0
 40
5.0
 40
5.0
 40
6.0
 40
6.0
 40
6.0
 40
7.0
 40
7.0
 40
7.0
 40
7.0
 10
117.0898382953803
 20
-130.117122363304
 10
117.0898382953803
 20
-130.117122363304
 10
115.9853406828092
 20
-130.117122363304
 10
115.9853406828092
 20
-130.117122363304
 10
115.9853406828092
 20
-130.117122363304
 10
115.9853406828092
 20
-130.447162510791
 10
115.9853406828092
 20
-130.447162510791
 10
115.9853406828092
 20
-130.447162510791
 10
115.8372015769435
 20
-130.447162510791
 10
115.8372015769435
 20
-130.447162510791
 10
115.8227321759054
 20
-130.1150553060129
 10
115.6597791594531
 20
-130.0688910265106
 10
115.5457464988913
 20
-130.0392632053374
 10
115.5457464988913
 20
-130.0392632053374
 10
115.5457464988913
 20
-129.8931911567628
 10
115.5457464988913
 20
-129.8931911567628
 10
115.5457464988913
 20
-129.8931911567628
 10
117.0898382953803
 20
-129.8931911567628
 10
117.0898382953803
 20
-129.8931911567628
 10
117.0898382953803
 20
-129.8931911567628
 10
117.0898382953803
 20
-130.117122363304
 10
117.0898382953803
 20
-130.117122363304
 97
        0
 97
        0
 75
     2
 76
     1
 98
        0
  0
ENDBLK
  5
AF
330
AC
100
AcDbEntity
  8
0
100
AcDbBlockEnd
  0
BLOCK
  5
C9
330
C7
100
AcDbEntity
  8
0
100
AcDbBlockBegin
  2
block 8
 70
     0
 10
0.0
 20
0.0
 30
0.0
  3
block 8
  1

  0
SPLINE
  5
CB
330
C7
100
AcDbEntity
  8
_U+30EC_U+30A4_U+30E4_U+30FC 1
370
     0
100
AcDbSpline
210
0.0
220
0.0
230
1.0
 70
    11
 71
     3
 72
    44
 73
    40
 74
     0
 42
0.0000000001
 43
0.0000000001
 12
1.0
 22
0.0
 32
0.0
 13
1.0
 23
0.0
 33
0.0
 40
0.0
 40
0.0
 40
0.0
 40
0.0
 40
1.0
 40
1.0
 40
1.0
 40
2.0
 40
2.0
 40
2.0
 40
3.0
 40
3.0
 40
3.0
 40
4.0
 40
4.0
 40
4.0
 40
5.0
 40
5.0
 40
5.0
 40
6.0
 40
6.0
 40
6.0
 40
7.0
 40
7.0
 40
7.0
 40
8.0
 40
8.0
 40
8.0
 40
9.0
 40
9.0
 40
9.0
 40
10.0
 40
10.0
 40
10.0
 40
11.0
 40
11.0
 40
11.0
 40
12.0
 40
12.0
 40
12.0
 40
13.0
 40
13.0
 40
13.0
 40
13.0
 10
80.13188745826564
 20
-128.9051377715932
 30
0.0
 10
80.10846080896594
 20
-128.8603515302849
 30
0.0
 10
80.08744572650592
 20
-128.8076415693606
 30
0.0
 10
80.0852064144405
 20
-128.5769924266231
 30
0.0
 10
80.0810722998582
 20
-128.3337686853645
 30
0.0
 10
80.0218166575119
 20
-128.2640055017882
 30
0.0
 10
79.84404973047302
 20
-128.2640055017882
 30
0.0
 10
79.84404973047302
 20
-128.2640055017882
 30
0.0
 10
79.43580591547091
 20
-128.2640055017882
 30
0.0
 10
79.43580591547091
 20
-128.2640055017882
 30
0.0
 10
79.43580591547091
 20
-128.2640055017882
 30
0.0
 10
79.43580591547091
 20
-128.9051377715932
 30
0.0
 10
79.43580591547091
 20
-128.9051377715932
 30
0.0
 10
79.43580591547091
 20
-128.9051377715932
 30
0.0
 10
79.20102265815113
 20
-128.9051377715932
 30
0.0
 10
79.20102265815113
 20
-128.9051377715932
 30
0.0
 10
79.20102265815113
 20
-128.9051377715932
 30
0.0
 10
79.20102265815113
 20
-127.3607014655557
 30
0.0
 10
79.20102265815113
 20
-127.3607014655557
 30
0.0
 10
79.20102265815113
 20
-127.3607014655557
 30
0.0
 10
79.87591686371158
 20
-127.3607014655557
 30
0.0
 10
79.87591686371158
 20
-127.3607014655557
 30
0.0
 10
80.18253036189881
 20
-127.3607014655557
 30
0.0
 10
80.34961749293343
 20
-127.5319227111726
 30
0.0
 10
80.34961749293343
 20
-127.7880655605009
 30
0.0
 10
80.34961749293343
 20
-127.8387084641341
 30
0.0
 10
80.34117700899458
 20
-127.9212185010058
 30
0.0
 10
80.29673527723484
 20
-128.0016614805864
 30
0.0
 10
80.23765188966281
 20
-128.1053588546924
 30
0.0
 10
80.1720228206688
 20
-128.1243068798613
 30
0.0
 10
80.11070012103136
 20
-128.141187847739
 30
0.0
 10
80.24815943089283
 20
-128.1835625222076
 30
0.0
 10
80.31585555717798
 20
-128.2323106233239
 30
0.0
 10
80.32016192653455
 20
-128.54736460545
 30
0.0
 10
80.32429604111685
 20
-128.8183213653649
 30
0.0
 10
80.3602972889377
 20
-128.8500162438292
 30
0.0
 10
80.42799341522287
 20
-128.9051377715932
 30
0.0
 10
80.42799341522287
 20
-128.9051377715932
 30
0.0
 10
80.13188745826564
 20
-128.9051377715932
 30
0.0
 10
80.13188745826564
 20
-128.9051377715932
 30
0.0
  0
SPLINE
  5
CC
330
C7
100
AcDbEntity
  8
_U+30EC_U+30A4_U+30E4_U+30FC 1
370
     0
100
AcDbSpline
210
0.0
220
0.0
230
1.0
 70
    11
 71
     3
 72
    20
 73
    16
 74
     0
 42
0.0000000001
 43
0.0000000001
 12
1.0
 22
0.0
 32
0.0
 13
1.0
 23
0.0
 33
0.0
 40
0.0
 40
0.0
 40
0.0
 40
0.0
 40
1.0
 40
1.0
 40
1.0
 40
2.0
 40
2.0
 40
2.0
 40
3.0
 40
3.0
 40
3.0
 40
4.0
 40
4.0
 40
4.0
 40
5.0
 40
5.0
 40
5.0
 40
5.0
 10
79.88005097829388
 20
-127.57223032835
 30
0.0
 10
79.88005097829388
 20
-127.57223032835
 30
0.0
 10
79.43580591547091
 20
-127.57223032835
 30
0.0
 10
79.43580591547091
 20
-127.57223032835
 30
0.0
 10
79.43580591547091
 20
-127.57223032835
 30
0.0
 10
79.43580591547091
 20
-128.0524766389938
 30
0.0
 10
79.43580591547091
 20
-128.0524766389938
 30
0.0
 10
79.43580591547091
 20
-128.0524766389938
 30
0.0
 10
79.87798392100272
 20
-128.0524766389938
 30
0.0
 10
79.87798392100272
 20
-128.0524766389938
 30
0.0
 10
79.97737492575219
 20
-128.0524766389938
 30
0.0
 10
80.1127671783225
 20
-127.9763400287698
 30
0.0
 10
80.1127671783225
 20
-127.8049465283786
 30
0.0
 10
80.1127671783225
 20
-127.7265706060892
 30
0.0
 10
80.0788329877928
 20
-127.57223032835
 30
0.0
 10
79.88005097829388
 20
-127.57223032835
 30
0.0
  0
HATCH
  5
CD
330
C7
100
AcDbEntity
  8
_U+30EC_U+30A4_U+30E4_U+30FC 1
 62
     7
420
 16777215
100
AcDbHatch
 10
0.0
 20
0.0
 30
0.0
210
0.0
220
0.0
230
1.0
  2
SOLID
 70
     1
 71
     0
 91
        2
 92
        1
 93
        1
 72
     4
 94
        3
 73
     0
 74
     1
 95
       44
 96
       40
 40
0.0
 40
0.0
 40
0.0
 40
0.0
 40
1.0
 40
1.0
 40
1.0
 40
2.0
 40
2.0
 40
2.0
 40
3.0
 40
3.0
 40
3.0
 40
4.0
 40
4.0
 40
4.0
 40
5.0
 40
5.0
 40
5.0
 40
6.0
 40
6.0
 40
6.0
 40
7.0
 40
7.0
 40
7.0
 40
8.0
 40
8.0
 40
8.0
 40
9.0
 40
9.0
 40
9.0
 40
10.0
 40
10.0
 40
10.0
 40
11.0
 40
11.0
 40
11.0
 40
12.0
 40
12.0
 40
12.0
 40
13.0
 40
13.0
 40
13.0
 40
13.0
 10
80.13188745826564
 20
-128.9051377715932
 10
80.10846080896594
 20
-128.8603515302849
 10
80.08744572650592
 20
-128.8076415693606
 10
80.0852064144405
 20
-128.5769924266231
 10
80.0810722998582
 20
-128.3337686853645
 10
80.0218166575119
 20
-128.2640055017882
 10
79.84404973047302
 20
-128.2640055017882
 10
79.84404973047302
 20
-128.2640055017882
 10
79.43580591547091
 20
-128.2640055017882
 10
79.43580591547091
 20
-128.2640055017882
 10
79.43580591547091
 20
-128.2640055017882
 10
79.43580591547091
 20
-128.9051377715932
 10
79.43580591547091
 20
-128.9051377715932
 10
79.43580591547091
 20
-128.9051377715932
 10
79.20102265815113
 20
-128.9051377715932
 10
79.20102265815113
 20
-128.9051377715932
 10
79.20102265815113
 20
-128.9051377715932
 10
79.20102265815113
 20
-127.3607014655557
 10
79.20102265815113
 20
-127.3607014655557
 10
79.20102265815113
 20
-127.3607014655557
 10
79.87591686371158
 20
-127.3607014655557
 10
79.87591686371158
 20
-127.3607014655557
 10
80.18253036189881
 20
-127.3607014655557
 10
80.34961749293343
 20
-127.5319227111726
 10
80.34961749293343
 20
-127.7880655605009
 10
80.34961749293343
 20
-127.8387084641341
 10
80.34117700899458
 20
-127.9212185010058
 10
80.29673527723484
 20
-128.0016614805864
 10
80.23765188966281
 20
-128.1053588546924
 10
80.1720228206688
 20
-128.1243068798613
 10
80.11070012103136
 20
-128.141187847739
 10
80.24815943089283
 20
-128.1835625222076
 10
80.31585555717798
 20
-128.2323106233239
 10
80.32016192653455
 20
-128.54736460545
 10
80.32429604111685
 20
-128.8183213653649
 10
80.3602972889377
 20
-128.8500162438292
 10
80.42799341522287
 20
-128.9051377715932
 10
80.42799341522287
 20
-128.9051377715932
 10
80.13188745826564
 20
-128.9051377715932
 10
80.13188745826564
 20
-128.9051377715932
 97
        0
 97
        0
 92
        1
 93
        1
 72
     4
 94
        3
 73
     0
 74
     1
 95
       20
 96
       16
 40
0.0
 40
0.0
 40
0.0
 40
0.0
 40
1.0
 40
1.0
 40
1.0
 40
2.0
 40
2.0
 40
2.0
 40
3.0
 40
3.0
 40
3.0
 40
4.0
 40
4.0
 40
4.0
 40
5.0
 40
5.0
 40
5.0
 40
5.0
 10
79.88005097829388
 20
-127.57223032835
 10
79.88005097829388
 20
-127.57223032835
 10
79.43580591547091
 20
-127.57223032835
 10
79.43580591547091
 20
-127.57223032835
 10
79.43580591547091
 20
-127.57223032835
 10
79.43580591547091
 20
-128.0524766389938
 10
79.43580591547091
 20
-128.0524766389938
 10
79.43580591547091
 20
-128.0524766389938
 10
79.87798392100272
 20
-128.0524766389938
 10
79.87798392100272
 20
-128.0524766389938
 10
79.97737492575219
 20
-128.0524766389938
 10
80.1127671783225
 20
-127.9763400287698
 10
80.1127671783225
 20
-127.8049465283786
 10
80.1127671783225
 20
-127.7265706060892
 10
80.0788329877928
 20
-127.57223032835
 10
79.88005097829388
 20
-127.57223032835
 97
        0
 97
        0
 75
     2
 76
     1
 98
        0
  0
SPLINE
  5
CE
330
C7
100
AcDbEntity
  8
_U+30EC_U+30A4_U+30E4_U+30FC 1
370
     0
100
AcDbSpline
210
0.0
220
0.0
230
1.0
 70
    11
 71
     3
 72
    44
 73
    40
 74
     0
 42
0.0000000001
 43
0.0000000001
 12
1.0
 22
0.0
 32
0.0
 13
1.0
 23
0.0
 33
0.0
 40
0.0
 40
0.0
 40
0.0
 40
0.0
 40
1.0
 40
1.0
 40
1.0
 40
2.0
 40
2.0
 40
2.0
 40
3.0
 40
3.0
 40
3.0
 40
4.0
 40
4.0
 40
4.0
 40
5.0
 40
5.0
 40
5.0
 40
6.0
 40
6.0
 40
6.0
 40
7.0
 40
7.0
 40
7.0
 40
8.0
 40
8.0
 40
8.0
 40
9.0
 40
9.0
 40
9.0
 40
10.0
 40
10.0
 40
10.0
 40
11.0
 40
11.0
 40
11.0
 40
12.0
 40
12.0
 40
12.0
 40
13.0
 40
13.0
 40
13.0
 40
13.0
 10
81.1607652249355
 20
-128.3232611441345
 30
0.0
 10
80.94286293549345
 20
-128.4819077912302
 30
0.0
 10
80.84967310261744
 20
-128.5559773441631
 30
0.0
 10
80.80109725627543
 20
-128.6998100806723
 30
0.0
 10
80.80109725627543
 20
-128.6998100806723
 30
0.0
 10
81.57951658116762
 20
-128.6998100806723
 30
0.0
 10
81.57951658116762
 20
-128.6998100806723
 30
0.0
 10
81.57951658116762
 20
-128.6998100806723
 30
0.0
 10
81.57951658116762
 20
-128.9051377715932
 30
0.0
 10
81.57951658116762
 20
-128.9051377715932
 30
0.0
 10
81.57951658116762
 20
-128.9051377715932
 30
0.0
 10
80.55150008836907
 20
-128.9051377715932
 30
0.0
 10
80.55150008836907
 20
-128.9051377715932
 30
0.0
 10
80.58319496683337
 20
-128.54736460545
 30
0.0
 10
80.64865178105312
 20
-128.4691609379348
 30
0.0
 10
81.03381345630405
 20
-128.1708156689122
 30
0.0
 10
81.28978405085812
 20
-127.9720336594132
 30
0.0
 10
81.35524086507786
 20
-127.9043375331281
 30
0.0
 10
81.35524086507786
 20
-127.7668782232666
 30
0.0
 10
81.35524086507786
 20
-127.648366938574
 30
0.0
 10
81.2834106242104
 20
-127.5172810553603
 30
0.0
 10
81.08669567200263
 20
-127.5172810553603
 30
0.0
 10
80.826418708092
 20
-127.5172810553603
 30
0.0
 10
80.81797822415315
 20
-127.7477579433235
 30
0.0
 10
80.81367185479658
 20
-127.8642021707249
 30
0.0
 10
80.81367185479658
 20
-127.8642021707249
 30
0.0
 10
80.58956839348109
 20
-127.8642021707249
 30
0.0
 10
80.58956839348109
 20
-127.8642021707249
 30
0.0
 10
80.59800887741994
 20
-127.7372504020935
 30
0.0
 10
80.60851641864996
 20
-127.6251125440486
 30
0.0
 10
80.68895939823054
 20
-127.506601259356
 30
0.0
 10
80.79885794421001
 20
-127.3458875549691
 30
0.0
 10
80.98506535518777
 20
-127.3119533644394
 30
0.0
 10
81.10150958258922
 20
-127.3119533644394
 30
0.0
 10
81.37866751437755
 20
-127.3119533644394
 30
0.0
 10
81.58589000781534
 20
-127.496093718126
 30
0.0
 10
81.58589000781534
 20
-127.7689452805578
 30
0.0
 10
81.58589000781534
 20
-127.9973551112298
 30
0.0
 10
81.46961803518815
 20
-128.0969183707535
 30
0.0
 10
81.1607652249355
 20
-128.3232611441345
 30
0.0
  0
HATCH
  5
CF
330
C7
100
AcDbEntity
  8
_U+30EC_U+30A4_U+30E4_U+30FC 1
 62
     7
420
 16777215
100
AcDbHatch
 10
0.0
 20
0.0
 30
0.0
210
0.0
220
0.0
230
1.0
  2
SOLID
 70
     1
 71
     0
 91
        1
 92
        1
 93
        1
 72
     4
 94
        3
 73
     0
 74
     1
 95
       44
 96
       40
 40
0.0
 40
0.0
 40
0.0
 40
0.0
 40
1.0
 40
1.0
 40
1.0
 40
2.0
 40
2.0
 40
2.0
 40
3.0
 40
3.0
 40
3.0
 40
4.0
 40
4.0
 40
4.0
 40
5.0
 40
5.0
 40
5.0
 40
6.0
 40
6.0
 40
6.0
 40
7.0
 40
7.0
 40
7.0
 40
8.0
 40
8.0
 40
8.0
 40
9.0
 40
9.0
 40
9.0
 40
10.0
 40
10.0
 40
10.0
 40
11.0
 40
11.0
 40
11.0
 40
12.0
 40
12.0
 40
12.0
 40
13.0
 40
13.0
 40
13.0
 40
13.0
 10
81.1607652249355
 20
-128.3232611441345
 10
80.94286293549345
 20
-128.4819077912302
 10
80.84967310261744
 20
-128.5559773441631
 10
80.80109725627543
 20
-128.6998100806723
 10
80.80109725627543
 20
-128.6998100806723
 10
81.57951658116762
 20
-128.6998100806723
 10
81.57951658116762
 20
-128.6998100806723
 10
81.57951658116762
 20
-128.6998100806723
 10
81.57951658116762
 20
-128.9051377715932
 10
81.57951658116762
 20
-128.9051377715932
 10
81.57951658116762
 20
-128.9051377715932
 10
80.55150008836907
 20
-128.9051377715932
 10
80.55150008836907
 20
-128.9051377715932
 10
80.58319496683337
 20
-128.54736460545
 10
80.64865178105312
 20
-128.4691609379348
 10
81.03381345630405
 20
-128.1708156689122
 10
81.28978405085812
 20
-127.9720336594132
 10
81.35524086507786
 20
-127.9043375331281
 10
81.35524086507786
 20
-127.7668782232666
 10
81.35524086507786
 20
-127.648366938574
 10
81.2834106242104
 20
-127.5172810553603
 10
81.08669567200263
 20
-127.5172810553603
 10
80.826418708092
 20
-127.5172810553603
 10
80.81797822415315
 20
-127.7477579433235
 10
80.81367185479658
 20
-127.8642021707249
 10
80.81367185479658
 20
-127.8642021707249
 10
80.58956839348109
 20
-127.8642021707249
 10
80.58956839348109
 20
-127.8642021707249
 10
80.59800887741994
 20
-127.7372504020935
 10
80.60851641864996
 20
-127.6251125440486
 10
80.68895939823054
 20
-127.506601259356
 10
80.79885794421001
 20
-127.3458875549691
 10
80.98506535518777
 20
-127.3119533644394
 10
81.10150958258922
 20
-127.3119533644394
 10
81.37866751437755
 20
-127.3119533644394
 10
81.58589000781534
 20
-127.496093718126
 10
81.58589000781534
 20
-127.7689452805578
 10
81.58589000781534
 20
-127.9973551112298
 10
81.46961803518815
 20
-128.0969183707535
 10
81.1607652249355
 20
-128.3232611441345
 97
        0
 97
        0
 75
     2
 76
     1
 98
        0
  0
SPLINE
  5
D0
330
C7
100
AcDbEntity
  8
_U+30EC_U+30A4_U+30E4_U+30FC 1
370
     0
100
AcDbSpline
210
0.0
220
0.0
230
1.0
 70
    11
 71
     3
 72
    53
 73
    49
 74
     0
 42
0.0000000001
 43
0.0000000001
 12
1.0
 22
0.0
 32
0.0
 13
1.0
 23
0.0
 33
0.0
 40
0.0
 40
0.0
 40
0.0
 40
0.0
 40
1.0
 40
1.0
 40
1.0
 40
2.0
 40
2.0
 40
2.0
 40
3.0
 40
3.0
 40
3.0
 40
4.0
 40
4.0
 40
4.0
 40
5.0
 40
5.0
 40
5.0
 40
6.0
 40
6.0
 40
6.0
 40
7.0
 40
7.0
 40
7.0
 40
8.0
 40
8.0
 40
8.0
 40
9.0
 40
9.0
 40
9.0
 40
10.0
 40
10.0
 40
10.0
 40
11.0
 40
11.0
 40
11.0
 40
12.0
 40
12.0
 40
12.0
 40
13.0
 40
13.0
 40
13.0
 40
14.0
 40
14.0
 40
14.0
 40
15.0
 40
15.0
 40
15.0
 40
16.0
 40
16.0
 40
16.0
 40
16.0
 10
82.22547198465197
 20
-128.9557806752264
 30
0.0
 10
82.14709606236254
 20
-128.9557806752264
 30
0.0
 10
82.04563800032193
 20
-128.9388997073486
 30
0.0
 10
81.94400768350705
 20
-128.87550995042
 30
0.0
 10
81.77054712582473
 20
-128.765266894892
 30
0.0
 10
81.74935978859044
 20
-128.6341810116783
 30
0.0
 10
81.73041176342157
 20
-128.52634952299
 30
0.0
 10
81.73041176342157
 20
-128.52634952299
 30
0.0
 10
81.95244816744592
 20
-128.52634952299
 30
0.0
 10
81.95244816744592
 20
-128.52634952299
 30
0.0
 10
82.00756969520992
 20
-128.7251315324889
 30
0.0
 10
82.13452146384137
 20
-128.754759353662
 30
0.0
 10
82.22753904194312
 20
-128.754759353662
 30
0.0
 10
82.36706540909574
 20
-128.754759353662
 30
0.0
 10
82.51951088431804
 20
-128.6553683489126
 30
0.0
 10
82.51951088431804
 20
-128.4226521488839
 30
0.0
 10
82.51951088431804
 20
-128.1666815543299
 30
0.0
 10
82.339676899988
 20
-128.0969183707535
 30
0.0
 10
82.21909855800426
 20
-128.0969183707535
 30
0.0
 10
82.18740367953995
 20
-128.0969183707535
 30
0.0
 10
82.04563800032193
 20
-128.0969183707535
 30
0.0
 10
81.95675453680248
 20
-128.2259371966762
 30
0.0
 10
81.95675453680248
 20
-128.2259371966762
 30
0.0
 10
81.781226921829
 20
-128.206816916733
 30
0.0
 10
81.781226921829
 20
-128.206816916733
 30
0.0
 10
81.781226921829
 20
-128.206816916733
 30
0.0
 10
81.90180526381275
 20
-127.3607014655557
 30
0.0
 10
81.90180526381275
 20
-127.3607014655557
 30
0.0
 10
81.90180526381275
 20
-127.3607014655557
 30
0.0
 10
82.68022458870495
 20
-127.3607014655557
 30
0.0
 10
82.68022458870495
 20
-127.3607014655557
 30
0.0
 10
82.68022458870495
 20
-127.3607014655557
 30
0.0
 10
82.68022458870495
 20
-127.5553493604723
 30
0.0
 10
82.68022458870495
 20
-127.5553493604723
 30
0.0
 10
82.68022458870495
 20
-127.5553493604723
 30
0.0
 10
82.0645860254908
 20
-127.5553493604723
 30
0.0
 10
82.0645860254908
 20
-127.5553493604723
 30
0.0
 10
82.0645860254908
 20
-127.5553493604723
 30
0.0
 10
81.99912921127105
 20
-127.978407086061
 30
0.0
 10
81.99912921127105
 20
-127.978407086061
 30
0.0
 10
82.0604519109085
 20
-127.9444728955312
 30
0.0
 10
82.14296194778024
 20
-127.9043375331281
 30
0.0
 10
82.26130097769857
 20
-127.9043375331281
 30
0.0
 10
82.51520451496148
 20
-127.9043375331281
 30
0.0
 10
82.75222708434667
 20
-128.0905449441058
 30
0.0
 10
82.75222708434667
 20
-128.4035318689408
 30
0.0
 10
82.75222708434667
 20
-128.7209974179066
 30
0.0
 10
82.52795136825691
 20
-128.9557806752264
 30
0.0
 10
82.22547198465197
 20
-128.9557806752264
 30
0.0
  0
HATCH
  5
D1
330
C7
100
AcDbEntity
  8
_U+30EC_U+30A4_U+30E4_U+30FC 1
 62
     7
420
 16777215
100
AcDbHatch
 10
0.0
 20
0.0
 30
0.0
210
0.0
220
0.0
230
1.0
  2
SOLID
 70
     1
 71
     0
 91
        1
 92
        1
 93
        1
 72
     4
 94
        3
 73
     0
 74
     1
 95
       53
 96
       49
 40
0.0
 40
0.0
 40
0.0
 40
0.0
 40
1.0
 40
1.0
 40
1.0
 40
2.0
 40
2.0
 40
2.0
 40
3.0
 40
3.0
 40
3.0
 40
4.0
 40
4.0
 40
4.0
 40
5.0
 40
5.0
 40
5.0
 40
6.0
 40
6.0
 40
6.0
 40
7.0
 40
7.0
 40
7.0
 40
8.0
 40
8.0
 40
8.0
 40
9.0
 40
9.0
 40
9.0
 40
10.0
 40
10.0
 40
10.0
 40
11.0
 40
11.0
 40
11.0
 40
12.0
 40
12.0
 40
12.0
 40
13.0
 40
13.0
 40
13.0
 40
14.0
 40
14.0
 40
14.0
 40
15.0
 40
15.0
 40
15.0
 40
16.0
 40
16.0
 40
16.0
 40
16.0
 10
82.22547198465197
 20
-128.9557806752264
 10
82.14709606236254
 20
-128.9557806752264
 10
82.04563800032193
 20
-128.9388997073486
 10
81.94400768350705
 20
-128.87550995042
 10
81.77054712582473
 20
-128.765266894892
 10
81.74935978859044
 20
-128.6341810116783
 10
81.73041176342157
 20
-128.52634952299
 10
81.73041176342157
 20
-128.52634952299
 10
81.95244816744592
 20
-128.52634952299
 10
81.95244816744592
 20
-128.52634952299
 10
82.00756969520992
 20
-128.7251315324889
 10
82.13452146384137
 20
-128.754759353662
 10
82.22753904194312
 20
-128.754759353662
 10
82.36706540909574
 20
-128.754759353662
 10
82.51951088431804
 20
-128.6553683489126
 10
82.51951088431804
 20
-128.4226521488839
 10
82.51951088431804
 20
-128.1666815543299
 10
82.339676899988
 20
-128.0969183707535
 10
82.21909855800426
 20
-128.0969183707535
 10
82.18740367953995
 20
-128.0969183707535
 10
82.04563800032193
 20
-128.0969183707535
 10
81.95675453680248
 20
-128.2259371966762
 10
81.95675453680248
 20
-128.2259371966762
 10
81.781226921829
 20
-128.206816916733
 10
81.781226921829
 20
-128.206816916733
 10
81.781226921829
 20
-128.206816916733
 10
81.90180526381275
 20
-127.3607014655557
 10
81.90180526381275
 20
-127.3607014655557
 10
81.90180526381275
 20
-127.3607014655557
 10
82.68022458870495
 20
-127.3607014655557
 10
82.68022458870495
 20
-127.3607014655557
 10
82.68022458870495
 20
-127.3607014655557
 10
82.68022458870495
 20
-127.5553493604723
 10
82.68022458870495
 20
-127.5553493604723
 10
82.68022458870495
 20
-127.5553493604723
 10
82.0645860254908
 20
-127.5553493604723
 10
82.0645860254908
 20
-127.5553493604723
 10
82.0645860254908
 20
-127.5553493604723
 10
81.99912921127105
 20
-127.978407086061
 10
81.99912921127105
 20
-127.978407086061
 10
82.0604519109085
 20
-127.9444728955312
 10
82.14296194778024
 20
-127.9043375331281
 10
82.26130097769857
 20
-127.9043375331281
 10
82.51520451496148
 20
-127.9043375331281
 10
82.75222708434667
 20
-128.0905449441058
 10
82.75222708434667
 20
-128.4035318689408
 10
82.75222708434667
 20
-128.7209974179066
 10
82.52795136825691
 20
-128.9557806752264
 10
82.22547198465197
 20
-128.9557806752264
 97
        0
 97
        0
 75
     2
 76
     1
 98
        0
  0
ENDBLK
  5
CA
330
C7
100
AcDbEntity
  8
0
100
AcDbBlockEnd
  0
ENDSEC
  0
SECTION
  2
ENTITIES
  0
SPLINE
  5
41
330
1F
100
AcDbEntity
  8
_U+30EC_U+30A4_U+30E4_U+30FC 1
 62
     7
420
 16777215
370
    25
100
AcDbSpline
210
0.0
220
0.0
230
1.0
 70
    11
 71
     3
 72
    53
 73
    49
 74
     0
 42
0.0000000001
 43
0.0000000001
 12
1.0
 22
0.0
 32
0.0
 13
1.0
 23
0.0
 33
0.0
 40
0.0
 40
0.0
 40
0.0
 40
0.0
 40
1.0
 40
1.0
 40
1.0
 40
2.0
 40
2.0
 40
2.0
 40
3.0
 40
3.0
 40
3.0
 40
4.0
 40
4.0
 40
4.0
 40
5.0
 40
5.0
 40
5.0
 40
6.0
 40
6.0
 40
6.0
 40
7.0
 40
7.0
 40
7.0
 40
8.0
 40
8.0
 40
8.0
 40
9.0
 40
9.0
 40
9.0
 40
10.0
 40
10.0
 40
10.0
 40
11.0
 40
11.0
 40
11.0
 40
12.0
 40
12.0
 40
12.0
 40
13.0
 40
13.0
 40
13.0
 40
14.0
 40
14.0
 40
14.0
 40
15.0
 40
15.0
 40
15.0
 40
16.0
 40
16.0
 40
16.0
 40
16.0
 10
93.61702455607517
 20
-147.5410505186703
 30
0.0
 10
79.81011407498546
 20
-147.5410505186703
 30
0.0
 10
68.61700463832327
 20
-136.3479055214684
 30
0.0
 10
68.61700463832327
 20
-122.5406771915872
 30
0.0
 10
68.61700463832327
 20
-122.5406771915872
 30
0.0
 10
68.61527776062397
 20
-117.5411458039481
 30
0.0
 10
68.61527776062397
 20
-117.5411458039481
 30
0.0
 10
68.61527776062397
 20
-117.5411458039481
 30
0.0
 10
84.11509646515621
 20
-117.8229446927667
 30
0.0
 10
84.11509646515621
 20
-117.8229446927667
 30
0.0
 10
84.11509646515621
 20
-117.8229446927667
 30
0.0
 10
84.11509646515621
 20
-102.5405055299205
 30
0.0
 10
84.11509646515621
 20
-102.5405055299205
 30
0.0
 10
84.11509646515621
 20
-102.5405055299205
 30
0.0
 10
85.11486866187212
 20
-102.5405055299205
 30
0.0
 10
85.11486866187212
 20
-102.5405055299205
 30
0.0
 10
85.11486866187212
 20
-102.5405055299205
 30
0.0
 10
85.11486866187212
 20
-118.8234224702941
 30
0.0
 10
85.11486866187212
 20
-118.8234224702941
 30
0.0
 10
85.11486866187212
 20
-118.8234224702941
 30
0.0
 10
69.61540276037394
 20
-118.5409180259203
 30
0.0
 10
69.61540276037394
 20
-118.5409180259203
 30
0.0
 10
69.61540276037394
 20
-118.5409180259203
 30
0.0
 10
69.61677683503916
 20
-122.5406771915872
 30
0.0
 10
69.61677683503916
 20
-122.5406771915872
 30
0.0
 10
69.61677683503916
 20
-135.7960199660511
 30
0.0
 10
80.36203489423814
 20
-146.5405727411429
 30
0.0
 10
93.61702455607517
 20
-146.5405727411429
 30
0.0
 10
93.61702455607517
 20
-146.5405727411429
 30
0.0
 10
97.61608053115165
 20
-146.5405727411429
 30
0.0
 10
97.61608053115165
 20
-146.5405727411429
 30
0.0
 10
97.61608053115165
 20
-146.5405727411429
 30
0.0
 10
97.33392640569355
 20
-131.0411046894617
 30
0.0
 10
97.33392640569355
 20
-131.0411046894617
 30
0.0
 10
97.33392640569355
 20
-131.0411046894617
 30
0.0
 10
113.6161373791886
 20
-131.0411046894617
 30
0.0
 10
113.6161373791886
 20
-131.0411046894617
 30
0.0
 10
113.6161373791886
 20
-131.0411046894617
 30
0.0
 10
113.6161373791886
 20
-132.0408769114342
 30
0.0
 10
113.6161373791886
 20
-132.0408769114342
 30
0.0
 10
113.6161373791886
 20
-132.0408769114342
 30
0.0
 10
98.33369860240946
 20
-132.0408769114342
 30
0.0
 10
98.33369860240946
 20
-132.0408769114342
 30
0.0
 10
98.33369860240946
 20
-132.0408769114342
 30
0.0
 10
98.61585275312356
 20
-147.5410505186703
 30
0.0
 10
98.61585275312356
 20
-147.5410505186703
 30
0.0
 10
98.61585275312356
 20
-147.5410505186703
 30
0.0
 10
93.61702455607517
 20
-147.5410505186703
 30
0.0
 10
93.61702455607517
 20
-147.5410505186703
 30
0.0
  0
HATCH
  5
42
330
1F
100
AcDbEntity
  8
_U+30EC_U+30A4_U+30E4_U+30FC 1
 62
   253
420
 11711154
100
AcDbHatch
 10
0.0
 20
0.0
 30
0.0
210
0.0
220
0.0
230
1.0
  2
SOLID
 70
     1
 71
     0
 91
        1
 92
        1
 93
        1
 72
     4
 94
        3
 73
     0
 74
     1
 95
       53
 96
       49
 40
0.0
 40
0.0
 40
0.0
 40
0.0
 40
1.0
 40
1.0
 40
1.0
 40
2.0
 40
2.0
 40
2.0
 40
3.0
 40
3.0
 40
3.0
 40
4.0
 40
4.0
 40
4.0
 40
5.0
 40
5.0
 40
5.0
 40
6.0
 40
6.0
 40
6.0
 40
7.0
 40
7.0
 40
7.0
 40
8.0
 40
8.0
 40
8.0
 40
9.0
 40
9.0
 40
9.0
 40
10.0
 40
10.0
 40
10.0
 40
11.0
 40
11.0
 40
11.0
 40
12.0
 40
12.0
 40
12.0
 40
13.0
 40
13.0
 40
13.0
 40
14.0
 40
14.0
 40
14.0
 40
15.0
 40
15.0
 40
15.0
 40
16.0
 40
16.0
 40
16.0
 40
16.0
 10
93.61702455607517
 20
-147.5410505186703
 10
79.81011407498546
 20
-147.5410505186703
 10
68.61700463832327
 20
-136.3479055214684
 10
68.61700463832327
 20
-122.5406771915872
 10
68.61700463832327
 20
-122.5406771915872
 10
68.61527776062397
 20
-117.5411458039481
 10
68.61527776062397
 20
-117.5411458039481
 10
68.61527776062397
 20
-117.5411458039481
 10
84.11509646515621
 20
-117.8229446927667
 10
84.11509646515621
 20
-117.8229446927667
 10
84.11509646515621
 20
-117.8229446927667
 10
84.11509646515621
 20
-102.5405055299205
 10
84.11509646515621
 20
-102.5405055299205
 10
84.11509646515621
 20
-102.5405055299205
 10
85.11486866187212
 20
-102.5405055299205
 10
85.11486866187212
 20
-102.5405055299205
 10
85.11486866187212
 20
-102.5405055299205
 10
85.11486866187212
 20
-118.8234224702941
 10
85.11486866187212
 20
-118.8234224702941
 10
85.11486866187212
 20
-118.8234224702941
 10
69.61540276037394
 20
-118.5409180259203
 10
69.61540276037394
 20
-118.5409180259203
 10
69.61540276037394
 20
-118.5409180259203
 10
69.61677683503916
 20
-122.5406771915872
 10
69.61677683503916
 20
-122.5406771915872
 10
69.61677683503916
 20
-135.7960199660511
 10
80.36203489423814
 20
-146.5405727411429
 10
93.61702455607517
 20
-146.5405727411429
 10
93.61702455607517
 20
-146.5405727411429
 10
97.61608053115165
 20
-146.5405727411429
 10
97.61608053115165
 20
-146.5405727411429
 10
97.61608053115165
 20
-146.5405727411429
 10
97.33392640569355
 20
-131.0411046894617
 10
97.33392640569355
 20
-131.0411046894617
 10
97.33392640569355
 20
-131.0411046894617
 10
113.6161373791886
 20
-131.0411046894617
 10
113.6161373791886
 20
-131.0411046894617
 10
113.6161373791886
 20
-131.0411046894617
 10
113.6161373791886
 20
-132.0408769114342
 10
113.6161373791886
 20
-132.0408769114342
 10
113.6161373791886
 20
-132.0408769114342
 10
98.33369860240946
 20
-132.0408769114342
 10
98.33369860240946
 20
-132.0408769114342
 10
98.33369860240946
 20
-132.0408769114342
 10
98.61585275312356
 20
-147.5410505186703
 10
98.61585275312356
 20
-147.5410505186703
 10
98.61585275312356
 20
-147.5410505186703
 10
93.61702455607517
 20
-147.5410505186703
 10
93.61702455607517
 20
-147.5410505186703
 97
        0
 97
        0
 75
     2
 76
     1
 98
        0
  0
POLYLINE
  5
43
330
1F
100
AcDbEntity
  8
_U+30EC_U+30A4_U+30E4_U+30FC 1
 62
     7
420
 16777215
370
     9
100
AcDb2dPolyline
 66
     1
 10
0.0
 20
0.0
 30
0.0
  0
VERTEX
  5
44
330
43
100
AcDbEntity
  8
_U+30EC_U+30A4_U+30E4_U+30FC 1
 62
     7
420
 16777215
370
     9
100
AcDbVertex
100
AcDb2dVertex
 10
68.61527776062397
 20
-152.4130880174521
 30
0.0
  0
VERTEX
  5
45
330
43
100
AcDbEntity
  8
_U+30EC_U+30A4_U+30E4_U+30FC 1
 62
     7
420
 16777215
370
     9
100
AcDbVertex
100
AcDb2dVertex
 10
98.61517998411716
 20
-152.4130880174521
 30
0.0
  0
SEQEND
  5
46
330
43
100
AcDbEntity
  8
_U+30EC_U+30A4_U+30E4_U+30FC 1
 62
     7
420
 16777215
370
     9
  0
POLYLINE
  5
47
330
1F
100
AcDbEntity
  8
_U+30EC_U+30A4_U+30E4_U+30FC 1
 62
     7
420
 16777215
370
     9
100
AcDb2dPolyline
 66
     1
 10
0.0
 20
0.0
 30
0.0
  0
VERTEX
  5
48
330
47
100
AcDbEntity
  8
_U+30EC_U+30A4_U+30E4_U+30FC 1
 62
     7
420
 16777215
370
     9
100
AcDbVertex
100
AcDb2dVertex
 10
68.61527776062397
 20
-154.5628452391371
 30
0.0
  0
VERTEX
  5
49
330
47
100
AcDbEntity
  8
_U+30EC_U+30A4_U+30E4_U+30FC 1
 62
     7
420
 16777215
370
     9
100
AcDbVertex
100
AcDb2dVertex
 10
68.61527776062397
 20
-128.2409310790509
 30
0.0
  0
SEQEND
  5
4A
330
47
100
AcDbEntity
  8
_U+30EC_U+30A4_U+30E4_U+30FC 1
 62
     7
420
 16777215
370
     9
  0
INSERT
  5
4C
330
1F
100
AcDbEntity
  8
_U+30EC_U+30A4_U+30E4_U+30FC 1
100
AcDbBlockReference
  2
block 2
 10
0.0
 20
0.0
 30
0.0
  0
POLYLINE
  5
53
330
1F
100
AcDbEntity
  8
_U+30EC_U+30A4_U+30E4_U+30FC 1
 62
     7
420
 16777215
370
     9
100
AcDb2dPolyline
 66
     1
 10
0.0
 20
0.0
 30
0.0
  0
VERTEX
  5
54
330
53
100
AcDbEntity
  8
_U+30EC_U+30A4_U+30E4_U+30FC 1
 62
     7
420
 16777215
370
     9
100
AcDbVertex
100
AcDb2dVertex
 10
93.61529594500816
 20
-154.3533657947448
 30
0.0
  0
VERTEX
  5
55
330
53
100
AcDbEntity
  8
_U+30EC_U+30A4_U+30E4_U+30FC 1
 62
     7
420
 16777215
370
     9
100
AcDbVertex
100
AcDb2dVertex
 10
93.61529594500816
 20
-151.3705944066019
 30
0.0
  0
SEQEND
  5
56
330
53
100
AcDbEntity
  8
_U+30EC_U+30A4_U+30E4_U+30FC 1
 62
     7
420
 16777215
370
     9
  0
POLYLINE
  5
57
330
1F
100
AcDbEntity
  8
_U+30EC_U+30A4_U+30E4_U+30FC 1
 62
     7
420
 16777215
370
     9
100
AcDb2dPolyline
 66
     1
 10
0.0
 20
0.0
 30
0.0
  0
VERTEX
  5
58
330
57
100
AcDbEntity
  8
_U+30EC_U+30A4_U+30E4_U+30FC 1
 62
     7
420
 16777215
370
     9
100
AcDbVertex
100
AcDb2dVertex
 10
98.61585275312356
 20
-154.3533657947448
 30
0.0
  0
VERTEX
  5
59
330
57
100
AcDbEntity
  8
_U+30EC_U+30A4_U+30E4_U+30FC 1
 62
     7
420
 16777215
370
     9
100
AcDbVertex
100
AcDb2dVertex
 10
98.61585275312356
 20
-151.3705944066019
 30
0.0
  0
SEQEND
  5
5A
330
57
100
AcDbEntity
  8
_U+30EC_U+30A4_U+30E4_U+30FC 1
 62
     7
420
 16777215
370
     9
  0
INSERT
  5
5C
330
1F
100
AcDbEntity
  8
_U+30EC_U+30A4_U+30E4_U+30FC 1
100
AcDbBlockReference
  2
block 3
 10
0.0
 20
0.0
 30
0.0
  0
POLYLINE
  5
61
330
1F
100
AcDbEntity
  8
_U+30EC_U+30A4_U+30E4_U+30FC 1
 62
     7
420
 16777215
370
     9
100
AcDb2dPolyline
 66
     1
 10
0.0
 20
0.0
 30
0.0
  0
VERTEX
  5
62
330
61
100
AcDbEntity
  8
_U+30EC_U+30A4_U+30E4_U+30FC 1
 62
     7
420
 16777215
370
     9
100
AcDbVertex
100
AcDb2dVertex
 10
64.5944914076128
 20
-117.3902627484301
 30
0.0
  0
VERTEX
  5
63
330
61
100
AcDbEntity
  8
_U+30EC_U+30A4_U+30E4_U+30FC 1
 62
     7
420
 16777215
370
     9
100
AcDbVertex
100
AcDb2dVertex
 10
64.5944914076128
 20
-102.7031360854355
 30
0.0
  0
SEQEND
  5
64
330
61
100
AcDbEntity
  8
_U+30EC_U+30A4_U+30E4_U+30FC 1
 62
     7
420
 16777215
370
     9
  0
POLYLINE
  5
65
330
1F
100
AcDbEntity
  8
_U+30EC_U+30A4_U+30E4_U+30FC 1
 62
     7
420
 16777215
370
     9
100
AcDb2dPolyline
 66
     1
 10
0.0
 20
0.0
 30
0.0
  0
VERTEX
  5
66
330
65
100
AcDbEntity
  8
_U+30EC_U+30A4_U+30E4_U+30FC 1
 62
     7
420
 16777215
370
     9
100
AcDbVertex
100
AcDb2dVertex
 10
64.5944914076128
 20
-147.5410505186703
 30
0.0
  0
VERTEX
  5
67
330
65
100
AcDbEntity
  8
_U+30EC_U+30A4_U+30E4_U+30FC 1
 62
     7
420
 16777215
370
     9
100
AcDbVertex
100
AcDb2dVertex
 10
64.5944914076128
 20
-117.3902627484301
 30
0.0
  0
SEQEND
  5
68
330
65
100
AcDbEntity
  8
_U+30EC_U+30A4_U+30E4_U+30FC 1
 62
     7
420
 16777215
370
     9
  0
POLYLINE
  5
69
330
1F
100
AcDbEntity
  8
_U+30EC_U+30A4_U+30E4_U+30FC 1
 62
     7
420
 16777215
370
     9
100
AcDb2dPolyline
 66
     1
 10
0.0
 20
0.0
 30
0.0
  0
VERTEX
  5
6A
330
69
100
AcDbEntity
  8
_U+30EC_U+30A4_U+30E4_U+30FC 1
 62
     7
420
 16777215
370
     9
100
AcDbVertex
100
AcDb2dVertex
 10
87.99360581065164
 20
-147.5410505186703
 30
0.0
  0
VERTEX
  5
6B
330
69
100
AcDbEntity
  8
_U+30EC_U+30A4_U+30E4_U+30FC 1
 62
     7
420
 16777215
370
     9
100
AcDbVertex
100
AcDb2dVertex
 10
63.12206755628856
 20
-147.5410505186703
 30
0.0
  0
SEQEND
  5
6C
330
69
100
AcDbEntity
  8
_U+30EC_U+30A4_U+30E4_U+30FC 1
 62
     7
420
 16777215
370
     9
  0
POLYLINE
  5
6D
330
1F
100
AcDbEntity
  8
_U+30EC_U+30A4_U+30E4_U+30FC 1
 62
     7
420
 16777215
370
     9
100
AcDb2dPolyline
 66
     1
 10
0.0
 20
0.0
 30
0.0
  0
VERTEX
  5
6E
330
6D
100
AcDbEntity
  8
_U+30EC_U+30A4_U+30E4_U+30FC 1
 62
     7
420
 16777215
370
     9
100
AcDbVertex
100
AcDb2dVertex
 10
68.00514687615528
 20
-117.5411458039481
 30
0.0
  0
VERTEX
  5
6F
330
6D
100
AcDbEntity
  8
_U+30EC_U+30A4_U+30E4_U+30FC 1
 62
     7
420
 16777215
370
     9
100
AcDbVertex
100
AcDb2dVertex
 10
63.00011387313873
 20
-117.5411458039481
 30
0.0
  0
SEQEND
  5
70
330
6D
100
AcDbEntity
  8
_U+30EC_U+30A4_U+30E4_U+30FC 1
 62
     7
420
 16777215
370
     9
  0
POLYLINE
  5
71
330
1F
100
AcDbEntity
  8
_U+30EC_U+30A4_U+30E4_U+30FC 1
 62
     7
420
 16777215
370
     9
100
AcDb2dPolyline
 66
     1
 10
0.0
 20
0.0
 30
0.0
  0
VERTEX
  5
72
330
71
100
AcDbEntity
  8
_U+30EC_U+30A4_U+30E4_U+30FC 1
 62
     7
420
 16777215
370
     9
100
AcDbVertex
100
AcDb2dVertex
 10
82.86866205251097
 20
-102.5405055299205
 30
0.0
  0
VERTEX
  5
73
330
71
100
AcDbEntity
  8
_U+30EC_U+30A4_U+30E4_U+30FC 1
 62
     7
420
 16777215
370
     9
100
AcDbVertex
100
AcDb2dVertex
 10
63.00011387313873
 20
-102.5405055299205
 30
0.0
  0
SEQEND
  5
74
330
71
100
AcDbEntity
  8
_U+30EC_U+30A4_U+30E4_U+30FC 1
 62
     7
420
 16777215
370
     9
  0
INSERT
  5
76
330
1F
100
AcDbEntity
  8
_U+30EC_U+30A4_U+30E4_U+30FC 1
100
AcDbBlockReference
  2
block 4
 10
0.0
 20
0.0
 30
0.0
  0
INSERT
  5
7F
330
1F
100
AcDbEntity
  8
_U+30EC_U+30A4_U+30E4_U+30FC 1
100
AcDbBlockReference
  2
block 5
 10
0.0
 20
0.0
 30
0.0
  0
POLYLINE
  5
86
330
1F
100
AcDbEntity
  8
_U+30EC_U+30A4_U+30E4_U+30FC 1
 62
     7
420
 16777215
370
     9
100
AcDb2dPolyline
 66
     1
 10
0.0
 20
0.0
 30
0.0
  0
VERTEX
  5
87
330
86
100
AcDbEntity
  8
_U+30EC_U+30A4_U+30E4_U+30FC 1
 62
     7
420
 16777215
370
     9
100
AcDbVertex
100
AcDb2dVertex
 10
117.832925327165
 20
-132.0284591336595
 30
0.0
  0
VERTEX
  5
88
330
86
100
AcDbEntity
  8
_U+30EC_U+30A4_U+30E4_U+30FC 1
 62
     7
420
 16777215
370
     9
100
AcDbVertex
100
AcDb2dVertex
 10
117.832925327165
 20
-131.0087196894704
 30
0.0
  0
SEQEND
  5
89
330
86
100
AcDbEntity
  8
_U+30EC_U+30A4_U+30E4_U+30FC 1
 62
     7
420
 16777215
370
     9
  0
POLYLINE
  5
8A
330
1F
100
AcDbEntity
  8
_U+30EC_U+30A4_U+30E4_U+30FC 1
 62
     7
420
 16777215
370
     9
100
AcDb2dPolyline
 66
     1
 10
0.0
 20
0.0
 30
0.0
  0
VERTEX
  5
8B
330
8A
100
AcDbEntity
  8
_U+30EC_U+30A4_U+30E4_U+30FC 1
 62
     7
420
 16777215
370
     9
100
AcDbVertex
100
AcDb2dVertex
 10
117.8322550494043
 20
-147.5320899631168
 30
0.0
  0
VERTEX
  5
8C
330
8A
100
AcDbEntity
  8
_U+30EC_U+30A4_U+30E4_U+30FC 1
 62
     7
420
 16777215
370
     9
100
AcDbVertex
100
AcDb2dVertex
 10
117.8322550494043
 20
-132.0284591336595
 30
0.0
  0
SEQEND
  5
8D
330
8A
100
AcDbEntity
  8
_U+30EC_U+30A4_U+30E4_U+30FC 1
 62
     7
420
 16777215
370
     9
  0
POLYLINE
  5
8E
330
1F
100
AcDbEntity
  8
_U+30EC_U+30A4_U+30E4_U+30FC 1
 62
     7
420
 16777215
370
     9
100
AcDb2dPolyline
 66
     1
 10
0.0
 20
0.0
 30
0.0
  0
VERTEX
  5
8F
330
8E
100
AcDbEntity
  8
_U+30EC_U+30A4_U+30E4_U+30FC 1
 62
     7
420
 16777215
370
     9
100
AcDbVertex
100
AcDb2dVertex
 10
119.1848050148979
 20
-147.5410505186703
 30
0.0
  0
VERTEX
  5
90
330
8E
100
AcDbEntity
  8
_U+30EC_U+30A4_U+30E4_U+30FC 1
 62
     7
420
 16777215
370
     9
100
AcDbVertex
100
AcDb2dVertex
 10
99.76583523253927
 20
-147.5410505186703
 30
0.0
  0
SEQEND
  5
91
330
8E
100
AcDbEntity
  8
_U+30EC_U+30A4_U+30E4_U+30FC 1
 62
     7
420
 16777215
370
     9
  0
POLYLINE
  5
92
330
1F
100
AcDbEntity
  8
_U+30EC_U+30A4_U+30E4_U+30FC 1
 62
     7
420
 16777215
370
     9
100
AcDb2dPolyline
 66
     1
 10
0.0
 20
0.0
 30
0.0
  0
VERTEX
  5
93
330
92
100
AcDbEntity
  8
_U+30EC_U+30A4_U+30E4_U+30FC 1
 62
     7
420
 16777215
370
     9
100
AcDbVertex
100
AcDb2dVertex
 10
119.7718272221439
 20
-132.0408769114342
 30
0.0
  0
VERTEX
  5
94
330
92
100
AcDbEntity
  8
_U+30EC_U+30A4_U+30E4_U+30FC 1
 62
     7
420
 16777215
370
     9
100
AcDbVertex
100
AcDb2dVertex
 10
114.7661223498501
 20
-132.0408769114342
 30
0.0
  0
SEQEND
  5
95
330
92
100
AcDbEntity
  8
_U+30EC_U+30A4_U+30E4_U+30FC 1
 62
     7
420
 16777215
370
     9
  0
POLYLINE
  5
96
330
1F
100
AcDbEntity
  8
_U+30EC_U+30A4_U+30E4_U+30FC 1
 62
     7
420
 16777215
370
     9
100
AcDb2dPolyline
 66
     1
 10
0.0
 20
0.0
 30
0.0
  0
VERTEX
  5
97
330
96
100
AcDbEntity
  8
_U+30EC_U+30A4_U+30E4_U+30FC 1
 62
     7
420
 16777215
370
     9
100
AcDbVertex
100
AcDb2dVertex
 10
119.7718272221439
 20
-131.0411046894617
 30
0.0
  0
VERTEX
  5
98
330
96
100
AcDbEntity
  8
_U+30EC_U+30A4_U+30E4_U+30FC 1
 62
     7
420
 16777215
370
     9
100
AcDbVertex
100
AcDb2dVertex
 10
114.7661223498501
 20
-131.0411046894617
 30
0.0
  0
SEQEND
  5
99
330
96
100
AcDbEntity
  8
_U+30EC_U+30A4_U+30E4_U+30FC 1
 62
     7
420
 16777215
370
     9
  0
INSERT
  5
9B
330
1F
100
AcDbEntity
  8
_U+30EC_U+30A4_U+30E4_U+30FC 1
100
AcDbBlockReference
  2
block 6
 10
0.0
 20
0.0
 30
0.0
  0
INSERT
  5
AD
330
1F
100
AcDbEntity
  8
_U+30EC_U+30A4_U+30E4_U+30FC 1
100
AcDbBlockReference
  2
block 7
 10
0.0
 20
0.0
 30
0.0
  0
SPLINE
  5
B2
330
1F
100
AcDbEntity
  8
_U+30EC_U+30A4_U+30E4_U+30FC 1
 62
     7
420
 16777215
370
     9
100
AcDbSpline
210
0.0
220
0.0
230
1.0
 70
    11
 71
     3
 72
    17
 73
    13
 74
     0
 42
0.0000000001
 43
0.0000000001
 12
1.0
 22
0.0
 32
0.0
 13
1.0
 23
0.0
 33
0.0
 40
0.0
 40
0.0
 40
0.0
 40
0.0
 40
1.0
 40
1.0
 40
1.0
 40
2.0
 40
2.0
 40
2.0
 40
3.0
 40
3.0
 40
3.0
 40
4.0
 40
4.0
 40
4.0
 40
4.0
 10
64.6985608494022
 20
-102.5715146965792
 30
0.0
 10
64.6985608494022
 20
-102.5164108077043
 30
0.0
 10
64.65375807276743
 20
-102.4723135854931
 30
0.0
 10
64.59865418528436
 20
-102.4723135854931
 30
0.0
 10
64.54351665053066
 20
-102.4723135854931
 30
0.0
 10
64.49874752116654
 20
-102.5164108077043
 30
0.0
 10
64.49874752116654
 20
-102.5715146965792
 30
0.0
 10
64.49874752116654
 20
-102.6266538632323
 30
0.0
 10
64.54351665053066
 20
-102.6714213632209
 30
0.0
 10
64.59865418528436
 20
-102.6714213632209
 30
0.0
 10
64.65375807276743
 20
-102.6714213632209
 30
0.0
 10
64.6985608494022
 20
-102.6266538632323
 30
0.0
 10
64.6985608494022
 20
-102.5715146965792
 30
0.0
  0
SPLINE
  5
B3
330
1F
100
AcDbEntity
  8
_U+30EC_U+30A4_U+30E4_U+30FC 1
 62
     7
420
 16777215
370
     9
100
AcDbSpline
210
0.0
220
0.0
230
1.0
 70
    11
 71
     3
 72
    17
 73
    13
 74
     0
 42
0.0000000001
 43
0.0000000001
 12
1.0
 22
0.0
 32
0.0
 13
1.0
 23
0.0
 33
0.0
 40
0.0
 40
0.0
 40
0.0
 40
0.0
 40
1.0
 40
1.0
 40
1.0
 40
2.0
 40
2.0
 40
2.0
 40
3.0
 40
3.0
 40
3.0
 40
4.0
 40
4.0
 40
4.0
 40
4.0
 10
64.71577640451855
 20
-117.5390644150596
 30
0.0
 10
64.71577640451855
 20
-117.4839605261847
 30
0.0
 10
64.67097362788378
 20
-117.439157748418
 30
0.0
 10
64.61586974040071
 20
-117.439157748418
 30
0.0
 10
64.56073057514077
 20
-117.439157748418
 30
0.0
 10
64.51596307628287
 20
-117.4839605261847
 30
0.0
 10
64.51596307628287
 20
-117.5390644150596
 30
0.0
 10
64.51596307628287
 20
-117.5948738594901
 30
0.0
 10
64.56073057514077
 20
-117.6389710817013
 30
0.0
 10
64.61586974040071
 20
-117.6389710817013
 30
0.0
 10
64.67097362788378
 20
-117.6389710817013
 30
0.0
 10
64.71577640451855
 20
-117.5948738594901
 30
0.0
 10
64.71577640451855
 20
-117.5390644150596
 30
0.0
  0
SPLINE
  5
B4
330
1F
100
AcDbEntity
  8
_U+30EC_U+30A4_U+30E4_U+30FC 1
 62
     7
420
 16777215
370
     9
100
AcDbSpline
210
0.0
220
0.0
230
1.0
 70
    11
 71
     3
 72
    17
 73
    13
 74
     0
 42
0.0000000001
 43
0.0000000001
 12
1.0
 22
0.0
 32
0.0
 13
1.0
 23
0.0
 33
0.0
 40
0.0
 40
0.0
 40
0.0
 40
0.0
 40
1.0
 40
1.0
 40
1.0
 40
2.0
 40
2.0
 40
2.0
 40
3.0
 40
3.0
 40
3.0
 40
4.0
 40
4.0
 40
4.0
 40
4.0
 10
64.68787168300824
 20
-147.5017510742358
 30
0.0
 10
64.68787168300824
 20
-147.4466471853608
 30
0.0
 10
64.64342168414225
 20
-147.4025499631496
 30
0.0
 10
64.58831942829738
 20
-147.4025499631496
 30
0.0
 10
64.53250835363855
 20
-147.4025499631496
 30
0.0
 10
64.48841113254134
 20
-147.4466471853608
 30
0.0
 10
64.48841113254134
 20
-147.5017510742358
 30
0.0
 10
64.48841113254134
 20
-147.5575605186662
 30
0.0
 10
64.53250835363855
 20
-147.6023632964329
 30
0.0
 10
64.58831942829738
 20
-147.6023632964329
 30
0.0
 10
64.64342168414225
 20
-147.6023632964329
 30
0.0
 10
64.68787168300824
 20
-147.5575605186662
 30
0.0
 10
64.68787168300824
 20
-147.5017510742358
 30
0.0
  0
SPLINE
  5
B5
330
1F
100
AcDbEntity
  8
_U+30EC_U+30A4_U+30E4_U+30FC 1
 62
     7
420
 16777215
370
     9
100
AcDbSpline
210
0.0
220
0.0
230
1.0
 70
    11
 71
     3
 72
    17
 73
    13
 74
     0
 42
0.0000000001
 43
0.0000000001
 12
1.0
 22
0.0
 32
0.0
 13
1.0
 23
0.0
 33
0.0
 40
0.0
 40
0.0
 40
0.0
 40
0.0
 40
1.0
 40
1.0
 40
1.0
 40
2.0
 40
2.0
 40
2.0
 40
3.0
 40
3.0
 40
3.0
 40
4.0
 40
4.0
 40
4.0
 40
4.0
 10
68.7310224131922
 20
-152.4013757952329
 30
0.0
 10
68.7310224131922
 20
-152.346271906358
 30
0.0
 10
68.68625491433431
 20
-152.3014691285913
 30
0.0
 10
68.63076297130559
 20
-152.3014691285913
 30
0.0
 10
68.5760118615913
 20
-152.3014691285913
 30
0.0
 10
68.53120908495653
 20
-152.346271906358
 30
0.0
 10
68.53120908495653
 20
-152.4013757952329
 30
0.0
 10
68.53120908495653
 20
-152.4571852396633
 30
0.0
 10
68.5760118615913
 20
-152.5012824618745
 30
0.0
 10
68.63076297130559
 20
-152.5012824618745
 30
0.0
 10
68.68625491433431
 20
-152.5012824618745
 30
0.0
 10
68.7310224131922
 20
-152.4571852396633
 30
0.0
 10
68.7310224131922
 20
-152.4013757952329
 30
0.0
  0
SPLINE
  5
B6
330
1F
100
AcDbEntity
  8
_U+30EC_U+30A4_U+30E4_U+30FC 1
 62
     7
420
 16777215
370
     9
100
AcDbSpline
210
0.0
220
0.0
230
1.0
 70
    11
 71
     3
 72
    17
 73
    13
 74
     0
 42
0.0000000001
 43
0.0000000001
 12
1.0
 22
0.0
 32
0.0
 13
1.0
 23
0.0
 33
0.0
 40
0.0
 40
0.0
 40
0.0
 40
0.0
 40
1.0
 40
1.0
 40
1.0
 40
2.0
 40
2.0
 40
2.0
 40
3.0
 40
3.0
 40
3.0
 40
4.0
 40
4.0
 40
4.0
 40
4.0
 10
93.73414677530936
 20
-152.4130880174521
 30
0.0
 10
93.73414677530936
 20
-152.3579841285772
 30
0.0
 10
93.68937927645148
 20
-152.3131813508105
 30
0.0
 10
93.6345928889603
 20
-152.3131813508105
 30
0.0
 10
93.57913622370845
 20
-152.3131813508105
 30
0.0
 10
93.53468622484246
 20
-152.3579841285772
 30
0.0
 10
93.53468622484246
 20
-152.4130880174521
 30
0.0
 10
93.53468622484246
 20
-152.4682271841052
 30
0.0
 10
93.57913622370845
 20
-152.5129946840938
 30
0.0
 10
93.6345928889603
 20
-152.5129946840938
 30
0.0
 10
93.68937927645148
 20
-152.5129946840938
 30
0.0
 10
93.73414677530936
 20
-152.4682271841052
 30
0.0
 10
93.73414677530936
 20
-152.4130880174521
 30
0.0
  0
SPLINE
  5
B7
330
1F
100
AcDbEntity
  8
_U+30EC_U+30A4_U+30E4_U+30FC 1
 62
     7
420
 16777215
370
     9
100
AcDbSpline
210
0.0
220
0.0
230
1.0
 70
    11
 71
     3
 72
    17
 73
    13
 74
     0
 42
0.0000000001
 43
0.0000000001
 12
1.0
 22
0.0
 32
0.0
 13
1.0
 23
0.0
 33
0.0
 40
0.0
 40
0.0
 40
0.0
 40
0.0
 40
1.0
 40
1.0
 40
1.0
 40
2.0
 40
2.0
 40
2.0
 40
3.0
 40
3.0
 40
3.0
 40
4.0
 40
4.0
 40
4.0
 40
4.0
 10
98.70852498173574
 20
-152.4130880174521
 30
0.0
 10
98.70852498173574
 20
-152.3579841285772
 30
0.0
 10
98.66340470510906
 20
-152.3131813508105
 30
0.0
 10
98.6086183176179
 20
-152.3131813508105
 30
0.0
 10
98.55351443013483
 20
-152.3131813508105
 30
0.0
 10
98.50871165350006
 20
-152.3579841285772
 30
0.0
 10
98.50871165350006
 20
-152.4130880174521
 30
0.0
 10
98.50871165350006
 20
-152.4682271841052
 30
0.0
 10
98.55351443013483
 20
-152.5129946840938
 30
0.0
 10
98.6086183176179
 20
-152.5129946840938
 30
0.0
 10
98.66340470510906
 20
-152.5129946840938
 30
0.0
 10
98.70852498173574
 20
-152.4682271841052
 30
0.0
 10
98.70852498173574
 20
-152.4130880174521
 30
0.0
  0
SPLINE
  5
B8
330
1F
100
AcDbEntity
  8
_U+30EC_U+30A4_U+30E4_U+30FC 1
 62
     7
420
 16777215
370
     9
100
AcDbSpline
210
0.0
220
0.0
230
1.0
 70
    11
 71
     3
 72
    17
 73
    13
 74
     0
 42
0.0000000001
 43
0.0000000001
 12
1.0
 22
0.0
 32
0.0
 13
1.0
 23
0.0
 33
0.0
 40
0.0
 40
0.0
 40
0.0
 40
0.0
 40
1.0
 40
1.0
 40
1.0
 40
2.0
 40
2.0
 40
2.0
 40
3.0
 40
3.0
 40
3.0
 40
4.0
 40
4.0
 40
4.0
 40
4.0
 10
117.9342431023579
 20
-147.5320899631168
 30
0.0
 10
117.9342431023579
 20
-147.4769507964644
 30
0.0
 10
117.8894403257231
 20
-147.4321832964752
 30
0.0
 10
117.8343364382401
 20
-147.4321832964752
 30
0.0
 10
117.7791972729801
 20
-147.4321832964752
 30
0.0
 10
117.7351000518829
 20
-147.4769507964644
 30
0.0
 10
117.7351000518829
 20
-147.5320899631168
 30
0.0
 10
117.7351000518829
 20
-147.5871938519924
 30
0.0
 10
117.7791972729801
 20
-147.6319966297584
 30
0.0
 10
117.8343364382401
 20
-147.6319966297584
 30
0.0
 10
117.8894403257231
 20
-147.6319966297584
 30
0.0
 10
117.9342431023579
 20
-147.5871938519924
 30
0.0
 10
117.9342431023579
 20
-147.5320899631168
 30
0.0
  0
SPLINE
  5
B9
330
1F
100
AcDbEntity
  8
_U+30EC_U+30A4_U+30E4_U+30FC 1
 62
     7
420
 16777215
370
     9
100
AcDbSpline
210
0.0
220
0.0
230
1.0
 70
    11
 71
     3
 72
    17
 73
    13
 74
     0
 42
0.0000000001
 43
0.0000000001
 12
1.0
 22
0.0
 32
0.0
 13
1.0
 23
0.0
 33
0.0
 40
0.0
 40
0.0
 40
0.0
 40
0.0
 40
1.0
 40
1.0
 40
1.0
 40
2.0
 40
2.0
 40
2.0
 40
3.0
 40
3.0
 40
3.0
 40
4.0
 40
4.0
 40
4.0
 40
4.0
 10
117.9342431023579
 20
-132.0064105225539
 30
0.0
 10
117.9342431023579
 20
-131.9513066336789
 30
0.0
 10
117.8894403257231
 20
-131.9065038559122
 30
0.0
 10
117.8343364382401
 20
-131.9065038559122
 30
0.0
 10
117.7791972729801
 20
-131.9065038559122
 30
0.0
 10
117.7351000518829
 20
-131.9513066336789
 30
0.0
 10
117.7351000518829
 20
-132.0064105225539
 30
0.0
 10
117.7351000518829
 20
-132.0608441336514
 30
0.0
 10
117.7791972729801
 20
-132.1063171891955
 30
0.0
 10
117.8343364382401
 20
-132.1063171891955
 30
0.0
 10
117.8894403257231
 20
-132.1063171891955
 30
0.0
 10
117.9342431023579
 20
-132.0608441336514
 30
0.0
 10
117.9342431023579
 20
-132.0064105225539
 30
0.0
  0
SPLINE
  5
BA
330
1F
100
AcDbEntity
  8
_U+30EC_U+30A4_U+30E4_U+30FC 1
 62
     7
420
 16777215
370
     9
100
AcDbSpline
210
0.0
220
0.0
230
1.0
 70
    11
 71
     3
 72
    17
 73
    13
 74
     0
 42
0.0000000001
 43
0.0000000001
 12
1.0
 22
0.0
 32
0.0
 13
1.0
 23
0.0
 33
0.0
 40
0.0
 40
0.0
 40
0.0
 40
0.0
 40
1.0
 40
1.0
 40
1.0
 40
2.0
 40
2.0
 40
2.0
 40
3.0
 40
3.0
 40
3.0
 40
4.0
 40
4.0
 40
4.0
 40
4.0
 10
117.9342431023579
 20
-131.0548630227918
 30
0.0
 10
117.9342431023579
 20
-130.9997591339169
 30
0.0
 10
117.8894403257231
 20
-130.9549563561502
 30
0.0
 10
117.8343364382401
 20
-130.9549563561502
 30
0.0
 10
117.7791972729801
 20
-130.9549563561502
 30
0.0
 10
117.7351000518829
 20
-130.9997591339169
 30
0.0
 10
117.7351000518829
 20
-131.0548630227918
 30
0.0
 10
117.7351000518829
 20
-131.1100021894449
 30
0.0
 10
117.7791972729801
 20
-131.1547696894334
 30
0.0
 10
117.8343364382401
 20
-131.1547696894334
 30
0.0
 10
117.8894403257231
 20
-131.1547696894334
 30
0.0
 10
117.9342431023579
 20
-131.1100021894449
 30
0.0
 10
117.9342431023579
 20
-131.0548630227918
 30
0.0
  0
POLYLINE
  5
BB
330
1F
100
AcDbEntity
  8
_U+30EC_U+30A4_U+30E4_U+30FC 1
 62
     7
420
 16777215
370
     9
100
AcDb2dPolyline
 66
     1
 10
0.0
 20
0.0
 30
0.0
  0
VERTEX
  5
BC
330
BB
100
AcDbEntity
  8
_U+30EC_U+30A4_U+30E4_U+30FC 1
 62
     7
420
 16777215
370
     9
100
AcDbVertex
100
AcDb2dVertex
 10
75.75556862286999
 20
-140.0100563538863
 30
0.0
  0
VERTEX
  5
BD
330
BB
100
AcDbEntity
  8
_U+30EC_U+30A4_U+30E4_U+30FC 1
 62
     7
420
 16777215
370
     9
100
AcDbVertex
100
AcDb2dVertex
 10
76.6585385998333
 20
-139.4884744095725
 30
0.0
  0
SEQEND
  5
BE
330
BB
100
AcDbEntity
  8
_U+30EC_U+30A4_U+30E4_U+30FC 1
 62
     7
420
 16777215
370
     9
  0
POLYLINE
  5
BF
330
1F
100
AcDbEntity
  8
_U+30EC_U+30A4_U+30E4_U+30FC 1
 62
     7
420
 16777215
370
     9
100
AcDb2dPolyline
 66
     1
 10
0.0
 20
0.0
 30
0.0
  0
VERTEX
  5
C0
330
BF
100
AcDbEntity
  8
_U+30EC_U+30A4_U+30E4_U+30FC 1
 62
     7
420
 16777215
370
     9
100
AcDbVertex
100
AcDb2dVertex
 10
75.75556862286999
 20
-140.0100563538863
 30
0.0
  0
VERTEX
  5
C1
330
BF
100
AcDbEntity
  8
_U+30EC_U+30A4_U+30E4_U+30FC 1
 62
     7
420
 16777215
370
     9
100
AcDbVertex
100
AcDb2dVertex
 10
89.94316386640322
 20
-125.296753579787
 30
0.0
  0
SEQEND
  5
C2
330
BF
100
AcDbEntity
  8
_U+30EC_U+30A4_U+30E4_U+30FC 1
 62
     7
420
 16777215
370
     9
  0
POLYLINE
  5
C3
330
1F
100
AcDbEntity
  8
_U+30EC_U+30A4_U+30E4_U+30FC 1
 62
     7
420
 16777215
370
     9
100
AcDb2dPolyline
 66
     1
 10
0.0
 20
0.0
 30
0.0
  0
VERTEX
  5
C4
330
C3
100
AcDbEntity
  8
_U+30EC_U+30A4_U+30E4_U+30FC 1
 62
     7
420
 16777215
370
     9
100
AcDbVertex
100
AcDb2dVertex
 10
75.75556862286999
 20
-140.0100563538863
 30
0.0
  0
VERTEX
  5
C5
330
C3
100
AcDbEntity
  8
_U+30EC_U+30A4_U+30E4_U+30FC 1
 62
     7
420
 16777215
370
     9
100
AcDbVertex
100
AcDb2dVertex
 10
76.27718583178465
 20
-139.1067688541122
 30
0.0
  0
SEQEND
  5
C6
330
C3
100
AcDbEntity
  8
_U+30EC_U+30A4_U+30E4_U+30FC 1
 62
     7
420
 16777215
370
     9
  0
INSERT
  5
C8
330
1F
100
AcDbEntity
  8
_U+30EC_U+30A4_U+30E4_U+30FC 1
100
AcDbBlockReference
  2
block 8
 10
0.0
 20
0.0
 30
0.0
  0
ENDSEC
  0
SECTION
  2
OBJECTS
  0
DICTIONARY
  5
C
330
0
100
AcDbDictionary
281
     1
  3
ACAD_GROUP
350
D
  3
ACAD_LAYOUT
350
1A
  3
ACAD_MATERIAL
350
3B
  3
ACAD_MLEADERSTYLE
350
D3
  3
ACAD_MLINESTYLE
350
17
  3
ACAD_PLOTSETTINGS
350
19
  3
ACAD_PLOTSTYLENAME
350
E
  3
ACAD_TABLESTYLE
350
D2
  3
ACAD_VISUALSTYLE
350
2A
  0
SUN
  5
3F
330
29
100
AcDbSun
 90
        1
290
     0
 63
     7
421
 16777215
 40
1.0
291
     1
 91
  2455826
 92
 54000000
292
     0
 70
     2
 71
   256
280
     1
  0
DICTIONARY
  5
D
102
{ACAD_REACTORS
330
C
102
}
330
C
100
AcDbDictionary
281
     1
  0
DICTIONARY
  5
1A
102
{ACAD_REACTORS
330
C
102
}
330
C
100
AcDbDictionary
281
     1
  3
Layout1
350
1E
  3
Layout2
350
26
  3
Model
350
22
  0
DICTIONARY
  5
3B
102
{ACAD_REACTORS
330
C
102
}
330
C
100
AcDbDictionary
281
     1
  3
ByBlock
350
3D
  3
ByLayer
350
3C
  3
Global
350
3E
  0
DICTIONARY
  5
D3
102
{ACAD_REACTORS
330
C
102
}
330
C
100
AcDbDictionary
281
     1
  0
DICTIONARY
  5
17
102
{ACAD_REACTORS
330
C
102
}
330
C
100
AcDbDictionary
281
     1
  3
Standard
350
18
  0
DICTIONARY
  5
19
102
{ACAD_REACTORS
330
C
102
}
330
C
100
AcDbDictionary
281
     1
  0
ACDBDICTIONARYWDFLT
  5
E
102
{ACAD_REACTORS
330
C
102
}
330
C
100
AcDbDictionary
281
     1
  3
Normal
350
F
100
AcDbDictionaryWithDefault
340
F
  0
DICTIONARY
  5
D2
102
{ACAD_REACTORS
330
C
102
}
330
C
100
AcDbDictionary
281
     1
  0
DICTIONARY
  5
2A
102
{ACAD_REACTORS
330
C
102
}
330
C
100
AcDbDictionary
281
     1
  3
2dWireframe
350
2F
  3
3D Hidden
350
31
  3
3dWireframe
350
30
  3
Basic
350
32
  3
Brighten
350
36
  3
ColorChange
350
3A
  3
Conceptual
350
34
  3
Dim
350
35
  3
Facepattern
350
39
  3
Flat
350
2B
  3
FlatWithEdges
350
2C
  3
Gouraud
350
2D
  3
GouraudWithEdges
350
2E
  3
Linepattern
350
38
  3
Realistic
350
33
  3
Thicken
350
37
  0
LAYOUT
  5
1E
102
{ACAD_REACTORS
330
1A
102
}
330
1A
100
AcDbPlotSettings
  1

  2
none_device
  4

  6

 40
0.0
 41
0.0
 42
0.0
 43
0.0
 44
0.0
 45
0.0
 46
0.0
 47
0.0
 48
0.0
 49
0.0
140
0.0
141
0.0
142
1.0
143
1.0
 70
   688
 72
     0
 73
     0
 74
     5
  7

 75
    16
 76
     0
 77
     2
 78
   300
147
1.0
148
0.0
149
0.0
100
AcDbLayout
  1
Layout1
 70
     1
 71
     1
 10
0.0
 20
0.0
 11
12.0
 21
9.0
 12
0.0
 22
0.0
 32
0.0
 14
1.000000000000000E+20
 24
1.000000000000000E+20
 34
1.000000000000000E+20
 15
-1.000000000000000E+20
 25
-1.000000000000000E+20
 35
-1.000000000000000E+20
146
0.0
 13
0.0
 23
0.0
 33
0.0
 16
1.0
 26
0.0
 36
0.0
 17
0.0
 27
1.0
 37
0.0
 76
     0
330
1B
  0
LAYOUT
  5
26
102
{ACAD_REACTORS
330
1A
102
}
330
1A
100
AcDbPlotSettings
  1

  2
none_device
  4

  6

 40
0.0
 41
0.0
 42
0.0
 43
0.0
 44
0.0
 45
0.0
 46
0.0
 47
0.0
 48
0.0
 49
0.0
140
0.0
141
0.0
142
1.0
143
1.0
 70
   688
 72
     0
 73
     0
 74
     5
  7

 75
    16
 76
     0
 77
     2
 78
   300
147
1.0
148
0.0
149
0.0
100
AcDbLayout
  1
Layout2
 70
     1
 71
     2
 10
0.0
 20
0.0
 11
0.0
 21
0.0
 12
0.0
 22
0.0
 32
0.0
 14
0.0
 24
0.0
 34
0.0
 15
0.0
 25
0.0
 35
0.0
146
0.0
 13
0.0
 23
0.0
 33
0.0
 16
1.0
 26
0.0
 36
0.0
 17
0.0
 27
1.0
 37
0.0
 76
     0
330
23
  0
LAYOUT
  5
22
102
{ACAD_REACTORS
330
1A
102
}
330
1A
100
AcDbPlotSettings
  1

  2
none_device
  4

  6

 40
0.0
 41
0.0
 42
0.0
 43
0.0
 44
0.0
 45
0.0
 46
0.0
 47
0.0
 48
0.0
 49
0.0
140
0.0
141
0.0
142
1.0
143
1.0
 70
  1712
 72
     0
 73
     0
 74
     0
  7

 75
     0
 76
     0
 77
     2
 78
   300
147
1.0
148
0.0
149
0.0
100
AcDbLayout
  1
Model
 70
     1
 71
     0
 10
0.0
 20
0.0
 11
12.0
 21
9.0
 12
0.0
 22
0.0
 32
0.0
 14
1.000000000000000E+20
 24
1.000000000000000E+20
 34
1.000000000000000E+20
 15
-1.000000000000000E+20
 25
-1.000000000000000E+20
 35
-1.000000000000000E+20
146
0.0
 13
0.0
 23
0.0
 33
0.0
 16
1.0
 26
0.0
 36
0.0
 17
0.0
 27
1.0
 37
0.0
 76
     0
330
1F
331
29
  0
MATERIAL
  5
3D
102
{ACAD_REACTORS
330
3B
102
}
330
3B
100
AcDbMaterial
  1
ByBlock
 72
     1
 94
      127
  0
MATERIAL
  5
3C
102
{ACAD_REACTORS
330
3B
102
}
330
3B
100
AcDbMaterial
  1
ByLayer
 72
     1
 94
      127
  0
MATERIAL
  5
3E
102
{ACAD_REACTORS
330
3B
102
}
330
3B
100
AcDbMaterial
  1
Global
 72
     1
 94
      127
  0
MLINESTYLE
  5
18
102
{ACAD_REACTORS
330
17
102
}
330
17
100
AcDbMlineStyle
  2
Standard
 70
     0
  3

 62
   256
 51
90.0
 52
90.0
 71
     2
 49
0.5
 62
   256
  6
BYLAYER
 49
-0.5
 62
   256
  6
BYLAYER
  0
ACDBPLACEHOLDER
  5
F
102
{ACAD_REACTORS
330
E
102
}
330
E
  0
VISUALSTYLE
  5
2F
102
{ACAD_REACTORS
330
2A
102
}
330
2A
100
AcDbVisualStyle
  2
2dWireframe
 70
     4
177
     2
291
     0
 71
     0
176
     1
 72
     2
176
     1
 73
     0
176
     1
 90
        0
176
     1
 40
-0.6
176
     1
 41
-30.0
176
     1
 62
     5
 63
     7
421
 16777215
176
     1
 74
     1
176
     1
 91
        4
176
     1
 64
     7
176
     1
 65
   257
176
     1
 75
     1
176
     1
175
     1
176
     1
 42
1.0
176
     1
 92
        0
176
     1
 66
   257
176
     1
 43
1.0
176
     1
 76
     1
176
     1
 77
     6
176
     1
 78
     2
176
     1
 67
     7
176
     1
 79
     5
176
     1
170
     0
176
     1
171
     0
176
     1
290
     0
176
     1
 93
        1
176
     1
 44
0.0
176
     1
173
     0
176
     1
  0
VISUALSTYLE
  5
31
102
{ACAD_REACTORS
330
2A
102
}
330
2A
100
AcDbVisualStyle
  2
3D Hidden
 70
     6
177
     2
291
     0
 71
     1
176
     1
 72
     2
176
     1
 73
     2
176
     1
 90
        0
176
     1
 40
-0.6
176
     1
 41
-30.0
176
     1
 62
     5
 63
     7
421
 16777215
176
     1
 74
     2
176
     1
 91
        2
176
     1
 64
     7
176
     1
 65
   257
176
     1
 75
     2
176
     1
175
     1
176
     1
 42
40.0
176
     1
 92
        0
176
     1
 66
   257
176
     1
 43
1.0
176
     1
 76
     1
176
     1
 77
     6
176
     1
 78
     2
176
     1
 67
     7
176
     1
 79
     3
176
     1
170
     0
176
     1
171
     0
176
     1
290
     0
176
     1
 93
        1
176
     1
 44
0.0
176
     1
173
     0
176
     1
  0
VISUALSTYLE
  5
30
102
{ACAD_REACTORS
330
2A
102
}
330
2A
100
AcDbVisualStyle
  2
3dWireframe
 70
     5
177
     2
291
     0
 71
     0
176
     1
 72
     2
176
     1
 73
     0
176
     1
 90
        0
176
     1
 40
-0.6
176
     1
 41
-30.0
176
     1
 62
     5
 63
     7
421
 16777215
176
     1
 74
     1
176
     1
 91
        4
176
     1
 64
     7
176
     1
 65
   257
176
     1
 75
     1
176
     1
175
     1
176
     1
 42
1.0
176
     1
 92
        0
176
     1
 66
   257
176
     1
 43
1.0
176
     1
 76
     1
176
     1
 77
     6
176
     1
 78
     2
176
     1
 67
     7
176
     1
 79
     5
176
     1
170
     0
176
     1
171
     0
176
     1
290
     0
176
     1
 93
        1
176
     1
 44
0.0
176
     1
173
     0
176
     1
  0
VISUALSTYLE
  5
32
102
{ACAD_REACTORS
330
2A
102
}
330
2A
100
AcDbVisualStyle
  2
Basic
 70
     7
177
     2
291
     1
 71
     1
176
     1
 72
     0
176
     1
 73
     1
176
     1
 90
        0
176
     1
 40
-0.6
176
     1
 41
-30.0
176
     1
 62
     5
 63
     7
421
 16777215
176
     1
 74
     0
176
     1
 91
        4
176
     1
 64
     7
176
     1
 65
   257
176
     1
 75
     1
176
     1
175
     1
176
     1
 42
1.0
176
     1
 92
        8
176
     1
 66
     7
176
     1
 43
1.0
176
     1
 76
     1
176
     1
 77
     6
176
     1
 78
     2
176
     1
 67
     7
176
     1
 79
     5
176
     1
170
     0
176
     1
171
     0
176
     1
290
     0
176
     1
 93
        1
176
     1
 44
0.0
176
     1
173
     0
176
     1
  0
VISUALSTYLE
  5
36
102
{ACAD_REACTORS
330
2A
102
}
330
2A
100
AcDbVisualStyle
  2
Brighten
 70
    12
177
     2
291
     1
 71
     2
176
     1
 72
     2
176
     1
 73
     0
176
     1
 90
        0
176
     1
 40
-0.6
176
     1
 41
-30.0
176
     1
 62
     5
 63
     7
421
 16777215
176
     1
 74
     1
176
     1
 91
        4
176
     1
 64
     7
176
     1
 65
   257
176
     1
 75
     1
176
     1
175
     1
176
     1
 42
1.0
176
     1
 92
        8
176
     1
 66
     7
176
     1
 43
1.0
176
     1
 76
     1
176
     1
 77
     6
176
     1
 78
     2
176
     1
 67
     7
176
     1
 79
     5
176
     1
170
     0
176
     1
171
     0
176
     1
290
     0
176
     1
 93
        1
176
     1
 44
50.0
176
     1
173
     0
176
     1
  0
VISUALSTYLE
  5
3A
102
{ACAD_REACTORS
330
2A
102
}
330
2A
100
AcDbVisualStyle
  2
ColorChange
 70
    16
177
     2
291
     1
 71
     2
176
     1
 72
     2
176
     1
 73
     3
176
     1
 90
        0
176
     1
 40
-0.6
176
     1
 41
-30.0
176
     1
 62
     5
 63
     8
421
  8421504
176
     1
 74
     1
176
     1
 91
        4
176
     1
 64
     7
176
     1
 65
   257
176
     1
 75
     1
176
     1
175
     1
176
     1
 42
1.0
176
     1
 92
        8
176
     1
 66
     8
424
  8421504
176
     1
 43
1.0
176
     1
 76
     1
176
     1
 77
     6
176
     1
 78
     2
176
     1
 67
     7
176
     1
 79
     5
176
     1
170
     0
176
     1
171
     0
176
     1
290
     0
176
     1
 93
        1
176
     1
 44
0.0
176
     1
173
     0
176
     1
  0
VISUALSTYLE
  5
34
102
{ACAD_REACTORS
330
2A
102
}
330
2A
100
AcDbVisualStyle
  2
Conceptual
 70
     9
177
     2
291
     0
 71
     3
176
     1
 72
     2
176
     1
 73
     0
176
     1
 90
        0
176
     1
 40
-0.6
176
     1
 41
-30.0
176
     1
 62
     5
 63
     7
421
 16777215
176
     1
 74
     2
176
     1
 91
        2
176
     1
 64
     7
176
     1
 65
   257
176
     1
 75
     1
176
     1
175
     1
176
     1
 42
40.0
176
     1
 92
        8
176
     1
 66
     7
176
     1
 43
1.0
176
     1
 76
     1
176
     1
 77
     6
176
     1
 78
     2
176
     1
 67
     7
176
     1
 79
     3
176
     1
170
     0
176
     1
171
     0
176
     1
290
     0
176
     1
 93
        1
176
     1
 44
0.0
176
     1
173
     0
176
     1
  0
VISUALSTYLE
  5
35
102
{ACAD_REACTORS
330
2A
102
}
330
2A
100
AcDbVisualStyle
  2
Dim
 70
    11
177
     2
291
     1
 71
     2
176
     1
 72
     2
176
     1
 73
     0
176
     1
 90
        0
176
     1
 40
-0.6
176
     1
 41
-30.0
176
     1
 62
     5
 63
     7
421
 16777215
176
     1
 74
     1
176
     1
 91
        4
176
     1
 64
     7
176
     1
 65
   257
176
     1
 75
     1
176
     1
175
     1
176
     1
 42
1.0
176
     1
 92
        8
176
     1
 66
     7
176
     1
 43
1.0
176
     1
 76
     1
176
     1
 77
     6
176
     1
 78
     2
176
     1
 67
     7
176
     1
 79
     5
176
     1
170
     0
176
     1
171
     0
176
     1
290
     0
176
     1
 93
        1
176
     1
 44
-50.0
176
     1
173
     0
176
     1
  0
VISUALSTYLE
  5
39
102
{ACAD_REACTORS
330
2A
102
}
330
2A
100
AcDbVisualStyle
  2
Facepattern
 70
    15
177
     2
291
     1
 71
     2
176
     1
 72
     2
176
     1
 73
     0
176
     1
 90
        0
176
     1
 40
-0.6
176
     1
 41
-30.0
176
     1
 62
     5
 63
     7
421
 16777215
176
     1
 74
     1
176
     1
 91
        4
176
     1
 64
     7
176
     1
 65
   257
176
     1
 75
     1
176
     1
175
     1
176
     1
 42
1.0
176
     1
 92
        8
176
     1
 66
     7
176
     1
 43
1.0
176
     1
 76
     1
176
     1
 77
     6
176
     1
 78
     2
176
     1
 67
     7
176
     1
 79
     5
176
     1
170
     0
176
     1
171
     0
176
     1
290
     0
176
     1
 93
        1
176
     1
 44
0.0
176
     1
173
     0
176
     1
  0
VISUALSTYLE
  5
2B
102
{ACAD_REACTORS
330
2A
102
}
330
2A
100
AcDbVisualStyle
  2
Flat
 70
     0
177
     2
291
     1
 71
     2
176
     1
 72
     1
176
     1
 73
     1
176
     1
 90
        2
176
     1
 40
-0.6
176
     1
 41
30.0
176
     1
 62
     5
 63
     7
421
 16777215
176
     1
 74
     0
176
     1
 91
        4
176
     1
 64
     7
176
     1
 65
   257
176
     1
 75
     1
176
     1
175
     1
176
     1
 42
1.0
176
     1
 92
        8
176
     1
 66
     7
176
     1
 43
1.0
176
     1
 76
     1
176
     1
 77
     6
176
     1
 78
     2
176
     1
 67
     7
176
     1
 79
     5
176
     1
170
     0
176
     1
171
     0
176
     1
290
     0
176
     1
 93
       13
176
     1
 44
0.0
176
     1
173
     0
176
     1
  0
VISUALSTYLE
  5
2C
102
{ACAD_REACTORS
330
2A
102
}
330
2A
100
AcDbVisualStyle
  2
FlatWithEdges
 70
     1
177
     2
291
     1
 71
     2
176
     1
 72
     1
176
     1
 73
     1
176
     1
 90
        2
176
     1
 40
-0.6
176
     1
 41
30.0
176
     1
 62
     5
 63
     7
421
 16777215
176
     1
 74
     1
176
     1
 91
        4
176
     1
 64
     7
176
     1
 65
   257
176
     1
 75
     1
176
     1
175
     1
176
     1
 42
1.0
176
     1
 92
        0
176
     1
 66
   257
176
     1
 43
1.0
176
     1
 76
     1
176
     1
 77
     6
176
     1
 78
     2
176
     1
 67
     7
176
     1
 79
     5
176
     1
170
     0
176
     1
171
     0
176
     1
290
     0
176
     1
 93
       13
176
     1
 44
0.0
176
     1
173
     0
176
     1
  0
VISUALSTYLE
  5
2D
102
{ACAD_REACTORS
330
2A
102
}
330
2A
100
AcDbVisualStyle
  2
Gouraud
 70
     2
177
     2
291
     1
 71
     2
176
     1
 72
     2
176
     1
 73
     1
176
     1
 90
        2
176
     1
 40
-0.6
176
     1
 41
30.0
176
     1
 62
     5
 63
     7
421
 16777215
176
     1
 74
     0
176
     1
 91
        4
176
     1
 64
     7
176
     1
 65
   257
176
     1
 75
     1
176
     1
175
     1
176
     1
 42
1.0
176
     1
 92
        0
176
     1
 66
     7
176
     1
 43
1.0
176
     1
 76
     1
176
     1
 77
     6
176
     1
 78
     2
176
     1
 67
     7
176
     1
 79
     5
176
     1
170
     0
176
     1
171
     0
176
     1
290
     0
176
     1
 93
       13
176
     1
 44
0.0
176
     1
173
     0
176
     1
  0
VISUALSTYLE
  5
2E
102
{ACAD_REACTORS
330
2A
102
}
330
2A
100
AcDbVisualStyle
  2
GouraudWithEdges
 70
     3
177
     2
291
     1
 71
     2
176
     1
 72
     2
176
     1
 73
     1
176
     1
 90
        2
176
     1
 40
-0.6
176
     1
 41
30.0
176
     1
 62
     5
 63
     7
421
 16777215
176
     1
 74
     1
176
     1
 91
        4
176
     1
 64
     7
176
     1
 65
   257
176
     1
 75
     1
176
     1
175
     1
176
     1
 42
1.0
176
     1
 92
        0
176
     1
 66
   257
176
     1
 43
1.0
176
     1
 76
     1
176
     1
 77
     6
176
     1
 78
     2
176
     1
 67
     7
176
     1
 79
     5
176
     1
170
     0
176
     1
171
     0
176
     1
290
     0
176
     1
 93
       13
176
     1
 44
0.0
176
     1
173
     0
176
     1
  0
VISUALSTYLE
  5
38
102
{ACAD_REACTORS
330
2A
102
}
330
2A
100
AcDbVisualStyle
  2
Linepattern
 70
    14
177
     2
291
     1
 71
     2
176
     1
 72
     2
176
     1
 73
     0
176
     1
 90
        0
176
     1
 40
-0.6
176
     1
 41
-30.0
176
     1
 62
     5
 63
     7
421
 16777215
176
     1
 74
     1
176
     1
 91
        4
176
     1
 64
     7
176
     1
 65
   257
176
     1
 75
     7
176
     1
175
     7
176
     1
 42
1.0
176
     1
 92
        8
176
     1
 66
     7
176
     1
 43
1.0
176
     1
 76
     1
176
     1
 77
     6
176
     1
 78
     2
176
     1
 67
     7
176
     1
 79
     5
176
     1
170
     0
176
     1
171
     0
176
     1
290
     0
176
     1
 93
        1
176
     1
 44
0.0
176
     1
173
     0
176
     1
  0
VISUALSTYLE
  5
33
102
{ACAD_REACTORS
330
2A
102
}
330
2A
100
AcDbVisualStyle
  2
Realistic
 70
     8
177
     2
291
     0
 71
     2
176
     1
 72
     2
176
     1
 73
     0
176
     1
 90
        0
176
     1
 40
-0.6
176
     1
 41
-30.0
176
     1
 62
     5
 63
     7
421
 16777215
176
     1
 74
     1
176
     1
 91
        0
176
     1
 64
     7
176
     1
 65
   257
176
     1
 75
     1
176
     1
175
     1
176
     1
 42
1.0
176
     1
 92
        8
176
     1
 66
     8
424
  7895160
176
     1
 43
1.0
176
     1
 76
     1
176
     1
 77
     6
176
     1
 78
     2
176
     1
 67
     7
176
     1
 79
     5
176
     1
170
     0
176
     1
171
     0
176
     1
290
     0
176
     1
 93
       13
176
     1
 44
0.0
176
     1
173
     0
176
     1
  0
VISUALSTYLE
  5
37
102
{ACAD_REACTORS
330
2A
102
}
330
2A
100
AcDbVisualStyle
  2
Thicken
 70
    13
177
     2
291
     1
 71
     2
176
     1
 72
     2
176
     1
 73
     0
176
     1
 90
        0
176
     1
 40
-0.6
176
     1
 41
-30.0
176
     1
 62
     5
 63
     7
421
 16777215
176
     1
 74
     1
176
     1
 91
        4
176
     1
 64
     7
176
     1
 65
   257
176
     1
 75
     1
176
     1
175
     1
176
     1
 42
1.0
176
     1
 92
       12
176
     1
 66
     7
176
     1
 43
1.0
176
     1
 76
     1
176
     1
 77
     6
176
     1
 78
     2
176
     1
 67
     7
176
     1
 79
     5
176
     1
170
     0
176
     1
171
     0
176
     1
290
     0
176
     1
 93
        1
176
     1
 44
0.0
176
     1
173
     0
176
     1
  0
ENDSEC
  0
EOF
