  0
SECTION
  2
HEADER
  9
$ACADVER
  1
AC1024
  9
$ACADMAINTVER
 70
     6
  9
$DWGCODEPAGE
  3
UNDEFINED
  9
$INSBASE
 10
0.0
 20
0.0
 30
0.0
  9
$EXTMIN
 10
1.000000000000000E+20
 20
1.000000000000000E+20
 30
1.000000000000000E+20
  9
$EXTMAX
 10
-1.000000000000000E+20
 20
-1.000000000000000E+20
 30
-1.000000000000000E+20
  9
$LIMMIN
 10
0.0
 20
0.0
  9
$LIMMAX
 10
12.0
 20
9.0
  9
$ORTHOMODE
 70
     0
  9
$REGENMODE
 70
     1
  9
$FILLMODE
 70
     1
  9
$QTEXTMODE
 70
     0
  9
$MIRRTEXT
 70
     1
  9
$LTSCALE
 40
1.0
  9
$ATTMODE
 70
     1
  9
$TEXTSIZE
 40
0.2
  9
$TRACEWID
 40
0.05
  9
$TEXTSTYLE
  7
Standard
  9
$CLAYER
  8
0
  9
$CELTYPE
  6
ByLayer
  9
$CECOLOR
 62
   256
  9
$CELTSCALE
 40
1.0
  9
$DISPSILH
 70
     0
  9
$DIMSCALE
 40
1.0
  9
$DIMASZ
 40
0.18
  9
$DIMEXO
 40
0.0625
  9
$DIMDLI
 40
0.38
  9
$DIMRND
 40
0.0
  9
$DIMDLE
 40
0.0
  9
$DIMEXE
 40
0.18
  9
$DIMTP
 40
0.0
  9
$DIMTM
 40
0.0
  9
$DIMTXT
 40
0.18
  9
$DIMCEN
 40
0.09
  9
$DIMTSZ
 40
0.0
  9
$DIMTOL
 70
     0
  9
$DIMLIM
 70
     0
  9
$DIMTIH
 70
     1
  9
$DIMTOH
 70
     1
  9
$DIMSE1
 70
     0
  9
$DIMSE2
 70
     0
  9
$DIMTAD
 70
     0
  9
$DIMZIN
 70
     0
  9
$DIMBLK
  1

  9
$DIMASO
 70
     1
  9
$DIMSHO
 70
     1
  9
$DIMPOST
  1

  9
$DIMAPOST
  1

  9
$DIMALT
 70
     0
  9
$DIMALTD
 70
     2
  9
$DIMALTF
 40
25.4
  9
$DIMLFAC
 40
1.0
  9
$DIMTOFL
 70
     0
  9
$DIMTVP
 40
0.0
  9
$DIMTIX
 70
     0
  9
$DIMSOXD
 70
     0
  9
$DIMSAH
 70
     0
  9
$DIMBLK1
  1

  9
$DIMBLK2
  1

  9
$DIMSTYLE
  2
Standard
  9
$DIMCLRD
 70
     0
  9
$DIMCLRE
 70
     0
  9
$DIMCLRT
 70
     0
  9
$DIMTFAC
 40
1.0
  9
$DIMGAP
 40
0.09
  9
$DIMJUST
 70
     0
  9
$DIMSD1
 70
     0
  9
$DIMSD2
 70
     0
  9
$DIMTOLJ
 70
     1
  9
$DIMTZIN
 70
     0
  9
$DIMALTZ
 70
     0
  9
$DIMALTTZ
 70
     0
  9
$DIMUPT
 70
     0
  9
$DIMDEC
 70
     4
  9
$DIMTDEC
 70
     4
  9
$DIMALTU
 70
     2
  9
$DIMALTTD
 70
     2
  9
$DIMTXSTY
  7
Standard
  9
$DIMAUNIT
 70
     0
  9
$DIMADEC
 70
     0
  9
$DIMALTRND
 40
0.0
  9
$DIMAZIN
 70
     0
  9
$DIMDSEP
 70
    46
  9
$DIMATFIT
 70
     3
  9
$DIMFRAC
 70
     0
  9
$DIMLDRBLK
  1

  9
$DIMLUNIT
 70
     2
  9
$DIMLWD
 70
    -2
  9
$DIMLWE
 70
    -2
  9
$DIMTMOVE
 70
     0
  9
$DIMFXL
 40
1.0
  9
$DIMFXLON
 70
     0
  9
$DIMJOGANG
 40
0.7853981633974483
  9
$DIMTFILL
 70
     0
  9
$DIMTFILLCLR
 70
     0
  9
$DIMARCSYM
 70
     0
  9
$DIMLTYPE
  6

  9
$DIMLTEX1
  6

  9
$DIMLTEX2
  6

  9
$DIMTXTDIRECTION
 70
     0
  9
$LUNITS
 70
     2
  9
$LUPREC
 70
     4
  9
$SKETCHINC
 40
0.1
  9
$FILLETRAD
 40
0.5
  9
$AUNITS
 70
     0
  9
$AUPREC
 70
     0
  9
$MENU
  1
.
  9
$ELEVATION
 40
0.0
  9
$PELEVATION
 40
0.0
  9
$THICKNESS
 40
0.0
  9
$LIMCHECK
 70
     0
  9
$CHAMFERA
 40
0.5
  9
$CHAMFERB
 40
0.5
  9
$CHAMFERC
 40
1.0
  9
$CHAMFERD
 40
0.0
  9
$SKPOLY
 70
     0
  9
$TDCREATE
 40
2457917.616585648
  9
$TDUCREATE
 40
2457917.241585648
  9
$TDUPDATE
 40
2457917.616585648
  9
$TDUUPDATE
 40
2457917.241585648
  9
$TDINDWG
 40
0.0000000116
  9
$TDUSRTIMER
 40
0.0000000116
  9
$USRTIMER
 70
     1
  9
$ANGBASE
 50
0.0
  9
$ANGDIR
 70
     0
  9
$PDMODE
 70
     0
  9
$PDSIZE
 40
0.0
  9
$PLINEWID
 40
0.0
  9
$SPLFRAME
 70
     0
  9
$SPLINETYPE
 70
     6
  9
$SPLINESEGS
 70
     8
  9
$HANDSEED
  5
CB
  9
$SURFTAB1
 70
     6
  9
$SURFTAB2
 70
     6
  9
$SURFTYPE
 70
     6
  9
$SURFU
 70
     6
  9
$SURFV
 70
     6
  9
$UCSBASE
  2

  9
$UCSNAME
  2

  9
$UCSORG
 10
0.0
 20
0.0
 30
0.0
  9
$UCSXDIR
 10
1.0
 20
0.0
 30
0.0
  9
$UCSYDIR
 10
0.0
 20
1.0
 30
0.0
  9
$UCSORTHOREF
  2

  9
$UCSORTHOVIEW
 70
     0
  9
$UCSORGTOP
 10
0.0
 20
0.0
 30
0.0
  9
$UCSORGBOTTOM
 10
0.0
 20
0.0
 30
0.0
  9
$UCSORGLEFT
 10
0.0
 20
0.0
 30
0.0
  9
$UCSORGRIGHT
 10
0.0
 20
0.0
 30
0.0
  9
$UCSORGFRONT
 10
0.0
 20
0.0
 30
0.0
  9
$UCSORGBACK
 10
0.0
 20
0.0
 30
0.0
  9
$PUCSBASE
  2

  9
$PUCSNAME
  2

  9
$PUCSORG
 10
0.0
 20
0.0
 30
0.0
  9
$PUCSXDIR
 10
1.0
 20
0.0
 30
0.0
  9
$PUCSYDIR
 10
0.0
 20
1.0
 30
0.0
  9
$PUCSORTHOREF
  2

  9
$PUCSORTHOVIEW
 70
     0
  9
$PUCSORGTOP
 10
0.0
 20
0.0
 30
0.0
  9
$PUCSORGBOTTOM
 10
0.0
 20
0.0
 30
0.0
  9
$PUCSORGLEFT
 10
0.0
 20
0.0
 30
0.0
  9
$PUCSORGRIGHT
 10
0.0
 20
0.0
 30
0.0
  9
$PUCSORGFRONT
 10
0.0
 20
0.0
 30
0.0
  9
$PUCSORGBACK
 10
0.0
 20
0.0
 30
0.0
  9
$USERI1
 70
     0
  9
$USERI2
 70
     0
  9
$USERI3
 70
     0
  9
$USERI4
 70
     0
  9
$USERI5
 70
     0
  9
$USERR1
 40
0.0
  9
$USERR2
 40
0.0
  9
$USERR3
 40
0.0
  9
$USERR4
 40
0.0
  9
$USERR5
 40
0.0
  9
$WORLDVIEW
 70
     1
  9
$SHADEDGE
 70
     3
  9
$SHADEDIF
 70
    70
  9
$TILEMODE
 70
     1
  9
$MAXACTVP
 70
    64
  9
$PINSBASE
 10
0.0
 20
0.0
 30
0.0
  9
$PLIMCHECK
 70
     0
  9
$PEXTMIN
 10
1.000000000000000E+20
 20
1.000000000000000E+20
 30
1.000000000000000E+20
  9
$PEXTMAX
 10
-1.000000000000000E+20
 20
-1.000000000000000E+20
 30
-1.000000000000000E+20
  9
$PLIMMIN
 10
0.0
 20
0.0
  9
$PLIMMAX
 10
12.0
 20
9.0
  9
$UNITMODE
 70
     0
  9
$VISRETAIN
 70
     1
  9
$PLINEGEN
 70
     0
  9
$PSLTSCALE
 70
     1
  9
$TREEDEPTH
 70
  3020
  9
$CMLSTYLE
  2
Standard
  9
$CMLJUST
 70
     0
  9
$CMLSCALE
 40
1.0
  9
$PROXYGRAPHICS
 70
     1
  9
$MEASUREMENT
 70
     0
  9
$CELWEIGHT
370
    -1
  9
$ENDCAPS
280
     0
  9
$JOINSTYLE
280
     0
  9
$LWDISPLAY
290
     1
  9
$INSUNITS
 70
     1
  9
$HYPERLINKBASE
  1

  9
$STYLESHEET
  1

  9
$XEDIT
290
     1
  9
$CEPSNTYPE
380
     0
  9
$PSTYLEMODE
290
     1
  9
$FINGERPRINTGUID
  2
{7F371023-A2B0-4D53-AB77-4C711B023C5D}
  9
$VERSIONGUID
  2
{FAEB1C32-E019-11D5-929B-00C0DF256EC4}
  9
$EXTNAMES
290
     1
  9
$PSVPSCALE
 40
0.0
  9
$OLESTARTUP
290
     0
  9
$SORTENTS
280
   127
  9
$INDEXCTL
280
     0
  9
$HIDETEXT
280
     1
  9
$XCLIPFRAME
280
     2
  9
$HALOGAP
280
     0
  9
$OBSCOLOR
 70
   257
  9
$OBSLTYPE
280
     0
  9
$INTERSECTIONDISPLAY
280
     0
  9
$INTERSECTIONCOLOR
 70
   257
  9
$DIMASSOC
280
     2
  9
$PROJECTNAME
  1

  9
$CAMERADISPLAY
290
     0
  9
$LENSLENGTH
 40
50.0
  9
$CAMERAHEIGHT
 40
0.0
  9
$STEPSPERSEC
 40
2.0
  9
$STEPSIZE
 40
6.0
  9
$3DDWFPREC
 40
2.0
  9
$PSOLWIDTH
 40
0.25
  9
$PSOLHEIGHT
 40
4.0
  9
$LOFTANG1
 40
1.570796326794897
  9
$LOFTANG2
 40
1.570796326794897
  9
$LOFTMAG1
 40
0.0
  9
$LOFTMAG2
 40
0.0
  9
$LOFTPARAM
 70
     7
  9
$LOFTNORMALS
280
     1
  9
$LATITUDE
 40
37.795
  9
$LONGITUDE
 40
-122.394
  9
$NORTHDIRECTION
 40
0.0
  9
$TIMEZONE
 70
 -8000
  9
$LIGHTGLYPHDISPLAY
280
     1
  9
$TILEMODELIGHTSYNCH
280
     1
  9
$CMATERIAL
347
3C
  9
$SOLIDHIST
280
     1
  9
$SHOWHIST
280
     1
  9
$DWFFRAME
280
     2
  9
$DGNFRAME
280
     2
  9
$REALWORLDSCALE
290
     1
  9
$INTERFERECOLOR
 62
   256
  9
$CSHADOW
280
     0
  9
$SHADOWPLANELOCATION
 40
0.0
  0
ENDSEC
  0
SECTION
  2
CLASSES
  0
CLASS
  1
ACDBDICTIONARYWDFLT
  2
AcDbDictionaryWithDefault
  3
ObjectDBX Classes
 90
        0
 91
        4
280
     0
281
     0
  0
CLASS
  1
VISUALSTYLE
  2
AcDbVisualStyle
  3
ObjectDBX Classes
 90
     4095
 91
        4
280
     0
281
     0
  0
CLASS
  1
MATERIAL
  2
AcDbMaterial
  3
ObjectDBX Classes
 90
     1153
 91
        4
280
     0
281
     0
  0
CLASS
  1
SUN
  2
AcDbSun
  3
SCENEOE
 90
     1024
 91
        4
280
     0
281
     0
  0
ENDSEC
  0
SECTION
  2
TABLES
  0
TABLE
  2
VPORT
  5
8
330
0
100
AcDbSymbolTable
 70
     1
  0
VPORT
  5
29
330
8
100
AcDbSymbolTableRecord
100
AcDbViewportTableRecord
  2
*Active
 70
     0
 10
0.0
 20
0.0
 11
1.0
 21
1.0
 12
0.0
 22
0.0
 13
0.0
 23
0.0
 14
0.5
 24
0.5
 15
0.5
 25
0.5
 16
0.0
 26
0.0
 36
1.0
 17
91.00082462281999
 27
-128.4993055234307
 37
0.0
 40
256.9986110468615
 41
0.7081814508812795
 42
50.0
 43
0.0
 44
0.0
 50
0.0
 51
0.0
 71
     0
 72
   100
 73
     1
 74
     3
 75
     0
 76
     0
 77
     0
 78
     0
281
     0
 65
     1
110
0.0
120
0.0
130
0.0
111
1.0
121
0.0
131
0.0
112
0.0
122
1.0
132
0.0
 79
     0
146
0.0
 60
     3
 61
     5
292
     1
282
     1
141
0.0
142
0.0
 63
   250
361
3F
  0
ENDTAB
  0
TABLE
  2
LTYPE
  5
5
330
0
100
AcDbSymbolTable
 70
     1
  0
LTYPE
  5
14
330
5
100
AcDbSymbolTableRecord
100
AcDbLinetypeTableRecord
  2
ByBlock
 70
     0
  3

 72
    65
 73
     0
 40
0.0
  0
LTYPE
  5
15
330
5
100
AcDbSymbolTableRecord
100
AcDbLinetypeTableRecord
  2
ByLayer
 70
     0
  3

 72
    65
 73
     0
 40
0.0
  0
LTYPE
  5
16
330
5
100
AcDbSymbolTableRecord
100
AcDbLinetypeTableRecord
  2
Continuous
 70
     0
  3
Solid line
 72
    65
 73
     0
 40
0.0
  0
ENDTAB
  0
TABLE
  2
LAYER
  5
2
330
0
100
AcDbSymbolTable
 70
     2
  0
LAYER
  5
10
330
2
100
AcDbSymbolTableRecord
100
AcDbLayerTableRecord
  2
0
 70
     0
 62
     7
  6
Continuous
370
    -3
390
F
347
3E
  0
LAYER
  5
40
330
2
100
AcDbSymbolTableRecord
100
AcDbLayerTableRecord
  2
_U+30EC_U+30A4_U+30E4_U+30FC 1
 70
     0
 62
     7
  6
Continuous
370
    -3
390
F
347
3E
  0
ENDTAB
  0
TABLE
  2
STYLE
  5
3
330
0
100
AcDbSymbolTable
 70
     1
  0
STYLE
  5
11
330
3
100
AcDbSymbolTableRecord
100
AcDbTextStyleTableRecord
  2
Standard
 70
     0
 40
0.0
 41
1.0
 50
0.0
 71
     0
 42
0.2
  3
txt
  4

  0
ENDTAB
  0
TABLE
  2
VIEW
  5
6
330
0
100
AcDbSymbolTable
 70
     0
  0
ENDTAB
  0
TABLE
  2
UCS
  5
7
330
0
100
AcDbSymbolTable
 70
     0
  0
ENDTAB
  0
TABLE
  2
APPID
  5
9
330
0
100
AcDbSymbolTable
 70
     1
  0
APPID
  5
12
330
9
100
AcDbSymbolTableRecord
100
AcDbRegAppTableRecord
  2
ACAD
 70
     0
  0
ENDTAB
  0
TABLE
  2
DIMSTYLE
  5
A
330
0
100
AcDbSymbolTable
 70
     1
100
AcDbDimStyleTable
  0
DIMSTYLE
105
27
330
A
100
AcDbSymbolTableRecord
100
AcDbDimStyleTableRecord
  2
Standard
 70
     0
178
     0
340
11
  0
ENDTAB
  0
TABLE
  2
BLOCK_RECORD
  5
1
330
0
100
AcDbSymbolTable
 70
     8
  0
BLOCK_RECORD
  5
1F
330
1
100
AcDbSymbolTableRecord
100
AcDbBlockTableRecord
  2
*Model_Space
340
22
 70
     0
280
     1
281
     0
  0
BLOCK_RECORD
  5
1B
330
1
100
AcDbSymbolTableRecord
100
AcDbBlockTableRecord
  2
*Paper_Space
340
1E
 70
     0
280
     1
281
     0
  0
BLOCK_RECORD
  5
23
330
1
100
AcDbSymbolTableRecord
100
AcDbBlockTableRecord
  2
*Paper_Space0
340
26
 70
     0
280
     1
281
     0
  0
BLOCK_RECORD
  5
4B
330
1
100
AcDbSymbolTableRecord
100
AcDbBlockTableRecord
  2
block 2
340
0
102
{BLKREFS
331
4C
102
}
 70
     0
280
     1
281
     0
  0
BLOCK_RECORD
  5
5B
330
1
100
AcDbSymbolTableRecord
100
AcDbBlockTableRecord
  2
block 3
340
0
102
{BLKREFS
331
5C
102
}
 70
     0
280
     1
281
     0
  0
BLOCK_RECORD
  5
75
330
1
100
AcDbSymbolTableRecord
100
AcDbBlockTableRecord
  2
block 4
340
0
102
{BLKREFS
331
76
102
}
 70
     0
280
     1
281
     0
  0
BLOCK_RECORD
  5
7E
330
1
100
AcDbSymbolTableRecord
100
AcDbBlockTableRecord
  2
block 5
340
0
102
{BLKREFS
331
7F
102
}
 70
     0
280
     1
281
     0
  0
BLOCK_RECORD
  5
9A
330
1
100
AcDbSymbolTableRecord
100
AcDbBlockTableRecord
  2
block 6
340
0
102
{BLKREFS
331
9B
102
}
 70
     0
280
     1
281
     0
  0
BLOCK_RECORD
  5
A3
330
1
100
AcDbSymbolTableRecord
100
AcDbBlockTableRecord
  2
block 7
340
0
102
{BLKREFS
331
A4
102
}
 70
     0
280
     1
281
     0
  0
BLOCK_RECORD
  5
BE
330
1
100
AcDbSymbolTableRecord
100
AcDbBlockTableRecord
  2
block 8
340
0
102
{BLKREFS
331
BF
102
}
 70
     0
280
     1
281
     0
  0
ENDTAB
  0
ENDSEC
  0
SECTION
  2
BLOCKS
  0
BLOCK
  5
20
330
1F
100
AcDbEntity
  8
0
100
AcDbBlockBegin
  2
*Model_Space
 70
     0
 10
0.0
 20
0.0
 30
0.0
  3
*Model_Space
  1

  0
ENDBLK
  5
21
330
1F
100
AcDbEntity
  8
0
100
AcDbBlockEnd
  0
BLOCK
  5
1C
330
1B
100
AcDbEntity
 67
     1
  8
0
100
AcDbBlockBegin
  2
*Paper_Space
 70
     0
 10
0.0
 20
0.0
 30
0.0
  3
*Paper_Space
  1

  0
ENDBLK
  5
1D
330
1B
100
AcDbEntity
 67
     1
  8
0
100
AcDbBlockEnd
  0
BLOCK
  5
24
330
23
100
AcDbEntity
  8
0
100
AcDbBlockBegin
  2
*Paper_Space0
 70
     0
 10
0.0
 20
0.0
 30
0.0
  3
*Paper_Space0
  1

  0
ENDBLK
  5
25
330
23
100
AcDbEntity
  8
0
100
AcDbBlockEnd
  0
BLOCK
  5
4D
330
4B
100
AcDbEntity
  8
0
100
AcDbBlockBegin
  2
block 2
 70
     0
 10
0.0
 20
0.0
 30
0.0
  3
block 2
  1

  0
SPLINE
  5
4F
330
4B
100
AcDbEntity
  8
_U+30EC_U+30A4_U+30E4_U+30FC 1
370
     0
100
AcDbSpline
210
0.0
220
0.0
230
1.0
 70
    11
 71
     3
 72
    44
 73
    40
 74
     0
 42
0.0000000001
 43
0.0000000001
 12
1.0
 22
0.0
 32
0.0
 13
1.0
 23
0.0
 33
0.0
 40
0.0
 40
0.0
 40
0.0
 40
0.0
 40
1.0
 40
1.0
 40
1.0
 40
2.0
 40
2.0
 40
2.0
 40
3.0
 40
3.0
 40
3.0
 40
4.0
 40
4.0
 40
4.0
 40
5.0
 40
5.0
 40
5.0
 40
6.0
 40
6.0
 40
6.0
 40
7.0
 40
7.0
 40
7.0
 40
8.0
 40
8.0
 40
8.0
 40
9.0
 40
9.0
 40
9.0
 40
10.0
 40
10.0
 40
10.0
 40
11.0
 40
11.0
 40
11.0
 40
12.0
 40
12.0
 40
12.0
 40
13.0
 40
13.0
 40
13.0
 40
13.0
 10
80.72616642947123
 20
-150.9000053876222
 30
0.0
 10
80.50826414002918
 20
-151.0588242894922
 30
0.0
 10
80.41507430715318
 20
-151.1328938424251
 30
0.0
 10
80.36649846081116
 20
-151.2768988337086
 30
0.0
 10
80.36649846081116
 20
-151.2768988337086
 30
0.0
 10
81.14491778570336
 20
-151.2768988337086
 30
0.0
 10
81.14491778570336
 20
-151.2768988337086
 30
0.0
 10
81.14491778570336
 20
-151.2768988337086
 30
0.0
 10
81.14491778570336
 20
-151.4818820150809
 30
0.0
 10
81.14491778570336
 20
-151.4818820150809
 30
0.0
 10
81.14491778570336
 20
-151.4818820150809
 30
0.0
 10
80.1169012929048
 20
-151.4818820150809
 30
0.0
 10
80.1169012929048
 20
-151.4818820150809
 30
0.0
 10
80.1485961713691
 20
-151.124281103712
 30
0.0
 10
80.21422524036312
 20
-151.0460774361968
 30
0.0
 10
80.59921466083978
 20
-150.7477321671742
 30
0.0
 10
80.85518525539385
 20
-150.5489501576753
 30
0.0
 10
80.92064206961359
 20
-150.4810817766158
 30
0.0
 10
80.92064206961359
 20
-150.3439669763029
 30
0.0
 10
80.92064206961359
 20
-150.2254556916103
 30
0.0
 10
80.84881182874614
 20
-150.0941975536223
 30
0.0
 10
80.65209687653837
 20
-150.0941975536223
 30
0.0
 10
80.39181991262774
 20
-150.0941975536223
 30
0.0
 10
80.38337942868888
 20
-150.3246744415855
 30
0.0
 10
80.37907305933231
 20
-150.4411186689869
 30
0.0
 10
80.37907305933231
 20
-150.4411186689869
 30
0.0
 10
80.15496959801682
 20
-150.4411186689869
 30
0.0
 10
80.15496959801682
 20
-150.4411186689869
 30
0.0
 10
80.16341008195567
 20
-150.3143391551297
 30
0.0
 10
80.17391762318569
 20
-150.2020290423106
 30
0.0
 10
80.25436060276627
 20
-150.083517757618
 30
0.0
 10
80.36425914874575
 20
-149.9229763080054
 30
0.0
 10
80.5504665597235
 20
-149.8888698627014
 30
0.0
 10
80.66691078712495
 20
-149.8888698627014
 30
0.0
 10
80.94406871891329
 20
-149.8888698627014
 30
0.0
 10
81.15129121235107
 20
-150.0731824711623
 30
0.0
 10
81.15129121235107
 20
-150.3460340335941
 30
0.0
 10
81.15129121235107
 20
-150.5740993547176
 30
0.0
 10
81.0350192397239
 20
-150.6740071237898
 30
0.0
 10
80.72616642947123
 20
-150.9000053876222
 30
0.0
  0
HATCH
  5
50
330
4B
100
AcDbEntity
  8
_U+30EC_U+30A4_U+30E4_U+30FC 1
 62
     7
420
 16777215
100
AcDbHatch
 10
0.0
 20
0.0
 30
0.0
210
0.0
220
0.0
230
1.0
  2
SOLID
 70
     1
 71
     0
 91
        1
 92
        1
 93
        1
 72
     4
 94
        3
 73
     0
 74
     1
 95
       44
 96
       40
 40
0.0
 40
0.0
 40
0.0
 40
0.0
 40
1.0
 40
1.0
 40
1.0
 40
2.0
 40
2.0
 40
2.0
 40
3.0
 40
3.0
 40
3.0
 40
4.0
 40
4.0
 40
4.0
 40
5.0
 40
5.0
 40
5.0
 40
6.0
 40
6.0
 40
6.0
 40
7.0
 40
7.0
 40
7.0
 40
8.0
 40
8.0
 40
8.0
 40
9.0
 40
9.0
 40
9.0
 40
10.0
 40
10.0
 40
10.0
 40
11.0
 40
11.0
 40
11.0
 40
12.0
 40
12.0
 40
12.0
 40
13.0
 40
13.0
 40
13.0
 40
13.0
 10
80.72616642947123
 20
-150.9000053876222
 10
80.50826414002918
 20
-151.0588242894922
 10
80.41507430715318
 20
-151.1328938424251
 10
80.36649846081116
 20
-151.2768988337086
 10
80.36649846081116
 20
-151.2768988337086
 10
81.14491778570336
 20
-151.2768988337086
 10
81.14491778570336
 20
-151.2768988337086
 10
81.14491778570336
 20
-151.2768988337086
 10
81.14491778570336
 20
-151.4818820150809
 10
81.14491778570336
 20
-151.4818820150809
 10
81.14491778570336
 20
-151.4818820150809
 10
80.1169012929048
 20
-151.4818820150809
 10
80.1169012929048
 20
-151.4818820150809
 10
80.1485961713691
 20
-151.124281103712
 10
80.21422524036312
 20
-151.0460774361968
 10
80.59921466083978
 20
-150.7477321671742
 10
80.85518525539385
 20
-150.5489501576753
 10
80.92064206961359
 20
-150.4810817766158
 10
80.92064206961359
 20
-150.3439669763029
 10
80.92064206961359
 20
-150.2254556916103
 10
80.84881182874614
 20
-150.0941975536223
 10
80.65209687653837
 20
-150.0941975536223
 10
80.39181991262774
 20
-150.0941975536223
 10
80.38337942868888
 20
-150.3246744415855
 10
80.37907305933231
 20
-150.4411186689869
 10
80.37907305933231
 20
-150.4411186689869
 10
80.15496959801682
 20
-150.4411186689869
 10
80.15496959801682
 20
-150.4411186689869
 10
80.16341008195567
 20
-150.3143391551297
 10
80.17391762318569
 20
-150.2020290423106
 10
80.25436060276627
 20
-150.083517757618
 10
80.36425914874575
 20
-149.9229763080054
 10
80.5504665597235
 20
-149.8888698627014
 10
80.66691078712495
 20
-149.8888698627014
 10
80.94406871891329
 20
-149.8888698627014
 10
81.15129121235107
 20
-150.0731824711623
 10
81.15129121235107
 20
-150.3460340335941
 10
81.15129121235107
 20
-150.5740993547176
 10
81.0350192397239
 20
-150.6740071237898
 10
80.72616642947123
 20
-150.9000053876222
 97
        0
 97
        0
 75
     2
 76
     1
 98
        0
  0
SPLINE
  5
51
330
4B
100
AcDbEntity
  8
_U+30EC_U+30A4_U+30E4_U+30FC 1
370
     0
100
AcDbSpline
210
0.0
220
0.0
230
1.0
 70
    11
 71
     3
 72
    53
 73
    49
 74
     0
 42
0.0000000001
 43
0.0000000001
 12
1.0
 22
0.0
 32
0.0
 13
1.0
 23
0.0
 33
0.0
 40
0.0
 40
0.0
 40
0.0
 40
0.0
 40
1.0
 40
1.0
 40
1.0
 40
2.0
 40
2.0
 40
2.0
 40
3.0
 40
3.0
 40
3.0
 40
4.0
 40
4.0
 40
4.0
 40
5.0
 40
5.0
 40
5.0
 40
6.0
 40
6.0
 40
6.0
 40
7.0
 40
7.0
 40
7.0
 40
8.0
 40
8.0
 40
8.0
 40
9.0
 40
9.0
 40
9.0
 40
10.0
 40
10.0
 40
10.0
 40
11.0
 40
11.0
 40
11.0
 40
12.0
 40
12.0
 40
12.0
 40
13.0
 40
13.0
 40
13.0
 40
14.0
 40
14.0
 40
14.0
 40
15.0
 40
15.0
 40
15.0
 40
16.0
 40
16.0
 40
16.0
 40
16.0
 10
81.7908731891877
 20
-151.5325249187141
 30
0.0
 10
81.71249726689827
 20
-151.5325249187141
 30
0.0
 10
81.61103920485766
 20
-151.5156439508364
 30
0.0
 10
81.50940888804278
 20
-151.4522541939078
 30
0.0
 10
81.33594833036047
 20
-151.3423556479283
 30
0.0
 10
81.31476099312617
 20
-151.2110975099403
 30
0.0
 10
81.2958129679573
 20
-151.103266021252
 30
0.0
 10
81.2958129679573
 20
-151.103266021252
 30
0.0
 10
81.51784937198165
 20
-151.103266021252
 30
0.0
 10
81.51784937198165
 20
-151.103266021252
 30
0.0
 10
81.57297089974566
 20
-151.3020480307509
 30
0.0
 10
81.69992266837711
 20
-151.331675851924
 30
0.0
 10
81.79294024647885
 20
-151.331675851924
 30
0.0
 10
81.93263886840573
 20
-151.331675851924
 30
0.0
 10
82.08491208885377
 20
-151.2321125924003
 30
0.0
 10
82.08491208885377
 20
-150.9995686471459
 30
0.0
 10
82.08491208885377
 20
-150.7435980525919
 30
0.0
 10
81.90507810452374
 20
-150.6740071237898
 30
0.0
 10
81.78449976254
 20
-150.6740071237898
 30
0.0
 10
81.75280488407569
 20
-150.6740071237898
 30
0.0
 10
81.61103920485766
 20
-150.6740071237898
 30
0.0
 10
81.52215574133821
 20
-150.8028536949382
 30
0.0
 10
81.52215574133821
 20
-150.8028536949382
 30
0.0
 10
81.34662812636473
 20
-150.7835611602208
 30
0.0
 10
81.34662812636473
 20
-150.7835611602208
 30
0.0
 10
81.34662812636473
 20
-150.7835611602208
 30
0.0
 10
81.46720646834848
 20
-149.9374457090434
 30
0.0
 10
81.46720646834848
 20
-149.9374457090434
 30
0.0
 10
81.46720646834848
 20
-149.9374457090434
 30
0.0
 10
82.24562579324068
 20
-149.9374457090434
 30
0.0
 10
82.24562579324068
 20
-149.9374457090434
 30
0.0
 10
82.24562579324068
 20
-149.9374457090434
 30
0.0
 10
82.24562579324068
 20
-150.1324381135086
 30
0.0
 10
82.24562579324068
 20
-150.1324381135086
 30
0.0
 10
82.24562579324068
 20
-150.1324381135086
 30
0.0
 10
81.62998723002653
 20
-150.1324381135086
 30
0.0
 10
81.62998723002653
 20
-150.1324381135086
 30
0.0
 10
81.62998723002653
 20
-150.1324381135086
 30
0.0
 10
81.56453041580679
 20
-150.5554958390972
 30
0.0
 10
81.56453041580679
 20
-150.5554958390972
 30
0.0
 10
81.62585311544423
 20
-150.5213893937933
 30
0.0
 10
81.70836315231597
 20
-150.4810817766158
 30
0.0
 10
81.8267021822343
 20
-150.4810817766158
 30
0.0
 10
82.08060571949721
 20
-150.4810817766158
 30
0.0
 10
82.3176282888824
 20
-150.6674614423679
 30
0.0
 10
82.3176282888824
 20
-150.9806206219771
 30
0.0
 10
82.3176282888824
 20
-151.2979139161686
 30
0.0
 10
82.09335257279264
 20
-151.5325249187141
 30
0.0
 10
81.7908731891877
 20
-151.5325249187141
 30
0.0
  0
HATCH
  5
52
330
4B
100
AcDbEntity
  8
_U+30EC_U+30A4_U+30E4_U+30FC 1
 62
     7
420
 16777215
100
AcDbHatch
 10
0.0
 20
0.0
 30
0.0
210
0.0
220
0.0
230
1.0
  2
SOLID
 70
     1
 71
     0
 91
        1
 92
        1
 93
        1
 72
     4
 94
        3
 73
     0
 74
     1
 95
       53
 96
       49
 40
0.0
 40
0.0
 40
0.0
 40
0.0
 40
1.0
 40
1.0
 40
1.0
 40
2.0
 40
2.0
 40
2.0
 40
3.0
 40
3.0
 40
3.0
 40
4.0
 40
4.0
 40
4.0
 40
5.0
 40
5.0
 40
5.0
 40
6.0
 40
6.0
 40
6.0
 40
7.0
 40
7.0
 40
7.0
 40
8.0
 40
8.0
 40
8.0
 40
9.0
 40
9.0
 40
9.0
 40
10.0
 40
10.0
 40
10.0
 40
11.0
 40
11.0
 40
11.0
 40
12.0
 40
12.0
 40
12.0
 40
13.0
 40
13.0
 40
13.0
 40
14.0
 40
14.0
 40
14.0
 40
15.0
 40
15.0
 40
15.0
 40
16.0
 40
16.0
 40
16.0
 40
16.0
 10
81.7908731891877
 20
-151.5325249187141
 10
81.71249726689827
 20
-151.5325249187141
 10
81.61103920485766
 20
-151.5156439508364
 10
81.50940888804278
 20
-151.4522541939078
 10
81.33594833036047
 20
-151.3423556479283
 10
81.31476099312617
 20
-151.2110975099403
 10
81.2958129679573
 20
-151.103266021252
 10
81.2958129679573
 20
-151.103266021252
 10
81.51784937198165
 20
-151.103266021252
 10
81.51784937198165
 20
-151.103266021252
 10
81.57297089974566
 20
-151.3020480307509
 10
81.69992266837711
 20
-151.331675851924
 10
81.79294024647885
 20
-151.331675851924
 10
81.93263886840573
 20
-151.331675851924
 10
82.08491208885377
 20
-151.2321125924003
 10
82.08491208885377
 20
-150.9995686471459
 10
82.08491208885377
 20
-150.7435980525919
 10
81.90507810452374
 20
-150.6740071237898
 10
81.78449976254
 20
-150.6740071237898
 10
81.75280488407569
 20
-150.6740071237898
 10
81.61103920485766
 20
-150.6740071237898
 10
81.52215574133821
 20
-150.8028536949382
 10
81.52215574133821
 20
-150.8028536949382
 10
81.34662812636473
 20
-150.7835611602208
 10
81.34662812636473
 20
-150.7835611602208
 10
81.34662812636473
 20
-150.7835611602208
 10
81.46720646834848
 20
-149.9374457090434
 10
81.46720646834848
 20
-149.9374457090434
 10
81.46720646834848
 20
-149.9374457090434
 10
82.24562579324068
 20
-149.9374457090434
 10
82.24562579324068
 20
-149.9374457090434
 10
82.24562579324068
 20
-149.9374457090434
 10
82.24562579324068
 20
-150.1324381135086
 10
82.24562579324068
 20
-150.1324381135086
 10
82.24562579324068
 20
-150.1324381135086
 10
81.62998723002653
 20
-150.1324381135086
 10
81.62998723002653
 20
-150.1324381135086
 10
81.62998723002653
 20
-150.1324381135086
 10
81.56453041580679
 20
-150.5554958390972
 10
81.56453041580679
 20
-150.5554958390972
 10
81.62585311544423
 20
-150.5213893937933
 10
81.70836315231597
 20
-150.4810817766158
 10
81.8267021822343
 20
-150.4810817766158
 10
82.08060571949721
 20
-150.4810817766158
 10
82.3176282888824
 20
-150.6674614423679
 10
82.3176282888824
 20
-150.9806206219771
 10
82.3176282888824
 20
-151.2979139161686
 10
82.09335257279264
 20
-151.5325249187141
 10
81.7908731891877
 20
-151.5325249187141
 97
        0
 97
        0
 75
     2
 76
     1
 98
        0
  0
ENDBLK
  5
4E
330
4B
100
AcDbEntity
  8
0
100
AcDbBlockEnd
  0
BLOCK
  5
5D
330
5B
100
AcDbEntity
  8
0
100
AcDbBlockBegin
  2
block 3
 70
     0
 10
0.0
 20
0.0
 30
0.0
  3
block 3
  1

  0
SPLINE
  5
5F
330
5B
100
AcDbEntity
  8
_U+30EC_U+30A4_U+30E4_U+30FC 1
370
     0
100
AcDbSpline
210
0.0
220
0.0
230
1.0
 70
    11
 71
     3
 72
    53
 73
    49
 74
     0
 42
0.0000000001
 43
0.0000000001
 12
1.0
 22
0.0
 32
0.0
 13
1.0
 23
0.0
 33
0.0
 40
0.0
 40
0.0
 40
0.0
 40
0.0
 40
1.0
 40
1.0
 40
1.0
 40
2.0
 40
2.0
 40
2.0
 40
3.0
 40
3.0
 40
3.0
 40
4.0
 40
4.0
 40
4.0
 40
5.0
 40
5.0
 40
5.0
 40
6.0
 40
6.0
 40
6.0
 40
7.0
 40
7.0
 40
7.0
 40
8.0
 40
8.0
 40
8.0
 40
9.0
 40
9.0
 40
9.0
 40
10.0
 40
10.0
 40
10.0
 40
11.0
 40
11.0
 40
11.0
 40
12.0
 40
12.0
 40
12.0
 40
13.0
 40
13.0
 40
13.0
 40
14.0
 40
14.0
 40
14.0
 40
15.0
 40
15.0
 40
15.0
 40
16.0
 40
16.0
 40
16.0
 40
16.0
 10
96.20360240650466
 20
-151.5325249187141
 30
0.0
 10
96.12505422944096
 20
-151.5325249187141
 30
0.0
 10
96.02376842217461
 20
-151.5156439508364
 30
0.0
 10
95.92179359581122
 20
-151.4522541939078
 30
0.0
 10
95.74850529290316
 20
-151.3423556479283
 30
0.0
 10
95.72749021044314
 20
-151.2110975099403
 30
0.0
 10
95.70819767572573
 20
-151.103266021252
 30
0.0
 10
95.70819767572573
 20
-151.103266021252
 30
0.0
 10
95.93040633452435
 20
-151.103266021252
 30
0.0
 10
95.93040633452435
 20
-151.103266021252
 30
0.0
 10
95.98552786228835
 20
-151.3020480307509
 30
0.0
 10
96.11265188569406
 20
-151.331675851924
 30
0.0
 10
96.20566946379581
 20
-151.331675851924
 30
0.0
 10
96.3448513213999
 20
-151.331675851924
 30
0.0
 10
96.49746905139646
 20
-151.2321125924003
 30
0.0
 10
96.49746905139646
 20
-150.9995686471459
 30
0.0
 10
96.49746905139646
 20
-150.7435980525919
 30
0.0
 10
96.31763506706643
 20
-150.6740071237898
 30
0.0
 10
96.19705672508269
 20
-150.6740071237898
 30
0.0
 10
96.16536184661838
 20
-150.6740071237898
 30
0.0
 10
96.02376842217461
 20
-150.6740071237898
 30
0.0
 10
95.93488495865518
 20
-150.8028536949382
 30
0.0
 10
95.93488495865518
 20
-150.8028536949382
 30
0.0
 10
95.75918508890743
 20
-150.7835611602208
 30
0.0
 10
95.75918508890743
 20
-150.7835611602208
 30
0.0
 10
95.75918508890743
 20
-150.7835611602208
 30
0.0
 10
95.87976343089117
 20
-149.9374457090434
 30
0.0
 10
95.87976343089117
 20
-149.9374457090434
 30
0.0
 10
95.87976343089117
 20
-149.9374457090434
 30
0.0
 10
96.65835501055764
 20
-149.9374457090434
 30
0.0
 10
96.65835501055764
 20
-149.9374457090434
 30
0.0
 10
96.65835501055764
 20
-149.9374457090434
 30
0.0
 10
96.65835501055764
 20
-150.1324381135086
 30
0.0
 10
96.65835501055764
 20
-150.1324381135086
 30
0.0
 10
96.65835501055764
 20
-150.1324381135086
 30
0.0
 10
96.04237193779497
 20
-150.1324381135086
 30
0.0
 10
96.04237193779497
 20
-150.1324381135086
 30
0.0
 10
96.04237193779497
 20
-150.1324381135086
 30
0.0
 10
95.97691512357522
 20
-150.5554958390972
 30
0.0
 10
95.97691512357522
 20
-150.5554958390972
 30
0.0
 10
96.03823782321267
 20
-150.5213893937933
 30
0.0
 10
96.12092011485866
 20
-150.4810817766158
 30
0.0
 10
96.23943139955126
 20
-150.4810817766158
 30
0.0
 10
96.49299042726564
 20
-150.4810817766158
 30
0.0
 10
96.73001299665083
 20
-150.6674614423679
 30
0.0
 10
96.73001299665083
 20
-150.9806206219771
 30
0.0
 10
96.73001299665083
 20
-151.2979139161686
 30
0.0
 10
96.50608179010959
 20
-151.5325249187141
 30
0.0
 10
96.20360240650466
 20
-151.5325249187141
 30
0.0
  0
HATCH
  5
60
330
5B
100
AcDbEntity
  8
_U+30EC_U+30A4_U+30E4_U+30FC 1
 62
     7
420
 16777215
100
AcDbHatch
 10
0.0
 20
0.0
 30
0.0
210
0.0
220
0.0
230
1.0
  2
SOLID
 70
     1
 71
     0
 91
        1
 92
        1
 93
        1
 72
     4
 94
        3
 73
     0
 74
     1
 95
       53
 96
       49
 40
0.0
 40
0.0
 40
0.0
 40
0.0
 40
1.0
 40
1.0
 40
1.0
 40
2.0
 40
2.0
 40
2.0
 40
3.0
 40
3.0
 40
3.0
 40
4.0
 40
4.0
 40
4.0
 40
5.0
 40
5.0
 40
5.0
 40
6.0
 40
6.0
 40
6.0
 40
7.0
 40
7.0
 40
7.0
 40
8.0
 40
8.0
 40
8.0
 40
9.0
 40
9.0
 40
9.0
 40
10.0
 40
10.0
 40
10.0
 40
11.0
 40
11.0
 40
11.0
 40
12.0
 40
12.0
 40
12.0
 40
13.0
 40
13.0
 40
13.0
 40
14.0
 40
14.0
 40
14.0
 40
15.0
 40
15.0
 40
15.0
 40
16.0
 40
16.0
 40
16.0
 40
16.0
 10
96.20360240650466
 20
-151.5325249187141
 10
96.12505422944096
 20
-151.5325249187141
 10
96.02376842217461
 20
-151.5156439508364
 10
95.92179359581122
 20
-151.4522541939078
 10
95.74850529290316
 20
-151.3423556479283
 10
95.72749021044314
 20
-151.2110975099403
 10
95.70819767572573
 20
-151.103266021252
 10
95.70819767572573
 20
-151.103266021252
 10
95.93040633452435
 20
-151.103266021252
 10
95.93040633452435
 20
-151.103266021252
 10
95.98552786228835
 20
-151.3020480307509
 10
96.11265188569406
 20
-151.331675851924
 10
96.20566946379581
 20
-151.331675851924
 10
96.3448513213999
 20
-151.331675851924
 10
96.49746905139646
 20
-151.2321125924003
 10
96.49746905139646
 20
-150.9995686471459
 10
96.49746905139646
 20
-150.7435980525919
 10
96.31763506706643
 20
-150.6740071237898
 10
96.19705672508269
 20
-150.6740071237898
 10
96.16536184661838
 20
-150.6740071237898
 10
96.02376842217461
 20
-150.6740071237898
 10
95.93488495865518
 20
-150.8028536949382
 10
95.93488495865518
 20
-150.8028536949382
 10
95.75918508890743
 20
-150.7835611602208
 10
95.75918508890743
 20
-150.7835611602208
 10
95.75918508890743
 20
-150.7835611602208
 10
95.87976343089117
 20
-149.9374457090434
 10
95.87976343089117
 20
-149.9374457090434
 10
95.87976343089117
 20
-149.9374457090434
 10
96.65835501055764
 20
-149.9374457090434
 10
96.65835501055764
 20
-149.9374457090434
 10
96.65835501055764
 20
-149.9374457090434
 10
96.65835501055764
 20
-150.1324381135086
 10
96.65835501055764
 20
-150.1324381135086
 10
96.65835501055764
 20
-150.1324381135086
 10
96.04237193779497
 20
-150.1324381135086
 10
96.04237193779497
 20
-150.1324381135086
 10
96.04237193779497
 20
-150.1324381135086
 10
95.97691512357522
 20
-150.5554958390972
 10
95.97691512357522
 20
-150.5554958390972
 10
96.03823782321267
 20
-150.5213893937933
 10
96.12092011485866
 20
-150.4810817766158
 10
96.23943139955126
 20
-150.4810817766158
 10
96.49299042726564
 20
-150.4810817766158
 10
96.73001299665083
 20
-150.6674614423679
 10
96.73001299665083
 20
-150.9806206219771
 10
96.73001299665083
 20
-151.2979139161686
 10
96.50608179010959
 20
-151.5325249187141
 10
96.20360240650466
 20
-151.5325249187141
 97
        0
 97
        0
 75
     2
 76
     1
 98
        0
  0
ENDBLK
  5
5E
330
5B
100
AcDbEntity
  8
0
100
AcDbBlockEnd
  0
BLOCK
  5
77
330
75
100
AcDbEntity
  8
0
100
AcDbBlockBegin
  2
block 4
 70
     0
 10
0.0
 20
0.0
 30
0.0
  3
block 4
  1

  0
SPLINE
  5
79
330
75
100
AcDbEntity
  8
_U+30EC_U+30A4_U+30E4_U+30FC 1
370
     0
100
AcDbSpline
210
0.0
220
0.0
230
1.0
 70
    11
 71
     3
 72
    62
 73
    58
 74
     0
 42
0.0000000001
 43
0.0000000001
 12
1.0
 22
0.0
 32
0.0
 13
1.0
 23
0.0
 33
0.0
 40
0.0
 40
0.0
 40
0.0
 40
0.0
 40
1.0
 40
1.0
 40
1.0
 40
2.0
 40
2.0
 40
2.0
 40
3.0
 40
3.0
 40
3.0
 40
4.0
 40
4.0
 40
4.0
 40
5.0
 40
5.0
 40
5.0
 40
6.0
 40
6.0
 40
6.0
 40
7.0
 40
7.0
 40
7.0
 40
8.0
 40
8.0
 40
8.0
 40
9.0
 40
9.0
 40
9.0
 40
10.0
 40
10.0
 40
10.0
 40
11.0
 40
11.0
 40
11.0
 40
12.0
 40
12.0
 40
12.0
 40
13.0
 40
13.0
 40
13.0
 40
14.0
 40
14.0
 40
14.0
 40
15.0
 40
15.0
 40
15.0
 40
16.0
 40
16.0
 40
16.0
 40
17.0
 40
17.0
 40
17.0
 40
18.0
 40
18.0
 40
18.0
 40
19.0
 40
19.0
 40
19.0
 40
19.0
 10
64.00901284207066
 20
-132.9496798712765
 30
0.0
 10
64.00901284207066
 20
-133.0447645066694
 30
0.0
 10
63.98782550483638
 20
-133.2624945413372
 30
0.0
 10
63.80161809385863
 20
-133.3872069979032
 30
0.0
 10
63.68948023581375
 20
-133.4616210603846
 30
0.0
 10
63.59008923106428
 20
-133.4657551749669
 30
0.0
 10
63.5055121369014
 20
-133.4698892895492
 30
0.0
 10
63.5055121369014
 20
-133.4698892895492
 30
0.0
 10
63.5055121369014
 20
-133.2500921975902
 30
0.0
 10
63.5055121369014
 20
-133.2500921975902
 30
0.0
 10
63.57958168983427
 20
-133.2480251402991
 30
0.0
 10
63.81436494715405
 20
-133.2370008347463
 30
0.0
 10
63.81436494715405
 20
-132.9538139858588
 30
0.0
 10
63.81436494715405
 20
-132.8160101664488
 30
0.0
 10
63.74460176357774
 20
-132.6637369460007
 30
0.0
 10
63.51601967813141
 20
-132.6637369460007
 30
0.0
 10
63.39974770550423
 20
-132.6637369460007
 30
0.0
 10
63.35099960438794
 20
-132.701977505887
 30
0.0
 10
63.31930472592365
 20
-132.7336723843513
 30
0.0
 10
63.24523517299077
 20
-132.8077419372842
 30
0.0
 10
63.23266057446961
 20
-132.9241861646856
 30
0.0
 10
63.23266057446961
 20
-132.9793076924496
 30
0.0
 10
63.23266057446961
 20
-132.99791120807
 30
0.0
 10
63.23472763176076
 20
-133.0340847106651
 30
0.0
 10
63.23886174634306
 20
-133.0616454745471
 30
0.0
 10
63.23886174634306
 20
-133.0616454745471
 30
0.0
 10
63.04421385142645
 20
-133.0616454745471
 30
0.0
 10
63.04421385142645
 20
-133.0616454745471
 30
0.0
 10
63.05058727807416
 20
-133.0234049146608
 30
0.0
 10
63.05282659013957
 20
-132.9813747497408
 30
0.0
 10
63.05282659013957
 20
-132.9748290683188
 30
0.0
 10
63.05282659013957
 20
-132.9093722540991
 30
0.0
 10
63.03163925290529
 20
-132.7105902446001
 30
0.0
 10
62.7946166835201
 20
-132.7105902446001
 30
0.0
 10
62.61702201125547
 20
-132.7105902446001
 30
0.0
 10
62.56190048349147
 20
-132.8415038730396
 30
0.0
 10
62.56190048349147
 20
-132.9517469285676
 30
0.0
 10
62.56190048349147
 20
-133.2159857522863
 30
0.0
 10
62.7946166835201
 20
-133.2245984909994
 30
0.0
 10
62.86661917916182
 20
-133.2287326055817
 30
0.0
 10
62.86661917916182
 20
-133.2287326055817
 30
0.0
 10
62.86661917916182
 20
-133.4319932392115
 30
0.0
 10
62.86661917916182
 20
-133.4319932392115
 30
0.0
 10
62.74173446782152
 20
-133.4233805004983
 30
0.0
 10
62.36518553128371
 20
-133.3958197366163
 30
0.0
 10
62.36518553128371
 20
-132.9390000752722
 30
0.0
 10
62.36518553128371
 20
-132.7147243591824
 30
0.0
 10
62.49213729991516
 20
-132.473567675215
 30
0.0
 10
62.78824325687238
 20
-132.473567675215
 30
0.0
 10
62.97445066785014
 20
-132.473567675215
 30
0.0
 10
63.05696070472187
 20
-132.5686523106078
 30
0.0
 10
63.11828340435932
 20
-132.6682155701316
 30
0.0
 10
63.14584416824132
 20
-132.6065483609456
 30
0.0
 10
63.22628714782191
 20
-132.4246473193244
 30
0.0
 10
63.50344507961025
 20
-132.4246473193244
 30
0.0
 10
63.84192571103605
 20
-132.4246473193244
 30
0.0
 10
64.00901284207066
 20
-132.6723496847139
 30
0.0
 10
64.00901284207066
 20
-132.9496798712765
 30
0.0
  0
HATCH
  5
7A
330
75
100
AcDbEntity
  8
_U+30EC_U+30A4_U+30E4_U+30FC 1
 62
     7
420
 16777215
100
AcDbHatch
 10
0.0
 20
0.0
 30
0.0
210
0.0
220
0.0
230
1.0
  2
SOLID
 70
     1
 71
     0
 91
        1
 92
        1
 93
        1
 72
     4
 94
        3
 73
     0
 74
     1
 95
       62
 96
       58
 40
0.0
 40
0.0
 40
0.0
 40
0.0
 40
1.0
 40
1.0
 40
1.0
 40
2.0
 40
2.0
 40
2.0
 40
3.0
 40
3.0
 40
3.0
 40
4.0
 40
4.0
 40
4.0
 40
5.0
 40
5.0
 40
5.0
 40
6.0
 40
6.0
 40
6.0
 40
7.0
 40
7.0
 40
7.0
 40
8.0
 40
8.0
 40
8.0
 40
9.0
 40
9.0
 40
9.0
 40
10.0
 40
10.0
 40
10.0
 40
11.0
 40
11.0
 40
11.0
 40
12.0
 40
12.0
 40
12.0
 40
13.0
 40
13.0
 40
13.0
 40
14.0
 40
14.0
 40
14.0
 40
15.0
 40
15.0
 40
15.0
 40
16.0
 40
16.0
 40
16.0
 40
17.0
 40
17.0
 40
17.0
 40
18.0
 40
18.0
 40
18.0
 40
19.0
 40
19.0
 40
19.0
 40
19.0
 10
64.00901284207066
 20
-132.9496798712765
 10
64.00901284207066
 20
-133.0447645066694
 10
63.98782550483638
 20
-133.2624945413372
 10
63.80161809385863
 20
-133.3872069979032
 10
63.68948023581375
 20
-133.4616210603846
 10
63.59008923106428
 20
-133.4657551749669
 10
63.5055121369014
 20
-133.4698892895492
 10
63.5055121369014
 20
-133.4698892895492
 10
63.5055121369014
 20
-133.2500921975902
 10
63.5055121369014
 20
-133.2500921975902
 10
63.57958168983427
 20
-133.2480251402991
 10
63.81436494715405
 20
-133.2370008347463
 10
63.81436494715405
 20
-132.9538139858588
 10
63.81436494715405
 20
-132.8160101664488
 10
63.74460176357774
 20
-132.6637369460007
 10
63.51601967813141
 20
-132.6637369460007
 10
63.39974770550423
 20
-132.6637369460007
 10
63.35099960438794
 20
-132.701977505887
 10
63.31930472592365
 20
-132.7336723843513
 10
63.24523517299077
 20
-132.8077419372842
 10
63.23266057446961
 20
-132.9241861646856
 10
63.23266057446961
 20
-132.9793076924496
 10
63.23266057446961
 20
-132.99791120807
 10
63.23472763176076
 20
-133.0340847106651
 10
63.23886174634306
 20
-133.0616454745471
 10
63.23886174634306
 20
-133.0616454745471
 10
63.04421385142645
 20
-133.0616454745471
 10
63.04421385142645
 20
-133.0616454745471
 10
63.05058727807416
 20
-133.0234049146608
 10
63.05282659013957
 20
-132.9813747497408
 10
63.05282659013957
 20
-132.9748290683188
 10
63.05282659013957
 20
-132.9093722540991
 10
63.03163925290529
 20
-132.7105902446001
 10
62.7946166835201
 20
-132.7105902446001
 10
62.61702201125547
 20
-132.7105902446001
 10
62.56190048349147
 20
-132.8415038730396
 10
62.56190048349147
 20
-132.9517469285676
 10
62.56190048349147
 20
-133.2159857522863
 10
62.7946166835201
 20
-133.2245984909994
 10
62.86661917916182
 20
-133.2287326055817
 10
62.86661917916182
 20
-133.2287326055817
 10
62.86661917916182
 20
-133.4319932392115
 10
62.86661917916182
 20
-133.4319932392115
 10
62.74173446782152
 20
-133.4233805004983
 10
62.36518553128371
 20
-133.3958197366163
 10
62.36518553128371
 20
-132.9390000752722
 10
62.36518553128371
 20
-132.7147243591824
 10
62.49213729991516
 20
-132.473567675215
 10
62.78824325687238
 20
-132.473567675215
 10
62.97445066785014
 20
-132.473567675215
 10
63.05696070472187
 20
-132.5686523106078
 10
63.11828340435932
 20
-132.6682155701316
 10
63.14584416824132
 20
-132.6065483609456
 10
63.22628714782191
 20
-132.4246473193244
 10
63.50344507961025
 20
-132.4246473193244
 10
63.84192571103605
 20
-132.4246473193244
 10
64.00901284207066
 20
-132.6723496847139
 10
64.00901284207066
 20
-132.9496798712765
 97
        0
 97
        0
 75
     2
 76
     1
 98
        0
  0
SPLINE
  5
7B
330
75
100
AcDbEntity
  8
_U+30EC_U+30A4_U+30E4_U+30FC 1
370
     0
100
AcDbSpline
210
0.0
220
0.0
230
1.0
 70
    11
 71
     3
 72
    29
 73
    25
 74
     0
 42
0.0000000001
 43
0.0000000001
 12
1.0
 22
0.0
 32
0.0
 13
1.0
 23
0.0
 33
0.0
 40
0.0
 40
0.0
 40
0.0
 40
0.0
 40
1.0
 40
1.0
 40
1.0
 40
2.0
 40
2.0
 40
2.0
 40
3.0
 40
3.0
 40
3.0
 40
4.0
 40
4.0
 40
4.0
 40
5.0
 40
5.0
 40
5.0
 40
6.0
 40
6.0
 40
6.0
 40
7.0
 40
7.0
 40
7.0
 40
8.0
 40
8.0
 40
8.0
 40
8.0
 10
63.78043075662434
 20
-131.3663139862556
 30
0.0
 10
63.98989256212753
 20
-131.4744899844925
 30
0.0
 10
64.00901284207066
 20
-131.6477782874006
 30
0.0
 10
64.00901284207066
 20
-131.764222514802
 30
0.0
 10
64.00901284207066
 20
-131.9251084739632
 30
0.0
 10
63.96250405301979
 20
-132.0667018984069
 30
0.0
 10
63.78043075662434
 20
-132.1621310433484
 30
0.0
 10
63.58578286170772
 20
-132.2654839079059
 30
0.0
 10
63.34893254709679
 20
-132.2847764426233
 30
0.0
 10
63.18597953064448
 20
-132.2847764426233
 30
0.0
 10
63.0421467941353
 20
-132.2847764426233
 30
0.0
 10
62.7904825689378
 20
-132.267550965197
 30
0.0
 10
62.59152830466462
 20
-132.1621310433484
 30
0.0
 10
62.38843992580914
 20
-132.0539550451115
 30
0.0
 10
62.36518553128371
 20
-131.8934135954989
 30
0.0
 10
62.36518553128371
 20
-131.764222514802
 30
0.0
 10
62.36518553128371
 20
-131.605403612932
 30
0.0
 10
62.40962726304343
 20
-131.4617431311971
 30
0.0
 10
62.59152830466462
 20
-131.3663139862556
 30
0.0
 10
62.78410914229008
 20
-131.2670952362805
 30
0.0
 10
63.01251897296215
 20
-131.2436685869808
 30
0.0
 10
63.18597953064448
 20
-131.2436685869808
 30
0.0
 10
63.35737303103566
 20
-131.2436685869808
 30
0.0
 10
63.58802217377313
 20
-131.2650281789893
 30
0.0
 10
63.78043075662434
 20
-131.3663139862556
 30
0.0
  0
SPLINE
  5
7C
330
75
100
AcDbEntity
  8
_U+30EC_U+30A4_U+30E4_U+30FC 1
370
     0
100
AcDbSpline
210
0.0
220
0.0
230
1.0
 70
    11
 71
     3
 72
    17
 73
    13
 74
     0
 42
0.0000000001
 43
0.0000000001
 12
1.0
 22
0.0
 32
0.0
 13
1.0
 23
0.0
 33
0.0
 40
0.0
 40
0.0
 40
0.0
 40
0.0
 40
1.0
 40
1.0
 40
1.0
 40
2.0
 40
2.0
 40
2.0
 40
3.0
 40
3.0
 40
3.0
 40
4.0
 40
4.0
 40
4.0
 40
4.0
 10
62.55776636890917
 20
-131.764222514802
 30
0.0
 10
62.55776636890917
 20
-132.0139919374826
 30
0.0
 10
62.84129772734524
 20
-132.060156216985
 30
0.0
 10
63.18597953064448
 20
-132.060156216985
 30
0.0
 10
63.5055121369014
 20
-132.060156216985
 30
0.0
 10
63.81436494715405
 20
-132.0243272239384
 30
0.0
 10
63.81436494715405
 20
-131.764222514802
 30
0.0
 10
63.81436494715405
 20
-131.5165201494125
 30
0.0
 10
63.53290064600914
 20
-131.4679443030705
 30
0.0
 10
63.18597953064448
 20
-131.4679443030705
 30
0.0
 10
62.86661917916182
 20
-131.4679443030705
 30
0.0
 10
62.55776636890917
 20
-131.5061848629568
 30
0.0
 10
62.55776636890917
 20
-131.764222514802
 30
0.0
  0
HATCH
  5
7D
330
75
100
AcDbEntity
  8
_U+30EC_U+30A4_U+30E4_U+30FC 1
 62
     7
420
 16777215
100
AcDbHatch
 10
0.0
 20
0.0
 30
0.0
210
0.0
220
0.0
230
1.0
  2
SOLID
 70
     1
 71
     0
 91
        2
 92
        1
 93
        1
 72
     4
 94
        3
 73
     0
 74
     1
 95
       29
 96
       25
 40
0.0
 40
0.0
 40
0.0
 40
0.0
 40
1.0
 40
1.0
 40
1.0
 40
2.0
 40
2.0
 40
2.0
 40
3.0
 40
3.0
 40
3.0
 40
4.0
 40
4.0
 40
4.0
 40
5.0
 40
5.0
 40
5.0
 40
6.0
 40
6.0
 40
6.0
 40
7.0
 40
7.0
 40
7.0
 40
8.0
 40
8.0
 40
8.0
 40
8.0
 10
63.78043075662434
 20
-131.3663139862556
 10
63.98989256212753
 20
-131.4744899844925
 10
64.00901284207066
 20
-131.6477782874006
 10
64.00901284207066
 20
-131.764222514802
 10
64.00901284207066
 20
-131.9251084739632
 10
63.96250405301979
 20
-132.0667018984069
 10
63.78043075662434
 20
-132.1621310433484
 10
63.58578286170772
 20
-132.2654839079059
 10
63.34893254709679
 20
-132.2847764426233
 10
63.18597953064448
 20
-132.2847764426233
 10
63.0421467941353
 20
-132.2847764426233
 10
62.7904825689378
 20
-132.267550965197
 10
62.59152830466462
 20
-132.1621310433484
 10
62.38843992580914
 20
-132.0539550451115
 10
62.36518553128371
 20
-131.8934135954989
 10
62.36518553128371
 20
-131.764222514802
 10
62.36518553128371
 20
-131.605403612932
 10
62.40962726304343
 20
-131.4617431311971
 10
62.59152830466462
 20
-131.3663139862556
 10
62.78410914229008
 20
-131.2670952362805
 10
63.01251897296215
 20
-131.2436685869808
 10
63.18597953064448
 20
-131.2436685869808
 10
63.35737303103566
 20
-131.2436685869808
 10
63.58802217377313
 20
-131.2650281789893
 10
63.78043075662434
 20
-131.3663139862556
 97
        0
 97
        0
 92
        1
 93
        1
 72
     4
 94
        3
 73
     0
 74
     1
 95
       17
 96
       13
 40
0.0
 40
0.0
 40
0.0
 40
0.0
 40
1.0
 40
1.0
 40
1.0
 40
2.0
 40
2.0
 40
2.0
 40
3.0
 40
3.0
 40
3.0
 40
4.0
 40
4.0
 40
4.0
 40
4.0
 10
62.55776636890917
 20
-131.764222514802
 10
62.55776636890917
 20
-132.0139919374826
 10
62.84129772734524
 20
-132.060156216985
 10
63.18597953064448
 20
-132.060156216985
 10
63.5055121369014
 20
-132.060156216985
 10
63.81436494715405
 20
-132.0243272239384
 10
63.81436494715405
 20
-131.764222514802
 10
63.81436494715405
 20
-131.5165201494125
 10
63.53290064600914
 20
-131.4679443030705
 10
63.18597953064448
 20
-131.4679443030705
 10
62.86661917916182
 20
-131.4679443030705
 10
62.55776636890917
 20
-131.5061848629568
 10
62.55776636890917
 20
-131.764222514802
 97
        0
 97
        0
 75
     2
 76
     1
 98
        0
  0
ENDBLK
  5
78
330
75
100
AcDbEntity
  8
0
100
AcDbBlockEnd
  0
BLOCK
  5
80
330
7E
100
AcDbEntity
  8
0
100
AcDbBlockBegin
  2
block 5
 70
     0
 10
0.0
 20
0.0
 30
0.0
  3
block 5
  1

  0
SPLINE
  5
82
330
7E
100
AcDbEntity
  8
_U+30EC_U+30A4_U+30E4_U+30FC 1
370
     0
100
AcDbSpline
210
0.0
220
0.0
230
1.0
 70
    11
 71
     3
 72
    26
 73
    22
 74
     0
 42
0.0000000001
 43
0.0000000001
 12
1.0
 22
0.0
 32
0.0
 13
1.0
 23
0.0
 33
0.0
 40
0.0
 40
0.0
 40
0.0
 40
0.0
 40
1.0
 40
1.0
 40
1.0
 40
2.0
 40
2.0
 40
2.0
 40
3.0
 40
3.0
 40
3.0
 40
4.0
 40
4.0
 40
4.0
 40
5.0
 40
5.0
 40
5.0
 40
6.0
 40
6.0
 40
6.0
 40
7.0
 40
7.0
 40
7.0
 40
7.0
 10
63.95819768366323
 20
-110.4898966195129
 30
0.0
 10
63.95819768366323
 20
-110.4898966195129
 30
0.0
 10
62.8538723258664
 20
-110.4898966195129
 30
0.0
 10
62.8538723258664
 20
-110.4898966195129
 30
0.0
 10
62.8538723258664
 20
-110.4898966195129
 30
0.0
 10
62.8538723258664
 20
-110.8199367669999
 30
0.0
 10
62.8538723258664
 20
-110.8199367669999
 30
0.0
 10
62.8538723258664
 20
-110.8199367669999
 30
0.0
 10
62.70590547477492
 20
-110.8199367669999
 30
0.0
 10
62.70590547477492
 20
-110.8199367669999
 30
0.0
 10
62.69109156418834
 20
-110.4878295622218
 30
0.0
 10
62.52813854773602
 20
-110.4413207731709
 30
0.0
 10
62.41393363239999
 20
-110.4116929519978
 30
0.0
 10
62.41393363239999
 20
-110.4116929519978
 30
0.0
 10
62.41393363239999
 20
-110.2656209034232
 30
0.0
 10
62.41393363239999
 20
-110.2656209034232
 30
0.0
 10
62.41393363239999
 20
-110.2656209034232
 30
0.0
 10
63.95819768366323
 20
-110.2656209034232
 30
0.0
 10
63.95819768366323
 20
-110.2656209034232
 30
0.0
 10
63.95819768366323
 20
-110.2656209034232
 30
0.0
 10
63.95819768366323
 20
-110.4898966195129
 30
0.0
 10
63.95819768366323
 20
-110.4898966195129
 30
0.0
  0
HATCH
  5
83
330
7E
100
AcDbEntity
  8
_U+30EC_U+30A4_U+30E4_U+30FC 1
 62
     7
420
 16777215
100
AcDbHatch
 10
0.0
 20
0.0
 30
0.0
210
0.0
220
0.0
230
1.0
  2
SOLID
 70
     1
 71
     0
 91
        1
 92
        1
 93
        1
 72
     4
 94
        3
 73
     0
 74
     1
 95
       26
 96
       22
 40
0.0
 40
0.0
 40
0.0
 40
0.0
 40
1.0
 40
1.0
 40
1.0
 40
2.0
 40
2.0
 40
2.0
 40
3.0
 40
3.0
 40
3.0
 40
4.0
 40
4.0
 40
4.0
 40
5.0
 40
5.0
 40
5.0
 40
6.0
 40
6.0
 40
6.0
 40
7.0
 40
7.0
 40
7.0
 40
7.0
 10
63.95819768366323
 20
-110.4898966195129
 10
63.95819768366323
 20
-110.4898966195129
 10
62.8538723258664
 20
-110.4898966195129
 10
62.8538723258664
 20
-110.4898966195129
 10
62.8538723258664
 20
-110.4898966195129
 10
62.8538723258664
 20
-110.8199367669999
 10
62.8538723258664
 20
-110.8199367669999
 10
62.8538723258664
 20
-110.8199367669999
 10
62.70590547477492
 20
-110.8199367669999
 10
62.70590547477492
 20
-110.8199367669999
 10
62.69109156418834
 20
-110.4878295622218
 10
62.52813854773602
 20
-110.4413207731709
 10
62.41393363239999
 20
-110.4116929519978
 10
62.41393363239999
 20
-110.4116929519978
 10
62.41393363239999
 20
-110.2656209034232
 10
62.41393363239999
 20
-110.2656209034232
 10
62.41393363239999
 20
-110.2656209034232
 10
63.95819768366323
 20
-110.2656209034232
 10
63.95819768366323
 20
-110.2656209034232
 10
63.95819768366323
 20
-110.2656209034232
 10
63.95819768366323
 20
-110.4898966195129
 10
63.95819768366323
 20
-110.4898966195129
 97
        0
 97
        0
 75
     2
 76
     1
 98
        0
  0
SPLINE
  5
84
330
7E
100
AcDbEntity
  8
_U+30EC_U+30A4_U+30E4_U+30FC 1
370
     0
100
AcDbSpline
210
0.0
220
0.0
230
1.0
 70
    11
 71
     3
 72
    53
 73
    49
 74
     0
 42
0.0000000001
 43
0.0000000001
 12
1.0
 22
0.0
 32
0.0
 13
1.0
 23
0.0
 33
0.0
 40
0.0
 40
0.0
 40
0.0
 40
0.0
 40
1.0
 40
1.0
 40
1.0
 40
2.0
 40
2.0
 40
2.0
 40
3.0
 40
3.0
 40
3.0
 40
4.0
 40
4.0
 40
4.0
 40
5.0
 40
5.0
 40
5.0
 40
6.0
 40
6.0
 40
6.0
 40
7.0
 40
7.0
 40
7.0
 40
8.0
 40
8.0
 40
8.0
 40
9.0
 40
9.0
 40
9.0
 40
10.0
 40
10.0
 40
10.0
 40
11.0
 40
11.0
 40
11.0
 40
12.0
 40
12.0
 40
12.0
 40
13.0
 40
13.0
 40
13.0
 40
14.0
 40
14.0
 40
14.0
 40
15.0
 40
15.0
 40
15.0
 40
16.0
 40
16.0
 40
16.0
 40
16.0
 10
64.00901284207066
 20
-109.2834241805785
 30
0.0
 10
64.00901284207066
 20
-109.3618001028679
 30
0.0
 10
63.99195961941868
 20
-109.4632581649085
 30
0.0
 10
63.92856986249009
 20
-109.5648884817234
 30
0.0
 10
63.81849906173635
 20
-109.7383490394057
 30
0.0
 10
63.6874131785226
 20
-109.75953637664
 30
0.0
 10
63.57958168983427
 20
-109.7784844018089
 30
0.0
 10
63.57958168983427
 20
-109.7784844018089
 30
0.0
 10
63.57958168983427
 20
-109.5564479977845
 30
0.0
 10
63.57958168983427
 20
-109.5564479977845
 30
0.0
 10
63.77836369933319
 20
-109.5013264700205
 30
0.0
 10
63.80799152050634
 20
-109.374374701389
 30
0.0
 10
63.80799152050634
 20
-109.2813571232873
 30
0.0
 10
63.80799152050634
 20
-109.1416585013604
 30
0.0
 10
63.70860051575688
 20
-108.9893852809124
 30
0.0
 10
63.47588431572825
 20
-108.9893852809124
 30
0.0
 10
63.21991372117419
 20
-108.9893852809124
 30
0.0
 10
63.15015053759788
 20
-109.1692192652424
 30
0.0
 10
63.15015053759788
 20
-109.2897976072262
 30
0.0
 10
63.15015053759788
 20
-109.3214924856905
 30
0.0
 10
63.15015053759788
 20
-109.4632581649085
 30
0.0
 10
63.27916936352049
 20
-109.5521416284279
 30
0.0
 10
63.27916936352049
 20
-109.5521416284279
 30
0.0
 10
63.26004908357735
 20
-109.7276692434014
 30
0.0
 10
63.26004908357735
 20
-109.7276692434014
 30
0.0
 10
63.26004908357735
 20
-109.7276692434014
 30
0.0
 10
62.41393363239999
 20
-109.6070909014177
 30
0.0
 10
62.41393363239999
 20
-109.6070909014177
 30
0.0
 10
62.41393363239999
 20
-109.6070909014177
 30
0.0
 10
62.41393363239999
 20
-108.8286715765255
 30
0.0
 10
62.41393363239999
 20
-108.8286715765255
 30
0.0
 10
62.41393363239999
 20
-108.8286715765255
 30
0.0
 10
62.60858152731661
 20
-108.8286715765255
 30
0.0
 10
62.60858152731661
 20
-108.8286715765255
 30
0.0
 10
62.60858152731661
 20
-108.8286715765255
 30
0.0
 10
62.60858152731661
 20
-109.4443101397396
 30
0.0
 10
62.60858152731661
 20
-109.4443101397396
 30
0.0
 10
62.60858152731661
 20
-109.4443101397396
 30
0.0
 10
63.03163925290529
 20
-109.5097669539594
 30
0.0
 10
63.03163925290529
 20
-109.5097669539594
 30
0.0
 10
62.99770506237558
 20
-109.4484442543219
 30
0.0
 10
62.95756969997242
 20
-109.3659342174502
 30
0.0
 10
62.95756969997242
 20
-109.2475951875319
 30
0.0
 10
62.95756969997242
 20
-108.9936916502689
 30
0.0
 10
63.14377711095017
 20
-108.7566690808838
 30
0.0
 10
63.45676403578512
 20
-108.7566690808838
 30
0.0
 10
63.77422958475089
 20
-108.7566690808838
 30
0.0
 10
64.00901284207066
 20
-108.9809447969735
 30
0.0
 10
64.00901284207066
 20
-109.2834241805785
 30
0.0
  0
HATCH
  5
85
330
7E
100
AcDbEntity
  8
_U+30EC_U+30A4_U+30E4_U+30FC 1
 62
     7
420
 16777215
100
AcDbHatch
 10
0.0
 20
0.0
 30
0.0
210
0.0
220
0.0
230
1.0
  2
SOLID
 70
     1
 71
     0
 91
        1
 92
        1
 93
        1
 72
     4
 94
        3
 73
     0
 74
     1
 95
       53
 96
       49
 40
0.0
 40
0.0
 40
0.0
 40
0.0
 40
1.0
 40
1.0
 40
1.0
 40
2.0
 40
2.0
 40
2.0
 40
3.0
 40
3.0
 40
3.0
 40
4.0
 40
4.0
 40
4.0
 40
5.0
 40
5.0
 40
5.0
 40
6.0
 40
6.0
 40
6.0
 40
7.0
 40
7.0
 40
7.0
 40
8.0
 40
8.0
 40
8.0
 40
9.0
 40
9.0
 40
9.0
 40
10.0
 40
10.0
 40
10.0
 40
11.0
 40
11.0
 40
11.0
 40
12.0
 40
12.0
 40
12.0
 40
13.0
 40
13.0
 40
13.0
 40
14.0
 40
14.0
 40
14.0
 40
15.0
 40
15.0
 40
15.0
 40
16.0
 40
16.0
 40
16.0
 40
16.0
 10
64.00901284207066
 20
-109.2834241805785
 10
64.00901284207066
 20
-109.3618001028679
 10
63.99195961941868
 20
-109.4632581649085
 10
63.92856986249009
 20
-109.5648884817234
 10
63.81849906173635
 20
-109.7383490394057
 10
63.6874131785226
 20
-109.75953637664
 10
63.57958168983427
 20
-109.7784844018089
 10
63.57958168983427
 20
-109.7784844018089
 10
63.57958168983427
 20
-109.5564479977845
 10
63.57958168983427
 20
-109.5564479977845
 10
63.77836369933319
 20
-109.5013264700205
 10
63.80799152050634
 20
-109.374374701389
 10
63.80799152050634
 20
-109.2813571232873
 10
63.80799152050634
 20
-109.1416585013604
 10
63.70860051575688
 20
-108.9893852809124
 10
63.47588431572825
 20
-108.9893852809124
 10
63.21991372117419
 20
-108.9893852809124
 10
63.15015053759788
 20
-109.1692192652424
 10
63.15015053759788
 20
-109.2897976072262
 10
63.15015053759788
 20
-109.3214924856905
 10
63.15015053759788
 20
-109.4632581649085
 10
63.27916936352049
 20
-109.5521416284279
 10
63.27916936352049
 20
-109.5521416284279
 10
63.26004908357735
 20
-109.7276692434014
 10
63.26004908357735
 20
-109.7276692434014
 10
63.26004908357735
 20
-109.7276692434014
 10
62.41393363239999
 20
-109.6070909014177
 10
62.41393363239999
 20
-109.6070909014177
 10
62.41393363239999
 20
-109.6070909014177
 10
62.41393363239999
 20
-108.8286715765255
 10
62.41393363239999
 20
-108.8286715765255
 10
62.41393363239999
 20
-108.8286715765255
 10
62.60858152731661
 20
-108.8286715765255
 10
62.60858152731661
 20
-108.8286715765255
 10
62.60858152731661
 20
-108.8286715765255
 10
62.60858152731661
 20
-109.4443101397396
 10
62.60858152731661
 20
-109.4443101397396
 10
62.60858152731661
 20
-109.4443101397396
 10
63.03163925290529
 20
-109.5097669539594
 10
63.03163925290529
 20
-109.5097669539594
 10
62.99770506237558
 20
-109.4484442543219
 10
62.95756969997242
 20
-109.3659342174502
 10
62.95756969997242
 20
-109.2475951875319
 10
62.95756969997242
 20
-108.9936916502689
 10
63.14377711095017
 20
-108.7566690808838
 10
63.45676403578512
 20
-108.7566690808838
 10
63.77422958475089
 20
-108.7566690808838
 10
64.00901284207066
 20
-108.9809447969735
 10
64.00901284207066
 20
-109.2834241805785
 97
        0
 97
        0
 75
     2
 76
     1
 98
        0
  0
ENDBLK
  5
81
330
7E
100
AcDbEntity
  8
0
100
AcDbBlockEnd
  0
BLOCK
  5
9C
330
9A
100
AcDbEntity
  8
0
100
AcDbBlockBegin
  2
block 6
 70
     0
 10
0.0
 20
0.0
 30
0.0
  3
block 6
  1

  0
SPLINE
  5
9E
330
9A
100
AcDbEntity
  8
_U+30EC_U+30A4_U+30E4_U+30FC 1
370
     0
100
AcDbSpline
210
0.0
220
0.0
230
1.0
 70
    11
 71
     3
 72
    26
 73
    22
 74
     0
 42
0.0000000001
 43
0.0000000001
 12
1.0
 22
0.0
 32
0.0
 13
1.0
 23
0.0
 33
0.0
 40
0.0
 40
0.0
 40
0.0
 40
0.0
 40
1.0
 40
1.0
 40
1.0
 40
2.0
 40
2.0
 40
2.0
 40
3.0
 40
3.0
 40
3.0
 40
4.0
 40
4.0
 40
4.0
 40
5.0
 40
5.0
 40
5.0
 40
6.0
 40
6.0
 40
6.0
 40
7.0
 40
7.0
 40
7.0
 40
7.0
 10
117.1966362554231
 20
-142.9893771343916
 30
0.0
 10
117.1966362554231
 20
-142.9893771343916
 30
0.0
 10
116.092138642852
 20
-142.9893771343916
 30
0.0
 10
116.092138642852
 20
-142.9893771343916
 30
0.0
 10
116.092138642852
 20
-142.9893771343916
 30
0.0
 10
116.092138642852
 20
-143.3194172818785
 30
0.0
 10
116.092138642852
 20
-143.3194172818785
 30
0.0
 10
116.092138642852
 20
-143.3194172818785
 30
0.0
 10
115.9439995369862
 20
-143.3194172818785
 30
0.0
 10
115.9439995369862
 20
-143.3194172818785
 30
0.0
 10
115.9295301359482
 20
-142.9873100771004
 30
0.0
 10
115.7665771194959
 20
-142.941145797598
 30
0.0
 10
115.6525444589341
 20
-142.9115179764249
 30
0.0
 10
115.6525444589341
 20
-142.9115179764249
 30
0.0
 10
115.6525444589341
 20
-142.7654459278503
 30
0.0
 10
115.6525444589341
 20
-142.7654459278503
 30
0.0
 10
115.6525444589341
 20
-142.7654459278503
 30
0.0
 10
117.1966362554231
 20
-142.7654459278503
 30
0.0
 10
117.1966362554231
 20
-142.7654459278503
 30
0.0
 10
117.1966362554231
 20
-142.7654459278503
 30
0.0
 10
117.1966362554231
 20
-142.9893771343916
 30
0.0
 10
117.1966362554231
 20
-142.9893771343916
 30
0.0
  0
HATCH
  5
9F
330
9A
100
AcDbEntity
  8
_U+30EC_U+30A4_U+30E4_U+30FC 1
 62
     7
420
 16777215
100
AcDbHatch
 10
0.0
 20
0.0
 30
0.0
210
0.0
220
0.0
230
1.0
  2
SOLID
 70
     1
 71
     0
 91
        1
 92
        1
 93
        1
 72
     4
 94
        3
 73
     0
 74
     1
 95
       26
 96
       22
 40
0.0
 40
0.0
 40
0.0
 40
0.0
 40
1.0
 40
1.0
 40
1.0
 40
2.0
 40
2.0
 40
2.0
 40
3.0
 40
3.0
 40
3.0
 40
4.0
 40
4.0
 40
4.0
 40
5.0
 40
5.0
 40
5.0
 40
6.0
 40
6.0
 40
6.0
 40
7.0
 40
7.0
 40
7.0
 40
7.0
 10
117.1966362554231
 20
-142.9893771343916
 10
117.1966362554231
 20
-142.9893771343916
 10
116.092138642852
 20
-142.9893771343916
 10
116.092138642852
 20
-142.9893771343916
 10
116.092138642852
 20
-142.9893771343916
 10
116.092138642852
 20
-143.3194172818785
 10
116.092138642852
 20
-143.3194172818785
 10
116.092138642852
 20
-143.3194172818785
 10
115.9439995369862
 20
-143.3194172818785
 10
115.9439995369862
 20
-143.3194172818785
 10
115.9295301359482
 20
-142.9873100771004
 10
115.7665771194959
 20
-142.941145797598
 10
115.6525444589341
 20
-142.9115179764249
 10
115.6525444589341
 20
-142.9115179764249
 10
115.6525444589341
 20
-142.7654459278503
 10
115.6525444589341
 20
-142.7654459278503
 10
115.6525444589341
 20
-142.7654459278503
 10
117.1966362554231
 20
-142.7654459278503
 10
117.1966362554231
 20
-142.7654459278503
 10
117.1966362554231
 20
-142.7654459278503
 10
117.1966362554231
 20
-142.9893771343916
 10
117.1966362554231
 20
-142.9893771343916
 97
        0
 97
        0
 75
     2
 76
     1
 98
        0
  0
SPLINE
  5
A0
330
9A
100
AcDbEntity
  8
_U+30EC_U+30A4_U+30E4_U+30FC 1
370
     0
100
AcDbSpline
210
0.0
220
0.0
230
1.0
 70
    11
 71
     3
 72
    29
 73
    25
 74
     0
 42
0.0000000001
 43
0.0000000001
 12
1.0
 22
0.0
 32
0.0
 13
1.0
 23
0.0
 33
0.0
 40
0.0
 40
0.0
 40
0.0
 40
0.0
 40
1.0
 40
1.0
 40
1.0
 40
2.0
 40
2.0
 40
2.0
 40
3.0
 40
3.0
 40
3.0
 40
4.0
 40
4.0
 40
4.0
 40
5.0
 40
5.0
 40
5.0
 40
6.0
 40
6.0
 40
6.0
 40
7.0
 40
7.0
 40
7.0
 40
8.0
 40
8.0
 40
8.0
 40
8.0
 10
117.0188693283842
 20
-141.3663926512903
 30
0.0
 10
117.2283311338874
 20
-141.4742241399787
 30
0.0
 10
117.2476236686048
 20
-141.6478569524353
 30
0.0
 10
117.2476236686048
 20
-141.7643011798367
 30
0.0
 10
117.2476236686048
 20
-141.9248426294494
 30
0.0
 10
117.2007703700054
 20
-142.0667805634417
 30
0.0
 10
117.0188693283842
 20
-142.1618651988345
 30
0.0
 10
116.8245659430161
 20
-142.265218063392
 30
0.0
 10
116.5875433736309
 20
-142.2845105981094
 30
0.0
 10
116.4242458476301
 20
-142.2845105981094
 30
0.0
 10
116.2805853658951
 20
-142.2845105981094
 30
0.0
 10
116.0287488859234
 20
-142.2676296302317
 30
0.0
 10
115.8299668764245
 20
-142.1618651988345
 30
0.0
 10
115.6270507523432
 20
-142.0536892005977
 30
0.0
 10
115.6036241030435
 20
-141.8931477509851
 30
0.0
 10
115.6036241030435
 20
-141.7643011798367
 30
0.0
 10
115.6036241030435
 20
-141.6054822779667
 30
0.0
 10
115.6480658348033
 20
-141.4618217962318
 30
0.0
 10
115.8299668764245
 20
-141.3663926512903
 30
0.0
 10
116.0225477140499
 20
-141.2668293917666
 30
0.0
 10
116.250957544722
 20
-141.2437472520155
 30
0.0
 10
116.4242458476301
 20
-141.2437472520155
 30
0.0
 10
116.5958116027955
 20
-141.2437472520155
 30
0.0
 10
116.8266330003072
 20
-141.2647623344755
 30
0.0
 10
117.0188693283842
 20
-141.3663926512903
 30
0.0
  0
SPLINE
  5
A1
330
9A
100
AcDbEntity
  8
_U+30EC_U+30A4_U+30E4_U+30FC 1
370
     0
100
AcDbSpline
210
0.0
220
0.0
230
1.0
 70
    11
 71
     3
 72
    17
 73
    13
 74
     0
 42
0.0000000001
 43
0.0000000001
 12
1.0
 22
0.0
 32
0.0
 13
1.0
 23
0.0
 33
0.0
 40
0.0
 40
0.0
 40
0.0
 40
0.0
 40
1.0
 40
1.0
 40
1.0
 40
2.0
 40
2.0
 40
2.0
 40
3.0
 40
3.0
 40
3.0
 40
4.0
 40
4.0
 40
4.0
 40
4.0
 10
115.796204940669
 20
-141.7643011798367
 30
0.0
 10
115.796204940669
 20
-142.0137260929688
 30
0.0
 10
116.0797362991051
 20
-142.0602348820197
 30
0.0
 10
116.4242458476301
 20
-142.0602348820197
 30
0.0
 10
116.7439507086612
 20
-142.0602348820197
 30
0.0
 10
117.0526312641396
 20
-142.0240613794246
 30
0.0
 10
117.0526312641396
 20
-141.7643011798367
 30
0.0
 10
117.0526312641396
 20
-141.5165988144472
 30
0.0
 10
116.7715114725432
 20
-141.4680229681052
 30
0.0
 10
116.4242458476301
 20
-141.4680229681052
 30
0.0
 10
116.1052300056959
 20
-141.4680229681052
 30
0.0
 10
115.796204940669
 20
-141.505919018443
 30
0.0
 10
115.796204940669
 20
-141.7643011798367
 30
0.0
  0
HATCH
  5
A2
330
9A
100
AcDbEntity
  8
_U+30EC_U+30A4_U+30E4_U+30FC 1
 62
     7
420
 16777215
100
AcDbHatch
 10
0.0
 20
0.0
 30
0.0
210
0.0
220
0.0
230
1.0
  2
SOLID
 70
     1
 71
     0
 91
        2
 92
        1
 93
        1
 72
     4
 94
        3
 73
     0
 74
     1
 95
       29
 96
       25
 40
0.0
 40
0.0
 40
0.0
 40
0.0
 40
1.0
 40
1.0
 40
1.0
 40
2.0
 40
2.0
 40
2.0
 40
3.0
 40
3.0
 40
3.0
 40
4.0
 40
4.0
 40
4.0
 40
5.0
 40
5.0
 40
5.0
 40
6.0
 40
6.0
 40
6.0
 40
7.0
 40
7.0
 40
7.0
 40
8.0
 40
8.0
 40
8.0
 40
8.0
 10
117.0188693283842
 20
-141.3663926512903
 10
117.2283311338874
 20
-141.4742241399787
 10
117.2476236686048
 20
-141.6478569524353
 10
117.2476236686048
 20
-141.7643011798367
 10
117.2476236686048
 20
-141.9248426294494
 10
117.2007703700054
 20
-142.0667805634417
 10
117.0188693283842
 20
-142.1618651988345
 10
116.8245659430161
 20
-142.265218063392
 10
116.5875433736309
 20
-142.2845105981094
 10
116.4242458476301
 20
-142.2845105981094
 10
116.2805853658951
 20
-142.2845105981094
 10
116.0287488859234
 20
-142.2676296302317
 10
115.8299668764245
 20
-142.1618651988345
 10
115.6270507523432
 20
-142.0536892005977
 10
115.6036241030435
 20
-141.8931477509851
 10
115.6036241030435
 20
-141.7643011798367
 10
115.6036241030435
 20
-141.6054822779667
 10
115.6480658348033
 20
-141.4618217962318
 10
115.8299668764245
 20
-141.3663926512903
 10
116.0225477140499
 20
-141.2668293917666
 10
116.250957544722
 20
-141.2437472520155
 10
116.4242458476301
 20
-141.2437472520155
 10
116.5958116027955
 20
-141.2437472520155
 10
116.8266330003072
 20
-141.2647623344755
 10
117.0188693283842
 20
-141.3663926512903
 97
        0
 97
        0
 92
        1
 93
        1
 72
     4
 94
        3
 73
     0
 74
     1
 95
       17
 96
       13
 40
0.0
 40
0.0
 40
0.0
 40
0.0
 40
1.0
 40
1.0
 40
1.0
 40
2.0
 40
2.0
 40
2.0
 40
3.0
 40
3.0
 40
3.0
 40
4.0
 40
4.0
 40
4.0
 40
4.0
 10
115.796204940669
 20
-141.7643011798367
 10
115.796204940669
 20
-142.0137260929688
 10
116.0797362991051
 20
-142.0602348820197
 10
116.4242458476301
 20
-142.0602348820197
 10
116.7439507086612
 20
-142.0602348820197
 10
117.0526312641396
 20
-142.0240613794246
 10
117.0526312641396
 20
-141.7643011798367
 10
117.0526312641396
 20
-141.5165988144472
 10
116.7715114725432
 20
-141.4680229681052
 10
116.4242458476301
 20
-141.4680229681052
 10
116.1052300056959
 20
-141.4680229681052
 10
115.796204940669
 20
-141.505919018443
 10
115.796204940669
 20
-141.7643011798367
 97
        0
 97
        0
 75
     2
 76
     1
 98
        0
  0
ENDBLK
  5
9D
330
9A
100
AcDbEntity
  8
0
100
AcDbBlockEnd
  0
BLOCK
  5
A5
330
A3
100
AcDbEntity
  8
0
100
AcDbBlockBegin
  2
block 7
 70
     0
 10
0.0
 20
0.0
 30
0.0
  3
block 7
  1

  0
SPLINE
  5
A7
330
A3
100
AcDbEntity
  8
_U+30EC_U+30A4_U+30E4_U+30FC 1
370
     0
100
AcDbSpline
210
0.0
220
0.0
230
1.0
 70
    11
 71
     3
 72
    26
 73
    22
 74
     0
 42
0.0000000001
 43
0.0000000001
 12
1.0
 22
0.0
 32
0.0
 13
1.0
 23
0.0
 33
0.0
 40
0.0
 40
0.0
 40
0.0
 40
0.0
 40
1.0
 40
1.0
 40
1.0
 40
2.0
 40
2.0
 40
2.0
 40
3.0
 40
3.0
 40
3.0
 40
4.0
 40
4.0
 40
4.0
 40
5.0
 40
5.0
 40
5.0
 40
6.0
 40
6.0
 40
6.0
 40
7.0
 40
7.0
 40
7.0
 40
7.0
 10
117.1966362554231
 20
-135.4277370538167
 30
0.0
 10
117.1966362554231
 20
-135.4277370538167
 30
0.0
 10
116.092138642852
 20
-135.4277370538167
 30
0.0
 10
116.092138642852
 20
-135.4277370538167
 30
0.0
 10
116.092138642852
 20
-135.4277370538167
 30
0.0
 10
116.092138642852
 20
-135.7577772013036
 30
0.0
 10
116.092138642852
 20
-135.7577772013036
 30
0.0
 10
116.092138642852
 20
-135.7577772013036
 30
0.0
 10
115.9439995369862
 20
-135.7577772013036
 30
0.0
 10
115.9439995369862
 20
-135.7577772013036
 30
0.0
 10
115.9295301359482
 20
-135.4256699965255
 30
0.0
 10
115.7665771194959
 20
-135.3791612074747
 30
0.0
 10
115.6525444589341
 20
-135.3495333863015
 30
0.0
 10
115.6525444589341
 20
-135.3495333863015
 30
0.0
 10
115.6525444589341
 20
-135.2034613377269
 30
0.0
 10
115.6525444589341
 20
-135.2034613377269
 30
0.0
 10
115.6525444589341
 20
-135.2034613377269
 30
0.0
 10
117.1966362554231
 20
-135.2034613377269
 30
0.0
 10
117.1966362554231
 20
-135.2034613377269
 30
0.0
 10
117.1966362554231
 20
-135.2034613377269
 30
0.0
 10
117.1966362554231
 20
-135.4277370538167
 30
0.0
 10
117.1966362554231
 20
-135.4277370538167
 30
0.0
  0
HATCH
  5
A8
330
A3
100
AcDbEntity
  8
_U+30EC_U+30A4_U+30E4_U+30FC 1
 62
     7
420
 16777215
100
AcDbHatch
 10
0.0
 20
0.0
 30
0.0
210
0.0
220
0.0
230
1.0
  2
SOLID
 70
     1
 71
     0
 91
        1
 92
        1
 93
        1
 72
     4
 94
        3
 73
     0
 74
     1
 95
       26
 96
       22
 40
0.0
 40
0.0
 40
0.0
 40
0.0
 40
1.0
 40
1.0
 40
1.0
 40
2.0
 40
2.0
 40
2.0
 40
3.0
 40
3.0
 40
3.0
 40
4.0
 40
4.0
 40
4.0
 40
5.0
 40
5.0
 40
5.0
 40
6.0
 40
6.0
 40
6.0
 40
7.0
 40
7.0
 40
7.0
 40
7.0
 10
117.1966362554231
 20
-135.4277370538167
 10
117.1966362554231
 20
-135.4277370538167
 10
116.092138642852
 20
-135.4277370538167
 10
116.092138642852
 20
-135.4277370538167
 10
116.092138642852
 20
-135.4277370538167
 10
116.092138642852
 20
-135.7577772013036
 10
116.092138642852
 20
-135.7577772013036
 10
116.092138642852
 20
-135.7577772013036
 10
115.9439995369862
 20
-135.7577772013036
 10
115.9439995369862
 20
-135.7577772013036
 10
115.9295301359482
 20
-135.4256699965255
 10
115.7665771194959
 20
-135.3791612074747
 10
115.6525444589341
 20
-135.3495333863015
 10
115.6525444589341
 20
-135.3495333863015
 10
115.6525444589341
 20
-135.2034613377269
 10
115.6525444589341
 20
-135.2034613377269
 10
115.6525444589341
 20
-135.2034613377269
 10
117.1966362554231
 20
-135.2034613377269
 10
117.1966362554231
 20
-135.2034613377269
 10
117.1966362554231
 20
-135.2034613377269
 10
117.1966362554231
 20
-135.4277370538167
 10
117.1966362554231
 20
-135.4277370538167
 97
        0
 97
        0
 75
     2
 76
     1
 98
        0
  0
ENDBLK
  5
A6
330
A3
100
AcDbEntity
  8
0
100
AcDbBlockEnd
  0
BLOCK
  5
C0
330
BE
100
AcDbEntity
  8
0
100
AcDbBlockBegin
  2
block 8
 70
     0
 10
0.0
 20
0.0
 30
0.0
  3
block 8
  1

  0
SPLINE
  5
C2
330
BE
100
AcDbEntity
  8
_U+30EC_U+30A4_U+30E4_U+30FC 1
370
     0
100
AcDbSpline
210
0.0
220
0.0
230
1.0
 70
    11
 71
     3
 72
    44
 73
    40
 74
     0
 42
0.0000000001
 43
0.0000000001
 12
1.0
 22
0.0
 32
0.0
 13
1.0
 23
0.0
 33
0.0
 40
0.0
 40
0.0
 40
0.0
 40
0.0
 40
1.0
 40
1.0
 40
1.0
 40
2.0
 40
2.0
 40
2.0
 40
3.0
 40
3.0
 40
3.0
 40
4.0
 40
4.0
 40
4.0
 40
5.0
 40
5.0
 40
5.0
 40
6.0
 40
6.0
 40
6.0
 40
7.0
 40
7.0
 40
7.0
 40
8.0
 40
8.0
 40
8.0
 40
9.0
 40
9.0
 40
9.0
 40
10.0
 40
10.0
 40
10.0
 40
11.0
 40
11.0
 40
11.0
 40
12.0
 40
12.0
 40
12.0
 40
13.0
 40
13.0
 40
13.0
 40
13.0
 10
80.22972817004674
 20
-128.7177245771956
 30
0.0
 10
80.20630152074703
 20
-128.6732828454359
 30
0.0
 10
80.18528643828702
 20
-128.6204006297373
 30
0.0
 10
80.18304712622161
 20
-128.3897514869998
 30
0.0
 10
80.17891301163931
 20
-128.1465277457411
 30
0.0
 10
80.11965736929301
 20
-128.0767645621648
 30
0.0
 10
79.94189044225412
 20
-128.0767645621648
 30
0.0
 10
79.94189044225412
 20
-128.0767645621648
 30
0.0
 10
79.53364662725201
 20
-128.0767645621648
 30
0.0
 10
79.53364662725201
 20
-128.0767645621648
 30
0.0
 10
79.53364662725201
 20
-128.0767645621648
 30
0.0
 10
79.53364662725201
 20
-128.7177245771956
 30
0.0
 10
79.53364662725201
 20
-128.7177245771956
 30
0.0
 10
79.53364662725201
 20
-128.7177245771956
 30
0.0
 10
79.29886336993223
 20
-128.7177245771956
 30
0.0
 10
79.29886336993223
 20
-128.7177245771956
 30
0.0
 10
79.29886336993223
 20
-128.7177245771956
 30
0.0
 10
79.29886336993223
 20
-127.1734605259323
 30
0.0
 10
79.29886336993223
 20
-127.1734605259323
 30
0.0
 10
79.29886336993223
 20
-127.1734605259323
 30
0.0
 10
79.97375757549267
 20
-127.1734605259323
 30
0.0
 10
79.97375757549267
 20
-127.1734605259323
 30
0.0
 10
80.28037107367992
 20
-127.1734605259323
 30
0.0
 10
80.44745820471452
 20
-127.3446817715492
 30
0.0
 10
80.44745820471452
 20
-127.6008246208776
 30
0.0
 10
80.44745820471452
 20
-127.6514675245107
 30
0.0
 10
80.43901772077567
 20
-127.7339775613825
 30
0.0
 10
80.39457598901595
 20
-127.8144205409631
 30
0.0
 10
80.3354926014439
 20
-127.9181179150691
 30
0.0
 10
80.2698635324499
 20
-127.937065940238
 30
0.0
 10
80.20854083281245
 20
-127.9539469081157
 30
0.0
 10
80.34600014267392
 20
-127.9963215825843
 30
0.0
 10
80.41369626895909
 20
-128.0450696837005
 30
0.0
 10
80.41800263831564
 20
-128.3601236658266
 30
0.0
 10
80.42213675289794
 20
-128.6309081709673
 30
0.0
 10
80.4581380007188
 20
-128.6627753042058
 30
0.0
 10
80.52583412700396
 20
-128.7177245771956
 30
0.0
 10
80.52583412700396
 20
-128.7177245771956
 30
0.0
 10
80.22972817004674
 20
-128.7177245771956
 30
0.0
 10
80.22972817004674
 20
-128.7177245771956
 30
0.0
  0
SPLINE
  5
C3
330
BE
100
AcDbEntity
  8
_U+30EC_U+30A4_U+30E4_U+30FC 1
370
     0
100
AcDbSpline
210
0.0
220
0.0
230
1.0
 70
    11
 71
     3
 72
    20
 73
    16
 74
     0
 42
0.0000000001
 43
0.0000000001
 12
1.0
 22
0.0
 32
0.0
 13
1.0
 23
0.0
 33
0.0
 40
0.0
 40
0.0
 40
0.0
 40
0.0
 40
1.0
 40
1.0
 40
1.0
 40
2.0
 40
2.0
 40
2.0
 40
3.0
 40
3.0
 40
3.0
 40
4.0
 40
4.0
 40
4.0
 40
5.0
 40
5.0
 40
5.0
 40
5.0
 10
79.97789169007497
 20
-127.3849893887267
 30
0.0
 10
79.97789169007497
 20
-127.3849893887267
 30
0.0
 10
79.53364662725201
 20
-127.3849893887267
 30
0.0
 10
79.53364662725201
 20
-127.3849893887267
 30
0.0
 10
79.53364662725201
 20
-127.3849893887267
 30
0.0
 10
79.53364662725201
 20
-127.8652356993705
 30
0.0
 10
79.53364662725201
 20
-127.8652356993705
 30
0.0
 10
79.53364662725201
 20
-127.8652356993705
 30
0.0
 10
79.97582463278383
 20
-127.8652356993705
 30
0.0
 10
79.97582463278383
 20
-127.8652356993705
 30
0.0
 10
80.07521563753328
 20
-127.8652356993705
 30
0.0
 10
80.2106078901036
 20
-127.7890990891465
 30
0.0
 10
80.2106078901036
 20
-127.6177055887553
 30
0.0
 10
80.2106078901036
 20
-127.5393296664659
 30
0.0
 10
80.1766736995739
 20
-127.3849893887267
 30
0.0
 10
79.97789169007497
 20
-127.3849893887267
 30
0.0
  0
HATCH
  5
C4
330
BE
100
AcDbEntity
  8
_U+30EC_U+30A4_U+30E4_U+30FC 1
 62
     7
420
 16777215
100
AcDbHatch
 10
0.0
 20
0.0
 30
0.0
210
0.0
220
0.0
230
1.0
  2
SOLID
 70
     1
 71
     0
 91
        2
 92
        1
 93
        1
 72
     4
 94
        3
 73
     0
 74
     1
 95
       44
 96
       40
 40
0.0
 40
0.0
 40
0.0
 40
0.0
 40
1.0
 40
1.0
 40
1.0
 40
2.0
 40
2.0
 40
2.0
 40
3.0
 40
3.0
 40
3.0
 40
4.0
 40
4.0
 40
4.0
 40
5.0
 40
5.0
 40
5.0
 40
6.0
 40
6.0
 40
6.0
 40
7.0
 40
7.0
 40
7.0
 40
8.0
 40
8.0
 40
8.0
 40
9.0
 40
9.0
 40
9.0
 40
10.0
 40
10.0
 40
10.0
 40
11.0
 40
11.0
 40
11.0
 40
12.0
 40
12.0
 40
12.0
 40
13.0
 40
13.0
 40
13.0
 40
13.0
 10
80.22972817004674
 20
-128.7177245771956
 10
80.20630152074703
 20
-128.6732828454359
 10
80.18528643828702
 20
-128.6204006297373
 10
80.18304712622161
 20
-128.3897514869998
 10
80.17891301163931
 20
-128.1465277457411
 10
80.11965736929301
 20
-128.0767645621648
 10
79.94189044225412
 20
-128.0767645621648
 10
79.94189044225412
 20
-128.0767645621648
 10
79.53364662725201
 20
-128.0767645621648
 10
79.53364662725201
 20
-128.0767645621648
 10
79.53364662725201
 20
-128.0767645621648
 10
79.53364662725201
 20
-128.7177245771956
 10
79.53364662725201
 20
-128.7177245771956
 10
79.53364662725201
 20
-128.7177245771956
 10
79.29886336993223
 20
-128.7177245771956
 10
79.29886336993223
 20
-128.7177245771956
 10
79.29886336993223
 20
-128.7177245771956
 10
79.29886336993223
 20
-127.1734605259323
 10
79.29886336993223
 20
-127.1734605259323
 10
79.29886336993223
 20
-127.1734605259323
 10
79.97375757549267
 20
-127.1734605259323
 10
79.97375757549267
 20
-127.1734605259323
 10
80.28037107367992
 20
-127.1734605259323
 10
80.44745820471452
 20
-127.3446817715492
 10
80.44745820471452
 20
-127.6008246208776
 10
80.44745820471452
 20
-127.6514675245107
 10
80.43901772077567
 20
-127.7339775613825
 10
80.39457598901595
 20
-127.8144205409631
 10
80.3354926014439
 20
-127.9181179150691
 10
80.2698635324499
 20
-127.937065940238
 10
80.20854083281245
 20
-127.9539469081157
 10
80.34600014267392
 20
-127.9963215825843
 10
80.41369626895909
 20
-128.0450696837005
 10
80.41800263831564
 20
-128.3601236658266
 10
80.42213675289794
 20
-128.6309081709673
 10
80.4581380007188
 20
-128.6627753042058
 10
80.52583412700396
 20
-128.7177245771956
 10
80.52583412700396
 20
-128.7177245771956
 10
80.22972817004674
 20
-128.7177245771956
 10
80.22972817004674
 20
-128.7177245771956
 97
        0
 97
        0
 92
        1
 93
        1
 72
     4
 94
        3
 73
     0
 74
     1
 95
       20
 96
       16
 40
0.0
 40
0.0
 40
0.0
 40
0.0
 40
1.0
 40
1.0
 40
1.0
 40
2.0
 40
2.0
 40
2.0
 40
3.0
 40
3.0
 40
3.0
 40
4.0
 40
4.0
 40
4.0
 40
5.0
 40
5.0
 40
5.0
 40
5.0
 10
79.97789169007497
 20
-127.3849893887267
 10
79.97789169007497
 20
-127.3849893887267
 10
79.53364662725201
 20
-127.3849893887267
 10
79.53364662725201
 20
-127.3849893887267
 10
79.53364662725201
 20
-127.3849893887267
 10
79.53364662725201
 20
-127.8652356993705
 10
79.53364662725201
 20
-127.8652356993705
 10
79.53364662725201
 20
-127.8652356993705
 10
79.97582463278383
 20
-127.8652356993705
 10
79.97582463278383
 20
-127.8652356993705
 10
80.07521563753328
 20
-127.8652356993705
 10
80.2106078901036
 20
-127.7890990891465
 10
80.2106078901036
 20
-127.6177055887553
 10
80.2106078901036
 20
-127.5393296664659
 10
80.1766736995739
 20
-127.3849893887267
 10
79.97789169007497
 20
-127.3849893887267
 97
        0
 97
        0
 75
     2
 76
     1
 98
        0
  0
SPLINE
  5
C5
330
BE
100
AcDbEntity
  8
_U+30EC_U+30A4_U+30E4_U+30FC 1
370
     0
100
AcDbSpline
210
0.0
220
0.0
230
1.0
 70
    11
 71
     3
 72
    44
 73
    40
 74
     0
 42
0.0000000001
 43
0.0000000001
 12
1.0
 22
0.0
 32
0.0
 13
1.0
 23
0.0
 33
0.0
 40
0.0
 40
0.0
 40
0.0
 40
0.0
 40
1.0
 40
1.0
 40
1.0
 40
2.0
 40
2.0
 40
2.0
 40
3.0
 40
3.0
 40
3.0
 40
4.0
 40
4.0
 40
4.0
 40
5.0
 40
5.0
 40
5.0
 40
6.0
 40
6.0
 40
6.0
 40
7.0
 40
7.0
 40
7.0
 40
8.0
 40
8.0
 40
8.0
 40
9.0
 40
9.0
 40
9.0
 40
10.0
 40
10.0
 40
10.0
 40
11.0
 40
11.0
 40
11.0
 40
12.0
 40
12.0
 40
12.0
 40
13.0
 40
13.0
 40
13.0
 40
13.0
 10
81.2586059367166
 20
-128.1360202045111
 30
0.0
 10
81.04070364727455
 20
-128.2946668516069
 30
0.0
 10
80.94751381439855
 20
-128.3687364045398
 30
0.0
 10
80.89893796805652
 20
-128.5125691410489
 30
0.0
 10
80.89893796805652
 20
-128.5125691410489
 30
0.0
 10
81.67735729294871
 20
-128.5125691410489
 30
0.0
 10
81.67735729294871
 20
-128.5125691410489
 30
0.0
 10
81.67735729294871
 20
-128.5125691410489
 30
0.0
 10
81.67735729294871
 20
-128.7177245771956
 30
0.0
 10
81.67735729294871
 20
-128.7177245771956
 30
0.0
 10
81.67735729294871
 20
-128.7177245771956
 30
0.0
 10
80.64934080015017
 20
-128.7177245771956
 30
0.0
 10
80.64934080015017
 20
-128.7177245771956
 30
0.0
 10
80.68103567861446
 20
-128.3601236658266
 30
0.0
 10
80.74649249283421
 20
-128.2819199983115
 30
0.0
 10
81.13165416808515
 20
-127.9835747292888
 30
0.0
 10
81.3876247626392
 20
-127.7847927197899
 30
0.0
 10
81.45308157685895
 20
-127.7170965935048
 30
0.0
 10
81.45308157685895
 20
-127.5796372836433
 30
0.0
 10
81.45308157685895
 20
-127.4611259989507
 30
0.0
 10
81.3812513359915
 20
-127.3300401157369
 30
0.0
 10
81.18453638378374
 20
-127.3300401157369
 30
0.0
 10
80.92425941987311
 20
-127.3300401157369
 30
0.0
 10
80.91581893593424
 20
-127.5605170037002
 30
0.0
 10
80.91151256657768
 20
-127.6769612311016
 30
0.0
 10
80.91151256657768
 20
-127.6769612311016
 30
0.0
 10
80.68740910526218
 20
-127.6769612311016
 30
0.0
 10
80.68740910526218
 20
-127.6769612311016
 30
0.0
 10
80.69584958920105
 20
-127.5500094624701
 30
0.0
 10
80.70635713043106
 20
-127.4378716044253
 30
0.0
 10
80.78680011001164
 20
-127.3193603197327
 30
0.0
 10
80.8966986559911
 20
-127.1586466153458
 30
0.0
 10
81.08290606696886
 20
-127.1247124248161
 30
0.0
 10
81.1993502943703
 20
-127.1247124248161
 30
0.0
 10
81.47650822615866
 20
-127.1247124248161
 30
0.0
 10
81.68373071959643
 20
-127.3088527785027
 30
0.0
 10
81.68373071959643
 20
-127.5817043409344
 30
0.0
 10
81.68373071959643
 20
-127.8101141716065
 30
0.0
 10
81.56745874696925
 20
-127.9096774311302
 30
0.0
 10
81.2586059367166
 20
-128.1360202045111
 30
0.0
  0
HATCH
  5
C6
330
BE
100
AcDbEntity
  8
_U+30EC_U+30A4_U+30E4_U+30FC 1
 62
     7
420
 16777215
100
AcDbHatch
 10
0.0
 20
0.0
 30
0.0
210
0.0
220
0.0
230
1.0
  2
SOLID
 70
     1
 71
     0
 91
        1
 92
        1
 93
        1
 72
     4
 94
        3
 73
     0
 74
     1
 95
       44
 96
       40
 40
0.0
 40
0.0
 40
0.0
 40
0.0
 40
1.0
 40
1.0
 40
1.0
 40
2.0
 40
2.0
 40
2.0
 40
3.0
 40
3.0
 40
3.0
 40
4.0
 40
4.0
 40
4.0
 40
5.0
 40
5.0
 40
5.0
 40
6.0
 40
6.0
 40
6.0
 40
7.0
 40
7.0
 40
7.0
 40
8.0
 40
8.0
 40
8.0
 40
9.0
 40
9.0
 40
9.0
 40
10.0
 40
10.0
 40
10.0
 40
11.0
 40
11.0
 40
11.0
 40
12.0
 40
12.0
 40
12.0
 40
13.0
 40
13.0
 40
13.0
 40
13.0
 10
81.2586059367166
 20
-128.1360202045111
 10
81.04070364727455
 20
-128.2946668516069
 10
80.94751381439855
 20
-128.3687364045398
 10
80.89893796805652
 20
-128.5125691410489
 10
80.89893796805652
 20
-128.5125691410489
 10
81.67735729294871
 20
-128.5125691410489
 10
81.67735729294871
 20
-128.5125691410489
 10
81.67735729294871
 20
-128.5125691410489
 10
81.67735729294871
 20
-128.7177245771956
 10
81.67735729294871
 20
-128.7177245771956
 10
81.67735729294871
 20
-128.7177245771956
 10
80.64934080015017
 20
-128.7177245771956
 10
80.64934080015017
 20
-128.7177245771956
 10
80.68103567861446
 20
-128.3601236658266
 10
80.74649249283421
 20
-128.2819199983115
 10
81.13165416808515
 20
-127.9835747292888
 10
81.3876247626392
 20
-127.7847927197899
 10
81.45308157685895
 20
-127.7170965935048
 10
81.45308157685895
 20
-127.5796372836433
 10
81.45308157685895
 20
-127.4611259989507
 10
81.3812513359915
 20
-127.3300401157369
 10
81.18453638378374
 20
-127.3300401157369
 10
80.92425941987311
 20
-127.3300401157369
 10
80.91581893593424
 20
-127.5605170037002
 10
80.91151256657768
 20
-127.6769612311016
 10
80.91151256657768
 20
-127.6769612311016
 10
80.68740910526218
 20
-127.6769612311016
 10
80.68740910526218
 20
-127.6769612311016
 10
80.69584958920105
 20
-127.5500094624701
 10
80.70635713043106
 20
-127.4378716044253
 10
80.78680011001164
 20
-127.3193603197327
 10
80.8966986559911
 20
-127.1586466153458
 10
81.08290606696886
 20
-127.1247124248161
 10
81.1993502943703
 20
-127.1247124248161
 10
81.47650822615866
 20
-127.1247124248161
 10
81.68373071959643
 20
-127.3088527785027
 10
81.68373071959643
 20
-127.5817043409344
 10
81.68373071959643
 20
-127.8101141716065
 10
81.56745874696925
 20
-127.9096774311302
 10
81.2586059367166
 20
-128.1360202045111
 97
        0
 97
        0
 75
     2
 76
     1
 98
        0
  0
SPLINE
  5
C7
330
BE
100
AcDbEntity
  8
_U+30EC_U+30A4_U+30E4_U+30FC 1
370
     0
100
AcDbSpline
210
0.0
220
0.0
230
1.0
 70
    11
 71
     3
 72
    53
 73
    49
 74
     0
 42
0.0000000001
 43
0.0000000001
 12
1.0
 22
0.0
 32
0.0
 13
1.0
 23
0.0
 33
0.0
 40
0.0
 40
0.0
 40
0.0
 40
0.0
 40
1.0
 40
1.0
 40
1.0
 40
2.0
 40
2.0
 40
2.0
 40
3.0
 40
3.0
 40
3.0
 40
4.0
 40
4.0
 40
4.0
 40
5.0
 40
5.0
 40
5.0
 40
6.0
 40
6.0
 40
6.0
 40
7.0
 40
7.0
 40
7.0
 40
8.0
 40
8.0
 40
8.0
 40
9.0
 40
9.0
 40
9.0
 40
10.0
 40
10.0
 40
10.0
 40
11.0
 40
11.0
 40
11.0
 40
12.0
 40
12.0
 40
12.0
 40
13.0
 40
13.0
 40
13.0
 40
14.0
 40
14.0
 40
14.0
 40
15.0
 40
15.0
 40
15.0
 40
16.0
 40
16.0
 40
16.0
 40
16.0
 10
82.32331269643306
 20
-128.7687119903773
 30
0.0
 10
82.24493677414362
 20
-128.7687119903773
 30
0.0
 10
82.14347871210302
 20
-128.751486512951
 30
0.0
 10
82.04184839528816
 20
-128.6880967560224
 30
0.0
 10
81.86838783760582
 20
-128.5780259552687
 30
0.0
 10
81.84720050037154
 20
-128.4469400720549
 30
0.0
 10
81.82825247520266
 20
-128.3391085833666
 30
0.0
 10
81.82825247520266
 20
-128.3391085833666
 30
0.0
 10
82.05028887922701
 20
-128.3391085833666
 30
0.0
 10
82.05028887922701
 20
-128.3391085833666
 30
0.0
 10
82.10541040699101
 20
-128.5378905928655
 30
0.0
 10
82.23236217562247
 20
-128.5675184140387
 30
0.0
 10
82.32537975372422
 20
-128.5675184140387
 30
0.0
 10
82.46490612087683
 20
-128.5675184140387
 30
0.0
 10
82.61735159609914
 20
-128.4681274092892
 30
0.0
 10
82.61735159609914
 20
-128.2354112092606
 30
0.0
 10
82.61735159609914
 20
-127.9794406147065
 30
0.0
 10
82.4375176117691
 20
-127.9096774311302
 30
0.0
 10
82.31693926978535
 20
-127.9096774311302
 30
0.0
 10
82.28524439132106
 20
-127.9096774311302
 30
0.0
 10
82.14347871210302
 20
-127.9096774311302
 30
0.0
 10
82.05459524858358
 20
-128.0386962570528
 30
0.0
 10
82.05459524858358
 20
-128.0386962570528
 30
0.0
 10
81.87906763361009
 20
-128.0195759771097
 30
0.0
 10
81.87906763361009
 20
-128.0195759771097
 30
0.0
 10
81.87906763361009
 20
-128.0195759771097
 30
0.0
 10
81.99964597559384
 20
-127.1734605259323
 30
0.0
 10
81.99964597559384
 20
-127.1734605259323
 30
0.0
 10
81.99964597559384
 20
-127.1734605259323
 30
0.0
 10
82.77806530048605
 20
-127.1734605259323
 30
0.0
 10
82.77806530048605
 20
-127.1734605259323
 30
0.0
 10
82.77806530048605
 20
-127.1734605259323
 30
0.0
 10
82.77806530048605
 20
-127.368108420849
 30
0.0
 10
82.77806530048605
 20
-127.368108420849
 30
0.0
 10
82.77806530048605
 20
-127.368108420849
 30
0.0
 10
82.1624267372719
 20
-127.368108420849
 30
0.0
 10
82.1624267372719
 20
-127.368108420849
 30
0.0
 10
82.1624267372719
 20
-127.368108420849
 30
0.0
 10
82.09696992305216
 20
-127.7911661464376
 30
0.0
 10
82.09696992305216
 20
-127.7911661464376
 30
0.0
 10
82.1582926226896
 20
-127.7572319559079
 30
0.0
 10
82.24080265956133
 20
-127.7170965935048
 30
0.0
 10
82.35914168947966
 20
-127.7170965935048
 30
0.0
 10
82.61304522674257
 20
-127.7170965935048
 30
0.0
 10
82.85006779612776
 20
-127.9033040044825
 30
0.0
 10
82.85006779612776
 20
-128.2162909293175
 30
0.0
 10
82.85006779612776
 20
-128.5337564782832
 30
0.0
 10
82.625792080038
 20
-128.7687119903773
 30
0.0
 10
82.32331269643306
 20
-128.7687119903773
 30
0.0
  0
HATCH
  5
C8
330
BE
100
AcDbEntity
  8
_U+30EC_U+30A4_U+30E4_U+30FC 1
 62
     7
420
 16777215
100
AcDbHatch
 10
0.0
 20
0.0
 30
0.0
210
0.0
220
0.0
230
1.0
  2
SOLID
 70
     1
 71
     0
 91
        1
 92
        1
 93
        1
 72
     4
 94
        3
 73
     0
 74
     1
 95
       53
 96
       49
 40
0.0
 40
0.0
 40
0.0
 40
0.0
 40
1.0
 40
1.0
 40
1.0
 40
2.0
 40
2.0
 40
2.0
 40
3.0
 40
3.0
 40
3.0
 40
4.0
 40
4.0
 40
4.0
 40
5.0
 40
5.0
 40
5.0
 40
6.0
 40
6.0
 40
6.0
 40
7.0
 40
7.0
 40
7.0
 40
8.0
 40
8.0
 40
8.0
 40
9.0
 40
9.0
 40
9.0
 40
10.0
 40
10.0
 40
10.0
 40
11.0
 40
11.0
 40
11.0
 40
12.0
 40
12.0
 40
12.0
 40
13.0
 40
13.0
 40
13.0
 40
14.0
 40
14.0
 40
14.0
 40
15.0
 40
15.0
 40
15.0
 40
16.0
 40
16.0
 40
16.0
 40
16.0
 10
82.32331269643306
 20
-128.7687119903773
 10
82.24493677414362
 20
-128.7687119903773
 10
82.14347871210302
 20
-128.751486512951
 10
82.04184839528816
 20
-128.6880967560224
 10
81.86838783760582
 20
-128.5780259552687
 10
81.84720050037154
 20
-128.4469400720549
 10
81.82825247520266
 20
-128.3391085833666
 10
81.82825247520266
 20
-128.3391085833666
 10
82.05028887922701
 20
-128.3391085833666
 10
82.05028887922701
 20
-128.3391085833666
 10
82.10541040699101
 20
-128.5378905928655
 10
82.23236217562247
 20
-128.5675184140387
 10
82.32537975372422
 20
-128.5675184140387
 10
82.46490612087683
 20
-128.5675184140387
 10
82.61735159609914
 20
-128.4681274092892
 10
82.61735159609914
 20
-128.2354112092606
 10
82.61735159609914
 20
-127.9794406147065
 10
82.4375176117691
 20
-127.9096774311302
 10
82.31693926978535
 20
-127.9096774311302
 10
82.28524439132106
 20
-127.9096774311302
 10
82.14347871210302
 20
-127.9096774311302
 10
82.05459524858358
 20
-128.0386962570528
 10
82.05459524858358
 20
-128.0386962570528
 10
81.87906763361009
 20
-128.0195759771097
 10
81.87906763361009
 20
-128.0195759771097
 10
81.87906763361009
 20
-128.0195759771097
 10
81.99964597559384
 20
-127.1734605259323
 10
81.99964597559384
 20
-127.1734605259323
 10
81.99964597559384
 20
-127.1734605259323
 10
82.77806530048605
 20
-127.1734605259323
 10
82.77806530048605
 20
-127.1734605259323
 10
82.77806530048605
 20
-127.1734605259323
 10
82.77806530048605
 20
-127.368108420849
 10
82.77806530048605
 20
-127.368108420849
 10
82.77806530048605
 20
-127.368108420849
 10
82.1624267372719
 20
-127.368108420849
 10
82.1624267372719
 20
-127.368108420849
 10
82.1624267372719
 20
-127.368108420849
 10
82.09696992305216
 20
-127.7911661464376
 10
82.09696992305216
 20
-127.7911661464376
 10
82.1582926226896
 20
-127.7572319559079
 10
82.24080265956133
 20
-127.7170965935048
 10
82.35914168947966
 20
-127.7170965935048
 10
82.61304522674257
 20
-127.7170965935048
 10
82.85006779612776
 20
-127.9033040044825
 10
82.85006779612776
 20
-128.2162909293175
 10
82.85006779612776
 20
-128.5337564782832
 10
82.625792080038
 20
-128.7687119903773
 10
82.32331269643306
 20
-128.7687119903773
 97
        0
 97
        0
 75
     2
 76
     1
 98
        0
  0
ENDBLK
  5
C1
330
BE
100
AcDbEntity
  8
0
100
AcDbBlockEnd
  0
ENDSEC
  0
SECTION
  2
ENTITIES
  0
SPLINE
  5
41
330
1F
100
AcDbEntity
  8
_U+30EC_U+30A4_U+30E4_U+30FC 1
 62
     7
420
 16777215
370
    25
100
AcDbSpline
210
0.0
220
0.0
230
1.0
 70
    11
 71
     3
 72
    53
 73
    49
 74
     0
 42
0.0000000001
 43
0.0000000001
 12
1.0
 22
0.0
 32
0.0
 13
1.0
 23
0.0
 33
0.0
 40
0.0
 40
0.0
 40
0.0
 40
0.0
 40
1.0
 40
1.0
 40
1.0
 40
2.0
 40
2.0
 40
2.0
 40
3.0
 40
3.0
 40
3.0
 40
4.0
 40
4.0
 40
4.0
 40
5.0
 40
5.0
 40
5.0
 40
6.0
 40
6.0
 40
6.0
 40
7.0
 40
7.0
 40
7.0
 40
8.0
 40
8.0
 40
8.0
 40
9.0
 40
9.0
 40
9.0
 40
10.0
 40
10.0
 40
10.0
 40
11.0
 40
11.0
 40
11.0
 40
12.0
 40
12.0
 40
12.0
 40
13.0
 40
13.0
 40
13.0
 40
14.0
 40
14.0
 40
14.0
 40
15.0
 40
15.0
 40
15.0
 40
16.0
 40
16.0
 40
16.0
 40
16.0
 10
93.72381038668416
 20
-147.3522438520507
 30
0.0
 10
79.91689990559448
 20
-147.3522438520507
 30
0.0
 10
68.72379046893226
 20
-136.1594869104048
 30
0.0
 10
68.72379046893226
 20
-122.3522233027454
 30
0.0
 10
68.72379046893226
 20
-122.3522233027454
 30
0.0
 10
68.72206185786524
 20
-117.3523391373285
 30
0.0
 10
68.72206185786524
 20
-117.3523391373285
 30
0.0
 10
68.72206185786524
 20
-117.3523391373285
 30
0.0
 10
78.72179465830637
 20
-117.6344908039249
 30
0.0
 10
78.72179465830637
 20
-117.6344908039249
 30
0.0
 10
78.72179465830637
 20
-117.6344908039249
 30
0.0
 10
78.72179465830637
 20
-102.3520516410787
 30
0.0
 10
78.72179465830637
 20
-102.3520516410787
 30
0.0
 10
78.72179465830637
 20
-102.3520516410787
 30
0.0
 10
79.72191963279106
 20
-102.3520516410787
 30
0.0
 10
79.72191963279106
 20
-102.3520516410787
 30
0.0
 10
79.72191963279106
 20
-102.3520516410787
 30
0.0
 10
79.72191963279106
 20
-118.6346158036745
 30
0.0
 10
79.72191963279106
 20
-118.6346158036745
 30
0.0
 10
79.72191963279106
 20
-118.6346158036745
 30
0.0
 10
69.72218683234993
 20
-118.3524641370785
 30
0.0
 10
69.72218683234993
 20
-118.3524641370785
 30
0.0
 10
69.72218683234993
 20
-118.3524641370785
 30
0.0
 10
69.72356266564817
 20
-122.3522233027454
 30
0.0
 10
69.72356266564817
 20
-122.3522233027454
 30
0.0
 10
69.72356266564817
 20
-135.6072132994315
 30
0.0
 10
80.46882072484713
 20
-146.3521188523011
 30
0.0
 10
93.72381038668416
 20
-146.3521188523011
 30
0.0
 10
93.72381038668416
 20
-146.3521188523011
 30
0.0
 10
97.7228991735478
 20
-146.3521188523011
 30
0.0
 10
97.7228991735478
 20
-146.3521188523011
 30
0.0
 10
97.7228991735478
 20
-146.3521188523011
 30
0.0
 10
97.4407499756395
 20
-136.3523857992455
 30
0.0
 10
97.4407499756395
 20
-136.3523857992455
 30
0.0
 10
97.4407499756395
 20
-136.3523857992455
 30
0.0
 10
113.7229584875745
 20
-136.3523857992455
 30
0.0
 10
113.7229584875745
 20
-136.3523857992455
 30
0.0
 10
113.7229584875745
 20
-136.3523857992455
 30
0.0
 10
113.7229584875745
 20
-137.3525107989952
 30
0.0
 10
113.7229584875745
 20
-137.3525107989952
 30
0.0
 10
113.7229584875745
 20
-137.3525107989952
 30
0.0
 10
98.44048443301845
 20
-137.3525107989952
 30
0.0
 10
98.44048443301845
 20
-137.3525107989952
 30
0.0
 10
98.44048443301845
 20
-137.3525107989952
 30
0.0
 10
98.72267137026371
 20
-147.3522438520507
 30
0.0
 10
98.72267137026371
 20
-147.3522438520507
 30
0.0
 10
98.72267137026371
 20
-147.3522438520507
 30
0.0
 10
93.72381038668416
 20
-147.3522438520507
 30
0.0
 10
93.72381038668416
 20
-147.3522438520507
 30
0.0
  0
HATCH
  5
42
330
1F
100
AcDbEntity
  8
_U+30EC_U+30A4_U+30E4_U+30FC 1
 62
   253
420
 11711154
100
AcDbHatch
 10
0.0
 20
0.0
 30
0.0
210
0.0
220
0.0
230
1.0
  2
SOLID
 70
     1
 71
     0
 91
        1
 92
        1
 93
        1
 72
     4
 94
        3
 73
     0
 74
     1
 95
       53
 96
       49
 40
0.0
 40
0.0
 40
0.0
 40
0.0
 40
1.0
 40
1.0
 40
1.0
 40
2.0
 40
2.0
 40
2.0
 40
3.0
 40
3.0
 40
3.0
 40
4.0
 40
4.0
 40
4.0
 40
5.0
 40
5.0
 40
5.0
 40
6.0
 40
6.0
 40
6.0
 40
7.0
 40
7.0
 40
7.0
 40
8.0
 40
8.0
 40
8.0
 40
9.0
 40
9.0
 40
9.0
 40
10.0
 40
10.0
 40
10.0
 40
11.0
 40
11.0
 40
11.0
 40
12.0
 40
12.0
 40
12.0
 40
13.0
 40
13.0
 40
13.0
 40
14.0
 40
14.0
 40
14.0
 40
15.0
 40
15.0
 40
15.0
 40
16.0
 40
16.0
 40
16.0
 40
16.0
 10
93.72381038668416
 20
-147.3522438520507
 10
79.91689990559448
 20
-147.3522438520507
 10
68.72379046893226
 20
-136.1594869104048
 10
68.72379046893226
 20
-122.3522233027454
 10
68.72379046893226
 20
-122.3522233027454
 10
68.72206185786524
 20
-117.3523391373285
 10
68.72206185786524
 20
-117.3523391373285
 10
68.72206185786524
 20
-117.3523391373285
 10
78.72179465830637
 20
-117.6344908039249
 10
78.72179465830637
 20
-117.6344908039249
 10
78.72179465830637
 20
-117.6344908039249
 10
78.72179465830637
 20
-102.3520516410787
 10
78.72179465830637
 20
-102.3520516410787
 10
78.72179465830637
 20
-102.3520516410787
 10
79.72191963279106
 20
-102.3520516410787
 10
79.72191963279106
 20
-102.3520516410787
 10
79.72191963279106
 20
-102.3520516410787
 10
79.72191963279106
 20
-118.6346158036745
 10
79.72191963279106
 20
-118.6346158036745
 10
79.72191963279106
 20
-118.6346158036745
 10
69.72218683234993
 20
-118.3524641370785
 10
69.72218683234993
 20
-118.3524641370785
 10
69.72218683234993
 20
-118.3524641370785
 10
69.72356266564817
 20
-122.3522233027454
 10
69.72356266564817
 20
-122.3522233027454
 10
69.72356266564817
 20
-135.6072132994315
 10
80.46882072484713
 20
-146.3521188523011
 10
93.72381038668416
 20
-146.3521188523011
 10
93.72381038668416
 20
-146.3521188523011
 10
97.7228991735478
 20
-146.3521188523011
 10
97.7228991735478
 20
-146.3521188523011
 10
97.7228991735478
 20
-146.3521188523011
 10
97.4407499756395
 20
-136.3523857992455
 10
97.4407499756395
 20
-136.3523857992455
 10
97.4407499756395
 20
-136.3523857992455
 10
113.7229584875745
 20
-136.3523857992455
 10
113.7229584875745
 20
-136.3523857992455
 10
113.7229584875745
 20
-136.3523857992455
 10
113.7229584875745
 20
-137.3525107989952
 10
113.7229584875745
 20
-137.3525107989952
 10
113.7229584875745
 20
-137.3525107989952
 10
98.44048443301845
 20
-137.3525107989952
 10
98.44048443301845
 20
-137.3525107989952
 10
98.44048443301845
 20
-137.3525107989952
 10
98.72267137026371
 20
-147.3522438520507
 10
98.72267137026371
 20
-147.3522438520507
 10
98.72267137026371
 20
-147.3522438520507
 10
93.72381038668416
 20
-147.3522438520507
 10
93.72381038668416
 20
-147.3522438520507
 97
        0
 97
        0
 75
     2
 76
     1
 98
        0
  0
POLYLINE
  5
43
330
1F
100
AcDbEntity
  8
_U+30EC_U+30A4_U+30E4_U+30FC 1
 62
     7
420
 16777215
370
     9
100
AcDb2dPolyline
 66
     1
 10
0.0
 20
0.0
 30
0.0
  0
VERTEX
  5
44
330
43
100
AcDbEntity
  8
_U+30EC_U+30A4_U+30E4_U+30FC 1
 62
     7
420
 16777215
370
     9
100
AcDbVertex
100
AcDb2dVertex
 10
68.72206185786524
 20
-152.2243166286108
 30
0.0
  0
VERTEX
  5
45
330
43
100
AcDbEntity
  8
_U+30EC_U+30A4_U+30E4_U+30FC 1
 62
     7
420
 16777215
370
     9
100
AcDbVertex
100
AcDb2dVertex
 10
98.72196581472616
 20
-152.2243166286108
 30
0.0
  0
SEQEND
  5
46
330
43
100
AcDbEntity
  8
_U+30EC_U+30A4_U+30E4_U+30FC 1
 62
     7
420
 16777215
370
     9
  0
POLYLINE
  5
47
330
1F
100
AcDbEntity
  8
_U+30EC_U+30A4_U+30E4_U+30FC 1
 62
     7
420
 16777215
370
     9
100
AcDb2dPolyline
 66
     1
 10
0.0
 20
0.0
 30
0.0
  0
VERTEX
  5
48
330
47
100
AcDbEntity
  8
_U+30EC_U+30A4_U+30E4_U+30FC 1
 62
     7
420
 16777215
370
     9
100
AcDbVertex
100
AcDb2dVertex
 10
68.72206185786524
 20
-154.3740385725175
 30
0.0
  0
VERTEX
  5
49
330
47
100
AcDbEntity
  8
_U+30EC_U+30A4_U+30E4_U+30FC 1
 62
     7
420
 16777215
370
     9
100
AcDbVertex
100
AcDb2dVertex
 10
68.72206185786524
 20
-128.0524771902091
 30
0.0
  0
SEQEND
  5
4A
330
47
100
AcDbEntity
  8
_U+30EC_U+30A4_U+30E4_U+30FC 1
 62
     7
420
 16777215
370
     9
  0
INSERT
  5
4C
330
1F
100
AcDbEntity
  8
_U+30EC_U+30A4_U+30E4_U+30FC 1
100
AcDbBlockReference
  2
block 2
 10
0.0
 20
0.0
 30
0.0
  0
POLYLINE
  5
53
330
1F
100
AcDbEntity
  8
_U+30EC_U+30A4_U+30E4_U+30FC 1
 62
     7
420
 16777215
370
     9
100
AcDb2dPolyline
 66
     1
 10
0.0
 20
0.0
 30
0.0
  0
VERTEX
  5
54
330
53
100
AcDbEntity
  8
_U+30EC_U+30A4_U+30E4_U+30FC 1
 62
     7
420
 16777215
370
     9
100
AcDbVertex
100
AcDb2dVertex
 10
93.72208177561716
 20
-154.1645944059034
 30
0.0
  0
VERTEX
  5
55
330
53
100
AcDbEntity
  8
_U+30EC_U+30A4_U+30E4_U+30FC 1
 62
     7
420
 16777215
370
     9
100
AcDbVertex
100
AcDb2dVertex
 10
93.72208177561716
 20
-151.1818230177599
 30
0.0
  0
SEQEND
  5
56
330
53
100
AcDbEntity
  8
_U+30EC_U+30A4_U+30E4_U+30FC 1
 62
     7
420
 16777215
370
     9
  0
POLYLINE
  5
57
330
1F
100
AcDbEntity
  8
_U+30EC_U+30A4_U+30E4_U+30FC 1
 62
     7
420
 16777215
370
     9
100
AcDb2dPolyline
 66
     1
 10
0.0
 20
0.0
 30
0.0
  0
VERTEX
  5
58
330
57
100
AcDbEntity
  8
_U+30EC_U+30A4_U+30E4_U+30FC 1
 62
     7
420
 16777215
370
     9
100
AcDbVertex
100
AcDb2dVertex
 10
98.72267137026371
 20
-154.1645944059034
 30
0.0
  0
VERTEX
  5
59
330
57
100
AcDbEntity
  8
_U+30EC_U+30A4_U+30E4_U+30FC 1
 62
     7
420
 16777215
370
     9
100
AcDbVertex
100
AcDb2dVertex
 10
98.72267137026371
 20
-151.1818230177599
 30
0.0
  0
SEQEND
  5
5A
330
57
100
AcDbEntity
  8
_U+30EC_U+30A4_U+30E4_U+30FC 1
 62
     7
420
 16777215
370
     9
  0
INSERT
  5
5C
330
1F
100
AcDbEntity
  8
_U+30EC_U+30A4_U+30E4_U+30FC 1
100
AcDbBlockReference
  2
block 3
 10
0.0
 20
0.0
 30
0.0
  0
POLYLINE
  5
61
330
1F
100
AcDbEntity
  8
_U+30EC_U+30A4_U+30E4_U+30FC 1
 62
     7
420
 16777215
370
     9
100
AcDb2dPolyline
 66
     1
 10
0.0
 20
0.0
 30
0.0
  0
VERTEX
  5
62
330
61
100
AcDbEntity
  8
_U+30EC_U+30A4_U+30E4_U+30FC 1
 62
     7
420
 16777215
370
     9
100
AcDbVertex
100
AcDb2dVertex
 10
64.70131251599867
 20
-117.2018088595884
 30
0.0
  0
VERTEX
  5
63
330
61
100
AcDbEntity
  8
_U+30EC_U+30A4_U+30E4_U+30FC 1
 62
     7
420
 16777215
370
     9
100
AcDbVertex
100
AcDb2dVertex
 10
64.70131251599867
 20
-102.5143294188159
 30
0.0
  0
SEQEND
  5
64
330
61
100
AcDbEntity
  8
_U+30EC_U+30A4_U+30E4_U+30FC 1
 62
     7
420
 16777215
370
     9
  0
POLYLINE
  5
65
330
1F
100
AcDbEntity
  8
_U+30EC_U+30A4_U+30E4_U+30FC 1
 62
     7
420
 16777215
370
     9
100
AcDb2dPolyline
 66
     1
 10
0.0
 20
0.0
 30
0.0
  0
VERTEX
  5
66
330
65
100
AcDbEntity
  8
_U+30EC_U+30A4_U+30E4_U+30FC 1
 62
     7
420
 16777215
370
     9
100
AcDbVertex
100
AcDb2dVertex
 10
64.70131251599867
 20
-147.3522438520507
 30
0.0
  0
VERTEX
  5
67
330
65
100
AcDbEntity
  8
_U+30EC_U+30A4_U+30E4_U+30FC 1
 62
     7
420
 16777215
370
     9
100
AcDbVertex
100
AcDb2dVertex
 10
64.70131251599867
 20
-117.2018088595884
 30
0.0
  0
SEQEND
  5
68
330
65
100
AcDbEntity
  8
_U+30EC_U+30A4_U+30E4_U+30FC 1
 62
     7
420
 16777215
370
     9
  0
POLYLINE
  5
69
330
1F
100
AcDbEntity
  8
_U+30EC_U+30A4_U+30E4_U+30FC 1
 62
     7
420
 16777215
370
     9
100
AcDb2dPolyline
 66
     1
 10
0.0
 20
0.0
 30
0.0
  0
VERTEX
  5
6A
330
69
100
AcDbEntity
  8
_U+30EC_U+30A4_U+30E4_U+30FC 1
 62
     7
420
 16777215
370
     9
100
AcDbVertex
100
AcDb2dVertex
 10
88.10039164126064
 20
-147.3522438520507
 30
0.0
  0
VERTEX
  5
6B
330
69
100
AcDbEntity
  8
_U+30EC_U+30A4_U+30E4_U+30FC 1
 62
     7
420
 16777215
370
     9
100
AcDbVertex
100
AcDb2dVertex
 10
63.22885338689756
 20
-147.3522438520507
 30
0.0
  0
SEQEND
  5
6C
330
69
100
AcDbEntity
  8
_U+30EC_U+30A4_U+30E4_U+30FC 1
 62
     7
420
 16777215
370
     9
  0
POLYLINE
  5
6D
330
1F
100
AcDbEntity
  8
_U+30EC_U+30A4_U+30E4_U+30FC 1
 62
     7
420
 16777215
370
     9
100
AcDb2dPolyline
 66
     1
 10
0.0
 20
0.0
 30
0.0
  0
VERTEX
  5
6E
330
6D
100
AcDbEntity
  8
_U+30EC_U+30A4_U+30E4_U+30FC 1
 62
     7
420
 16777215
370
     9
100
AcDbVertex
100
AcDb2dVertex
 10
68.11193270676428
 20
-117.3523391373285
 30
0.0
  0
VERTEX
  5
6F
330
6D
100
AcDbEntity
  8
_U+30EC_U+30A4_U+30E4_U+30FC 1
 62
     7
420
 16777215
370
     9
100
AcDbVertex
100
AcDb2dVertex
 10
63.10689811223112
 20
-117.3523391373285
 30
0.0
  0
SEQEND
  5
70
330
6D
100
AcDbEntity
  8
_U+30EC_U+30A4_U+30E4_U+30FC 1
 62
     7
420
 16777215
370
     9
  0
POLYLINE
  5
71
330
1F
100
AcDbEntity
  8
_U+30EC_U+30A4_U+30E4_U+30FC 1
 62
     7
420
 16777215
370
     9
100
AcDb2dPolyline
 66
     1
 10
0.0
 20
0.0
 30
0.0
  0
VERTEX
  5
72
330
71
100
AcDbEntity
  8
_U+30EC_U+30A4_U+30E4_U+30FC 1
 62
     7
420
 16777215
370
     9
100
AcDbVertex
100
AcDb2dVertex
 10
77.47571302342989
 20
-102.3520516410787
 30
0.0
  0
VERTEX
  5
73
330
71
100
AcDbEntity
  8
_U+30EC_U+30A4_U+30E4_U+30FC 1
 62
     7
420
 16777215
370
     9
100
AcDbVertex
100
AcDb2dVertex
 10
63.10689811223112
 20
-102.3520516410787
 30
0.0
  0
SEQEND
  5
74
330
71
100
AcDbEntity
  8
_U+30EC_U+30A4_U+30E4_U+30FC 1
 62
     7
420
 16777215
370
     9
  0
INSERT
  5
76
330
1F
100
AcDbEntity
  8
_U+30EC_U+30A4_U+30E4_U+30FC 1
100
AcDbBlockReference
  2
block 4
 10
0.0
 20
0.0
 30
0.0
  0
INSERT
  5
7F
330
1F
100
AcDbEntity
  8
_U+30EC_U+30A4_U+30E4_U+30FC 1
100
AcDbBlockReference
  2
block 5
 10
0.0
 20
0.0
 30
0.0
  0
POLYLINE
  5
86
330
1F
100
AcDbEntity
  8
_U+30EC_U+30A4_U+30E4_U+30FC 1
 62
     7
420
 16777215
370
     9
100
AcDb2dPolyline
 66
     1
 10
0.0
 20
0.0
 30
0.0
  0
VERTEX
  5
87
330
86
100
AcDbEntity
  8
_U+30EC_U+30A4_U+30E4_U+30FC 1
 62
     7
420
 16777215
370
     9
100
AcDbVertex
100
AcDb2dVertex
 10
117.9397464355508
 20
-137.3397755212208
 30
0.0
  0
VERTEX
  5
88
330
86
100
AcDbEntity
  8
_U+30EC_U+30A4_U+30E4_U+30FC 1
 62
     7
420
 16777215
370
     9
100
AcDbVertex
100
AcDb2dVertex
 10
117.9397464355508
 20
-136.3200007992535
 30
0.0
  0
SEQEND
  5
89
330
86
100
AcDbEntity
  8
_U+30EC_U+30A4_U+30E4_U+30FC 1
 62
     7
420
 16777215
370
     9
  0
POLYLINE
  5
8A
330
1F
100
AcDbEntity
  8
_U+30EC_U+30A4_U+30E4_U+30FC 1
 62
     7
420
 16777215
370
     9
100
AcDb2dPolyline
 66
     1
 10
0.0
 20
0.0
 30
0.0
  0
VERTEX
  5
8B
330
8A
100
AcDbEntity
  8
_U+30EC_U+30A4_U+30E4_U+30FC 1
 62
     7
420
 16777215
370
     9
100
AcDbVertex
100
AcDb2dVertex
 10
117.9390408800133
 20
-147.3432832964972
 30
0.0
  0
VERTEX
  5
8C
330
8A
100
AcDbEntity
  8
_U+30EC_U+30A4_U+30E4_U+30FC 1
 62
     7
420
 16777215
370
     9
100
AcDbVertex
100
AcDb2dVertex
 10
117.9390408800133
 20
-137.3397755212208
 30
0.0
  0
SEQEND
  5
8D
330
8A
100
AcDbEntity
  8
_U+30EC_U+30A4_U+30E4_U+30FC 1
 62
     7
420
 16777215
370
     9
  0
POLYLINE
  5
8E
330
1F
100
AcDbEntity
  8
_U+30EC_U+30A4_U+30E4_U+30FC 1
 62
     7
420
 16777215
370
     9
100
AcDb2dPolyline
 66
     1
 10
0.0
 20
0.0
 30
0.0
  0
VERTEX
  5
8F
330
8E
100
AcDbEntity
  8
_U+30EC_U+30A4_U+30E4_U+30FC 1
 62
     7
420
 16777215
370
     9
100
AcDbVertex
100
AcDb2dVertex
 10
119.2891919566792
 20
-147.3522438520507
 30
0.0
  0
VERTEX
  5
90
330
8E
100
AcDbEntity
  8
_U+30EC_U+30A4_U+30E4_U+30FC 1
 62
     7
420
 16777215
370
     9
100
AcDbVertex
100
AcDb2dVertex
 10
99.87262106314827
 20
-147.3522438520507
 30
0.0
  0
SEQEND
  5
91
330
8E
100
AcDbEntity
  8
_U+30EC_U+30A4_U+30E4_U+30FC 1
 62
     7
420
 16777215
370
     9
  0
POLYLINE
  5
92
330
1F
100
AcDbEntity
  8
_U+30EC_U+30A4_U+30E4_U+30FC 1
 62
     7
420
 16777215
370
     9
100
AcDb2dPolyline
 66
     1
 10
0.0
 20
0.0
 30
0.0
  0
VERTEX
  5
93
330
92
100
AcDbEntity
  8
_U+30EC_U+30A4_U+30E4_U+30FC 1
 62
     7
420
 16777215
370
     9
100
AcDbVertex
100
AcDb2dVertex
 10
119.8786483305298
 20
-137.3525107989952
 30
0.0
  0
VERTEX
  5
94
330
92
100
AcDbEntity
  8
_U+30EC_U+30A4_U+30E4_U+30FC 1
 62
     7
420
 16777215
370
     9
100
AcDbVertex
100
AcDb2dVertex
 10
114.8729110823928
 20
-137.3525107989952
 30
0.0
  0
SEQEND
  5
95
330
92
100
AcDbEntity
  8
_U+30EC_U+30A4_U+30E4_U+30FC 1
 62
     7
420
 16777215
370
     9
  0
POLYLINE
  5
96
330
1F
100
AcDbEntity
  8
_U+30EC_U+30A4_U+30E4_U+30FC 1
 62
     7
420
 16777215
370
     9
100
AcDb2dPolyline
 66
     1
 10
0.0
 20
0.0
 30
0.0
  0
VERTEX
  5
97
330
96
100
AcDbEntity
  8
_U+30EC_U+30A4_U+30E4_U+30FC 1
 62
     7
420
 16777215
370
     9
100
AcDbVertex
100
AcDb2dVertex
 10
119.8786483305298
 20
-136.3523857992455
 30
0.0
  0
VERTEX
  5
98
330
96
100
AcDbEntity
  8
_U+30EC_U+30A4_U+30E4_U+30FC 1
 62
     7
420
 16777215
370
     9
100
AcDbVertex
100
AcDb2dVertex
 10
114.8729110823928
 20
-136.3523857992455
 30
0.0
  0
SEQEND
  5
99
330
96
100
AcDbEntity
  8
_U+30EC_U+30A4_U+30E4_U+30FC 1
 62
     7
420
 16777215
370
     9
  0
INSERT
  5
9B
330
1F
100
AcDbEntity
  8
_U+30EC_U+30A4_U+30E4_U+30FC 1
100
AcDbBlockReference
  2
block 6
 10
0.0
 20
0.0
 30
0.0
  0
INSERT
  5
A4
330
1F
100
AcDbEntity
  8
_U+30EC_U+30A4_U+30E4_U+30FC 1
100
AcDbBlockReference
  2
block 7
 10
0.0
 20
0.0
 30
0.0
  0
SPLINE
  5
A9
330
1F
100
AcDbEntity
  8
_U+30EC_U+30A4_U+30E4_U+30FC 1
 62
     7
420
 16777215
370
     9
100
AcDbSpline
210
0.0
220
0.0
230
1.0
 70
    11
 71
     3
 72
    17
 73
    13
 74
     0
 42
0.0000000001
 43
0.0000000001
 12
1.0
 22
0.0
 32
0.0
 13
1.0
 23
0.0
 33
0.0
 40
0.0
 40
0.0
 40
0.0
 40
0.0
 40
1.0
 40
1.0
 40
1.0
 40
2.0
 40
2.0
 40
2.0
 40
3.0
 40
3.0
 40
3.0
 40
4.0
 40
4.0
 40
4.0
 40
4.0
 10
64.8053466800112
 20
-102.3827433077375
 30
0.0
 10
64.8053466800112
 20
-102.3279569188625
 30
0.0
 10
64.76054390337643
 20
-102.2835069188736
 30
0.0
 10
64.70544165049044
 20
-102.2835069188736
 30
0.0
 10
64.65030085063341
 20
-102.2835069188736
 30
0.0
 10
64.60553335177553
 20
-102.3279569188625
 30
0.0
 10
64.60553335177553
 20
-102.3827433077375
 30
0.0
 10
64.60553335177553
 20
-102.4381999743905
 30
0.0
 10
64.65030085063341
 20
-102.4829674743794
 30
0.0
 10
64.70544165049044
 20
-102.4829674743794
 30
0.0
 10
64.76054390337643
 20
-102.4829674743794
 30
0.0
 10
64.8053466800112
 20
-102.4381999743905
 30
0.0
 10
64.8053466800112
 20
-102.3827433077375
 30
0.0
  0
SPLINE
  5
AA
330
1F
100
AcDbEntity
  8
_U+30EC_U+30A4_U+30E4_U+30FC 1
 62
     7
420
 16777215
370
     9
100
AcDbSpline
210
0.0
220
0.0
230
1.0
 70
    11
 71
     3
 72
    17
 73
    13
 74
     0
 42
0.0000000001
 43
0.0000000001
 12
1.0
 22
0.0
 32
0.0
 13
1.0
 23
0.0
 33
0.0
 40
0.0
 40
0.0
 40
0.0
 40
0.0
 40
1.0
 40
1.0
 40
1.0
 40
2.0
 40
2.0
 40
2.0
 40
3.0
 40
3.0
 40
3.0
 40
4.0
 40
4.0
 40
4.0
 40
4.0
 10
64.82256387268318
 20
-117.3506458039957
 30
0.0
 10
64.82256387268318
 20
-117.2955066373429
 30
0.0
 10
64.77779473626967
 20
-117.250739137354
 30
0.0
 10
64.72265557100971
 20
-117.250739137354
 30
0.0
 10
64.66755168352664
 20
-117.250739137354
 30
0.0
 10
64.62274890689189
 20
-117.2955066373429
 30
0.0
 10
64.62274890689189
 20
-117.3506458039957
 30
0.0
 10
64.62274890689189
 20
-117.4064552484261
 30
0.0
 10
64.66755168352664
 20
-117.4505524706373
 30
0.0
 10
64.72265557100971
 20
-117.4505524706373
 30
0.0
 10
64.77779473626967
 20
-117.4505524706373
 30
0.0
 10
64.82256387268318
 20
-117.4064552484261
 30
0.0
 10
64.82256387268318
 20
-117.3506458039957
 30
0.0
  0
SPLINE
  5
AB
330
1F
100
AcDbEntity
  8
_U+30EC_U+30A4_U+30E4_U+30FC 1
 62
     7
420
 16777215
370
     9
100
AcDbSpline
210
0.0
220
0.0
230
1.0
 70
    11
 71
     3
 72
    17
 73
    13
 74
     0
 42
0.0000000001
 43
0.0000000001
 12
1.0
 22
0.0
 32
0.0
 13
1.0
 23
0.0
 33
0.0
 40
0.0
 40
0.0
 40
0.0
 40
0.0
 40
1.0
 40
1.0
 40
1.0
 40
2.0
 40
2.0
 40
2.0
 40
3.0
 40
3.0
 40
3.0
 40
4.0
 40
4.0
 40
4.0
 40
4.0
 10
64.79465751361724
 20
-147.3129796853937
 30
0.0
 10
64.79465751361724
 20
-147.2578405187413
 30
0.0
 10
64.75020751475125
 20
-147.2137432965301
 30
0.0
 10
64.69510362726818
 20
-147.2137432965301
 30
0.0
 10
64.63929418424755
 20
-147.2137432965301
 30
0.0
 10
64.59519696315034
 20
-147.2578405187413
 30
0.0
 10
64.59519696315034
 20
-147.3129796853937
 30
0.0
 10
64.59519696315034
 20
-147.3687891298248
 30
0.0
 10
64.63929418424755
 20
-147.4135566298133
 30
0.0
 10
64.69510362726818
 20
-147.4135566298133
 30
0.0
 10
64.75020751475125
 20
-147.4135566298133
 30
0.0
 10
64.79465751361724
 20
-147.3687891298248
 30
0.0
 10
64.79465751361724
 20
-147.3129796853937
 30
0.0
  0
SPLINE
  5
AC
330
1F
100
AcDbEntity
  8
_U+30EC_U+30A4_U+30E4_U+30FC 1
 62
     7
420
 16777215
370
     9
100
AcDbSpline
210
0.0
220
0.0
230
1.0
 70
    11
 71
     3
 72
    17
 73
    13
 74
     0
 42
0.0000000001
 43
0.0000000001
 12
1.0
 22
0.0
 32
0.0
 13
1.0
 23
0.0
 33
0.0
 40
0.0
 40
0.0
 40
0.0
 40
0.0
 40
1.0
 40
1.0
 40
1.0
 40
2.0
 40
2.0
 40
2.0
 40
3.0
 40
3.0
 40
3.0
 40
4.0
 40
4.0
 40
4.0
 40
4.0
 10
68.83784352157808
 20
-152.2126044063915
 30
0.0
 10
68.83784352157808
 20
-152.1574652397384
 30
0.0
 10
68.79304074494331
 20
-152.1130152397495
 30
0.0
 10
68.73758407969147
 20
-152.1130152397495
 30
0.0
 10
68.6827976922003
 20
-152.1130152397495
 30
0.0
 10
68.6380301933424
 20
-152.1574652397384
 30
0.0
 10
68.6380301933424
 20
-152.2126044063915
 30
0.0
 10
68.6380301933424
 20
-152.2684138508219
 30
0.0
 10
68.6827976922003
 20
-152.3128285730327
 30
0.0
 10
68.73758407969147
 20
-152.3128285730327
 30
0.0
 10
68.79304074494331
 20
-152.3128285730327
 30
0.0
 10
68.83784352157808
 20
-152.2684138508219
 30
0.0
 10
68.83784352157808
 20
-152.2126044063915
 30
0.0
  0
SPLINE
  5
AD
330
1F
100
AcDbEntity
  8
_U+30EC_U+30A4_U+30E4_U+30FC 1
 62
     7
420
 16777215
370
     9
100
AcDbSpline
210
0.0
220
0.0
230
1.0
 70
    11
 71
     3
 72
    17
 73
    13
 74
     0
 42
0.0000000001
 43
0.0000000001
 12
1.0
 22
0.0
 32
0.0
 13
1.0
 23
0.0
 33
0.0
 40
0.0
 40
0.0
 40
0.0
 40
0.0
 40
1.0
 40
1.0
 40
1.0
 40
2.0
 40
2.0
 40
2.0
 40
3.0
 40
3.0
 40
3.0
 40
4.0
 40
4.0
 40
4.0
 40
4.0
 10
93.84096788369523
 20
-152.2243166286108
 30
0.0
 10
93.84096788369523
 20
-152.1691774619577
 30
0.0
 10
93.79616510706047
 20
-152.1244099619691
 30
0.0
 10
93.7413787195693
 20
-152.1244099619691
 30
0.0
 10
93.68592205431744
 20
-152.1244099619691
 30
0.0
 10
93.64147205545146
 20
-152.1691774619577
 30
0.0
 10
93.64147205545146
 20
-152.2243166286108
 30
0.0
 10
93.64147205545146
 20
-152.2794205174856
 30
0.0
 10
93.68592205431744
 20
-152.3242232952524
 30
0.0
 10
93.7413787195693
 20
-152.3242232952524
 30
0.0
 10
93.79616510706047
 20
-152.3242232952524
 30
0.0
 10
93.84096788369523
 20
-152.2794205174856
 30
0.0
 10
93.84096788369523
 20
-152.2243166286108
 30
0.0
  0
SPLINE
  5
AE
330
1F
100
AcDbEntity
  8
_U+30EC_U+30A4_U+30E4_U+30FC 1
 62
     7
420
 16777215
370
     9
100
AcDbSpline
210
0.0
220
0.0
230
1.0
 70
    11
 71
     3
 72
    17
 73
    13
 74
     0
 42
0.0000000001
 43
0.0000000001
 12
1.0
 22
0.0
 32
0.0
 13
1.0
 23
0.0
 33
0.0
 40
0.0
 40
0.0
 40
0.0
 40
0.0
 40
1.0
 40
1.0
 40
1.0
 40
2.0
 40
2.0
 40
2.0
 40
3.0
 40
3.0
 40
3.0
 40
4.0
 40
4.0
 40
4.0
 40
4.0
 10
98.81531081234473
 20
-152.2243166286108
 30
0.0
 10
98.81531081234473
 20
-152.1691774619577
 30
0.0
 10
98.77019053571807
 20
-152.1244099619691
 30
0.0
 10
98.7154041482269
 20
-152.1244099619691
 30
0.0
 10
98.66030275311252
 20
-152.1244099619691
 30
0.0
 10
98.61549997534644
 20
-152.1691774619577
 30
0.0
 10
98.61549997534644
 20
-152.2243166286108
 30
0.0
 10
98.61549997534644
 20
-152.2794205174856
 30
0.0
 10
98.66030275311252
 20
-152.3242232952524
 30
0.0
 10
98.7154041482269
 20
-152.3242232952524
 30
0.0
 10
98.77019053571807
 20
-152.3242232952524
 30
0.0
 10
98.81531081234473
 20
-152.2794205174856
 30
0.0
 10
98.81531081234473
 20
-152.2243166286108
 30
0.0
  0
SPLINE
  5
AF
330
1F
100
AcDbEntity
  8
_U+30EC_U+30A4_U+30E4_U+30FC 1
 62
     7
420
 16777215
370
     9
100
AcDbSpline
210
0.0
220
0.0
230
1.0
 70
    11
 71
     3
 72
    17
 73
    13
 74
     0
 42
0.0000000001
 43
0.0000000001
 12
1.0
 22
0.0
 32
0.0
 13
1.0
 23
0.0
 33
0.0
 40
0.0
 40
0.0
 40
0.0
 40
0.0
 40
1.0
 40
1.0
 40
1.0
 40
2.0
 40
2.0
 40
2.0
 40
3.0
 40
3.0
 40
3.0
 40
4.0
 40
4.0
 40
4.0
 40
4.0
 10
118.0410289329669
 20
-147.3432832964972
 30
0.0
 10
118.0410289329669
 20
-147.2881794076224
 30
0.0
 10
117.9962261563321
 20
-147.2433766298556
 30
0.0
 10
117.9411222688491
 20
-147.2433766298556
 30
0.0
 10
117.8859860816399
 20
-147.2433766298556
 30
0.0
 10
117.8418888594287
 20
-147.2881794076224
 30
0.0
 10
117.8418888594287
 20
-147.3432832964972
 30
0.0
 10
117.8418888594287
 20
-147.3984224631503
 30
0.0
 10
117.8859860816399
 20
-147.4431899631389
 30
0.0
 10
117.9411222688491
 20
-147.4431899631389
 30
0.0
 10
117.9962261563321
 20
-147.4431899631389
 30
0.0
 10
118.0410289329669
 20
-147.3984224631503
 30
0.0
 10
118.0410289329669
 20
-147.3432832964972
 30
0.0
  0
SPLINE
  5
B0
330
1F
100
AcDbEntity
  8
_U+30EC_U+30A4_U+30E4_U+30FC 1
 62
     7
420
 16777215
370
     9
100
AcDbSpline
210
0.0
220
0.0
230
1.0
 70
    11
 71
     3
 72
    17
 73
    13
 74
     0
 42
0.0000000001
 43
0.0000000001
 12
1.0
 22
0.0
 32
0.0
 13
1.0
 23
0.0
 33
0.0
 40
0.0
 40
0.0
 40
0.0
 40
0.0
 40
1.0
 40
1.0
 40
1.0
 40
2.0
 40
2.0
 40
2.0
 40
3.0
 40
3.0
 40
3.0
 40
4.0
 40
4.0
 40
4.0
 40
4.0
 10
118.0410289329669
 20
-137.3177269101152
 30
0.0
 10
118.0410289329669
 20
-137.2625877434621
 30
0.0
 10
117.9962261563321
 20
-137.2178202434736
 30
0.0
 10
117.9411222688491
 20
-137.2178202434736
 30
0.0
 10
117.8859860816399
 20
-137.2178202434736
 30
0.0
 10
117.8418888594287
 20
-137.2625877434621
 30
0.0
 10
117.8418888594287
 20
-137.3177269101152
 30
0.0
 10
117.8418888594287
 20
-137.3724780212123
 30
0.0
 10
117.8859860816399
 20
-137.4176335767568
 30
0.0
 10
117.9411222688491
 20
-137.4176335767568
 30
0.0
 10
117.9962261563321
 20
-137.4176335767568
 30
0.0
 10
118.0410289329669
 20
-137.3724780212123
 30
0.0
 10
118.0410289329669
 20
-137.3177269101152
 30
0.0
  0
SPLINE
  5
B1
330
1F
100
AcDbEntity
  8
_U+30EC_U+30A4_U+30E4_U+30FC 1
 62
     7
420
 16777215
370
     9
100
AcDbSpline
210
0.0
220
0.0
230
1.0
 70
    11
 71
     3
 72
    17
 73
    13
 74
     0
 42
0.0000000001
 43
0.0000000001
 12
1.0
 22
0.0
 32
0.0
 13
1.0
 23
0.0
 33
0.0
 40
0.0
 40
0.0
 40
0.0
 40
0.0
 40
1.0
 40
1.0
 40
1.0
 40
2.0
 40
2.0
 40
2.0
 40
3.0
 40
3.0
 40
3.0
 40
4.0
 40
4.0
 40
4.0
 40
4.0
 10
118.0410289329669
 20
-136.3661794103531
 30
0.0
 10
118.0410289329669
 20
-136.3110755214776
 30
0.0
 10
117.9962261563321
 20
-136.2662727437115
 30
0.0
 10
117.9411222688491
 20
-136.2662727437115
 30
0.0
 10
117.8859860816399
 20
-136.2662727437115
 30
0.0
 10
117.8418888594287
 20
-136.3110755214776
 30
0.0
 10
117.8418888594287
 20
-136.3661794103531
 30
0.0
 10
117.8418888594287
 20
-136.4216360770058
 30
0.0
 10
117.8859860816399
 20
-136.4660860769948
 30
0.0
 10
117.9411222688491
 20
-136.4660860769948
 30
0.0
 10
117.9962261563321
 20
-136.4660860769948
 30
0.0
 10
118.0410289329669
 20
-136.4216360770058
 30
0.0
 10
118.0410289329669
 20
-136.3661794103531
 30
0.0
  0
POLYLINE
  5
B2
330
1F
100
AcDbEntity
  8
_U+30EC_U+30A4_U+30E4_U+30FC 1
 62
     7
420
 16777215
370
     9
100
AcDb2dPolyline
 66
     1
 10
0.0
 20
0.0
 30
0.0
  0
VERTEX
  5
B3
330
B2
100
AcDbEntity
  8
_U+30EC_U+30A4_U+30E4_U+30FC 1
 62
     7
420
 16777215
370
     9
100
AcDbVertex
100
AcDb2dVertex
 10
75.85342917592891
 20
-139.8236838539329
 30
0.0
  0
VERTEX
  5
B4
330
B2
100
AcDbEntity
  8
_U+30EC_U+30A4_U+30E4_U+30FC 1
 62
     7
420
 16777215
370
     9
100
AcDbVertex
100
AcDb2dVertex
 10
76.75636387511535
 20
-139.3021019096191
 30
0.0
  0
SEQEND
  5
B5
330
B2
100
AcDbEntity
  8
_U+30EC_U+30A4_U+30E4_U+30FC 1
 62
     7
420
 16777215
370
     9
  0
POLYLINE
  5
B6
330
1F
100
AcDbEntity
  8
_U+30EC_U+30A4_U+30E4_U+30FC 1
 62
     7
420
 16777215
370
     9
100
AcDb2dPolyline
 66
     1
 10
0.0
 20
0.0
 30
0.0
  0
VERTEX
  5
B7
330
B6
100
AcDbEntity
  8
_U+30EC_U+30A4_U+30E4_U+30FC 1
 62
     7
420
 16777215
370
     9
100
AcDbVertex
100
AcDb2dVertex
 10
75.85342917592891
 20
-139.8236838539329
 30
0.0
  0
VERTEX
  5
B8
330
B6
100
AcDbEntity
  8
_U+30EC_U+30A4_U+30E4_U+30FC 1
 62
     7
420
 16777215
370
     9
100
AcDbVertex
100
AcDb2dVertex
 10
90.04102214730659
 20
-125.1103810798336
 30
0.0
  0
SEQEND
  5
B9
330
B6
100
AcDbEntity
  8
_U+30EC_U+30A4_U+30E4_U+30FC 1
 62
     7
420
 16777215
370
     9
  0
POLYLINE
  5
BA
330
1F
100
AcDbEntity
  8
_U+30EC_U+30A4_U+30E4_U+30FC 1
 62
     7
420
 16777215
370
     9
100
AcDb2dPolyline
 66
     1
 10
0.0
 20
0.0
 30
0.0
  0
VERTEX
  5
BB
330
BA
100
AcDbEntity
  8
_U+30EC_U+30A4_U+30E4_U+30FC 1
 62
     7
420
 16777215
370
     9
100
AcDbVertex
100
AcDb2dVertex
 10
75.85342917592891
 20
-139.8236838539329
 30
0.0
  0
VERTEX
  5
BC
330
BA
100
AcDbEntity
  8
_U+30EC_U+30A4_U+30E4_U+30FC 1
 62
     7
420
 16777215
370
     9
100
AcDbVertex
100
AcDb2dVertex
 10
76.3750111070667
 20
-138.9207138541585
 30
0.0
  0
SEQEND
  5
BD
330
BA
100
AcDbEntity
  8
_U+30EC_U+30A4_U+30E4_U+30FC 1
 62
     7
420
 16777215
370
     9
  0
INSERT
  5
BF
330
1F
100
AcDbEntity
  8
_U+30EC_U+30A4_U+30E4_U+30FC 1
100
AcDbBlockReference
  2
block 8
 10
0.0
 20
0.0
 30
0.0
  0
ENDSEC
  0
SECTION
  2
OBJECTS
  0
DICTIONARY
  5
C
330
0
100
AcDbDictionary
281
     1
  3
ACAD_GROUP
350
D
  3
ACAD_LAYOUT
350
1A
  3
ACAD_MATERIAL
350
3B
  3
ACAD_MLEADERSTYLE
350
CA
  3
ACAD_MLINESTYLE
350
17
  3
ACAD_PLOTSETTINGS
350
19
  3
ACAD_PLOTSTYLENAME
350
E
  3
ACAD_TABLESTYLE
350
C9
  3
ACAD_VISUALSTYLE
350
2A
  0
SUN
  5
3F
330
29
100
AcDbSun
 90
        1
290
     0
 63
     7
421
 16777215
 40
1.0
291
     1
 91
  2455826
 92
 54000000
292
     0
 70
     2
 71
   256
280
     1
  0
DICTIONARY
  5
D
102
{ACAD_REACTORS
330
C
102
}
330
C
100
AcDbDictionary
281
     1
  0
DICTIONARY
  5
1A
102
{ACAD_REACTORS
330
C
102
}
330
C
100
AcDbDictionary
281
     1
  3
Layout1
350
1E
  3
Layout2
350
26
  3
Model
350
22
  0
DICTIONARY
  5
3B
102
{ACAD_REACTORS
330
C
102
}
330
C
100
AcDbDictionary
281
     1
  3
ByBlock
350
3D
  3
ByLayer
350
3C
  3
Global
350
3E
  0
DICTIONARY
  5
CA
102
{ACAD_REACTORS
330
C
102
}
330
C
100
AcDbDictionary
281
     1
  0
DICTIONARY
  5
17
102
{ACAD_REACTORS
330
C
102
}
330
C
100
AcDbDictionary
281
     1
  3
Standard
350
18
  0
DICTIONARY
  5
19
102
{ACAD_REACTORS
330
C
102
}
330
C
100
AcDbDictionary
281
     1
  0
ACDBDICTIONARYWDFLT
  5
E
102
{ACAD_REACTORS
330
C
102
}
330
C
100
AcDbDictionary
281
     1
  3
Normal
350
F
100
AcDbDictionaryWithDefault
340
F
  0
DICTIONARY
  5
C9
102
{ACAD_REACTORS
330
C
102
}
330
C
100
AcDbDictionary
281
     1
  0
DICTIONARY
  5
2A
102
{ACAD_REACTORS
330
C
102
}
330
C
100
AcDbDictionary
281
     1
  3
2dWireframe
350
2F
  3
3D Hidden
350
31
  3
3dWireframe
350
30
  3
Basic
350
32
  3
Brighten
350
36
  3
ColorChange
350
3A
  3
Conceptual
350
34
  3
Dim
350
35
  3
Facepattern
350
39
  3
Flat
350
2B
  3
FlatWithEdges
350
2C
  3
Gouraud
350
2D
  3
GouraudWithEdges
350
2E
  3
Linepattern
350
38
  3
Realistic
350
33
  3
Thicken
350
37
  0
LAYOUT
  5
1E
102
{ACAD_REACTORS
330
1A
102
}
330
1A
100
AcDbPlotSettings
  1

  2
none_device
  4

  6

 40
0.0
 41
0.0
 42
0.0
 43
0.0
 44
0.0
 45
0.0
 46
0.0
 47
0.0
 48
0.0
 49
0.0
140
0.0
141
0.0
142
1.0
143
1.0
 70
   688
 72
     0
 73
     0
 74
     5
  7

 75
    16
 76
     0
 77
     2
 78
   300
147
1.0
148
0.0
149
0.0
100
AcDbLayout
  1
Layout1
 70
     1
 71
     1
 10
0.0
 20
0.0
 11
12.0
 21
9.0
 12
0.0
 22
0.0
 32
0.0
 14
1.000000000000000E+20
 24
1.000000000000000E+20
 34
1.000000000000000E+20
 15
-1.000000000000000E+20
 25
-1.000000000000000E+20
 35
-1.000000000000000E+20
146
0.0
 13
0.0
 23
0.0
 33
0.0
 16
1.0
 26
0.0
 36
0.0
 17
0.0
 27
1.0
 37
0.0
 76
     0
330
1B
  0
LAYOUT
  5
26
102
{ACAD_REACTORS
330
1A
102
}
330
1A
100
AcDbPlotSettings
  1

  2
none_device
  4

  6

 40
0.0
 41
0.0
 42
0.0
 43
0.0
 44
0.0
 45
0.0
 46
0.0
 47
0.0
 48
0.0
 49
0.0
140
0.0
141
0.0
142
1.0
143
1.0
 70
   688
 72
     0
 73
     0
 74
     5
  7

 75
    16
 76
     0
 77
     2
 78
   300
147
1.0
148
0.0
149
0.0
100
AcDbLayout
  1
Layout2
 70
     1
 71
     2
 10
0.0
 20
0.0
 11
0.0
 21
0.0
 12
0.0
 22
0.0
 32
0.0
 14
0.0
 24
0.0
 34
0.0
 15
0.0
 25
0.0
 35
0.0
146
0.0
 13
0.0
 23
0.0
 33
0.0
 16
1.0
 26
0.0
 36
0.0
 17
0.0
 27
1.0
 37
0.0
 76
     0
330
23
  0
LAYOUT
  5
22
102
{ACAD_REACTORS
330
1A
102
}
330
1A
100
AcDbPlotSettings
  1

  2
none_device
  4

  6

 40
0.0
 41
0.0
 42
0.0
 43
0.0
 44
0.0
 45
0.0
 46
0.0
 47
0.0
 48
0.0
 49
0.0
140
0.0
141
0.0
142
1.0
143
1.0
 70
  1712
 72
     0
 73
     0
 74
     0
  7

 75
     0
 76
     0
 77
     2
 78
   300
147
1.0
148
0.0
149
0.0
100
AcDbLayout
  1
Model
 70
     1
 71
     0
 10
0.0
 20
0.0
 11
12.0
 21
9.0
 12
0.0
 22
0.0
 32
0.0
 14
1.000000000000000E+20
 24
1.000000000000000E+20
 34
1.000000000000000E+20
 15
-1.000000000000000E+20
 25
-1.000000000000000E+20
 35
-1.000000000000000E+20
146
0.0
 13
0.0
 23
0.0
 33
0.0
 16
1.0
 26
0.0
 36
0.0
 17
0.0
 27
1.0
 37
0.0
 76
     0
330
1F
331
29
  0
MATERIAL
  5
3D
102
{ACAD_REACTORS
330
3B
102
}
330
3B
100
AcDbMaterial
  1
ByBlock
 72
     1
 94
      127
  0
MATERIAL
  5
3C
102
{ACAD_REACTORS
330
3B
102
}
330
3B
100
AcDbMaterial
  1
ByLayer
 72
     1
 94
      127
  0
MATERIAL
  5
3E
102
{ACAD_REACTORS
330
3B
102
}
330
3B
100
AcDbMaterial
  1
Global
 72
     1
 94
      127
  0
MLINESTYLE
  5
18
102
{ACAD_REACTORS
330
17
102
}
330
17
100
AcDbMlineStyle
  2
Standard
 70
     0
  3

 62
   256
 51
90.0
 52
90.0
 71
     2
 49
0.5
 62
   256
  6
BYLAYER
 49
-0.5
 62
   256
  6
BYLAYER
  0
ACDBPLACEHOLDER
  5
F
102
{ACAD_REACTORS
330
E
102
}
330
E
  0
VISUALSTYLE
  5
2F
102
{ACAD_REACTORS
330
2A
102
}
330
2A
100
AcDbVisualStyle
  2
2dWireframe
 70
     4
177
     2
291
     0
 71
     0
176
     1
 72
     2
176
     1
 73
     0
176
     1
 90
        0
176
     1
 40
-0.6
176
     1
 41
-30.0
176
     1
 62
     5
 63
     7
421
 16777215
176
     1
 74
     1
176
     1
 91
        4
176
     1
 64
     7
176
     1
 65
   257
176
     1
 75
     1
176
     1
175
     1
176
     1
 42
1.0
176
     1
 92
        0
176
     1
 66
   257
176
     1
 43
1.0
176
     1
 76
     1
176
     1
 77
     6
176
     1
 78
     2
176
     1
 67
     7
176
     1
 79
     5
176
     1
170
     0
176
     1
171
     0
176
     1
290
     0
176
     1
 93
        1
176
     1
 44
0.0
176
     1
173
     0
176
     1
  0
VISUALSTYLE
  5
31
102
{ACAD_REACTORS
330
2A
102
}
330
2A
100
AcDbVisualStyle
  2
3D Hidden
 70
     6
177
     2
291
     0
 71
     1
176
     1
 72
     2
176
     1
 73
     2
176
     1
 90
        0
176
     1
 40
-0.6
176
     1
 41
-30.0
176
     1
 62
     5
 63
     7
421
 16777215
176
     1
 74
     2
176
     1
 91
        2
176
     1
 64
     7
176
     1
 65
   257
176
     1
 75
     2
176
     1
175
     1
176
     1
 42
40.0
176
     1
 92
        0
176
     1
 66
   257
176
     1
 43
1.0
176
     1
 76
     1
176
     1
 77
     6
176
     1
 78
     2
176
     1
 67
     7
176
     1
 79
     3
176
     1
170
     0
176
     1
171
     0
176
     1
290
     0
176
     1
 93
        1
176
     1
 44
0.0
176
     1
173
     0
176
     1
  0
VISUALSTYLE
  5
30
102
{ACAD_REACTORS
330
2A
102
}
330
2A
100
AcDbVisualStyle
  2
3dWireframe
 70
     5
177
     2
291
     0
 71
     0
176
     1
 72
     2
176
     1
 73
     0
176
     1
 90
        0
176
     1
 40
-0.6
176
     1
 41
-30.0
176
     1
 62
     5
 63
     7
421
 16777215
176
     1
 74
     1
176
     1
 91
        4
176
     1
 64
     7
176
     1
 65
   257
176
     1
 75
     1
176
     1
175
     1
176
     1
 42
1.0
176
     1
 92
        0
176
     1
 66
   257
176
     1
 43
1.0
176
     1
 76
     1
176
     1
 77
     6
176
     1
 78
     2
176
     1
 67
     7
176
     1
 79
     5
176
     1
170
     0
176
     1
171
     0
176
     1
290
     0
176
     1
 93
        1
176
     1
 44
0.0
176
     1
173
     0
176
     1
  0
VISUALSTYLE
  5
32
102
{ACAD_REACTORS
330
2A
102
}
330
2A
100
AcDbVisualStyle
  2
Basic
 70
     7
177
     2
291
     1
 71
     1
176
     1
 72
     0
176
     1
 73
     1
176
     1
 90
        0
176
     1
 40
-0.6
176
     1
 41
-30.0
176
     1
 62
     5
 63
     7
421
 16777215
176
     1
 74
     0
176
     1
 91
        4
176
     1
 64
     7
176
     1
 65
   257
176
     1
 75
     1
176
     1
175
     1
176
     1
 42
1.0
176
     1
 92
        8
176
     1
 66
     7
176
     1
 43
1.0
176
     1
 76
     1
176
     1
 77
     6
176
     1
 78
     2
176
     1
 67
     7
176
     1
 79
     5
176
     1
170
     0
176
     1
171
     0
176
     1
290
     0
176
     1
 93
        1
176
     1
 44
0.0
176
     1
173
     0
176
     1
  0
VISUALSTYLE
  5
36
102
{ACAD_REACTORS
330
2A
102
}
330
2A
100
AcDbVisualStyle
  2
Brighten
 70
    12
177
     2
291
     1
 71
     2
176
     1
 72
     2
176
     1
 73
     0
176
     1
 90
        0
176
     1
 40
-0.6
176
     1
 41
-30.0
176
     1
 62
     5
 63
     7
421
 16777215
176
     1
 74
     1
176
     1
 91
        4
176
     1
 64
     7
176
     1
 65
   257
176
     1
 75
     1
176
     1
175
     1
176
     1
 42
1.0
176
     1
 92
        8
176
     1
 66
     7
176
     1
 43
1.0
176
     1
 76
     1
176
     1
 77
     6
176
     1
 78
     2
176
     1
 67
     7
176
     1
 79
     5
176
     1
170
     0
176
     1
171
     0
176
     1
290
     0
176
     1
 93
        1
176
     1
 44
50.0
176
     1
173
     0
176
     1
  0
VISUALSTYLE
  5
3A
102
{ACAD_REACTORS
330
2A
102
}
330
2A
100
AcDbVisualStyle
  2
ColorChange
 70
    16
177
     2
291
     1
 71
     2
176
     1
 72
     2
176
     1
 73
     3
176
     1
 90
        0
176
     1
 40
-0.6
176
     1
 41
-30.0
176
     1
 62
     5
 63
     8
421
  8421504
176
     1
 74
     1
176
     1
 91
        4
176
     1
 64
     7
176
     1
 65
   257
176
     1
 75
     1
176
     1
175
     1
176
     1
 42
1.0
176
     1
 92
        8
176
     1
 66
     8
424
  8421504
176
     1
 43
1.0
176
     1
 76
     1
176
     1
 77
     6
176
     1
 78
     2
176
     1
 67
     7
176
     1
 79
     5
176
     1
170
     0
176
     1
171
     0
176
     1
290
     0
176
     1
 93
        1
176
     1
 44
0.0
176
     1
173
     0
176
     1
  0
VISUALSTYLE
  5
34
102
{ACAD_REACTORS
330
2A
102
}
330
2A
100
AcDbVisualStyle
  2
Conceptual
 70
     9
177
     2
291
     0
 71
     3
176
     1
 72
     2
176
     1
 73
     0
176
     1
 90
        0
176
     1
 40
-0.6
176
     1
 41
-30.0
176
     1
 62
     5
 63
     7
421
 16777215
176
     1
 74
     2
176
     1
 91
        2
176
     1
 64
     7
176
     1
 65
   257
176
     1
 75
     1
176
     1
175
     1
176
     1
 42
40.0
176
     1
 92
        8
176
     1
 66
     7
176
     1
 43
1.0
176
     1
 76
     1
176
     1
 77
     6
176
     1
 78
     2
176
     1
 67
     7
176
     1
 79
     3
176
     1
170
     0
176
     1
171
     0
176
     1
290
     0
176
     1
 93
        1
176
     1
 44
0.0
176
     1
173
     0
176
     1
  0
VISUALSTYLE
  5
35
102
{ACAD_REACTORS
330
2A
102
}
330
2A
100
AcDbVisualStyle
  2
Dim
 70
    11
177
     2
291
     1
 71
     2
176
     1
 72
     2
176
     1
 73
     0
176
     1
 90
        0
176
     1
 40
-0.6
176
     1
 41
-30.0
176
     1
 62
     5
 63
     7
421
 16777215
176
     1
 74
     1
176
     1
 91
        4
176
     1
 64
     7
176
     1
 65
   257
176
     1
 75
     1
176
     1
175
     1
176
     1
 42
1.0
176
     1
 92
        8
176
     1
 66
     7
176
     1
 43
1.0
176
     1
 76
     1
176
     1
 77
     6
176
     1
 78
     2
176
     1
 67
     7
176
     1
 79
     5
176
     1
170
     0
176
     1
171
     0
176
     1
290
     0
176
     1
 93
        1
176
     1
 44
-50.0
176
     1
173
     0
176
     1
  0
VISUALSTYLE
  5
39
102
{ACAD_REACTORS
330
2A
102
}
330
2A
100
AcDbVisualStyle
  2
Facepattern
 70
    15
177
     2
291
     1
 71
     2
176
     1
 72
     2
176
     1
 73
     0
176
     1
 90
        0
176
     1
 40
-0.6
176
     1
 41
-30.0
176
     1
 62
     5
 63
     7
421
 16777215
176
     1
 74
     1
176
     1
 91
        4
176
     1
 64
     7
176
     1
 65
   257
176
     1
 75
     1
176
     1
175
     1
176
     1
 42
1.0
176
     1
 92
        8
176
     1
 66
     7
176
     1
 43
1.0
176
     1
 76
     1
176
     1
 77
     6
176
     1
 78
     2
176
     1
 67
     7
176
     1
 79
     5
176
     1
170
     0
176
     1
171
     0
176
     1
290
     0
176
     1
 93
        1
176
     1
 44
0.0
176
     1
173
     0
176
     1
  0
VISUALSTYLE
  5
2B
102
{ACAD_REACTORS
330
2A
102
}
330
2A
100
AcDbVisualStyle
  2
Flat
 70
     0
177
     2
291
     1
 71
     2
176
     1
 72
     1
176
     1
 73
     1
176
     1
 90
        2
176
     1
 40
-0.6
176
     1
 41
30.0
176
     1
 62
     5
 63
     7
421
 16777215
176
     1
 74
     0
176
     1
 91
        4
176
     1
 64
     7
176
     1
 65
   257
176
     1
 75
     1
176
     1
175
     1
176
     1
 42
1.0
176
     1
 92
        8
176
     1
 66
     7
176
     1
 43
1.0
176
     1
 76
     1
176
     1
 77
     6
176
     1
 78
     2
176
     1
 67
     7
176
     1
 79
     5
176
     1
170
     0
176
     1
171
     0
176
     1
290
     0
176
     1
 93
       13
176
     1
 44
0.0
176
     1
173
     0
176
     1
  0
VISUALSTYLE
  5
2C
102
{ACAD_REACTORS
330
2A
102
}
330
2A
100
AcDbVisualStyle
  2
FlatWithEdges
 70
     1
177
     2
291
     1
 71
     2
176
     1
 72
     1
176
     1
 73
     1
176
     1
 90
        2
176
     1
 40
-0.6
176
     1
 41
30.0
176
     1
 62
     5
 63
     7
421
 16777215
176
     1
 74
     1
176
     1
 91
        4
176
     1
 64
     7
176
     1
 65
   257
176
     1
 75
     1
176
     1
175
     1
176
     1
 42
1.0
176
     1
 92
        0
176
     1
 66
   257
176
     1
 43
1.0
176
     1
 76
     1
176
     1
 77
     6
176
     1
 78
     2
176
     1
 67
     7
176
     1
 79
     5
176
     1
170
     0
176
     1
171
     0
176
     1
290
     0
176
     1
 93
       13
176
     1
 44
0.0
176
     1
173
     0
176
     1
  0
VISUALSTYLE
  5
2D
102
{ACAD_REACTORS
330
2A
102
}
330
2A
100
AcDbVisualStyle
  2
Gouraud
 70
     2
177
     2
291
     1
 71
     2
176
     1
 72
     2
176
     1
 73
     1
176
     1
 90
        2
176
     1
 40
-0.6
176
     1
 41
30.0
176
     1
 62
     5
 63
     7
421
 16777215
176
     1
 74
     0
176
     1
 91
        4
176
     1
 64
     7
176
     1
 65
   257
176
     1
 75
     1
176
     1
175
     1
176
     1
 42
1.0
176
     1
 92
        0
176
     1
 66
     7
176
     1
 43
1.0
176
     1
 76
     1
176
     1
 77
     6
176
     1
 78
     2
176
     1
 67
     7
176
     1
 79
     5
176
     1
170
     0
176
     1
171
     0
176
     1
290
     0
176
     1
 93
       13
176
     1
 44
0.0
176
     1
173
     0
176
     1
  0
VISUALSTYLE
  5
2E
102
{ACAD_REACTORS
330
2A
102
}
330
2A
100
AcDbVisualStyle
  2
GouraudWithEdges
 70
     3
177
     2
291
     1
 71
     2
176
     1
 72
     2
176
     1
 73
     1
176
     1
 90
        2
176
     1
 40
-0.6
176
     1
 41
30.0
176
     1
 62
     5
 63
     7
421
 16777215
176
     1
 74
     1
176
     1
 91
        4
176
     1
 64
     7
176
     1
 65
   257
176
     1
 75
     1
176
     1
175
     1
176
     1
 42
1.0
176
     1
 92
        0
176
     1
 66
   257
176
     1
 43
1.0
176
     1
 76
     1
176
     1
 77
     6
176
     1
 78
     2
176
     1
 67
     7
176
     1
 79
     5
176
     1
170
     0
176
     1
171
     0
176
     1
290
     0
176
     1
 93
       13
176
     1
 44
0.0
176
     1
173
     0
176
     1
  0
VISUALSTYLE
  5
38
102
{ACAD_REACTORS
330
2A
102
}
330
2A
100
AcDbVisualStyle
  2
Linepattern
 70
    14
177
     2
291
     1
 71
     2
176
     1
 72
     2
176
     1
 73
     0
176
     1
 90
        0
176
     1
 40
-0.6
176
     1
 41
-30.0
176
     1
 62
     5
 63
     7
421
 16777215
176
     1
 74
     1
176
     1
 91
        4
176
     1
 64
     7
176
     1
 65
   257
176
     1
 75
     7
176
     1
175
     7
176
     1
 42
1.0
176
     1
 92
        8
176
     1
 66
     7
176
     1
 43
1.0
176
     1
 76
     1
176
     1
 77
     6
176
     1
 78
     2
176
     1
 67
     7
176
     1
 79
     5
176
     1
170
     0
176
     1
171
     0
176
     1
290
     0
176
     1
 93
        1
176
     1
 44
0.0
176
     1
173
     0
176
     1
  0
VISUALSTYLE
  5
33
102
{ACAD_REACTORS
330
2A
102
}
330
2A
100
AcDbVisualStyle
  2
Realistic
 70
     8
177
     2
291
     0
 71
     2
176
     1
 72
     2
176
     1
 73
     0
176
     1
 90
        0
176
     1
 40
-0.6
176
     1
 41
-30.0
176
     1
 62
     5
 63
     7
421
 16777215
176
     1
 74
     1
176
     1
 91
        0
176
     1
 64
     7
176
     1
 65
   257
176
     1
 75
     1
176
     1
175
     1
176
     1
 42
1.0
176
     1
 92
        8
176
     1
 66
     8
424
  7895160
176
     1
 43
1.0
176
     1
 76
     1
176
     1
 77
     6
176
     1
 78
     2
176
     1
 67
     7
176
     1
 79
     5
176
     1
170
     0
176
     1
171
     0
176
     1
290
     0
176
     1
 93
       13
176
     1
 44
0.0
176
     1
173
     0
176
     1
  0
VISUALSTYLE
  5
37
102
{ACAD_REACTORS
330
2A
102
}
330
2A
100
AcDbVisualStyle
  2
Thicken
 70
    13
177
     2
291
     1
 71
     2
176
     1
 72
     2
176
     1
 73
     0
176
     1
 90
        0
176
     1
 40
-0.6
176
     1
 41
-30.0
176
     1
 62
     5
 63
     7
421
 16777215
176
     1
 74
     1
176
     1
 91
        4
176
     1
 64
     7
176
     1
 65
   257
176
     1
 75
     1
176
     1
175
     1
176
     1
 42
1.0
176
     1
 92
       12
176
     1
 66
     7
176
     1
 43
1.0
176
     1
 76
     1
176
     1
 77
     6
176
     1
 78
     2
176
     1
 67
     7
176
     1
 79
     5
176
     1
170
     0
176
     1
171
     0
176
     1
290
     0
176
     1
 93
        1
176
     1
 44
0.0
176
     1
173
     0
176
     1
  0
ENDSEC
  0
EOF
