  0
SECTION
  2
HEADER
  9
$ACADVER
  1
AC1024
  9
$ACADMAINTVER
 70
     6
  9
$DWGCODEPAGE
  3
UNDEFINED
  9
$INSBASE
 10
0.0
 20
0.0
 30
0.0
  9
$EXTMIN
 10
1.000000000000000E+20
 20
1.000000000000000E+20
 30
1.000000000000000E+20
  9
$EXTMAX
 10
-1.000000000000000E+20
 20
-1.000000000000000E+20
 30
-1.000000000000000E+20
  9
$LIMMIN
 10
0.0
 20
0.0
  9
$LIMMAX
 10
12.0
 20
9.0
  9
$ORTHOMODE
 70
     0
  9
$REGENMODE
 70
     1
  9
$FILLMODE
 70
     1
  9
$QTEXTMODE
 70
     0
  9
$MIRRTEXT
 70
     1
  9
$LTSCALE
 40
1.0
  9
$ATTMODE
 70
     1
  9
$TEXTSIZE
 40
0.2
  9
$TRACEWID
 40
0.05
  9
$TEXTSTYLE
  7
Standard
  9
$CLAYER
  8
0
  9
$CELTYPE
  6
ByLayer
  9
$CECOLOR
 62
   256
  9
$CELTSCALE
 40
1.0
  9
$DISPSILH
 70
     0
  9
$DIMSCALE
 40
1.0
  9
$DIMASZ
 40
0.18
  9
$DIMEXO
 40
0.0625
  9
$DIMDLI
 40
0.38
  9
$DIMRND
 40
0.0
  9
$DIMDLE
 40
0.0
  9
$DIMEXE
 40
0.18
  9
$DIMTP
 40
0.0
  9
$DIMTM
 40
0.0
  9
$DIMTXT
 40
0.18
  9
$DIMCEN
 40
0.09
  9
$DIMTSZ
 40
0.0
  9
$DIMTOL
 70
     0
  9
$DIMLIM
 70
     0
  9
$DIMTIH
 70
     1
  9
$DIMTOH
 70
     1
  9
$DIMSE1
 70
     0
  9
$DIMSE2
 70
     0
  9
$DIMTAD
 70
     0
  9
$DIMZIN
 70
     0
  9
$DIMBLK
  1

  9
$DIMASO
 70
     1
  9
$DIMSHO
 70
     1
  9
$DIMPOST
  1

  9
$DIMAPOST
  1

  9
$DIMALT
 70
     0
  9
$DIMALTD
 70
     2
  9
$DIMALTF
 40
25.4
  9
$DIMLFAC
 40
1.0
  9
$DIMTOFL
 70
     0
  9
$DIMTVP
 40
0.0
  9
$DIMTIX
 70
     0
  9
$DIMSOXD
 70
     0
  9
$DIMSAH
 70
     0
  9
$DIMBLK1
  1

  9
$DIMBLK2
  1

  9
$DIMSTYLE
  2
Standard
  9
$DIMCLRD
 70
     0
  9
$DIMCLRE
 70
     0
  9
$DIMCLRT
 70
     0
  9
$DIMTFAC
 40
1.0
  9
$DIMGAP
 40
0.09
  9
$DIMJUST
 70
     0
  9
$DIMSD1
 70
     0
  9
$DIMSD2
 70
     0
  9
$DIMTOLJ
 70
     1
  9
$DIMTZIN
 70
     0
  9
$DIMALTZ
 70
     0
  9
$DIMALTTZ
 70
     0
  9
$DIMUPT
 70
     0
  9
$DIMDEC
 70
     4
  9
$DIMTDEC
 70
     4
  9
$DIMALTU
 70
     2
  9
$DIMALTTD
 70
     2
  9
$DIMTXSTY
  7
Standard
  9
$DIMAUNIT
 70
     0
  9
$DIMADEC
 70
     0
  9
$DIMALTRND
 40
0.0
  9
$DIMAZIN
 70
     0
  9
$DIMDSEP
 70
    46
  9
$DIMATFIT
 70
     3
  9
$DIMFRAC
 70
     0
  9
$DIMLDRBLK
  1

  9
$DIMLUNIT
 70
     2
  9
$DIMLWD
 70
    -2
  9
$DIMLWE
 70
    -2
  9
$DIMTMOVE
 70
     0
  9
$DIMFXL
 40
1.0
  9
$DIMFXLON
 70
     0
  9
$DIMJOGANG
 40
0.7853981633974483
  9
$DIMTFILL
 70
     0
  9
$DIMTFILLCLR
 70
     0
  9
$DIMARCSYM
 70
     0
  9
$DIMLTYPE
  6

  9
$DIMLTEX1
  6

  9
$DIMLTEX2
  6

  9
$DIMTXTDIRECTION
 70
     0
  9
$LUNITS
 70
     2
  9
$LUPREC
 70
     4
  9
$SKETCHINC
 40
0.1
  9
$FILLETRAD
 40
0.5
  9
$AUNITS
 70
     0
  9
$AUPREC
 70
     0
  9
$MENU
  1
.
  9
$ELEVATION
 40
0.0
  9
$PELEVATION
 40
0.0
  9
$THICKNESS
 40
0.0
  9
$LIMCHECK
 70
     0
  9
$CHAMFERA
 40
0.5
  9
$CHAMFERB
 40
0.5
  9
$CHAMFERC
 40
1.0
  9
$CHAMFERD
 40
0.0
  9
$SKPOLY
 70
     0
  9
$TDCREATE
 40
2457917.6165625
  9
$TDUCREATE
 40
2457917.2415625
  9
$TDUPDATE
 40
2457917.6165625
  9
$TDUUPDATE
 40
2457917.2415625
  9
$TDINDWG
 40
0.0000000116
  9
$TDUSRTIMER
 40
0.0000000116
  9
$USRTIMER
 70
     1
  9
$ANGBASE
 50
0.0
  9
$ANGDIR
 70
     0
  9
$PDMODE
 70
     0
  9
$PDSIZE
 40
0.0
  9
$PLINEWID
 40
0.0
  9
$SPLFRAME
 70
     0
  9
$SPLINETYPE
 70
     6
  9
$SPLINESEGS
 70
     8
  9
$HANDSEED
  5
D3
  9
$SURFTAB1
 70
     6
  9
$SURFTAB2
 70
     6
  9
$SURFTYPE
 70
     6
  9
$SURFU
 70
     6
  9
$SURFV
 70
     6
  9
$UCSBASE
  2

  9
$UCSNAME
  2

  9
$UCSORG
 10
0.0
 20
0.0
 30
0.0
  9
$UCSXDIR
 10
1.0
 20
0.0
 30
0.0
  9
$UCSYDIR
 10
0.0
 20
1.0
 30
0.0
  9
$UCSORTHOREF
  2

  9
$UCSORTHOVIEW
 70
     0
  9
$UCSORGTOP
 10
0.0
 20
0.0
 30
0.0
  9
$UCSORGBOTTOM
 10
0.0
 20
0.0
 30
0.0
  9
$UCSORGLEFT
 10
0.0
 20
0.0
 30
0.0
  9
$UCSORGRIGHT
 10
0.0
 20
0.0
 30
0.0
  9
$UCSORGFRONT
 10
0.0
 20
0.0
 30
0.0
  9
$UCSORGBACK
 10
0.0
 20
0.0
 30
0.0
  9
$PUCSBASE
  2

  9
$PUCSNAME
  2

  9
$PUCSORG
 10
0.0
 20
0.0
 30
0.0
  9
$PUCSXDIR
 10
1.0
 20
0.0
 30
0.0
  9
$PUCSYDIR
 10
0.0
 20
1.0
 30
0.0
  9
$PUCSORTHOREF
  2

  9
$PUCSORTHOVIEW
 70
     0
  9
$PUCSORGTOP
 10
0.0
 20
0.0
 30
0.0
  9
$PUCSORGBOTTOM
 10
0.0
 20
0.0
 30
0.0
  9
$PUCSORGLEFT
 10
0.0
 20
0.0
 30
0.0
  9
$PUCSORGRIGHT
 10
0.0
 20
0.0
 30
0.0
  9
$PUCSORGFRONT
 10
0.0
 20
0.0
 30
0.0
  9
$PUCSORGBACK
 10
0.0
 20
0.0
 30
0.0
  9
$USERI1
 70
     0
  9
$USERI2
 70
     0
  9
$USERI3
 70
     0
  9
$USERI4
 70
     0
  9
$USERI5
 70
     0
  9
$USERR1
 40
0.0
  9
$USERR2
 40
0.0
  9
$USERR3
 40
0.0
  9
$USERR4
 40
0.0
  9
$USERR5
 40
0.0
  9
$WORLDVIEW
 70
     1
  9
$SHADEDGE
 70
     3
  9
$SHADEDIF
 70
    70
  9
$TILEMODE
 70
     1
  9
$MAXACTVP
 70
    64
  9
$PINSBASE
 10
0.0
 20
0.0
 30
0.0
  9
$PLIMCHECK
 70
     0
  9
$PEXTMIN
 10
1.000000000000000E+20
 20
1.000000000000000E+20
 30
1.000000000000000E+20
  9
$PEXTMAX
 10
-1.000000000000000E+20
 20
-1.000000000000000E+20
 30
-1.000000000000000E+20
  9
$PLIMMIN
 10
0.0
 20
0.0
  9
$PLIMMAX
 10
12.0
 20
9.0
  9
$UNITMODE
 70
     0
  9
$VISRETAIN
 70
     1
  9
$PLINEGEN
 70
     0
  9
$PSLTSCALE
 70
     1
  9
$TREEDEPTH
 70
  3020
  9
$CMLSTYLE
  2
Standard
  9
$CMLJUST
 70
     0
  9
$CMLSCALE
 40
1.0
  9
$PROXYGRAPHICS
 70
     1
  9
$MEASUREMENT
 70
     0
  9
$CELWEIGHT
370
    -1
  9
$ENDCAPS
280
     0
  9
$JOINSTYLE
280
     0
  9
$LWDISPLAY
290
     1
  9
$INSUNITS
 70
     1
  9
$HYPERLINKBASE
  1

  9
$STYLESHEET
  1

  9
$XEDIT
290
     1
  9
$CEPSNTYPE
380
     0
  9
$PSTYLEMODE
290
     1
  9
$FINGERPRINTGUID
  2
{48A52C1D-128A-78BD-BBE3-C35A31A66392}
  9
$VERSIONGUID
  2
{FAEB1C32-E019-11D5-929B-00C0DF256EC4}
  9
$EXTNAMES
290
     1
  9
$PSVPSCALE
 40
0.0
  9
$OLESTARTUP
290
     0
  9
$SORTENTS
280
   127
  9
$INDEXCTL
280
     0
  9
$HIDETEXT
280
     1
  9
$XCLIPFRAME
280
     2
  9
$HALOGAP
280
     0
  9
$OBSCOLOR
 70
   257
  9
$OBSLTYPE
280
     0
  9
$INTERSECTIONDISPLAY
280
     0
  9
$INTERSECTIONCOLOR
 70
   257
  9
$DIMASSOC
280
     2
  9
$PROJECTNAME
  1

  9
$CAMERADISPLAY
290
     0
  9
$LENSLENGTH
 40
50.0
  9
$CAMERAHEIGHT
 40
0.0
  9
$STEPSPERSEC
 40
2.0
  9
$STEPSIZE
 40
6.0
  9
$3DDWFPREC
 40
2.0
  9
$PSOLWIDTH
 40
0.25
  9
$PSOLHEIGHT
 40
4.0
  9
$LOFTANG1
 40
1.570796326794897
  9
$LOFTANG2
 40
1.570796326794897
  9
$LOFTMAG1
 40
0.0
  9
$LOFTMAG2
 40
0.0
  9
$LOFTPARAM
 70
     7
  9
$LOFTNORMALS
280
     1
  9
$LATITUDE
 40
37.795
  9
$LONGITUDE
 40
-122.394
  9
$NORTHDIRECTION
 40
0.0
  9
$TIMEZONE
 70
 -8000
  9
$LIGHTGLYPHDISPLAY
280
     1
  9
$TILEMODELIGHTSYNCH
280
     1
  9
$CMATERIAL
347
3C
  9
$SOLIDHIST
280
     1
  9
$SHOWHIST
280
     1
  9
$DWFFRAME
280
     2
  9
$DGNFRAME
280
     2
  9
$REALWORLDSCALE
290
     1
  9
$INTERFERECOLOR
 62
   256
  9
$CSHADOW
280
     0
  9
$SHADOWPLANELOCATION
 40
0.0
  0
ENDSEC
  0
SECTION
  2
CLASSES
  0
CLASS
  1
ACDBDICTIONARYWDFLT
  2
AcDbDictionaryWithDefault
  3
ObjectDBX Classes
 90
        0
 91
        4
280
     0
281
     0
  0
CLASS
  1
VISUALSTYLE
  2
AcDbVisualStyle
  3
ObjectDBX Classes
 90
     4095
 91
        4
280
     0
281
     0
  0
CLASS
  1
MATERIAL
  2
AcDbMaterial
  3
ObjectDBX Classes
 90
     1153
 91
        4
280
     0
281
     0
  0
CLASS
  1
SUN
  2
AcDbSun
  3
SCENEOE
 90
     1024
 91
        4
280
     0
281
     0
  0
ENDSEC
  0
SECTION
  2
TABLES
  0
TABLE
  2
VPORT
  5
8
330
0
100
AcDbSymbolTable
 70
     1
  0
VPORT
  5
29
330
8
100
AcDbSymbolTableRecord
100
AcDbViewportTableRecord
  2
*Active
 70
     0
 10
0.0
 20
0.0
 11
1.0
 21
1.0
 12
0.0
 22
0.0
 13
0.0
 23
0.0
 14
0.5
 24
0.5
 15
0.5
 25
0.5
 16
0.0
 26
0.0
 36
1.0
 17
91.00082462281999
 27
-128.4993055234307
 37
0.0
 40
256.9986110468615
 41
0.7081814508812795
 42
50.0
 43
0.0
 44
0.0
 50
0.0
 51
0.0
 71
     0
 72
   100
 73
     1
 74
     3
 75
     0
 76
     0
 77
     0
 78
     0
281
     0
 65
     1
110
0.0
120
0.0
130
0.0
111
1.0
121
0.0
131
0.0
112
0.0
122
1.0
132
0.0
 79
     0
146
0.0
 60
     3
 61
     5
292
     1
282
     1
141
0.0
142
0.0
 63
   250
361
3F
  0
ENDTAB
  0
TABLE
  2
LTYPE
  5
5
330
0
100
AcDbSymbolTable
 70
     1
  0
LTYPE
  5
14
330
5
100
AcDbSymbolTableRecord
100
AcDbLinetypeTableRecord
  2
ByBlock
 70
     0
  3

 72
    65
 73
     0
 40
0.0
  0
LTYPE
  5
15
330
5
100
AcDbSymbolTableRecord
100
AcDbLinetypeTableRecord
  2
ByLayer
 70
     0
  3

 72
    65
 73
     0
 40
0.0
  0
LTYPE
  5
16
330
5
100
AcDbSymbolTableRecord
100
AcDbLinetypeTableRecord
  2
Continuous
 70
     0
  3
Solid line
 72
    65
 73
     0
 40
0.0
  0
ENDTAB
  0
TABLE
  2
LAYER
  5
2
330
0
100
AcDbSymbolTable
 70
     2
  0
LAYER
  5
10
330
2
100
AcDbSymbolTableRecord
100
AcDbLayerTableRecord
  2
0
 70
     0
 62
     7
  6
Continuous
370
    -3
390
F
347
3E
  0
LAYER
  5
40
330
2
100
AcDbSymbolTableRecord
100
AcDbLayerTableRecord
  2
_U+30EC_U+30A4_U+30E4_U+30FC 1
 70
     0
 62
     7
  6
Continuous
370
    -3
390
F
347
3E
  0
ENDTAB
  0
TABLE
  2
STYLE
  5
3
330
0
100
AcDbSymbolTable
 70
     1
  0
STYLE
  5
11
330
3
100
AcDbSymbolTableRecord
100
AcDbTextStyleTableRecord
  2
Standard
 70
     0
 40
0.0
 41
1.0
 50
0.0
 71
     0
 42
0.2
  3
txt
  4

  0
ENDTAB
  0
TABLE
  2
VIEW
  5
6
330
0
100
AcDbSymbolTable
 70
     0
  0
ENDTAB
  0
TABLE
  2
UCS
  5
7
330
0
100
AcDbSymbolTable
 70
     0
  0
ENDTAB
  0
TABLE
  2
APPID
  5
9
330
0
100
AcDbSymbolTable
 70
     1
  0
APPID
  5
12
330
9
100
AcDbSymbolTableRecord
100
AcDbRegAppTableRecord
  2
ACAD
 70
     0
  0
ENDTAB
  0
TABLE
  2
DIMSTYLE
  5
A
330
0
100
AcDbSymbolTable
 70
     1
100
AcDbDimStyleTable
  0
DIMSTYLE
105
27
330
A
100
AcDbSymbolTableRecord
100
AcDbDimStyleTableRecord
  2
Standard
 70
     0
178
     0
340
11
  0
ENDTAB
  0
TABLE
  2
BLOCK_RECORD
  5
1
330
0
100
AcDbSymbolTable
 70
     8
  0
BLOCK_RECORD
  5
1F
330
1
100
AcDbSymbolTableRecord
100
AcDbBlockTableRecord
  2
*Model_Space
340
22
 70
     0
280
     1
281
     0
  0
BLOCK_RECORD
  5
1B
330
1
100
AcDbSymbolTableRecord
100
AcDbBlockTableRecord
  2
*Paper_Space
340
1E
 70
     0
280
     1
281
     0
  0
BLOCK_RECORD
  5
23
330
1
100
AcDbSymbolTableRecord
100
AcDbBlockTableRecord
  2
*Paper_Space0
340
26
 70
     0
280
     1
281
     0
  0
BLOCK_RECORD
  5
4B
330
1
100
AcDbSymbolTableRecord
100
AcDbBlockTableRecord
  2
block 2
340
0
102
{BLKREFS
331
4C
102
}
 70
     0
280
     1
281
     0
  0
BLOCK_RECORD
  5
5B
330
1
100
AcDbSymbolTableRecord
100
AcDbBlockTableRecord
  2
block 3
340
0
102
{BLKREFS
331
5C
102
}
 70
     0
280
     1
281
     0
  0
BLOCK_RECORD
  5
75
330
1
100
AcDbSymbolTableRecord
100
AcDbBlockTableRecord
  2
block 4
340
0
102
{BLKREFS
331
76
102
}
 70
     0
280
     1
281
     0
  0
BLOCK_RECORD
  5
7E
330
1
100
AcDbSymbolTableRecord
100
AcDbBlockTableRecord
  2
block 5
340
0
102
{BLKREFS
331
7F
102
}
 70
     0
280
     1
281
     0
  0
BLOCK_RECORD
  5
9A
330
1
100
AcDbSymbolTableRecord
100
AcDbBlockTableRecord
  2
block 6
340
0
102
{BLKREFS
331
9B
102
}
 70
     0
280
     1
281
     0
  0
BLOCK_RECORD
  5
AB
330
1
100
AcDbSymbolTableRecord
100
AcDbBlockTableRecord
  2
block 7
340
0
102
{BLKREFS
331
AC
102
}
 70
     0
280
     1
281
     0
  0
BLOCK_RECORD
  5
C6
330
1
100
AcDbSymbolTableRecord
100
AcDbBlockTableRecord
  2
block 8
340
0
102
{BLKREFS
331
C7
102
}
 70
     0
280
     1
281
     0
  0
ENDTAB
  0
ENDSEC
  0
SECTION
  2
BLOCKS
  0
BLOCK
  5
20
330
1F
100
AcDbEntity
  8
0
100
AcDbBlockBegin
  2
*Model_Space
 70
     0
 10
0.0
 20
0.0
 30
0.0
  3
*Model_Space
  1

  0
ENDBLK
  5
21
330
1F
100
AcDbEntity
  8
0
100
AcDbBlockEnd
  0
BLOCK
  5
1C
330
1B
100
AcDbEntity
 67
     1
  8
0
100
AcDbBlockBegin
  2
*Paper_Space
 70
     0
 10
0.0
 20
0.0
 30
0.0
  3
*Paper_Space
  1

  0
ENDBLK
  5
1D
330
1B
100
AcDbEntity
 67
     1
  8
0
100
AcDbBlockEnd
  0
BLOCK
  5
24
330
23
100
AcDbEntity
  8
0
100
AcDbBlockBegin
  2
*Paper_Space0
 70
     0
 10
0.0
 20
0.0
 30
0.0
  3
*Paper_Space0
  1

  0
ENDBLK
  5
25
330
23
100
AcDbEntity
  8
0
100
AcDbBlockEnd
  0
BLOCK
  5
4D
330
4B
100
AcDbEntity
  8
0
100
AcDbBlockBegin
  2
block 2
 70
     0
 10
0.0
 20
0.0
 30
0.0
  3
block 2
  1

  0
SPLINE
  5
4F
330
4B
100
AcDbEntity
  8
_U+30EC_U+30A4_U+30E4_U+30FC 1
370
     0
100
AcDbSpline
210
0.0
220
0.0
230
1.0
 70
    11
 71
     3
 72
    44
 73
    40
 74
     0
 42
0.0000000001
 43
0.0000000001
 12
1.0
 22
0.0
 32
0.0
 13
1.0
 23
0.0
 33
0.0
 40
0.0
 40
0.0
 40
0.0
 40
0.0
 40
1.0
 40
1.0
 40
1.0
 40
2.0
 40
2.0
 40
2.0
 40
3.0
 40
3.0
 40
3.0
 40
4.0
 40
4.0
 40
4.0
 40
5.0
 40
5.0
 40
5.0
 40
6.0
 40
6.0
 40
6.0
 40
7.0
 40
7.0
 40
7.0
 40
8.0
 40
8.0
 40
8.0
 40
9.0
 40
9.0
 40
9.0
 40
10.0
 40
10.0
 40
10.0
 40
11.0
 40
11.0
 40
11.0
 40
12.0
 40
12.0
 40
12.0
 40
13.0
 40
13.0
 40
13.0
 40
13.0
 10
80.85397947197401
 20
-150.9000053876222
 30
0.0
 10
80.63607718253196
 20
-151.0588242894922
 30
0.0
 10
80.54288734965594
 20
-151.1328938424251
 30
0.0
 10
80.49431150331392
 20
-151.2768988337086
 30
0.0
 10
80.49431150331392
 20
-151.2768988337086
 30
0.0
 10
81.27273082820612
 20
-151.2768988337086
 30
0.0
 10
81.27273082820612
 20
-151.2768988337086
 30
0.0
 10
81.27273082820612
 20
-151.2768988337086
 30
0.0
 10
81.27273082820612
 20
-151.4818820150809
 30
0.0
 10
81.27273082820612
 20
-151.4818820150809
 30
0.0
 10
81.27273082820612
 20
-151.4818820150809
 30
0.0
 10
80.24471433540758
 20
-151.4818820150809
 30
0.0
 10
80.24471433540758
 20
-151.4818820150809
 30
0.0
 10
80.27640921387187
 20
-151.124281103712
 30
0.0
 10
80.34203828286589
 20
-151.0460774361968
 30
0.0
 10
80.72702770334256
 20
-150.7477321671742
 30
0.0
 10
80.98299829789661
 20
-150.5489501576753
 30
0.0
 10
81.04845511211636
 20
-150.4810817766158
 30
0.0
 10
81.04845511211636
 20
-150.3439669763029
 30
0.0
 10
81.04845511211636
 20
-150.2254556916103
 30
0.0
 10
80.9766248712489
 20
-150.0941975536223
 30
0.0
 10
80.77990991904113
 20
-150.0941975536223
 30
0.0
 10
80.51963295513052
 20
-150.0941975536223
 30
0.0
 10
80.51119247119165
 20
-150.3246744415855
 30
0.0
 10
80.5068861018351
 20
-150.4411186689869
 30
0.0
 10
80.5068861018351
 20
-150.4411186689869
 30
0.0
 10
80.28278264051959
 20
-150.4411186689869
 30
0.0
 10
80.28278264051959
 20
-150.4411186689869
 30
0.0
 10
80.29122312445845
 20
-150.3143391551297
 30
0.0
 10
80.30173066568845
 20
-150.2020290423106
 30
0.0
 10
80.38217364526905
 20
-150.083517757618
 30
0.0
 10
80.49207219124851
 20
-149.9229763080054
 30
0.0
 10
80.67827960222627
 20
-149.8888698627014
 30
0.0
 10
80.79472382962771
 20
-149.8888698627014
 30
0.0
 10
81.07188176141607
 20
-149.8888698627014
 30
0.0
 10
81.27910425485383
 20
-150.0731824711623
 30
0.0
 10
81.27910425485383
 20
-150.3460340335941
 30
0.0
 10
81.27910425485383
 20
-150.5740993547176
 30
0.0
 10
81.16283228222666
 20
-150.6740071237898
 30
0.0
 10
80.85397947197401
 20
-150.9000053876222
 30
0.0
  0
HATCH
  5
50
330
4B
100
AcDbEntity
  8
_U+30EC_U+30A4_U+30E4_U+30FC 1
 62
     7
420
 16777215
100
AcDbHatch
 10
0.0
 20
0.0
 30
0.0
210
0.0
220
0.0
230
1.0
  2
SOLID
 70
     1
 71
     0
 91
        1
 92
        1
 93
        1
 72
     4
 94
        3
 73
     0
 74
     1
 95
       44
 96
       40
 40
0.0
 40
0.0
 40
0.0
 40
0.0
 40
1.0
 40
1.0
 40
1.0
 40
2.0
 40
2.0
 40
2.0
 40
3.0
 40
3.0
 40
3.0
 40
4.0
 40
4.0
 40
4.0
 40
5.0
 40
5.0
 40
5.0
 40
6.0
 40
6.0
 40
6.0
 40
7.0
 40
7.0
 40
7.0
 40
8.0
 40
8.0
 40
8.0
 40
9.0
 40
9.0
 40
9.0
 40
10.0
 40
10.0
 40
10.0
 40
11.0
 40
11.0
 40
11.0
 40
12.0
 40
12.0
 40
12.0
 40
13.0
 40
13.0
 40
13.0
 40
13.0
 10
80.85397947197401
 20
-150.9000053876222
 10
80.63607718253196
 20
-151.0588242894922
 10
80.54288734965594
 20
-151.1328938424251
 10
80.49431150331392
 20
-151.2768988337086
 10
80.49431150331392
 20
-151.2768988337086
 10
81.27273082820612
 20
-151.2768988337086
 10
81.27273082820612
 20
-151.2768988337086
 10
81.27273082820612
 20
-151.2768988337086
 10
81.27273082820612
 20
-151.4818820150809
 10
81.27273082820612
 20
-151.4818820150809
 10
81.27273082820612
 20
-151.4818820150809
 10
80.24471433540758
 20
-151.4818820150809
 10
80.24471433540758
 20
-151.4818820150809
 10
80.27640921387187
 20
-151.124281103712
 10
80.34203828286589
 20
-151.0460774361968
 10
80.72702770334256
 20
-150.7477321671742
 10
80.98299829789661
 20
-150.5489501576753
 10
81.04845511211636
 20
-150.4810817766158
 10
81.04845511211636
 20
-150.3439669763029
 10
81.04845511211636
 20
-150.2254556916103
 10
80.9766248712489
 20
-150.0941975536223
 10
80.77990991904113
 20
-150.0941975536223
 10
80.51963295513052
 20
-150.0941975536223
 10
80.51119247119165
 20
-150.3246744415855
 10
80.5068861018351
 20
-150.4411186689869
 10
80.5068861018351
 20
-150.4411186689869
 10
80.28278264051959
 20
-150.4411186689869
 10
80.28278264051959
 20
-150.4411186689869
 10
80.29122312445845
 20
-150.3143391551297
 10
80.30173066568845
 20
-150.2020290423106
 10
80.38217364526905
 20
-150.083517757618
 10
80.49207219124851
 20
-149.9229763080054
 10
80.67827960222627
 20
-149.8888698627014
 10
80.79472382962771
 20
-149.8888698627014
 10
81.07188176141607
 20
-149.8888698627014
 10
81.27910425485383
 20
-150.0731824711623
 10
81.27910425485383
 20
-150.3460340335941
 10
81.27910425485383
 20
-150.5740993547176
 10
81.16283228222666
 20
-150.6740071237898
 10
80.85397947197401
 20
-150.9000053876222
 97
        0
 97
        0
 75
     2
 76
     1
 98
        0
  0
SPLINE
  5
51
330
4B
100
AcDbEntity
  8
_U+30EC_U+30A4_U+30E4_U+30FC 1
370
     0
100
AcDbSpline
210
0.0
220
0.0
230
1.0
 70
    11
 71
     3
 72
    53
 73
    49
 74
     0
 42
0.0000000001
 43
0.0000000001
 12
1.0
 22
0.0
 32
0.0
 13
1.0
 23
0.0
 33
0.0
 40
0.0
 40
0.0
 40
0.0
 40
0.0
 40
1.0
 40
1.0
 40
1.0
 40
2.0
 40
2.0
 40
2.0
 40
3.0
 40
3.0
 40
3.0
 40
4.0
 40
4.0
 40
4.0
 40
5.0
 40
5.0
 40
5.0
 40
6.0
 40
6.0
 40
6.0
 40
7.0
 40
7.0
 40
7.0
 40
8.0
 40
8.0
 40
8.0
 40
9.0
 40
9.0
 40
9.0
 40
10.0
 40
10.0
 40
10.0
 40
11.0
 40
11.0
 40
11.0
 40
12.0
 40
12.0
 40
12.0
 40
13.0
 40
13.0
 40
13.0
 40
14.0
 40
14.0
 40
14.0
 40
15.0
 40
15.0
 40
15.0
 40
16.0
 40
16.0
 40
16.0
 40
16.0
 10
81.91868623169047
 20
-151.5325249187141
 30
0.0
 10
81.84031030940103
 20
-151.5325249187141
 30
0.0
 10
81.73885224736043
 20
-151.5156439508364
 30
0.0
 10
81.63722193054556
 20
-151.4522541939078
 30
0.0
 10
81.46376137286323
 20
-151.3423556479283
 30
0.0
 10
81.44257403562894
 20
-151.2110975099403
 30
0.0
 10
81.42362601046007
 20
-151.103266021252
 30
0.0
 10
81.42362601046007
 20
-151.103266021252
 30
0.0
 10
81.64566241448442
 20
-151.103266021252
 30
0.0
 10
81.64566241448442
 20
-151.103266021252
 30
0.0
 10
81.70078394224842
 20
-151.3020480307509
 30
0.0
 10
81.82773571087988
 20
-151.331675851924
 30
0.0
 10
81.92075328898162
 20
-151.331675851924
 30
0.0
 10
82.0604519109085
 20
-151.331675851924
 30
0.0
 10
82.21272513135655
 20
-151.2321125924003
 30
0.0
 10
82.21272513135655
 20
-150.9995686471459
 30
0.0
 10
82.21272513135655
 20
-150.7435980525919
 30
0.0
 10
82.0328911470265
 20
-150.6740071237898
 30
0.0
 10
81.91231280504276
 20
-150.6740071237898
 30
0.0
 10
81.88061792657847
 20
-150.6740071237898
 30
0.0
 10
81.73885224736043
 20
-150.6740071237898
 30
0.0
 10
81.64996878384099
 20
-150.8028536949382
 30
0.0
 10
81.64996878384099
 20
-150.8028536949382
 30
0.0
 10
81.4744411688675
 20
-150.7835611602208
 30
0.0
 10
81.4744411688675
 20
-150.7835611602208
 30
0.0
 10
81.4744411688675
 20
-150.7835611602208
 30
0.0
 10
81.59501951085124
 20
-149.9374457090434
 30
0.0
 10
81.59501951085124
 20
-149.9374457090434
 30
0.0
 10
81.59501951085124
 20
-149.9374457090434
 30
0.0
 10
82.37343883574344
 20
-149.9374457090434
 30
0.0
 10
82.37343883574344
 20
-149.9374457090434
 30
0.0
 10
82.37343883574344
 20
-149.9374457090434
 30
0.0
 10
82.37343883574344
 20
-150.1324381135086
 30
0.0
 10
82.37343883574344
 20
-150.1324381135086
 30
0.0
 10
82.37343883574344
 20
-150.1324381135086
 30
0.0
 10
81.75780027252931
 20
-150.1324381135086
 30
0.0
 10
81.75780027252931
 20
-150.1324381135086
 30
0.0
 10
81.75780027252931
 20
-150.1324381135086
 30
0.0
 10
81.69234345830955
 20
-150.5554958390972
 30
0.0
 10
81.69234345830955
 20
-150.5554958390972
 30
0.0
 10
81.75366615794701
 20
-150.5213893937933
 30
0.0
 10
81.83617619481873
 20
-150.4810817766158
 30
0.0
 10
81.95451522473707
 20
-150.4810817766158
 30
0.0
 10
82.20841876199998
 20
-150.4810817766158
 30
0.0
 10
82.44544133138517
 20
-150.6674614423679
 30
0.0
 10
82.44544133138517
 20
-150.9806206219771
 30
0.0
 10
82.44544133138517
 20
-151.2979139161686
 30
0.0
 10
82.2211656152954
 20
-151.5325249187141
 30
0.0
 10
81.91868623169047
 20
-151.5325249187141
 30
0.0
  0
HATCH
  5
52
330
4B
100
AcDbEntity
  8
_U+30EC_U+30A4_U+30E4_U+30FC 1
 62
     7
420
 16777215
100
AcDbHatch
 10
0.0
 20
0.0
 30
0.0
210
0.0
220
0.0
230
1.0
  2
SOLID
 70
     1
 71
     0
 91
        1
 92
        1
 93
        1
 72
     4
 94
        3
 73
     0
 74
     1
 95
       53
 96
       49
 40
0.0
 40
0.0
 40
0.0
 40
0.0
 40
1.0
 40
1.0
 40
1.0
 40
2.0
 40
2.0
 40
2.0
 40
3.0
 40
3.0
 40
3.0
 40
4.0
 40
4.0
 40
4.0
 40
5.0
 40
5.0
 40
5.0
 40
6.0
 40
6.0
 40
6.0
 40
7.0
 40
7.0
 40
7.0
 40
8.0
 40
8.0
 40
8.0
 40
9.0
 40
9.0
 40
9.0
 40
10.0
 40
10.0
 40
10.0
 40
11.0
 40
11.0
 40
11.0
 40
12.0
 40
12.0
 40
12.0
 40
13.0
 40
13.0
 40
13.0
 40
14.0
 40
14.0
 40
14.0
 40
15.0
 40
15.0
 40
15.0
 40
16.0
 40
16.0
 40
16.0
 40
16.0
 10
81.91868623169047
 20
-151.5325249187141
 10
81.84031030940103
 20
-151.5325249187141
 10
81.73885224736043
 20
-151.5156439508364
 10
81.63722193054556
 20
-151.4522541939078
 10
81.46376137286323
 20
-151.3423556479283
 10
81.44257403562894
 20
-151.2110975099403
 10
81.42362601046007
 20
-151.103266021252
 10
81.42362601046007
 20
-151.103266021252
 10
81.64566241448442
 20
-151.103266021252
 10
81.64566241448442
 20
-151.103266021252
 10
81.70078394224842
 20
-151.3020480307509
 10
81.82773571087988
 20
-151.331675851924
 10
81.92075328898162
 20
-151.331675851924
 10
82.0604519109085
 20
-151.331675851924
 10
82.21272513135655
 20
-151.2321125924003
 10
82.21272513135655
 20
-150.9995686471459
 10
82.21272513135655
 20
-150.7435980525919
 10
82.0328911470265
 20
-150.6740071237898
 10
81.91231280504276
 20
-150.6740071237898
 10
81.88061792657847
 20
-150.6740071237898
 10
81.73885224736043
 20
-150.6740071237898
 10
81.64996878384099
 20
-150.8028536949382
 10
81.64996878384099
 20
-150.8028536949382
 10
81.4744411688675
 20
-150.7835611602208
 10
81.4744411688675
 20
-150.7835611602208
 10
81.4744411688675
 20
-150.7835611602208
 10
81.59501951085124
 20
-149.9374457090434
 10
81.59501951085124
 20
-149.9374457090434
 10
81.59501951085124
 20
-149.9374457090434
 10
82.37343883574344
 20
-149.9374457090434
 10
82.37343883574344
 20
-149.9374457090434
 10
82.37343883574344
 20
-149.9374457090434
 10
82.37343883574344
 20
-150.1324381135086
 10
82.37343883574344
 20
-150.1324381135086
 10
82.37343883574344
 20
-150.1324381135086
 10
81.75780027252931
 20
-150.1324381135086
 10
81.75780027252931
 20
-150.1324381135086
 10
81.75780027252931
 20
-150.1324381135086
 10
81.69234345830955
 20
-150.5554958390972
 10
81.69234345830955
 20
-150.5554958390972
 10
81.75366615794701
 20
-150.5213893937933
 10
81.83617619481873
 20
-150.4810817766158
 10
81.95451522473707
 20
-150.4810817766158
 10
82.20841876199998
 20
-150.4810817766158
 10
82.44544133138517
 20
-150.6674614423679
 10
82.44544133138517
 20
-150.9806206219771
 10
82.44544133138517
 20
-151.2979139161686
 10
82.2211656152954
 20
-151.5325249187141
 10
81.91868623169047
 20
-151.5325249187141
 97
        0
 97
        0
 75
     2
 76
     1
 98
        0
  0
ENDBLK
  5
4E
330
4B
100
AcDbEntity
  8
0
100
AcDbBlockEnd
  0
BLOCK
  5
5D
330
5B
100
AcDbEntity
  8
0
100
AcDbBlockBegin
  2
block 3
 70
     0
 10
0.0
 20
0.0
 30
0.0
  3
block 3
  1

  0
SPLINE
  5
5F
330
5B
100
AcDbEntity
  8
_U+30EC_U+30A4_U+30E4_U+30FC 1
370
     0
100
AcDbSpline
210
0.0
220
0.0
230
1.0
 70
    11
 71
     3
 72
    53
 73
    49
 74
     0
 42
0.0000000001
 43
0.0000000001
 12
1.0
 22
0.0
 32
0.0
 13
1.0
 23
0.0
 33
0.0
 40
0.0
 40
0.0
 40
0.0
 40
0.0
 40
1.0
 40
1.0
 40
1.0
 40
2.0
 40
2.0
 40
2.0
 40
3.0
 40
3.0
 40
3.0
 40
4.0
 40
4.0
 40
4.0
 40
5.0
 40
5.0
 40
5.0
 40
6.0
 40
6.0
 40
6.0
 40
7.0
 40
7.0
 40
7.0
 40
8.0
 40
8.0
 40
8.0
 40
9.0
 40
9.0
 40
9.0
 40
10.0
 40
10.0
 40
10.0
 40
11.0
 40
11.0
 40
11.0
 40
12.0
 40
12.0
 40
12.0
 40
13.0
 40
13.0
 40
13.0
 40
14.0
 40
14.0
 40
14.0
 40
15.0
 40
15.0
 40
15.0
 40
16.0
 40
16.0
 40
16.0
 40
16.0
 10
96.3310709394589
 20
-151.5325249187141
 30
0.0
 10
96.25286727194373
 20
-151.5325249187141
 30
0.0
 10
96.15123695512887
 20
-151.5156439508364
 30
0.0
 10
96.04995114786252
 20
-151.4522541939078
 30
0.0
 10
95.87631833540593
 20
-151.3423556479283
 30
0.0
 10
95.85495874339738
 20
-151.2110975099403
 30
0.0
 10
95.83635522777702
 20
-151.103266021252
 30
0.0
 10
95.83635522777702
 20
-151.103266021252
 30
0.0
 10
96.05821937702711
 20
-151.103266021252
 30
0.0
 10
96.05821937702711
 20
-151.103266021252
 30
0.0
 10
96.11334090479112
 20
-151.3020480307509
 30
0.0
 10
96.2401204186483
 20
-151.331675851924
 30
0.0
 10
96.33313799675005
 20
-151.331675851924
 30
0.0
 10
96.47300887345119
 20
-151.331675851924
 30
0.0
 10
96.62528209389924
 20
-151.2321125924003
 30
0.0
 10
96.62528209389924
 20
-150.9995686471459
 30
0.0
 10
96.62528209389924
 20
-150.7435980525919
 30
0.0
 10
96.4454481095692
 20
-150.6740071237898
 30
0.0
 10
96.32486976758545
 20
-150.6740071237898
 30
0.0
 10
96.29317488912116
 20
-150.6740071237898
 30
0.0
 10
96.15123695512887
 20
-150.6740071237898
 30
0.0
 10
96.06235349160941
 20
-150.8028536949382
 30
0.0
 10
96.06235349160941
 20
-150.8028536949382
 30
0.0
 10
95.8869981314102
 20
-150.7835611602208
 30
0.0
 10
95.8869981314102
 20
-150.7835611602208
 30
0.0
 10
95.8869981314102
 20
-150.7835611602208
 30
0.0
 10
96.00757647339394
 20
-149.9374457090434
 30
0.0
 10
96.00757647339394
 20
-149.9374457090434
 30
0.0
 10
96.00757647339394
 20
-149.9374457090434
 30
0.0
 10
96.78582354351188
 20
-149.9374457090434
 30
0.0
 10
96.78582354351188
 20
-149.9374457090434
 30
0.0
 10
96.78582354351188
 20
-149.9374457090434
 30
0.0
 10
96.78582354351188
 20
-150.1324381135086
 30
0.0
 10
96.78582354351188
 20
-150.1324381135086
 30
0.0
 10
96.78582354351188
 20
-150.1324381135086
 30
0.0
 10
96.17052948984626
 20
-150.1324381135086
 30
0.0
 10
96.17052948984626
 20
-150.1324381135086
 30
0.0
 10
96.17052948984626
 20
-150.1324381135086
 30
0.0
 10
96.10507267562652
 20
-150.5554958390972
 30
0.0
 10
96.10507267562652
 20
-150.5554958390972
 30
0.0
 10
96.16639537526396
 20
-150.5213893937933
 30
0.0
 10
96.24873315736143
 20
-150.4810817766158
 30
0.0
 10
96.3668999325055
 20
-150.4810817766158
 30
0.0
 10
96.62114797931694
 20
-150.4810817766158
 30
0.0
 10
96.85817054870213
 20
-150.6674614423679
 30
0.0
 10
96.85817054870213
 20
-150.9806206219771
 30
0.0
 10
96.85817054870213
 20
-151.2979139161686
 30
0.0
 10
96.63355032306384
 20
-151.5325249187141
 30
0.0
 10
96.3310709394589
 20
-151.5325249187141
 30
0.0
  0
HATCH
  5
60
330
5B
100
AcDbEntity
  8
_U+30EC_U+30A4_U+30E4_U+30FC 1
 62
     7
420
 16777215
100
AcDbHatch
 10
0.0
 20
0.0
 30
0.0
210
0.0
220
0.0
230
1.0
  2
SOLID
 70
     1
 71
     0
 91
        1
 92
        1
 93
        1
 72
     4
 94
        3
 73
     0
 74
     1
 95
       53
 96
       49
 40
0.0
 40
0.0
 40
0.0
 40
0.0
 40
1.0
 40
1.0
 40
1.0
 40
2.0
 40
2.0
 40
2.0
 40
3.0
 40
3.0
 40
3.0
 40
4.0
 40
4.0
 40
4.0
 40
5.0
 40
5.0
 40
5.0
 40
6.0
 40
6.0
 40
6.0
 40
7.0
 40
7.0
 40
7.0
 40
8.0
 40
8.0
 40
8.0
 40
9.0
 40
9.0
 40
9.0
 40
10.0
 40
10.0
 40
10.0
 40
11.0
 40
11.0
 40
11.0
 40
12.0
 40
12.0
 40
12.0
 40
13.0
 40
13.0
 40
13.0
 40
14.0
 40
14.0
 40
14.0
 40
15.0
 40
15.0
 40
15.0
 40
16.0
 40
16.0
 40
16.0
 40
16.0
 10
96.3310709394589
 20
-151.5325249187141
 10
96.25286727194373
 20
-151.5325249187141
 10
96.15123695512887
 20
-151.5156439508364
 10
96.04995114786252
 20
-151.4522541939078
 10
95.87631833540593
 20
-151.3423556479283
 10
95.85495874339738
 20
-151.2110975099403
 10
95.83635522777702
 20
-151.103266021252
 10
95.83635522777702
 20
-151.103266021252
 10
96.05821937702711
 20
-151.103266021252
 10
96.05821937702711
 20
-151.103266021252
 10
96.11334090479112
 20
-151.3020480307509
 10
96.2401204186483
 20
-151.331675851924
 10
96.33313799675005
 20
-151.331675851924
 10
96.47300887345119
 20
-151.331675851924
 10
96.62528209389924
 20
-151.2321125924003
 10
96.62528209389924
 20
-150.9995686471459
 10
96.62528209389924
 20
-150.7435980525919
 10
96.4454481095692
 20
-150.6740071237898
 10
96.32486976758545
 20
-150.6740071237898
 10
96.29317488912116
 20
-150.6740071237898
 10
96.15123695512887
 20
-150.6740071237898
 10
96.06235349160941
 20
-150.8028536949382
 10
96.06235349160941
 20
-150.8028536949382
 10
95.8869981314102
 20
-150.7835611602208
 10
95.8869981314102
 20
-150.7835611602208
 10
95.8869981314102
 20
-150.7835611602208
 10
96.00757647339394
 20
-149.9374457090434
 10
96.00757647339394
 20
-149.9374457090434
 10
96.00757647339394
 20
-149.9374457090434
 10
96.78582354351188
 20
-149.9374457090434
 10
96.78582354351188
 20
-149.9374457090434
 10
96.78582354351188
 20
-149.9374457090434
 10
96.78582354351188
 20
-150.1324381135086
 10
96.78582354351188
 20
-150.1324381135086
 10
96.78582354351188
 20
-150.1324381135086
 10
96.17052948984626
 20
-150.1324381135086
 10
96.17052948984626
 20
-150.1324381135086
 10
96.17052948984626
 20
-150.1324381135086
 10
96.10507267562652
 20
-150.5554958390972
 10
96.10507267562652
 20
-150.5554958390972
 10
96.16639537526396
 20
-150.5213893937933
 10
96.24873315736143
 20
-150.4810817766158
 10
96.3668999325055
 20
-150.4810817766158
 10
96.62114797931694
 20
-150.4810817766158
 10
96.85817054870213
 20
-150.6674614423679
 10
96.85817054870213
 20
-150.9806206219771
 10
96.85817054870213
 20
-151.2979139161686
 10
96.63355032306384
 20
-151.5325249187141
 10
96.3310709394589
 20
-151.5325249187141
 97
        0
 97
        0
 75
     2
 76
     1
 98
        0
  0
ENDBLK
  5
5E
330
5B
100
AcDbEntity
  8
0
100
AcDbBlockEnd
  0
BLOCK
  5
77
330
75
100
AcDbEntity
  8
0
100
AcDbBlockBegin
  2
block 4
 70
     0
 10
0.0
 20
0.0
 30
0.0
  3
block 4
  1

  0
SPLINE
  5
79
330
75
100
AcDbEntity
  8
_U+30EC_U+30A4_U+30E4_U+30FC 1
370
     0
100
AcDbSpline
210
0.0
220
0.0
230
1.0
 70
    11
 71
     3
 72
    62
 73
    58
 74
     0
 42
0.0000000001
 43
0.0000000001
 12
1.0
 22
0.0
 32
0.0
 13
1.0
 23
0.0
 33
0.0
 40
0.0
 40
0.0
 40
0.0
 40
0.0
 40
1.0
 40
1.0
 40
1.0
 40
2.0
 40
2.0
 40
2.0
 40
3.0
 40
3.0
 40
3.0
 40
4.0
 40
4.0
 40
4.0
 40
5.0
 40
5.0
 40
5.0
 40
6.0
 40
6.0
 40
6.0
 40
7.0
 40
7.0
 40
7.0
 40
8.0
 40
8.0
 40
8.0
 40
9.0
 40
9.0
 40
9.0
 40
10.0
 40
10.0
 40
10.0
 40
11.0
 40
11.0
 40
11.0
 40
12.0
 40
12.0
 40
12.0
 40
13.0
 40
13.0
 40
13.0
 40
14.0
 40
14.0
 40
14.0
 40
15.0
 40
15.0
 40
15.0
 40
16.0
 40
16.0
 40
16.0
 40
17.0
 40
17.0
 40
17.0
 40
18.0
 40
18.0
 40
18.0
 40
19.0
 40
19.0
 40
19.0
 40
19.0
 10
64.13682588457344
 20
-132.9496798712765
 30
0.0
 10
64.13682588457344
 20
-133.0447645066694
 30
0.0
 10
64.11563854733915
 20
-133.2624945413372
 30
0.0
 10
63.92943113636139
 20
-133.3872069979032
 30
0.0
 10
63.81729327831651
 20
-133.4616210603846
 30
0.0
 10
63.71790227356706
 20
-133.4657551749669
 30
0.0
 10
63.63332517940417
 20
-133.4698892895492
 30
0.0
 10
63.63332517940417
 20
-133.4698892895492
 30
0.0
 10
63.63332517940417
 20
-133.2500921975902
 30
0.0
 10
63.63332517940417
 20
-133.2500921975902
 30
0.0
 10
63.70739473233704
 20
-133.2480251402991
 30
0.0
 10
63.94217798965682
 20
-133.2370008347463
 30
0.0
 10
63.94217798965682
 20
-132.9538139858588
 30
0.0
 10
63.94217798965682
 20
-132.8160101664488
 30
0.0
 10
63.87241480608051
 20
-132.6637369460007
 30
0.0
 10
63.64383272063419
 20
-132.6637369460007
 30
0.0
 10
63.52756074800701
 20
-132.6637369460007
 30
0.0
 10
63.47881264689072
 20
-132.701977505887
 30
0.0
 10
63.44711776842642
 20
-132.7336723843513
 30
0.0
 10
63.37304821549355
 20
-132.8077419372842
 30
0.0
 10
63.36047361697239
 20
-132.9241861646856
 30
0.0
 10
63.36047361697239
 20
-132.9793076924496
 30
0.0
 10
63.36047361697239
 20
-132.99791120807
 30
0.0
 10
63.36254067426353
 20
-133.0340847106651
 30
0.0
 10
63.36667478884583
 20
-133.0616454745471
 30
0.0
 10
63.36667478884583
 20
-133.0616454745471
 30
0.0
 10
63.17202689392922
 20
-133.0616454745471
 30
0.0
 10
63.17202689392922
 20
-133.0616454745471
 30
0.0
 10
63.17840032057693
 20
-133.0234049146608
 30
0.0
 10
63.18063963264234
 20
-132.9813747497408
 30
0.0
 10
63.18063963264234
 20
-132.9748290683188
 30
0.0
 10
63.18063963264234
 20
-132.9093722540991
 30
0.0
 10
63.15945229540806
 20
-132.7105902446001
 30
0.0
 10
62.92242972602287
 20
-132.7105902446001
 30
0.0
 10
62.74483505375824
 20
-132.7105902446001
 30
0.0
 10
62.68971352599424
 20
-132.8415038730396
 30
0.0
 10
62.68971352599424
 20
-132.9517469285676
 30
0.0
 10
62.68971352599424
 20
-133.2159857522863
 30
0.0
 10
62.92242972602287
 20
-133.2245984909994
 30
0.0
 10
62.99443222166459
 20
-133.2287326055817
 30
0.0
 10
62.99443222166459
 20
-133.2287326055817
 30
0.0
 10
62.99443222166459
 20
-133.4319932392115
 30
0.0
 10
62.99443222166459
 20
-133.4319932392115
 30
0.0
 10
62.86954751032428
 20
-133.4233805004983
 30
0.0
 10
62.49299857378647
 20
-133.3958197366163
 30
0.0
 10
62.49299857378647
 20
-132.9390000752722
 30
0.0
 10
62.49299857378647
 20
-132.7147243591824
 30
0.0
 10
62.61995034241793
 20
-132.473567675215
 30
0.0
 10
62.91605629937516
 20
-132.473567675215
 30
0.0
 10
63.10226371035291
 20
-132.473567675215
 30
0.0
 10
63.18477374722464
 20
-132.5686523106078
 30
0.0
 10
63.24609644686209
 20
-132.6682155701316
 30
0.0
 10
63.27365721074409
 20
-132.6065483609456
 30
0.0
 10
63.35410019032467
 20
-132.4246473193244
 30
0.0
 10
63.63125812211302
 20
-132.4246473193244
 30
0.0
 10
63.96973875353882
 20
-132.4246473193244
 30
0.0
 10
64.13682588457344
 20
-132.6723496847139
 30
0.0
 10
64.13682588457344
 20
-132.9496798712765
 30
0.0
  0
HATCH
  5
7A
330
75
100
AcDbEntity
  8
_U+30EC_U+30A4_U+30E4_U+30FC 1
 62
     7
420
 16777215
100
AcDbHatch
 10
0.0
 20
0.0
 30
0.0
210
0.0
220
0.0
230
1.0
  2
SOLID
 70
     1
 71
     0
 91
        1
 92
        1
 93
        1
 72
     4
 94
        3
 73
     0
 74
     1
 95
       62
 96
       58
 40
0.0
 40
0.0
 40
0.0
 40
0.0
 40
1.0
 40
1.0
 40
1.0
 40
2.0
 40
2.0
 40
2.0
 40
3.0
 40
3.0
 40
3.0
 40
4.0
 40
4.0
 40
4.0
 40
5.0
 40
5.0
 40
5.0
 40
6.0
 40
6.0
 40
6.0
 40
7.0
 40
7.0
 40
7.0
 40
8.0
 40
8.0
 40
8.0
 40
9.0
 40
9.0
 40
9.0
 40
10.0
 40
10.0
 40
10.0
 40
11.0
 40
11.0
 40
11.0
 40
12.0
 40
12.0
 40
12.0
 40
13.0
 40
13.0
 40
13.0
 40
14.0
 40
14.0
 40
14.0
 40
15.0
 40
15.0
 40
15.0
 40
16.0
 40
16.0
 40
16.0
 40
17.0
 40
17.0
 40
17.0
 40
18.0
 40
18.0
 40
18.0
 40
19.0
 40
19.0
 40
19.0
 40
19.0
 10
64.13682588457344
 20
-132.9496798712765
 10
64.13682588457344
 20
-133.0447645066694
 10
64.11563854733915
 20
-133.2624945413372
 10
63.92943113636139
 20
-133.3872069979032
 10
63.81729327831651
 20
-133.4616210603846
 10
63.71790227356706
 20
-133.4657551749669
 10
63.63332517940417
 20
-133.4698892895492
 10
63.63332517940417
 20
-133.4698892895492
 10
63.63332517940417
 20
-133.2500921975902
 10
63.63332517940417
 20
-133.2500921975902
 10
63.70739473233704
 20
-133.2480251402991
 10
63.94217798965682
 20
-133.2370008347463
 10
63.94217798965682
 20
-132.9538139858588
 10
63.94217798965682
 20
-132.8160101664488
 10
63.87241480608051
 20
-132.6637369460007
 10
63.64383272063419
 20
-132.6637369460007
 10
63.52756074800701
 20
-132.6637369460007
 10
63.47881264689072
 20
-132.701977505887
 10
63.44711776842642
 20
-132.7336723843513
 10
63.37304821549355
 20
-132.8077419372842
 10
63.36047361697239
 20
-132.9241861646856
 10
63.36047361697239
 20
-132.9793076924496
 10
63.36047361697239
 20
-132.99791120807
 10
63.36254067426353
 20
-133.0340847106651
 10
63.36667478884583
 20
-133.0616454745471
 10
63.36667478884583
 20
-133.0616454745471
 10
63.17202689392922
 20
-133.0616454745471
 10
63.17202689392922
 20
-133.0616454745471
 10
63.17840032057693
 20
-133.0234049146608
 10
63.18063963264234
 20
-132.9813747497408
 10
63.18063963264234
 20
-132.9748290683188
 10
63.18063963264234
 20
-132.9093722540991
 10
63.15945229540806
 20
-132.7105902446001
 10
62.92242972602287
 20
-132.7105902446001
 10
62.74483505375824
 20
-132.7105902446001
 10
62.68971352599424
 20
-132.8415038730396
 10
62.68971352599424
 20
-132.9517469285676
 10
62.68971352599424
 20
-133.2159857522863
 10
62.92242972602287
 20
-133.2245984909994
 10
62.99443222166459
 20
-133.2287326055817
 10
62.99443222166459
 20
-133.2287326055817
 10
62.99443222166459
 20
-133.4319932392115
 10
62.99443222166459
 20
-133.4319932392115
 10
62.86954751032428
 20
-133.4233805004983
 10
62.49299857378647
 20
-133.3958197366163
 10
62.49299857378647
 20
-132.9390000752722
 10
62.49299857378647
 20
-132.7147243591824
 10
62.61995034241793
 20
-132.473567675215
 10
62.91605629937516
 20
-132.473567675215
 10
63.10226371035291
 20
-132.473567675215
 10
63.18477374722464
 20
-132.5686523106078
 10
63.24609644686209
 20
-132.6682155701316
 10
63.27365721074409
 20
-132.6065483609456
 10
63.35410019032467
 20
-132.4246473193244
 10
63.63125812211302
 20
-132.4246473193244
 10
63.96973875353882
 20
-132.4246473193244
 10
64.13682588457344
 20
-132.6723496847139
 10
64.13682588457344
 20
-132.9496798712765
 97
        0
 97
        0
 75
     2
 76
     1
 98
        0
  0
SPLINE
  5
7B
330
75
100
AcDbEntity
  8
_U+30EC_U+30A4_U+30E4_U+30FC 1
370
     0
100
AcDbSpline
210
0.0
220
0.0
230
1.0
 70
    11
 71
     3
 72
    29
 73
    25
 74
     0
 42
0.0000000001
 43
0.0000000001
 12
1.0
 22
0.0
 32
0.0
 13
1.0
 23
0.0
 33
0.0
 40
0.0
 40
0.0
 40
0.0
 40
0.0
 40
1.0
 40
1.0
 40
1.0
 40
2.0
 40
2.0
 40
2.0
 40
3.0
 40
3.0
 40
3.0
 40
4.0
 40
4.0
 40
4.0
 40
5.0
 40
5.0
 40
5.0
 40
6.0
 40
6.0
 40
6.0
 40
7.0
 40
7.0
 40
7.0
 40
8.0
 40
8.0
 40
8.0
 40
8.0
 10
63.90824379912711
 20
-131.3663139862556
 30
0.0
 10
64.1177056046303
 20
-131.4744899844925
 30
0.0
 10
64.13682588457344
 20
-131.6477782874006
 30
0.0
 10
64.13682588457344
 20
-131.764222514802
 30
0.0
 10
64.13682588457344
 20
-131.9251084739632
 30
0.0
 10
64.09031709552256
 20
-132.0667018984069
 30
0.0
 10
63.90824379912711
 20
-132.1621310433484
 30
0.0
 10
63.71359590421049
 20
-132.2654839079059
 30
0.0
 10
63.47674558959957
 20
-132.2847764426233
 30
0.0
 10
63.31379257314725
 20
-132.2847764426233
 30
0.0
 10
63.16995983663807
 20
-132.2847764426233
 30
0.0
 10
62.91829561144057
 20
-132.267550965197
 30
0.0
 10
62.71934134716739
 20
-132.1621310433484
 30
0.0
 10
62.51625296831191
 20
-132.0539550451115
 30
0.0
 10
62.49299857378647
 20
-131.8934135954989
 30
0.0
 10
62.49299857378647
 20
-131.764222514802
 30
0.0
 10
62.49299857378647
 20
-131.605403612932
 30
0.0
 10
62.5374403055462
 20
-131.4617431311971
 30
0.0
 10
62.71934134716739
 20
-131.3663139862556
 30
0.0
 10
62.91192218479286
 20
-131.2670952362805
 30
0.0
 10
63.14033201546492
 20
-131.2436685869808
 30
0.0
 10
63.31379257314725
 20
-131.2436685869808
 30
0.0
 10
63.48518607353843
 20
-131.2436685869808
 30
0.0
 10
63.71583521627591
 20
-131.2650281789893
 30
0.0
 10
63.90824379912711
 20
-131.3663139862556
 30
0.0
  0
SPLINE
  5
7C
330
75
100
AcDbEntity
  8
_U+30EC_U+30A4_U+30E4_U+30FC 1
370
     0
100
AcDbSpline
210
0.0
220
0.0
230
1.0
 70
    11
 71
     3
 72
    17
 73
    13
 74
     0
 42
0.0000000001
 43
0.0000000001
 12
1.0
 22
0.0
 32
0.0
 13
1.0
 23
0.0
 33
0.0
 40
0.0
 40
0.0
 40
0.0
 40
0.0
 40
1.0
 40
1.0
 40
1.0
 40
2.0
 40
2.0
 40
2.0
 40
3.0
 40
3.0
 40
3.0
 40
4.0
 40
4.0
 40
4.0
 40
4.0
 10
62.68557941141194
 20
-131.764222514802
 30
0.0
 10
62.68557941141194
 20
-132.0139919374826
 30
0.0
 10
62.969110769848
 20
-132.060156216985
 30
0.0
 10
63.31379257314725
 20
-132.060156216985
 30
0.0
 10
63.63332517940417
 20
-132.060156216985
 30
0.0
 10
63.94217798965682
 20
-132.0243272239384
 30
0.0
 10
63.94217798965682
 20
-131.764222514802
 30
0.0
 10
63.94217798965682
 20
-131.5165201494125
 30
0.0
 10
63.6607136885119
 20
-131.4679443030705
 30
0.0
 10
63.31379257314725
 20
-131.4679443030705
 30
0.0
 10
62.99443222166459
 20
-131.4679443030705
 30
0.0
 10
62.68557941141194
 20
-131.5061848629568
 30
0.0
 10
62.68557941141194
 20
-131.764222514802
 30
0.0
  0
HATCH
  5
7D
330
75
100
AcDbEntity
  8
_U+30EC_U+30A4_U+30E4_U+30FC 1
 62
     7
420
 16777215
100
AcDbHatch
 10
0.0
 20
0.0
 30
0.0
210
0.0
220
0.0
230
1.0
  2
SOLID
 70
     1
 71
     0
 91
        2
 92
        1
 93
        1
 72
     4
 94
        3
 73
     0
 74
     1
 95
       29
 96
       25
 40
0.0
 40
0.0
 40
0.0
 40
0.0
 40
1.0
 40
1.0
 40
1.0
 40
2.0
 40
2.0
 40
2.0
 40
3.0
 40
3.0
 40
3.0
 40
4.0
 40
4.0
 40
4.0
 40
5.0
 40
5.0
 40
5.0
 40
6.0
 40
6.0
 40
6.0
 40
7.0
 40
7.0
 40
7.0
 40
8.0
 40
8.0
 40
8.0
 40
8.0
 10
63.90824379912711
 20
-131.3663139862556
 10
64.1177056046303
 20
-131.4744899844925
 10
64.13682588457344
 20
-131.6477782874006
 10
64.13682588457344
 20
-131.764222514802
 10
64.13682588457344
 20
-131.9251084739632
 10
64.09031709552256
 20
-132.0667018984069
 10
63.90824379912711
 20
-132.1621310433484
 10
63.71359590421049
 20
-132.2654839079059
 10
63.47674558959957
 20
-132.2847764426233
 10
63.31379257314725
 20
-132.2847764426233
 10
63.16995983663807
 20
-132.2847764426233
 10
62.91829561144057
 20
-132.267550965197
 10
62.71934134716739
 20
-132.1621310433484
 10
62.51625296831191
 20
-132.0539550451115
 10
62.49299857378647
 20
-131.8934135954989
 10
62.49299857378647
 20
-131.764222514802
 10
62.49299857378647
 20
-131.605403612932
 10
62.5374403055462
 20
-131.4617431311971
 10
62.71934134716739
 20
-131.3663139862556
 10
62.91192218479286
 20
-131.2670952362805
 10
63.14033201546492
 20
-131.2436685869808
 10
63.31379257314725
 20
-131.2436685869808
 10
63.48518607353843
 20
-131.2436685869808
 10
63.71583521627591
 20
-131.2650281789893
 10
63.90824379912711
 20
-131.3663139862556
 97
        0
 97
        0
 92
        1
 93
        1
 72
     4
 94
        3
 73
     0
 74
     1
 95
       17
 96
       13
 40
0.0
 40
0.0
 40
0.0
 40
0.0
 40
1.0
 40
1.0
 40
1.0
 40
2.0
 40
2.0
 40
2.0
 40
3.0
 40
3.0
 40
3.0
 40
4.0
 40
4.0
 40
4.0
 40
4.0
 10
62.68557941141194
 20
-131.764222514802
 10
62.68557941141194
 20
-132.0139919374826
 10
62.969110769848
 20
-132.060156216985
 10
63.31379257314725
 20
-132.060156216985
 10
63.63332517940417
 20
-132.060156216985
 10
63.94217798965682
 20
-132.0243272239384
 10
63.94217798965682
 20
-131.764222514802
 10
63.94217798965682
 20
-131.5165201494125
 10
63.6607136885119
 20
-131.4679443030705
 10
63.31379257314725
 20
-131.4679443030705
 10
62.99443222166459
 20
-131.4679443030705
 10
62.68557941141194
 20
-131.5061848629568
 10
62.68557941141194
 20
-131.764222514802
 97
        0
 97
        0
 75
     2
 76
     1
 98
        0
  0
ENDBLK
  5
78
330
75
100
AcDbEntity
  8
0
100
AcDbBlockEnd
  0
BLOCK
  5
80
330
7E
100
AcDbEntity
  8
0
100
AcDbBlockBegin
  2
block 5
 70
     0
 10
0.0
 20
0.0
 30
0.0
  3
block 5
  1

  0
SPLINE
  5
82
330
7E
100
AcDbEntity
  8
_U+30EC_U+30A4_U+30E4_U+30FC 1
370
     0
100
AcDbSpline
210
0.0
220
0.0
230
1.0
 70
    11
 71
     3
 72
    26
 73
    22
 74
     0
 42
0.0000000001
 43
0.0000000001
 12
1.0
 22
0.0
 32
0.0
 13
1.0
 23
0.0
 33
0.0
 40
0.0
 40
0.0
 40
0.0
 40
0.0
 40
1.0
 40
1.0
 40
1.0
 40
2.0
 40
2.0
 40
2.0
 40
3.0
 40
3.0
 40
3.0
 40
4.0
 40
4.0
 40
4.0
 40
5.0
 40
5.0
 40
5.0
 40
6.0
 40
6.0
 40
6.0
 40
7.0
 40
7.0
 40
7.0
 40
7.0
 10
64.086010726166
 20
-110.4898966195129
 30
0.0
 10
64.086010726166
 20
-110.4898966195129
 30
0.0
 10
62.98168536836916
 20
-110.4898966195129
 30
0.0
 10
62.98168536836916
 20
-110.4898966195129
 30
0.0
 10
62.98168536836916
 20
-110.4898966195129
 30
0.0
 10
62.98168536836916
 20
-110.8199367669999
 30
0.0
 10
62.98168536836916
 20
-110.8199367669999
 30
0.0
 10
62.98168536836916
 20
-110.8199367669999
 30
0.0
 10
62.83371851727768
 20
-110.8199367669999
 30
0.0
 10
62.83371851727768
 20
-110.8199367669999
 30
0.0
 10
62.81890460669111
 20
-110.4878295622218
 30
0.0
 10
62.65595159023879
 20
-110.4413207731709
 30
0.0
 10
62.54174667490276
 20
-110.4116929519978
 30
0.0
 10
62.54174667490276
 20
-110.4116929519978
 30
0.0
 10
62.54174667490276
 20
-110.2656209034232
 30
0.0
 10
62.54174667490276
 20
-110.2656209034232
 30
0.0
 10
62.54174667490276
 20
-110.2656209034232
 30
0.0
 10
64.086010726166
 20
-110.2656209034232
 30
0.0
 10
64.086010726166
 20
-110.2656209034232
 30
0.0
 10
64.086010726166
 20
-110.2656209034232
 30
0.0
 10
64.086010726166
 20
-110.4898966195129
 30
0.0
 10
64.086010726166
 20
-110.4898966195129
 30
0.0
  0
HATCH
  5
83
330
7E
100
AcDbEntity
  8
_U+30EC_U+30A4_U+30E4_U+30FC 1
 62
     7
420
 16777215
100
AcDbHatch
 10
0.0
 20
0.0
 30
0.0
210
0.0
220
0.0
230
1.0
  2
SOLID
 70
     1
 71
     0
 91
        1
 92
        1
 93
        1
 72
     4
 94
        3
 73
     0
 74
     1
 95
       26
 96
       22
 40
0.0
 40
0.0
 40
0.0
 40
0.0
 40
1.0
 40
1.0
 40
1.0
 40
2.0
 40
2.0
 40
2.0
 40
3.0
 40
3.0
 40
3.0
 40
4.0
 40
4.0
 40
4.0
 40
5.0
 40
5.0
 40
5.0
 40
6.0
 40
6.0
 40
6.0
 40
7.0
 40
7.0
 40
7.0
 40
7.0
 10
64.086010726166
 20
-110.4898966195129
 10
64.086010726166
 20
-110.4898966195129
 10
62.98168536836916
 20
-110.4898966195129
 10
62.98168536836916
 20
-110.4898966195129
 10
62.98168536836916
 20
-110.4898966195129
 10
62.98168536836916
 20
-110.8199367669999
 10
62.98168536836916
 20
-110.8199367669999
 10
62.98168536836916
 20
-110.8199367669999
 10
62.83371851727768
 20
-110.8199367669999
 10
62.83371851727768
 20
-110.8199367669999
 10
62.81890460669111
 20
-110.4878295622218
 10
62.65595159023879
 20
-110.4413207731709
 10
62.54174667490276
 20
-110.4116929519978
 10
62.54174667490276
 20
-110.4116929519978
 10
62.54174667490276
 20
-110.2656209034232
 10
62.54174667490276
 20
-110.2656209034232
 10
62.54174667490276
 20
-110.2656209034232
 10
64.086010726166
 20
-110.2656209034232
 10
64.086010726166
 20
-110.2656209034232
 10
64.086010726166
 20
-110.2656209034232
 10
64.086010726166
 20
-110.4898966195129
 10
64.086010726166
 20
-110.4898966195129
 97
        0
 97
        0
 75
     2
 76
     1
 98
        0
  0
SPLINE
  5
84
330
7E
100
AcDbEntity
  8
_U+30EC_U+30A4_U+30E4_U+30FC 1
370
     0
100
AcDbSpline
210
0.0
220
0.0
230
1.0
 70
    11
 71
     3
 72
    53
 73
    49
 74
     0
 42
0.0000000001
 43
0.0000000001
 12
1.0
 22
0.0
 32
0.0
 13
1.0
 23
0.0
 33
0.0
 40
0.0
 40
0.0
 40
0.0
 40
0.0
 40
1.0
 40
1.0
 40
1.0
 40
2.0
 40
2.0
 40
2.0
 40
3.0
 40
3.0
 40
3.0
 40
4.0
 40
4.0
 40
4.0
 40
5.0
 40
5.0
 40
5.0
 40
6.0
 40
6.0
 40
6.0
 40
7.0
 40
7.0
 40
7.0
 40
8.0
 40
8.0
 40
8.0
 40
9.0
 40
9.0
 40
9.0
 40
10.0
 40
10.0
 40
10.0
 40
11.0
 40
11.0
 40
11.0
 40
12.0
 40
12.0
 40
12.0
 40
13.0
 40
13.0
 40
13.0
 40
14.0
 40
14.0
 40
14.0
 40
15.0
 40
15.0
 40
15.0
 40
16.0
 40
16.0
 40
16.0
 40
16.0
 10
64.13682588457344
 20
-109.2834241805785
 30
0.0
 10
64.13682588457344
 20
-109.3618001028679
 30
0.0
 10
64.11977266192144
 20
-109.4632581649085
 30
0.0
 10
64.05638290499286
 20
-109.5648884817234
 30
0.0
 10
63.94631210423912
 20
-109.7383490394057
 30
0.0
 10
63.81522622102536
 20
-109.75953637664
 30
0.0
 10
63.70739473233704
 20
-109.7784844018089
 30
0.0
 10
63.70739473233704
 20
-109.7784844018089
 30
0.0
 10
63.70739473233704
 20
-109.5564479977845
 30
0.0
 10
63.70739473233704
 20
-109.5564479977845
 30
0.0
 10
63.90617674183596
 20
-109.5013264700205
 30
0.0
 10
63.93580456300911
 20
-109.374374701389
 30
0.0
 10
63.93580456300911
 20
-109.2813571232873
 30
0.0
 10
63.93580456300911
 20
-109.1416585013604
 30
0.0
 10
63.83641355825965
 20
-108.9893852809124
 30
0.0
 10
63.60369735823102
 20
-108.9893852809124
 30
0.0
 10
63.34772676367696
 20
-108.9893852809124
 30
0.0
 10
63.27796358010065
 20
-109.1692192652424
 30
0.0
 10
63.27796358010065
 20
-109.2897976072262
 30
0.0
 10
63.27796358010065
 20
-109.3214924856905
 30
0.0
 10
63.27796358010065
 20
-109.4632581649085
 30
0.0
 10
63.40698240602326
 20
-109.5521416284279
 30
0.0
 10
63.40698240602326
 20
-109.5521416284279
 30
0.0
 10
63.38786212608012
 20
-109.7276692434014
 30
0.0
 10
63.38786212608012
 20
-109.7276692434014
 30
0.0
 10
63.38786212608012
 20
-109.7276692434014
 30
0.0
 10
62.54174667490276
 20
-109.6070909014177
 30
0.0
 10
62.54174667490276
 20
-109.6070909014177
 30
0.0
 10
62.54174667490276
 20
-109.6070909014177
 30
0.0
 10
62.54174667490276
 20
-108.8286715765255
 30
0.0
 10
62.54174667490276
 20
-108.8286715765255
 30
0.0
 10
62.54174667490276
 20
-108.8286715765255
 30
0.0
 10
62.73639456981937
 20
-108.8286715765255
 30
0.0
 10
62.73639456981937
 20
-108.8286715765255
 30
0.0
 10
62.73639456981937
 20
-108.8286715765255
 30
0.0
 10
62.73639456981937
 20
-109.4443101397396
 30
0.0
 10
62.73639456981937
 20
-109.4443101397396
 30
0.0
 10
62.73639456981937
 20
-109.4443101397396
 30
0.0
 10
63.15945229540806
 20
-109.5097669539594
 30
0.0
 10
63.15945229540806
 20
-109.5097669539594
 30
0.0
 10
63.12551810487835
 20
-109.4484442543219
 30
0.0
 10
63.08538274247518
 20
-109.3659342174502
 30
0.0
 10
63.08538274247518
 20
-109.2475951875319
 30
0.0
 10
63.08538274247518
 20
-108.9936916502689
 30
0.0
 10
63.27159015345294
 20
-108.7566690808838
 30
0.0
 10
63.58457707828789
 20
-108.7566690808838
 30
0.0
 10
63.90204262725366
 20
-108.7566690808838
 30
0.0
 10
64.13682588457344
 20
-108.9809447969735
 30
0.0
 10
64.13682588457344
 20
-109.2834241805785
 30
0.0
  0
HATCH
  5
85
330
7E
100
AcDbEntity
  8
_U+30EC_U+30A4_U+30E4_U+30FC 1
 62
     7
420
 16777215
100
AcDbHatch
 10
0.0
 20
0.0
 30
0.0
210
0.0
220
0.0
230
1.0
  2
SOLID
 70
     1
 71
     0
 91
        1
 92
        1
 93
        1
 72
     4
 94
        3
 73
     0
 74
     1
 95
       53
 96
       49
 40
0.0
 40
0.0
 40
0.0
 40
0.0
 40
1.0
 40
1.0
 40
1.0
 40
2.0
 40
2.0
 40
2.0
 40
3.0
 40
3.0
 40
3.0
 40
4.0
 40
4.0
 40
4.0
 40
5.0
 40
5.0
 40
5.0
 40
6.0
 40
6.0
 40
6.0
 40
7.0
 40
7.0
 40
7.0
 40
8.0
 40
8.0
 40
8.0
 40
9.0
 40
9.0
 40
9.0
 40
10.0
 40
10.0
 40
10.0
 40
11.0
 40
11.0
 40
11.0
 40
12.0
 40
12.0
 40
12.0
 40
13.0
 40
13.0
 40
13.0
 40
14.0
 40
14.0
 40
14.0
 40
15.0
 40
15.0
 40
15.0
 40
16.0
 40
16.0
 40
16.0
 40
16.0
 10
64.13682588457344
 20
-109.2834241805785
 10
64.13682588457344
 20
-109.3618001028679
 10
64.11977266192144
 20
-109.4632581649085
 10
64.05638290499286
 20
-109.5648884817234
 10
63.94631210423912
 20
-109.7383490394057
 10
63.81522622102536
 20
-109.75953637664
 10
63.70739473233704
 20
-109.7784844018089
 10
63.70739473233704
 20
-109.7784844018089
 10
63.70739473233704
 20
-109.5564479977845
 10
63.70739473233704
 20
-109.5564479977845
 10
63.90617674183596
 20
-109.5013264700205
 10
63.93580456300911
 20
-109.374374701389
 10
63.93580456300911
 20
-109.2813571232873
 10
63.93580456300911
 20
-109.1416585013604
 10
63.83641355825965
 20
-108.9893852809124
 10
63.60369735823102
 20
-108.9893852809124
 10
63.34772676367696
 20
-108.9893852809124
 10
63.27796358010065
 20
-109.1692192652424
 10
63.27796358010065
 20
-109.2897976072262
 10
63.27796358010065
 20
-109.3214924856905
 10
63.27796358010065
 20
-109.4632581649085
 10
63.40698240602326
 20
-109.5521416284279
 10
63.40698240602326
 20
-109.5521416284279
 10
63.38786212608012
 20
-109.7276692434014
 10
63.38786212608012
 20
-109.7276692434014
 10
63.38786212608012
 20
-109.7276692434014
 10
62.54174667490276
 20
-109.6070909014177
 10
62.54174667490276
 20
-109.6070909014177
 10
62.54174667490276
 20
-109.6070909014177
 10
62.54174667490276
 20
-108.8286715765255
 10
62.54174667490276
 20
-108.8286715765255
 10
62.54174667490276
 20
-108.8286715765255
 10
62.73639456981937
 20
-108.8286715765255
 10
62.73639456981937
 20
-108.8286715765255
 10
62.73639456981937
 20
-108.8286715765255
 10
62.73639456981937
 20
-109.4443101397396
 10
62.73639456981937
 20
-109.4443101397396
 10
62.73639456981937
 20
-109.4443101397396
 10
63.15945229540806
 20
-109.5097669539594
 10
63.15945229540806
 20
-109.5097669539594
 10
63.12551810487835
 20
-109.4484442543219
 10
63.08538274247518
 20
-109.3659342174502
 10
63.08538274247518
 20
-109.2475951875319
 10
63.08538274247518
 20
-108.9936916502689
 10
63.27159015345294
 20
-108.7566690808838
 10
63.58457707828789
 20
-108.7566690808838
 10
63.90204262725366
 20
-108.7566690808838
 10
64.13682588457344
 20
-108.9809447969735
 10
64.13682588457344
 20
-109.2834241805785
 97
        0
 97
        0
 75
     2
 76
     1
 98
        0
  0
ENDBLK
  5
81
330
7E
100
AcDbEntity
  8
0
100
AcDbBlockEnd
  0
BLOCK
  5
9C
330
9A
100
AcDbEntity
  8
0
100
AcDbBlockBegin
  2
block 6
 70
     0
 10
0.0
 20
0.0
 30
0.0
  3
block 6
  1

  0
SPLINE
  5
9E
330
9A
100
AcDbEntity
  8
_U+30EC_U+30A4_U+30E4_U+30FC 1
370
     0
100
AcDbSpline
210
0.0
220
0.0
230
1.0
 70
    11
 71
     3
 72
    32
 73
    28
 74
     0
 42
0.0000000001
 43
0.0000000001
 12
1.0
 22
0.0
 32
0.0
 13
1.0
 23
0.0
 33
0.0
 40
0.0
 40
0.0
 40
0.0
 40
0.0
 40
1.0
 40
1.0
 40
1.0
 40
2.0
 40
2.0
 40
2.0
 40
3.0
 40
3.0
 40
3.0
 40
4.0
 40
4.0
 40
4.0
 40
5.0
 40
5.0
 40
5.0
 40
6.0
 40
6.0
 40
6.0
 40
7.0
 40
7.0
 40
7.0
 40
8.0
 40
8.0
 40
8.0
 40
9.0
 40
9.0
 40
9.0
 40
9.0
 10
117.375092201559
 20
-144.9606607710515
 30
0.0
 10
117.375092201559
 20
-145.4770805842905
 30
0.0
 10
116.8211208475308
 20
-145.4856933230036
 30
0.0
 10
116.6075249274453
 20
-145.4856933230036
 30
0.0
 10
116.3767035299336
 20
-145.4856933230036
 30
0.0
 10
115.7293700882552
 20
-145.4664007882862
 30
0.0
 10
115.7293700882552
 20
-144.9227647207138
 30
0.0
 10
115.7293700882552
 20
-144.7491319082572
 30
0.0
 10
115.7993055266057
 20
-144.5038411097074
 30
0.0
 10
116.1314127313838
 20
-144.4659450593696
 30
0.0
 10
116.1314127313838
 20
-144.4659450593696
 30
0.0
 10
116.1314127313838
 20
-144.6795409794551
 30
0.0
 10
116.1314127313838
 20
-144.6795409794551
 30
0.0
 10
116.0742241463287
 20
-144.6898762659109
 30
0.0
 10
115.9260850404629
 20
-144.7215711443752
 30
0.0
 10
115.9260850404629
 20
-144.9248317780049
 30
0.0
 10
115.9260850404629
 20
-145.2169758751541
 30
0.0
 10
116.2540581306587
 20
-145.256938982783
 30
0.0
 10
116.4593858215796
 20
-145.2696858360784
 30
0.0
 10
116.3808376445159
 20
-145.1766682579767
 30
0.0
 10
116.3215820021696
 20
-145.1087998769173
 30
0.0
 10
116.3215820021696
 20
-144.9268988352961
 30
0.0
 10
116.3215820021696
 20
-144.747064850966
 30
0.0
 10
116.4297580004065
 20
-144.4445854673611
 30
0.0
 10
116.8355902485689
 20
-144.4445854673611
 30
0.0
 10
117.1552951096001
 20
-144.4445854673611
 30
0.0
 10
117.375092201559
 20
-144.6437119864085
 30
0.0
 10
117.375092201559
 20
-144.9606607710515
 30
0.0
  0
SPLINE
  5
9F
330
9A
100
AcDbEntity
  8
_U+30EC_U+30A4_U+30E4_U+30FC 1
370
     0
100
AcDbSpline
210
0.0
220
0.0
230
1.0
 70
    11
 71
     3
 72
    17
 73
    13
 74
     0
 42
0.0000000001
 43
0.0000000001
 12
1.0
 22
0.0
 32
0.0
 13
1.0
 23
0.0
 33
0.0
 40
0.0
 40
0.0
 40
0.0
 40
0.0
 40
1.0
 40
1.0
 40
1.0
 40
2.0
 40
2.0
 40
2.0
 40
3.0
 40
3.0
 40
3.0
 40
4.0
 40
4.0
 40
4.0
 40
4.0
 10
116.5165744066347
 20
-144.9441243127223
 30
0.0
 10
116.5165744066347
 20
-145.2062960791498
 30
0.0
 10
116.7281032694291
 20
-145.2445366390361
 30
0.0
 10
116.844202987282
 20
-145.2445366390361
 30
0.0
 10
117.0195583474812
 20
-145.2445366390361
 30
0.0
 10
117.1828558734821
 20
-145.1491074940947
 30
0.0
 10
117.1828558734821
 20
-144.9651393951823
 30
0.0
 10
117.1828558734821
 20
-144.8445610531986
 30
0.0
 10
117.1236002311358
 20
-144.6688611834508
 30
0.0
 10
116.83765730586
 20
-144.6688611834508
 30
0.0
 10
116.6137260993188
 20
-144.6688611834508
 30
0.0
 10
116.5165744066347
 20
-144.8083875506035
 30
0.0
 10
116.5165744066347
 20
-144.9441243127223
 30
0.0
  0
HATCH
  5
A0
330
9A
100
AcDbEntity
  8
_U+30EC_U+30A4_U+30E4_U+30FC 1
 62
     7
420
 16777215
100
AcDbHatch
 10
0.0
 20
0.0
 30
0.0
210
0.0
220
0.0
230
1.0
  2
SOLID
 70
     1
 71
     0
 91
        2
 92
        1
 93
        1
 72
     4
 94
        3
 73
     0
 74
     1
 95
       32
 96
       28
 40
0.0
 40
0.0
 40
0.0
 40
0.0
 40
1.0
 40
1.0
 40
1.0
 40
2.0
 40
2.0
 40
2.0
 40
3.0
 40
3.0
 40
3.0
 40
4.0
 40
4.0
 40
4.0
 40
5.0
 40
5.0
 40
5.0
 40
6.0
 40
6.0
 40
6.0
 40
7.0
 40
7.0
 40
7.0
 40
8.0
 40
8.0
 40
8.0
 40
9.0
 40
9.0
 40
9.0
 40
9.0
 10
117.375092201559
 20
-144.9606607710515
 10
117.375092201559
 20
-145.4770805842905
 10
116.8211208475308
 20
-145.4856933230036
 10
116.6075249274453
 20
-145.4856933230036
 10
116.3767035299336
 20
-145.4856933230036
 10
115.7293700882552
 20
-145.4664007882862
 10
115.7293700882552
 20
-144.9227647207138
 10
115.7293700882552
 20
-144.7491319082572
 10
115.7993055266057
 20
-144.5038411097074
 10
116.1314127313838
 20
-144.4659450593696
 10
116.1314127313838
 20
-144.4659450593696
 10
116.1314127313838
 20
-144.6795409794551
 10
116.1314127313838
 20
-144.6795409794551
 10
116.0742241463287
 20
-144.6898762659109
 10
115.9260850404629
 20
-144.7215711443752
 10
115.9260850404629
 20
-144.9248317780049
 10
115.9260850404629
 20
-145.2169758751541
 10
116.2540581306587
 20
-145.256938982783
 10
116.4593858215796
 20
-145.2696858360784
 10
116.3808376445159
 20
-145.1766682579767
 10
116.3215820021696
 20
-145.1087998769173
 10
116.3215820021696
 20
-144.9268988352961
 10
116.3215820021696
 20
-144.747064850966
 10
116.4297580004065
 20
-144.4445854673611
 10
116.8355902485689
 20
-144.4445854673611
 10
117.1552951096001
 20
-144.4445854673611
 10
117.375092201559
 20
-144.6437119864085
 10
117.375092201559
 20
-144.9606607710515
 97
        0
 97
        0
 92
        1
 93
        1
 72
     4
 94
        3
 73
     0
 74
     1
 95
       17
 96
       13
 40
0.0
 40
0.0
 40
0.0
 40
0.0
 40
1.0
 40
1.0
 40
1.0
 40
2.0
 40
2.0
 40
2.0
 40
3.0
 40
3.0
 40
3.0
 40
4.0
 40
4.0
 40
4.0
 40
4.0
 10
116.5165744066347
 20
-144.9441243127223
 10
116.5165744066347
 20
-145.2062960791498
 10
116.7281032694291
 20
-145.2445366390361
 10
116.844202987282
 20
-145.2445366390361
 10
117.0195583474812
 20
-145.2445366390361
 10
117.1828558734821
 20
-145.1491074940947
 10
117.1828558734821
 20
-144.9651393951823
 10
117.1828558734821
 20
-144.8445610531986
 10
117.1236002311358
 20
-144.6688611834508
 10
116.83765730586
 20
-144.6688611834508
 10
116.6137260993188
 20
-144.6688611834508
 10
116.5165744066347
 20
-144.8083875506035
 10
116.5165744066347
 20
-144.9441243127223
 97
        0
 97
        0
 75
     2
 76
     1
 98
        0
  0
POLYLINE
  5
A1
330
9A
100
AcDbEntity
  8
_U+30EC_U+30A4_U+30E4_U+30FC 1
370
     0
100
AcDb2dPolyline
 66
     1
 10
0.0
 20
0.0
 30
0.0
  0
VERTEX
  5
A2
330
A1
100
AcDbEntity
  8
_U+30EC_U+30A4_U+30E4_U+30FC 1
370
     0
100
AcDbVertex
100
AcDb2dVertex
 10
117.3244492979258
 20
-144.2282334708874
 30
0.0
  0
VERTEX
  5
A3
330
A1
100
AcDbEntity
  8
_U+30EC_U+30A4_U+30E4_U+30FC 1
370
     0
100
AcDbVertex
100
AcDb2dVertex
 10
117.0726128179541
 20
-144.2282334708874
 30
0.0
  0
VERTEX
  5
A4
330
A1
100
AcDbEntity
  8
_U+30EC_U+30A4_U+30E4_U+30FC 1
370
     0
100
AcDbVertex
100
AcDb2dVertex
 10
117.0726128179541
 20
-143.9767415004642
 30
0.0
  0
VERTEX
  5
A5
330
A1
100
AcDbEntity
  8
_U+30EC_U+30A4_U+30E4_U+30FC 1
370
     0
100
AcDbVertex
100
AcDb2dVertex
 10
117.3244492979258
 20
-143.9767415004642
 30
0.0
  0
VERTEX
  5
A6
330
A1
100
AcDbEntity
  8
_U+30EC_U+30A4_U+30E4_U+30FC 1
370
     0
100
AcDbVertex
100
AcDb2dVertex
 10
117.3244492979258
 20
-144.2282334708874
 30
0.0
  0
SEQEND
  5
A7
330
A1
100
AcDbEntity
  8
_U+30EC_U+30A4_U+30E4_U+30FC 1
370
     0
  0
HATCH
  5
A8
330
9A
100
AcDbEntity
  8
_U+30EC_U+30A4_U+30E4_U+30FC 1
 62
     7
420
 16777215
100
AcDbHatch
 10
0.0
 20
0.0
 30
0.0
210
0.0
220
0.0
230
1.0
  2
SOLID
 70
     1
 71
     0
 91
        1
 92
        1
 93
        4
 72
     1
 10
117.3244492979258
 20
-144.2282334708874
 11
117.0726128179541
 21
-144.2282334708874
 72
     1
 10
117.0726128179541
 20
-144.2282334708874
 11
117.0726128179541
 21
-143.9767415004642
 72
     1
 10
117.0726128179541
 20
-143.9767415004642
 11
117.3244492979258
 21
-143.9767415004642
 72
     1
 10
117.3244492979258
 20
-143.9767415004642
 11
117.3244492979258
 21
-144.2282334708874
 97
        0
 75
     2
 76
     1
 98
        0
  0
SPLINE
  5
A9
330
9A
100
AcDbEntity
  8
_U+30EC_U+30A4_U+30E4_U+30FC 1
370
     0
100
AcDbSpline
210
0.0
220
0.0
230
1.0
 70
    11
 71
     3
 72
    53
 73
    49
 74
     0
 42
0.0000000001
 43
0.0000000001
 12
1.0
 22
0.0
 32
0.0
 13
1.0
 23
0.0
 33
0.0
 40
0.0
 40
0.0
 40
0.0
 40
0.0
 40
1.0
 40
1.0
 40
1.0
 40
2.0
 40
2.0
 40
2.0
 40
3.0
 40
3.0
 40
3.0
 40
4.0
 40
4.0
 40
4.0
 40
5.0
 40
5.0
 40
5.0
 40
6.0
 40
6.0
 40
6.0
 40
7.0
 40
7.0
 40
7.0
 40
8.0
 40
8.0
 40
8.0
 40
9.0
 40
9.0
 40
9.0
 40
10.0
 40
10.0
 40
10.0
 40
11.0
 40
11.0
 40
11.0
 40
12.0
 40
12.0
 40
12.0
 40
13.0
 40
13.0
 40
13.0
 40
14.0
 40
14.0
 40
14.0
 40
15.0
 40
15.0
 40
15.0
 40
16.0
 40
16.0
 40
16.0
 40
16.0
 10
117.375092201559
 20
-143.2587836013381
 30
0.0
 10
117.375092201559
 20
-143.3373317784018
 30
0.0
 10
117.3585557432298
 20
-143.4386175856681
 30
0.0
 10
117.2948214767527
 20
-143.5405924120315
 30
0.0
 10
117.1849229307732
 20
-143.7138807149396
 30
0.0
 10
117.0536647927852
 20
-143.7348957973996
 30
0.0
 10
116.9458333040969
 20
-143.754188332117
 30
0.0
 10
116.9458333040969
 20
-143.754188332117
 30
0.0
 10
116.9458333040969
 20
-143.5319796733184
 30
0.0
 10
116.9458333040969
 20
-143.5319796733184
 30
0.0
 10
117.1446153135958
 20
-143.4768581455544
 30
0.0
 10
117.1742431347689
 20
-143.3497341221487
 30
0.0
 10
117.1742431347689
 20
-143.256716544047
 30
0.0
 10
117.1742431347689
 20
-143.1171901768943
 30
0.0
 10
117.0746798752452
 20
-142.9649169564463
 30
0.0
 10
116.8421359299909
 20
-142.9649169564463
 30
0.0
 10
116.5861653354368
 20
-142.9649169564463
 30
0.0
 10
116.5165744066347
 20
-143.1447509407763
 30
0.0
 10
116.5165744066347
 20
-143.2653292827601
 30
0.0
 10
116.5165744066347
 20
-143.2970241612244
 30
0.0
 10
116.5165744066347
 20
-143.4386175856681
 30
0.0
 10
116.6454209777831
 20
-143.5275010491876
 30
0.0
 10
116.6454209777831
 20
-143.5275010491876
 30
0.0
 10
116.6261284430657
 20
-143.7032009189353
 30
0.0
 10
116.6261284430657
 20
-143.7032009189353
 30
0.0
 10
116.6261284430657
 20
-143.7032009189353
 30
0.0
 10
115.7800129918883
 20
-143.5826225769516
 30
0.0
 10
115.7800129918883
 20
-143.5826225769516
 30
0.0
 10
115.7800129918883
 20
-143.5826225769516
 30
0.0
 10
115.7800129918883
 20
-142.8040309972851
 30
0.0
 10
115.7800129918883
 20
-142.8040309972851
 30
0.0
 10
115.7800129918883
 20
-142.8040309972851
 30
0.0
 10
115.9750053963535
 20
-142.8040309972851
 30
0.0
 10
115.9750053963535
 20
-142.8040309972851
 30
0.0
 10
115.9750053963535
 20
-142.8040309972851
 30
0.0
 10
115.9750053963535
 20
-143.4200140700478
 30
0.0
 10
115.9750053963535
 20
-143.4200140700478
 30
0.0
 10
115.9750053963535
 20
-143.4200140700478
 30
0.0
 10
116.3980631219422
 20
-143.4854708842675
 30
0.0
 10
116.3980631219422
 20
-143.4854708842675
 30
0.0
 10
116.3639566766382
 20
-143.4241481846301
 30
0.0
 10
116.3236490594608
 20
-143.3414658929841
 30
0.0
 10
116.3236490594608
 20
-143.2229546082915
 30
0.0
 10
116.3236490594608
 20
-142.9693955805771
 30
0.0
 10
116.5100287252128
 20
-142.7323730111919
 30
0.0
 10
116.823187904822
 20
-142.7323730111919
 30
0.0
 10
117.1404811990135
 20
-142.7323730111919
 30
0.0
 10
117.375092201559
 20
-142.9563042177332
 30
0.0
 10
117.375092201559
 20
-143.2587836013381
 30
0.0
  0
HATCH
  5
AA
330
9A
100
AcDbEntity
  8
_U+30EC_U+30A4_U+30E4_U+30FC 1
 62
     7
420
 16777215
100
AcDbHatch
 10
0.0
 20
0.0
 30
0.0
210
0.0
220
0.0
230
1.0
  2
SOLID
 70
     1
 71
     0
 91
        1
 92
        1
 93
        1
 72
     4
 94
        3
 73
     0
 74
     1
 95
       53
 96
       49
 40
0.0
 40
0.0
 40
0.0
 40
0.0
 40
1.0
 40
1.0
 40
1.0
 40
2.0
 40
2.0
 40
2.0
 40
3.0
 40
3.0
 40
3.0
 40
4.0
 40
4.0
 40
4.0
 40
5.0
 40
5.0
 40
5.0
 40
6.0
 40
6.0
 40
6.0
 40
7.0
 40
7.0
 40
7.0
 40
8.0
 40
8.0
 40
8.0
 40
9.0
 40
9.0
 40
9.0
 40
10.0
 40
10.0
 40
10.0
 40
11.0
 40
11.0
 40
11.0
 40
12.0
 40
12.0
 40
12.0
 40
13.0
 40
13.0
 40
13.0
 40
14.0
 40
14.0
 40
14.0
 40
15.0
 40
15.0
 40
15.0
 40
16.0
 40
16.0
 40
16.0
 40
16.0
 10
117.375092201559
 20
-143.2587836013381
 10
117.375092201559
 20
-143.3373317784018
 10
117.3585557432298
 20
-143.4386175856681
 10
117.2948214767527
 20
-143.5405924120315
 10
117.1849229307732
 20
-143.7138807149396
 10
117.0536647927852
 20
-143.7348957973996
 10
116.9458333040969
 20
-143.754188332117
 10
116.9458333040969
 20
-143.754188332117
 10
116.9458333040969
 20
-143.5319796733184
 10
116.9458333040969
 20
-143.5319796733184
 10
117.1446153135958
 20
-143.4768581455544
 10
117.1742431347689
 20
-143.3497341221487
 10
117.1742431347689
 20
-143.256716544047
 10
117.1742431347689
 20
-143.1171901768943
 10
117.0746798752452
 20
-142.9649169564463
 10
116.8421359299909
 20
-142.9649169564463
 10
116.5861653354368
 20
-142.9649169564463
 10
116.5165744066347
 20
-143.1447509407763
 10
116.5165744066347
 20
-143.2653292827601
 10
116.5165744066347
 20
-143.2970241612244
 10
116.5165744066347
 20
-143.4386175856681
 10
116.6454209777831
 20
-143.5275010491876
 10
116.6454209777831
 20
-143.5275010491876
 10
116.6261284430657
 20
-143.7032009189353
 10
116.6261284430657
 20
-143.7032009189353
 10
116.6261284430657
 20
-143.7032009189353
 10
115.7800129918883
 20
-143.5826225769516
 10
115.7800129918883
 20
-143.5826225769516
 10
115.7800129918883
 20
-143.5826225769516
 10
115.7800129918883
 20
-142.8040309972851
 10
115.7800129918883
 20
-142.8040309972851
 10
115.7800129918883
 20
-142.8040309972851
 10
115.9750053963535
 20
-142.8040309972851
 10
115.9750053963535
 20
-142.8040309972851
 10
115.9750053963535
 20
-142.8040309972851
 10
115.9750053963535
 20
-143.4200140700478
 10
115.9750053963535
 20
-143.4200140700478
 10
115.9750053963535
 20
-143.4200140700478
 10
116.3980631219422
 20
-143.4854708842675
 10
116.3980631219422
 20
-143.4854708842675
 10
116.3639566766382
 20
-143.4241481846301
 10
116.3236490594608
 20
-143.3414658929841
 10
116.3236490594608
 20
-143.2229546082915
 10
116.3236490594608
 20
-142.9693955805771
 10
116.5100287252128
 20
-142.7323730111919
 10
116.823187904822
 20
-142.7323730111919
 10
117.1404811990135
 20
-142.7323730111919
 10
117.375092201559
 20
-142.9563042177332
 10
117.375092201559
 20
-143.2587836013381
 97
        0
 97
        0
 75
     2
 76
     1
 98
        0
  0
ENDBLK
  5
9D
330
9A
100
AcDbEntity
  8
0
100
AcDbBlockEnd
  0
BLOCK
  5
AD
330
AB
100
AcDbEntity
  8
0
100
AcDbBlockBegin
  2
block 7
 70
     0
 10
0.0
 20
0.0
 30
0.0
  3
block 7
  1

  0
SPLINE
  5
AF
330
AB
100
AcDbEntity
  8
_U+30EC_U+30A4_U+30E4_U+30FC 1
370
     0
100
AcDbSpline
210
0.0
220
0.0
230
1.0
 70
    11
 71
     3
 72
    26
 73
    22
 74
     0
 42
0.0000000001
 43
0.0000000001
 12
1.0
 22
0.0
 32
0.0
 13
1.0
 23
0.0
 33
0.0
 40
0.0
 40
0.0
 40
0.0
 40
0.0
 40
1.0
 40
1.0
 40
1.0
 40
2.0
 40
2.0
 40
2.0
 40
3.0
 40
3.0
 40
3.0
 40
4.0
 40
4.0
 40
4.0
 40
5.0
 40
5.0
 40
5.0
 40
6.0
 40
6.0
 40
6.0
 40
7.0
 40
7.0
 40
7.0
 40
7.0
 10
117.3244492979258
 20
-138.927609557282
 30
0.0
 10
117.3244492979258
 20
-138.927609557282
 30
0.0
 10
116.2202961949033
 20
-138.927609557282
 30
0.0
 10
116.2202961949033
 20
-138.927609557282
 30
0.0
 10
116.2202961949033
 20
-138.927609557282
 30
0.0
 10
116.2202961949033
 20
-139.2576497047689
 30
0.0
 10
116.2202961949033
 20
-139.2576497047689
 30
0.0
 10
116.2202961949033
 20
-139.2576497047689
 30
0.0
 10
116.0721570890375
 20
-139.2576497047689
 30
0.0
 10
116.0721570890375
 20
-139.2576497047689
 30
0.0
 10
116.0573431784509
 20
-138.9255424999909
 30
0.0
 10
115.8943901619986
 20
-138.87903371094
 30
0.0
 10
115.7800129918883
 20
-138.8494058897668
 30
0.0
 10
115.7800129918883
 20
-138.8494058897668
 30
0.0
 10
115.7800129918883
 20
-138.7033338411922
 30
0.0
 10
115.7800129918883
 20
-138.7033338411922
 30
0.0
 10
115.7800129918883
 20
-138.7033338411922
 30
0.0
 10
117.3244492979258
 20
-138.7033338411922
 30
0.0
 10
117.3244492979258
 20
-138.7033338411922
 30
0.0
 10
117.3244492979258
 20
-138.7033338411922
 30
0.0
 10
117.3244492979258
 20
-138.927609557282
 30
0.0
 10
117.3244492979258
 20
-138.927609557282
 30
0.0
  0
HATCH
  5
B0
330
AB
100
AcDbEntity
  8
_U+30EC_U+30A4_U+30E4_U+30FC 1
 62
     7
420
 16777215
100
AcDbHatch
 10
0.0
 20
0.0
 30
0.0
210
0.0
220
0.0
230
1.0
  2
SOLID
 70
     1
 71
     0
 91
        1
 92
        1
 93
        1
 72
     4
 94
        3
 73
     0
 74
     1
 95
       26
 96
       22
 40
0.0
 40
0.0
 40
0.0
 40
0.0
 40
1.0
 40
1.0
 40
1.0
 40
2.0
 40
2.0
 40
2.0
 40
3.0
 40
3.0
 40
3.0
 40
4.0
 40
4.0
 40
4.0
 40
5.0
 40
5.0
 40
5.0
 40
6.0
 40
6.0
 40
6.0
 40
7.0
 40
7.0
 40
7.0
 40
7.0
 10
117.3244492979258
 20
-138.927609557282
 10
117.3244492979258
 20
-138.927609557282
 10
116.2202961949033
 20
-138.927609557282
 10
116.2202961949033
 20
-138.927609557282
 10
116.2202961949033
 20
-138.927609557282
 10
116.2202961949033
 20
-139.2576497047689
 10
116.2202961949033
 20
-139.2576497047689
 10
116.2202961949033
 20
-139.2576497047689
 10
116.0721570890375
 20
-139.2576497047689
 10
116.0721570890375
 20
-139.2576497047689
 10
116.0573431784509
 20
-138.9255424999909
 10
115.8943901619986
 20
-138.87903371094
 10
115.7800129918883
 20
-138.8494058897668
 10
115.7800129918883
 20
-138.8494058897668
 10
115.7800129918883
 20
-138.7033338411922
 10
115.7800129918883
 20
-138.7033338411922
 10
115.7800129918883
 20
-138.7033338411922
 10
117.3244492979258
 20
-138.7033338411922
 10
117.3244492979258
 20
-138.7033338411922
 10
117.3244492979258
 20
-138.7033338411922
 10
117.3244492979258
 20
-138.927609557282
 10
117.3244492979258
 20
-138.927609557282
 97
        0
 97
        0
 75
     2
 76
     1
 98
        0
  0
ENDBLK
  5
AE
330
AB
100
AcDbEntity
  8
0
100
AcDbBlockEnd
  0
BLOCK
  5
C8
330
C6
100
AcDbEntity
  8
0
100
AcDbBlockBegin
  2
block 8
 70
     0
 10
0.0
 20
0.0
 30
0.0
  3
block 8
  1

  0
SPLINE
  5
CA
330
C6
100
AcDbEntity
  8
_U+30EC_U+30A4_U+30E4_U+30FC 1
370
     0
100
AcDbSpline
210
0.0
220
0.0
230
1.0
 70
    11
 71
     3
 72
    44
 73
    40
 74
     0
 42
0.0000000001
 43
0.0000000001
 12
1.0
 22
0.0
 32
0.0
 13
1.0
 23
0.0
 33
0.0
 40
0.0
 40
0.0
 40
0.0
 40
0.0
 40
1.0
 40
1.0
 40
1.0
 40
2.0
 40
2.0
 40
2.0
 40
3.0
 40
3.0
 40
3.0
 40
4.0
 40
4.0
 40
4.0
 40
5.0
 40
5.0
 40
5.0
 40
6.0
 40
6.0
 40
6.0
 40
7.0
 40
7.0
 40
7.0
 40
8.0
 40
8.0
 40
8.0
 40
9.0
 40
9.0
 40
9.0
 40
10.0
 40
10.0
 40
10.0
 40
11.0
 40
11.0
 40
11.0
 40
12.0
 40
12.0
 40
12.0
 40
13.0
 40
13.0
 40
13.0
 40
13.0
 10
80.34272730196294
 20
-128.7228922204235
 30
0.0
 10
80.31930065266323
 20
-128.6784504886637
 30
0.0
 10
80.2982855702032
 20
-128.6255682729652
 30
0.0
 10
80.29604625813779
 20
-128.3949191302277
 30
0.0
 10
80.29191214355549
 20
-128.151695388969
 30
0.0
 10
80.2326565012092
 20
-128.0819322053927
 30
0.0
 10
80.0548895741703
 20
-128.0819322053927
 30
0.0
 10
80.0548895741703
 20
-128.0819322053927
 30
0.0
 10
79.64664575916821
 20
-128.0819322053927
 30
0.0
 10
79.64664575916821
 20
-128.0819322053927
 30
0.0
 10
79.64664575916821
 20
-128.0819322053927
 30
0.0
 10
79.64664575916821
 20
-128.7228922204235
 30
0.0
 10
79.64664575916821
 20
-128.7228922204235
 30
0.0
 10
79.64664575916821
 20
-128.7228922204235
 30
0.0
 10
79.41186250184843
 20
-128.7228922204235
 30
0.0
 10
79.41186250184843
 20
-128.7228922204235
 30
0.0
 10
79.41186250184843
 20
-128.7228922204235
 30
0.0
 10
79.41186250184843
 20
-127.1786281691602
 30
0.0
 10
79.41186250184843
 20
-127.1786281691602
 30
0.0
 10
79.41186250184843
 20
-127.1786281691602
 30
0.0
 10
80.08675670740887
 20
-127.1786281691602
 30
0.0
 10
80.08675670740887
 20
-127.1786281691602
 30
0.0
 10
80.3933702055961
 20
-127.1786281691602
 30
0.0
 10
80.56045733663072
 20
-127.3498494147771
 30
0.0
 10
80.56045733663072
 20
-127.6059922641055
 30
0.0
 10
80.56045733663072
 20
-127.6566351677386
 30
0.0
 10
80.55201685269186
 20
-127.7391452046104
 30
0.0
 10
80.50757512093213
 20
-127.8195881841909
 30
0.0
 10
80.4484917333601
 20
-127.923285558297
 30
0.0
 10
80.38286266436609
 20
-127.9422335834658
 30
0.0
 10
80.32153996472864
 20
-127.9591145513436
 30
0.0
 10
80.45899927459011
 20
-128.0014892258121
 30
0.0
 10
80.52669540087527
 20
-128.0502373269284
 30
0.0
 10
80.53100177023184
 20
-128.3652913090545
 30
0.0
 10
80.53513588481414
 20
-128.6360758141952
 30
0.0
 10
80.571137132635
 20
-128.6679429474337
 30
0.0
 10
80.63883325892016
 20
-128.7228922204235
 30
0.0
 10
80.63883325892016
 20
-128.7228922204235
 30
0.0
 10
80.34272730196294
 20
-128.7228922204235
 30
0.0
 10
80.34272730196294
 20
-128.7228922204235
 30
0.0
  0
SPLINE
  5
CB
330
C6
100
AcDbEntity
  8
_U+30EC_U+30A4_U+30E4_U+30FC 1
370
     0
100
AcDbSpline
210
0.0
220
0.0
230
1.0
 70
    11
 71
     3
 72
    20
 73
    16
 74
     0
 42
0.0000000001
 43
0.0000000001
 12
1.0
 22
0.0
 32
0.0
 13
1.0
 23
0.0
 33
0.0
 40
0.0
 40
0.0
 40
0.0
 40
0.0
 40
1.0
 40
1.0
 40
1.0
 40
2.0
 40
2.0
 40
2.0
 40
3.0
 40
3.0
 40
3.0
 40
4.0
 40
4.0
 40
4.0
 40
5.0
 40
5.0
 40
5.0
 40
5.0
 10
80.09089082199117
 20
-127.3901570319545
 30
0.0
 10
80.09089082199117
 20
-127.3901570319545
 30
0.0
 10
79.64664575916821
 20
-127.3901570319545
 30
0.0
 10
79.64664575916821
 20
-127.3901570319545
 30
0.0
 10
79.64664575916821
 20
-127.3901570319545
 30
0.0
 10
79.64664575916821
 20
-127.8704033425984
 30
0.0
 10
79.64664575916821
 20
-127.8704033425984
 30
0.0
 10
79.64664575916821
 20
-127.8704033425984
 30
0.0
 10
80.08882376470002
 20
-127.8704033425984
 30
0.0
 10
80.08882376470002
 20
-127.8704033425984
 30
0.0
 10
80.18821476944947
 20
-127.8704033425984
 30
0.0
 10
80.3236070220198
 20
-127.7942667323744
 30
0.0
 10
80.3236070220198
 20
-127.6228732319832
 30
0.0
 10
80.3236070220198
 20
-127.5444973096937
 30
0.0
 10
80.28967283149008
 20
-127.3901570319545
 30
0.0
 10
80.09089082199117
 20
-127.3901570319545
 30
0.0
  0
HATCH
  5
CC
330
C6
100
AcDbEntity
  8
_U+30EC_U+30A4_U+30E4_U+30FC 1
 62
     7
420
 16777215
100
AcDbHatch
 10
0.0
 20
0.0
 30
0.0
210
0.0
220
0.0
230
1.0
  2
SOLID
 70
     1
 71
     0
 91
        2
 92
        1
 93
        1
 72
     4
 94
        3
 73
     0
 74
     1
 95
       44
 96
       40
 40
0.0
 40
0.0
 40
0.0
 40
0.0
 40
1.0
 40
1.0
 40
1.0
 40
2.0
 40
2.0
 40
2.0
 40
3.0
 40
3.0
 40
3.0
 40
4.0
 40
4.0
 40
4.0
 40
5.0
 40
5.0
 40
5.0
 40
6.0
 40
6.0
 40
6.0
 40
7.0
 40
7.0
 40
7.0
 40
8.0
 40
8.0
 40
8.0
 40
9.0
 40
9.0
 40
9.0
 40
10.0
 40
10.0
 40
10.0
 40
11.0
 40
11.0
 40
11.0
 40
12.0
 40
12.0
 40
12.0
 40
13.0
 40
13.0
 40
13.0
 40
13.0
 10
80.34272730196294
 20
-128.7228922204235
 10
80.31930065266323
 20
-128.6784504886637
 10
80.2982855702032
 20
-128.6255682729652
 10
80.29604625813779
 20
-128.3949191302277
 10
80.29191214355549
 20
-128.151695388969
 10
80.2326565012092
 20
-128.0819322053927
 10
80.0548895741703
 20
-128.0819322053927
 10
80.0548895741703
 20
-128.0819322053927
 10
79.64664575916821
 20
-128.0819322053927
 10
79.64664575916821
 20
-128.0819322053927
 10
79.64664575916821
 20
-128.0819322053927
 10
79.64664575916821
 20
-128.7228922204235
 10
79.64664575916821
 20
-128.7228922204235
 10
79.64664575916821
 20
-128.7228922204235
 10
79.41186250184843
 20
-128.7228922204235
 10
79.41186250184843
 20
-128.7228922204235
 10
79.41186250184843
 20
-128.7228922204235
 10
79.41186250184843
 20
-127.1786281691602
 10
79.41186250184843
 20
-127.1786281691602
 10
79.41186250184843
 20
-127.1786281691602
 10
80.08675670740887
 20
-127.1786281691602
 10
80.08675670740887
 20
-127.1786281691602
 10
80.3933702055961
 20
-127.1786281691602
 10
80.56045733663072
 20
-127.3498494147771
 10
80.56045733663072
 20
-127.6059922641055
 10
80.56045733663072
 20
-127.6566351677386
 10
80.55201685269186
 20
-127.7391452046104
 10
80.50757512093213
 20
-127.8195881841909
 10
80.4484917333601
 20
-127.923285558297
 10
80.38286266436609
 20
-127.9422335834658
 10
80.32153996472864
 20
-127.9591145513436
 10
80.45899927459011
 20
-128.0014892258121
 10
80.52669540087527
 20
-128.0502373269284
 10
80.53100177023184
 20
-128.3652913090545
 10
80.53513588481414
 20
-128.6360758141952
 10
80.571137132635
 20
-128.6679429474337
 10
80.63883325892016
 20
-128.7228922204235
 10
80.63883325892016
 20
-128.7228922204235
 10
80.34272730196294
 20
-128.7228922204235
 10
80.34272730196294
 20
-128.7228922204235
 97
        0
 97
        0
 92
        1
 93
        1
 72
     4
 94
        3
 73
     0
 74
     1
 95
       20
 96
       16
 40
0.0
 40
0.0
 40
0.0
 40
0.0
 40
1.0
 40
1.0
 40
1.0
 40
2.0
 40
2.0
 40
2.0
 40
3.0
 40
3.0
 40
3.0
 40
4.0
 40
4.0
 40
4.0
 40
5.0
 40
5.0
 40
5.0
 40
5.0
 10
80.09089082199117
 20
-127.3901570319545
 10
80.09089082199117
 20
-127.3901570319545
 10
79.64664575916821
 20
-127.3901570319545
 10
79.64664575916821
 20
-127.3901570319545
 10
79.64664575916821
 20
-127.3901570319545
 10
79.64664575916821
 20
-127.8704033425984
 10
79.64664575916821
 20
-127.8704033425984
 10
79.64664575916821
 20
-127.8704033425984
 10
80.08882376470002
 20
-127.8704033425984
 10
80.08882376470002
 20
-127.8704033425984
 10
80.18821476944947
 20
-127.8704033425984
 10
80.3236070220198
 20
-127.7942667323744
 10
80.3236070220198
 20
-127.6228732319832
 10
80.3236070220198
 20
-127.5444973096937
 10
80.28967283149008
 20
-127.3901570319545
 10
80.09089082199117
 20
-127.3901570319545
 97
        0
 97
        0
 75
     2
 76
     1
 98
        0
  0
SPLINE
  5
CD
330
C6
100
AcDbEntity
  8
_U+30EC_U+30A4_U+30E4_U+30FC 1
370
     0
100
AcDbSpline
210
0.0
220
0.0
230
1.0
 70
    11
 71
     3
 72
    44
 73
    40
 74
     0
 42
0.0000000001
 43
0.0000000001
 12
1.0
 22
0.0
 32
0.0
 13
1.0
 23
0.0
 33
0.0
 40
0.0
 40
0.0
 40
0.0
 40
0.0
 40
1.0
 40
1.0
 40
1.0
 40
2.0
 40
2.0
 40
2.0
 40
3.0
 40
3.0
 40
3.0
 40
4.0
 40
4.0
 40
4.0
 40
5.0
 40
5.0
 40
5.0
 40
6.0
 40
6.0
 40
6.0
 40
7.0
 40
7.0
 40
7.0
 40
8.0
 40
8.0
 40
8.0
 40
9.0
 40
9.0
 40
9.0
 40
10.0
 40
10.0
 40
10.0
 40
11.0
 40
11.0
 40
11.0
 40
12.0
 40
12.0
 40
12.0
 40
13.0
 40
13.0
 40
13.0
 40
13.0
 10
81.3716050686328
 20
-128.141187847739
 30
0.0
 10
81.15370277919074
 20
-128.2998344948348
 30
0.0
 10
81.06051294631473
 20
-128.3739040477676
 30
0.0
 10
81.01193709997271
 20
-128.5177367842768
 30
0.0
 10
81.01193709997271
 20
-128.5177367842768
 30
0.0
 10
81.79035642486491
 20
-128.5177367842768
 30
0.0
 10
81.79035642486491
 20
-128.5177367842768
 30
0.0
 10
81.79035642486491
 20
-128.5177367842768
 30
0.0
 10
81.79035642486491
 20
-128.7228922204235
 30
0.0
 10
81.79035642486491
 20
-128.7228922204235
 30
0.0
 10
81.79035642486491
 20
-128.7228922204235
 30
0.0
 10
80.76233993206637
 20
-128.7228922204235
 30
0.0
 10
80.76233993206637
 20
-128.7228922204235
 30
0.0
 10
80.79403481053066
 20
-128.3652913090545
 30
0.0
 10
80.8594916247504
 20
-128.2870876415394
 30
0.0
 10
81.24465330000135
 20
-127.9887423725167
 30
0.0
 10
81.5006238945554
 20
-127.7899603630178
 30
0.0
 10
81.56608070877515
 20
-127.7222642367326
 30
0.0
 10
81.56608070877515
 20
-127.5848049268712
 30
0.0
 10
81.56608070877515
 20
-127.4662936421786
 30
0.0
 10
81.49425046790769
 20
-127.3352077589648
 30
0.0
 10
81.29753551569992
 20
-127.3352077589648
 30
0.0
 10
81.03725855178931
 20
-127.3352077589648
 30
0.0
 10
81.02881806785044
 20
-127.565684646928
 30
0.0
 10
81.02451169849388
 20
-127.6821288743295
 30
0.0
 10
81.02451169849388
 20
-127.6821288743295
 30
0.0
 10
80.80040823717837
 20
-127.6821288743295
 30
0.0
 10
80.80040823717837
 20
-127.6821288743295
 30
0.0
 10
80.80884872111723
 20
-127.555177105698
 30
0.0
 10
80.81935626234724
 20
-127.4430392476531
 30
0.0
 10
80.89979924192784
 20
-127.3245279629605
 30
0.0
 10
81.0096977879073
 20
-127.1638142585736
 30
0.0
 10
81.19590519888506
 20
-127.1298800680439
 30
0.0
 10
81.3123494262865
 20
-127.1298800680439
 30
0.0
 10
81.58950735807485
 20
-127.1298800680439
 30
0.0
 10
81.79672985151262
 20
-127.3140204217305
 30
0.0
 10
81.79672985151262
 20
-127.5868719841623
 30
0.0
 10
81.79672985151262
 20
-127.8152818148344
 30
0.0
 10
81.68045787888545
 20
-127.9148450743581
 30
0.0
 10
81.3716050686328
 20
-128.141187847739
 30
0.0
  0
HATCH
  5
CE
330
C6
100
AcDbEntity
  8
_U+30EC_U+30A4_U+30E4_U+30FC 1
 62
     7
420
 16777215
100
AcDbHatch
 10
0.0
 20
0.0
 30
0.0
210
0.0
220
0.0
230
1.0
  2
SOLID
 70
     1
 71
     0
 91
        1
 92
        1
 93
        1
 72
     4
 94
        3
 73
     0
 74
     1
 95
       44
 96
       40
 40
0.0
 40
0.0
 40
0.0
 40
0.0
 40
1.0
 40
1.0
 40
1.0
 40
2.0
 40
2.0
 40
2.0
 40
3.0
 40
3.0
 40
3.0
 40
4.0
 40
4.0
 40
4.0
 40
5.0
 40
5.0
 40
5.0
 40
6.0
 40
6.0
 40
6.0
 40
7.0
 40
7.0
 40
7.0
 40
8.0
 40
8.0
 40
8.0
 40
9.0
 40
9.0
 40
9.0
 40
10.0
 40
10.0
 40
10.0
 40
11.0
 40
11.0
 40
11.0
 40
12.0
 40
12.0
 40
12.0
 40
13.0
 40
13.0
 40
13.0
 40
13.0
 10
81.3716050686328
 20
-128.141187847739
 10
81.15370277919074
 20
-128.2998344948348
 10
81.06051294631473
 20
-128.3739040477676
 10
81.01193709997271
 20
-128.5177367842768
 10
81.01193709997271
 20
-128.5177367842768
 10
81.79035642486491
 20
-128.5177367842768
 10
81.79035642486491
 20
-128.5177367842768
 10
81.79035642486491
 20
-128.5177367842768
 10
81.79035642486491
 20
-128.7228922204235
 10
81.79035642486491
 20
-128.7228922204235
 10
81.79035642486491
 20
-128.7228922204235
 10
80.76233993206637
 20
-128.7228922204235
 10
80.76233993206637
 20
-128.7228922204235
 10
80.79403481053066
 20
-128.3652913090545
 10
80.8594916247504
 20
-128.2870876415394
 10
81.24465330000135
 20
-127.9887423725167
 10
81.5006238945554
 20
-127.7899603630178
 10
81.56608070877515
 20
-127.7222642367326
 10
81.56608070877515
 20
-127.5848049268712
 10
81.56608070877515
 20
-127.4662936421786
 10
81.49425046790769
 20
-127.3352077589648
 10
81.29753551569992
 20
-127.3352077589648
 10
81.03725855178931
 20
-127.3352077589648
 10
81.02881806785044
 20
-127.565684646928
 10
81.02451169849388
 20
-127.6821288743295
 10
81.02451169849388
 20
-127.6821288743295
 10
80.80040823717837
 20
-127.6821288743295
 10
80.80040823717837
 20
-127.6821288743295
 10
80.80884872111723
 20
-127.555177105698
 10
80.81935626234724
 20
-127.4430392476531
 10
80.89979924192784
 20
-127.3245279629605
 10
81.0096977879073
 20
-127.1638142585736
 10
81.19590519888506
 20
-127.1298800680439
 10
81.3123494262865
 20
-127.1298800680439
 10
81.58950735807485
 20
-127.1298800680439
 10
81.79672985151262
 20
-127.3140204217305
 10
81.79672985151262
 20
-127.5868719841623
 10
81.79672985151262
 20
-127.8152818148344
 10
81.68045787888545
 20
-127.9148450743581
 10
81.3716050686328
 20
-128.141187847739
 97
        0
 97
        0
 75
     2
 76
     1
 98
        0
  0
SPLINE
  5
CF
330
C6
100
AcDbEntity
  8
_U+30EC_U+30A4_U+30E4_U+30FC 1
370
     0
100
AcDbSpline
210
0.0
220
0.0
230
1.0
 70
    11
 71
     3
 72
    53
 73
    49
 74
     0
 42
0.0000000001
 43
0.0000000001
 12
1.0
 22
0.0
 32
0.0
 13
1.0
 23
0.0
 33
0.0
 40
0.0
 40
0.0
 40
0.0
 40
0.0
 40
1.0
 40
1.0
 40
1.0
 40
2.0
 40
2.0
 40
2.0
 40
3.0
 40
3.0
 40
3.0
 40
4.0
 40
4.0
 40
4.0
 40
5.0
 40
5.0
 40
5.0
 40
6.0
 40
6.0
 40
6.0
 40
7.0
 40
7.0
 40
7.0
 40
8.0
 40
8.0
 40
8.0
 40
9.0
 40
9.0
 40
9.0
 40
10.0
 40
10.0
 40
10.0
 40
11.0
 40
11.0
 40
11.0
 40
12.0
 40
12.0
 40
12.0
 40
13.0
 40
13.0
 40
13.0
 40
14.0
 40
14.0
 40
14.0
 40
15.0
 40
15.0
 40
15.0
 40
16.0
 40
16.0
 40
16.0
 40
16.0
 10
82.43631182834926
 20
-128.7735351240566
 30
0.0
 10
82.35793590605982
 20
-128.7735351240566
 30
0.0
 10
82.25647784401922
 20
-128.7566541561789
 30
0.0
 10
82.15484752720435
 20
-128.6932643992503
 30
0.0
 10
81.98138696952202
 20
-128.5831935984966
 30
0.0
 10
81.96019963228773
 20
-128.4521077152828
 30
0.0
 10
81.94125160711886
 20
-128.3442762265945
 30
0.0
 10
81.94125160711886
 20
-128.3442762265945
 30
0.0
 10
82.16328801114321
 20
-128.3442762265945
 30
0.0
 10
82.16328801114321
 20
-128.3442762265945
 30
0.0
 10
82.21840953890721
 20
-128.5430582360934
 30
0.0
 10
82.34536130753867
 20
-128.5726860572666
 30
0.0
 10
82.4383788856404
 20
-128.5726860572666
 30
0.0
 10
82.57790525279303
 20
-128.5726860572666
 30
0.0
 10
82.73035072801534
 20
-128.4732950525171
 30
0.0
 10
82.73035072801534
 20
-128.2405788524885
 30
0.0
 10
82.73035072801534
 20
-127.9846082579344
 30
0.0
 10
82.5505167436853
 20
-127.9148450743581
 30
0.0
 10
82.42993840170155
 20
-127.9148450743581
 30
0.0
 10
82.39824352323726
 20
-127.9148450743581
 30
0.0
 10
82.25647784401922
 20
-127.9148450743581
 30
0.0
 10
82.16759438049978
 20
-128.0438639002807
 30
0.0
 10
82.16759438049978
 20
-128.0438639002807
 30
0.0
 10
81.99206676552629
 20
-128.0247436203376
 30
0.0
 10
81.99206676552629
 20
-128.0247436203376
 30
0.0
 10
81.99206676552629
 20
-128.0247436203376
 30
0.0
 10
82.11264510751003
 20
-127.1786281691602
 30
0.0
 10
82.11264510751003
 20
-127.1786281691602
 30
0.0
 10
82.11264510751003
 20
-127.1786281691602
 30
0.0
 10
82.89106443240223
 20
-127.1786281691602
 30
0.0
 10
82.89106443240223
 20
-127.1786281691602
 30
0.0
 10
82.89106443240223
 20
-127.1786281691602
 30
0.0
 10
82.89106443240223
 20
-127.3732760640768
 30
0.0
 10
82.89106443240223
 20
-127.3732760640768
 30
0.0
 10
82.89106443240223
 20
-127.3732760640768
 30
0.0
 10
82.2754258691881
 20
-127.3732760640768
 30
0.0
 10
82.2754258691881
 20
-127.3732760640768
 30
0.0
 10
82.2754258691881
 20
-127.3732760640768
 30
0.0
 10
82.20996905496834
 20
-127.7963337896655
 30
0.0
 10
82.20996905496834
 20
-127.7963337896655
 30
0.0
 10
82.2712917546058
 20
-127.7623995991358
 30
0.0
 10
82.35380179147752
 20
-127.7222642367326
 30
0.0
 10
82.47214082139585
 20
-127.7222642367326
 30
0.0
 10
82.72604435865877
 20
-127.7222642367326
 30
0.0
 10
82.96306692804396
 20
-127.9084716477104
 30
0.0
 10
82.96306692804396
 20
-128.2214585725453
 30
0.0
 10
82.96306692804396
 20
-128.5389241215111
 30
0.0
 10
82.7387912119542
 20
-128.7735351240566
 30
0.0
 10
82.43631182834926
 20
-128.7735351240566
 30
0.0
  0
HATCH
  5
D0
330
C6
100
AcDbEntity
  8
_U+30EC_U+30A4_U+30E4_U+30FC 1
 62
     7
420
 16777215
100
AcDbHatch
 10
0.0
 20
0.0
 30
0.0
210
0.0
220
0.0
230
1.0
  2
SOLID
 70
     1
 71
     0
 91
        1
 92
        1
 93
        1
 72
     4
 94
        3
 73
     0
 74
     1
 95
       53
 96
       49
 40
0.0
 40
0.0
 40
0.0
 40
0.0
 40
1.0
 40
1.0
 40
1.0
 40
2.0
 40
2.0
 40
2.0
 40
3.0
 40
3.0
 40
3.0
 40
4.0
 40
4.0
 40
4.0
 40
5.0
 40
5.0
 40
5.0
 40
6.0
 40
6.0
 40
6.0
 40
7.0
 40
7.0
 40
7.0
 40
8.0
 40
8.0
 40
8.0
 40
9.0
 40
9.0
 40
9.0
 40
10.0
 40
10.0
 40
10.0
 40
11.0
 40
11.0
 40
11.0
 40
12.0
 40
12.0
 40
12.0
 40
13.0
 40
13.0
 40
13.0
 40
14.0
 40
14.0
 40
14.0
 40
15.0
 40
15.0
 40
15.0
 40
16.0
 40
16.0
 40
16.0
 40
16.0
 10
82.43631182834926
 20
-128.7735351240566
 10
82.35793590605982
 20
-128.7735351240566
 10
82.25647784401922
 20
-128.7566541561789
 10
82.15484752720435
 20
-128.6932643992503
 10
81.98138696952202
 20
-128.5831935984966
 10
81.96019963228773
 20
-128.4521077152828
 10
81.94125160711886
 20
-128.3442762265945
 10
81.94125160711886
 20
-128.3442762265945
 10
82.16328801114321
 20
-128.3442762265945
 10
82.16328801114321
 20
-128.3442762265945
 10
82.21840953890721
 20
-128.5430582360934
 10
82.34536130753867
 20
-128.5726860572666
 10
82.4383788856404
 20
-128.5726860572666
 10
82.57790525279303
 20
-128.5726860572666
 10
82.73035072801534
 20
-128.4732950525171
 10
82.73035072801534
 20
-128.2405788524885
 10
82.73035072801534
 20
-127.9846082579344
 10
82.5505167436853
 20
-127.9148450743581
 10
82.42993840170155
 20
-127.9148450743581
 10
82.39824352323726
 20
-127.9148450743581
 10
82.25647784401922
 20
-127.9148450743581
 10
82.16759438049978
 20
-128.0438639002807
 10
82.16759438049978
 20
-128.0438639002807
 10
81.99206676552629
 20
-128.0247436203376
 10
81.99206676552629
 20
-128.0247436203376
 10
81.99206676552629
 20
-128.0247436203376
 10
82.11264510751003
 20
-127.1786281691602
 10
82.11264510751003
 20
-127.1786281691602
 10
82.11264510751003
 20
-127.1786281691602
 10
82.89106443240223
 20
-127.1786281691602
 10
82.89106443240223
 20
-127.1786281691602
 10
82.89106443240223
 20
-127.1786281691602
 10
82.89106443240223
 20
-127.3732760640768
 10
82.89106443240223
 20
-127.3732760640768
 10
82.89106443240223
 20
-127.3732760640768
 10
82.2754258691881
 20
-127.3732760640768
 10
82.2754258691881
 20
-127.3732760640768
 10
82.2754258691881
 20
-127.3732760640768
 10
82.20996905496834
 20
-127.7963337896655
 10
82.20996905496834
 20
-127.7963337896655
 10
82.2712917546058
 20
-127.7623995991358
 10
82.35380179147752
 20
-127.7222642367326
 10
82.47214082139585
 20
-127.7222642367326
 10
82.72604435865877
 20
-127.7222642367326
 10
82.96306692804396
 20
-127.9084716477104
 10
82.96306692804396
 20
-128.2214585725453
 10
82.96306692804396
 20
-128.5389241215111
 10
82.7387912119542
 20
-128.7735351240566
 10
82.43631182834926
 20
-128.7735351240566
 97
        0
 97
        0
 75
     2
 76
     1
 98
        0
  0
ENDBLK
  5
C9
330
C6
100
AcDbEntity
  8
0
100
AcDbBlockEnd
  0
ENDSEC
  0
SECTION
  2
ENTITIES
  0
SPLINE
  5
41
330
1F
100
AcDbEntity
  8
_U+30EC_U+30A4_U+30E4_U+30FC 1
 62
     7
420
 16777215
370
    25
100
AcDbSpline
210
0.0
220
0.0
230
1.0
 70
    11
 71
     3
 72
    53
 73
    49
 74
     0
 42
0.0000000001
 43
0.0000000001
 12
1.0
 22
0.0
 32
0.0
 13
1.0
 23
0.0
 33
0.0
 40
0.0
 40
0.0
 40
0.0
 40
0.0
 40
1.0
 40
1.0
 40
1.0
 40
2.0
 40
2.0
 40
2.0
 40
3.0
 40
3.0
 40
3.0
 40
4.0
 40
4.0
 40
4.0
 40
5.0
 40
5.0
 40
5.0
 40
6.0
 40
6.0
 40
6.0
 40
7.0
 40
7.0
 40
7.0
 40
8.0
 40
8.0
 40
8.0
 40
9.0
 40
9.0
 40
9.0
 40
10.0
 40
10.0
 40
10.0
 40
11.0
 40
11.0
 40
11.0
 40
12.0
 40
12.0
 40
12.0
 40
13.0
 40
13.0
 40
13.0
 40
14.0
 40
14.0
 40
14.0
 40
15.0
 40
15.0
 40
15.0
 40
16.0
 40
16.0
 40
16.0
 40
16.0
 10
93.85162177231231
 20
-147.3522438520507
 30
0.0
 10
80.04453490233823
 20
-147.3522438520507
 30
0.0
 10
68.85160185456041
 20
-136.1594869104048
 30
0.0
 10
68.85160185456041
 20
-122.3522233027454
 30
0.0
 10
68.85160185456041
 20
-122.3522233027454
 30
0.0
 10
68.84987498278753
 20
-117.3523391373285
 30
0.0
 10
68.84987498278753
 20
-117.3523391373285
 30
0.0
 10
68.84987498278753
 20
-117.3523391373285
 30
0.0
 10
75.34959196656065
 20
-117.6344908039249
 30
0.0
 10
75.34959196656065
 20
-117.6344908039249
 30
0.0
 10
75.34959196656065
 20
-117.6344908039249
 30
0.0
 10
75.34959196656065
 20
-102.3520516410787
 30
0.0
 10
75.34959196656065
 20
-102.3520516410787
 30
0.0
 10
75.34959196656065
 20
-102.3520516410787
 30
0.0
 10
76.34968166326846
 20
-102.3520516410787
 30
0.0
 10
76.34968166326846
 20
-102.3520516410787
 30
0.0
 10
76.34968166326846
 20
-102.3520516410787
 30
0.0
 10
76.34968166326846
 20
-118.6346158036745
 30
0.0
 10
76.34968166326846
 20
-118.6346158036745
 30
0.0
 10
76.34968166326846
 20
-118.6346158036745
 30
0.0
 10
69.8499999825375
 20
-118.3524641370785
 30
0.0
 10
69.8499999825375
 20
-118.3524641370785
 30
0.0
 10
69.8499999825375
 20
-118.3524641370785
 30
0.0
 10
69.85155044016071
 20
-122.3522233027454
 30
0.0
 10
69.85155044016071
 20
-122.3522233027454
 30
0.0
 10
69.85155044016071
 20
-135.6072132994315
 30
0.0
 10
80.59680849935967
 20
-146.3521188523011
 30
0.0
 10
93.85162177231231
 20
-146.3521188523011
 30
0.0
 10
93.85162177231231
 20
-146.3521188523011
 30
0.0
 10
97.85071055917595
 20
-146.3521188523011
 30
0.0
 10
97.85071055917595
 20
-146.3521188523011
 30
0.0
 10
97.85071055917595
 20
-146.3521188523011
 30
0.0
 10
97.56855889970758
 20
-139.8522588539258
 30
0.0
 10
97.56855889970758
 20
-139.8522588539258
 30
0.0
 10
97.56855889970758
 20
-139.8522588539258
 30
0.0
 10
113.8507698732027
 20
-139.8522588539258
 30
0.0
 10
113.8507698732027
 20
-139.8522588539258
 30
0.0
 10
113.8507698732027
 20
-139.8522588539258
 30
0.0
 10
113.8507698732027
 20
-140.8523838536761
 30
0.0
 10
113.8507698732027
 20
-140.8523838536761
 30
0.0
 10
113.8507698732027
 20
-140.8523838536761
 30
0.0
 10
98.56833109642348
 20
-140.8523838536761
 30
0.0
 10
98.56833109642348
 20
-140.8523838536761
 30
0.0
 10
98.56833109642348
 20
-140.8523838536761
 30
0.0
 10
98.85048275589186
 20
-147.3522438520507
 30
0.0
 10
98.85048275589186
 20
-147.3522438520507
 30
0.0
 10
98.85048275589186
 20
-147.3522438520507
 30
0.0
 10
93.85162177231231
 20
-147.3522438520507
 30
0.0
 10
93.85162177231231
 20
-147.3522438520507
 30
0.0
  0
HATCH
  5
42
330
1F
100
AcDbEntity
  8
_U+30EC_U+30A4_U+30E4_U+30FC 1
 62
   253
420
 11711154
100
AcDbHatch
 10
0.0
 20
0.0
 30
0.0
210
0.0
220
0.0
230
1.0
  2
SOLID
 70
     1
 71
     0
 91
        1
 92
        1
 93
        1
 72
     4
 94
        3
 73
     0
 74
     1
 95
       53
 96
       49
 40
0.0
 40
0.0
 40
0.0
 40
0.0
 40
1.0
 40
1.0
 40
1.0
 40
2.0
 40
2.0
 40
2.0
 40
3.0
 40
3.0
 40
3.0
 40
4.0
 40
4.0
 40
4.0
 40
5.0
 40
5.0
 40
5.0
 40
6.0
 40
6.0
 40
6.0
 40
7.0
 40
7.0
 40
7.0
 40
8.0
 40
8.0
 40
8.0
 40
9.0
 40
9.0
 40
9.0
 40
10.0
 40
10.0
 40
10.0
 40
11.0
 40
11.0
 40
11.0
 40
12.0
 40
12.0
 40
12.0
 40
13.0
 40
13.0
 40
13.0
 40
14.0
 40
14.0
 40
14.0
 40
15.0
 40
15.0
 40
15.0
 40
16.0
 40
16.0
 40
16.0
 40
16.0
 10
93.85162177231231
 20
-147.3522438520507
 10
80.04453490233823
 20
-147.3522438520507
 10
68.85160185456041
 20
-136.1594869104048
 10
68.85160185456041
 20
-122.3522233027454
 10
68.85160185456041
 20
-122.3522233027454
 10
68.84987498278753
 20
-117.3523391373285
 10
68.84987498278753
 20
-117.3523391373285
 10
68.84987498278753
 20
-117.3523391373285
 10
75.34959196656065
 20
-117.6344908039249
 10
75.34959196656065
 20
-117.6344908039249
 10
75.34959196656065
 20
-117.6344908039249
 10
75.34959196656065
 20
-102.3520516410787
 10
75.34959196656065
 20
-102.3520516410787
 10
75.34959196656065
 20
-102.3520516410787
 10
76.34968166326846
 20
-102.3520516410787
 10
76.34968166326846
 20
-102.3520516410787
 10
76.34968166326846
 20
-102.3520516410787
 10
76.34968166326846
 20
-118.6346158036745
 10
76.34968166326846
 20
-118.6346158036745
 10
76.34968166326846
 20
-118.6346158036745
 10
69.8499999825375
 20
-118.3524641370785
 10
69.8499999825375
 20
-118.3524641370785
 10
69.8499999825375
 20
-118.3524641370785
 10
69.85155044016071
 20
-122.3522233027454
 10
69.85155044016071
 20
-122.3522233027454
 10
69.85155044016071
 20
-135.6072132994315
 10
80.59680849935967
 20
-146.3521188523011
 10
93.85162177231231
 20
-146.3521188523011
 10
93.85162177231231
 20
-146.3521188523011
 10
97.85071055917595
 20
-146.3521188523011
 10
97.85071055917595
 20
-146.3521188523011
 10
97.85071055917595
 20
-146.3521188523011
 10
97.56855889970758
 20
-139.8522588539258
 10
97.56855889970758
 20
-139.8522588539258
 10
97.56855889970758
 20
-139.8522588539258
 10
113.8507698732027
 20
-139.8522588539258
 10
113.8507698732027
 20
-139.8522588539258
 10
113.8507698732027
 20
-139.8522588539258
 10
113.8507698732027
 20
-140.8523838536761
 10
113.8507698732027
 20
-140.8523838536761
 10
113.8507698732027
 20
-140.8523838536761
 10
98.56833109642348
 20
-140.8523838536761
 10
98.56833109642348
 20
-140.8523838536761
 10
98.56833109642348
 20
-140.8523838536761
 10
98.85048275589186
 20
-147.3522438520507
 10
98.85048275589186
 20
-147.3522438520507
 10
98.85048275589186
 20
-147.3522438520507
 10
93.85162177231231
 20
-147.3522438520507
 10
93.85162177231231
 20
-147.3522438520507
 97
        0
 97
        0
 75
     2
 76
     1
 98
        0
  0
POLYLINE
  5
43
330
1F
100
AcDbEntity
  8
_U+30EC_U+30A4_U+30E4_U+30FC 1
 62
     7
420
 16777215
370
     9
100
AcDb2dPolyline
 66
     1
 10
0.0
 20
0.0
 30
0.0
  0
VERTEX
  5
44
330
43
100
AcDbEntity
  8
_U+30EC_U+30A4_U+30E4_U+30FC 1
 62
     7
420
 16777215
370
     9
100
AcDbVertex
100
AcDb2dVertex
 10
68.84987498278753
 20
-152.2243166286108
 30
0.0
  0
VERTEX
  5
45
330
43
100
AcDbEntity
  8
_U+30EC_U+30A4_U+30E4_U+30FC 1
 62
     7
420
 16777215
370
     9
100
AcDbVertex
100
AcDb2dVertex
 10
98.84977720035431
 20
-152.2243166286108
 30
0.0
  0
SEQEND
  5
46
330
43
100
AcDbEntity
  8
_U+30EC_U+30A4_U+30E4_U+30FC 1
 62
     7
420
 16777215
370
     9
  0
POLYLINE
  5
47
330
1F
100
AcDbEntity
  8
_U+30EC_U+30A4_U+30E4_U+30FC 1
 62
     7
420
 16777215
370
     9
100
AcDb2dPolyline
 66
     1
 10
0.0
 20
0.0
 30
0.0
  0
VERTEX
  5
48
330
47
100
AcDbEntity
  8
_U+30EC_U+30A4_U+30E4_U+30FC 1
 62
     7
420
 16777215
370
     9
100
AcDbVertex
100
AcDb2dVertex
 10
68.84987498278753
 20
-154.3740385725175
 30
0.0
  0
VERTEX
  5
49
330
47
100
AcDbEntity
  8
_U+30EC_U+30A4_U+30E4_U+30FC 1
 62
     7
420
 16777215
370
     9
100
AcDbVertex
100
AcDb2dVertex
 10
68.84987498278753
 20
-128.0524771902091
 30
0.0
  0
SEQEND
  5
4A
330
47
100
AcDbEntity
  8
_U+30EC_U+30A4_U+30E4_U+30FC 1
 62
     7
420
 16777215
370
     9
  0
INSERT
  5
4C
330
1F
100
AcDbEntity
  8
_U+30EC_U+30A4_U+30E4_U+30FC 1
100
AcDbBlockReference
  2
block 2
 10
0.0
 20
0.0
 30
0.0
  0
POLYLINE
  5
53
330
1F
100
AcDbEntity
  8
_U+30EC_U+30A4_U+30E4_U+30FC 1
 62
     7
420
 16777215
370
     9
100
AcDb2dPolyline
 66
     1
 10
0.0
 20
0.0
 30
0.0
  0
VERTEX
  5
54
330
53
100
AcDbEntity
  8
_U+30EC_U+30A4_U+30E4_U+30FC 1
 62
     7
420
 16777215
370
     9
100
AcDbVertex
100
AcDb2dVertex
 10
93.8499284390222
 20
-154.1645944059034
 30
0.0
  0
VERTEX
  5
55
330
53
100
AcDbEntity
  8
_U+30EC_U+30A4_U+30E4_U+30FC 1
 62
     7
420
 16777215
370
     9
100
AcDbVertex
100
AcDb2dVertex
 10
93.8499284390222
 20
-151.1818230177599
 30
0.0
  0
SEQEND
  5
56
330
53
100
AcDbEntity
  8
_U+30EC_U+30A4_U+30E4_U+30FC 1
 62
     7
420
 16777215
370
     9
  0
POLYLINE
  5
57
330
1F
100
AcDbEntity
  8
_U+30EC_U+30A4_U+30E4_U+30FC 1
 62
     7
420
 16777215
370
     9
100
AcDb2dPolyline
 66
     1
 10
0.0
 20
0.0
 30
0.0
  0
VERTEX
  5
58
330
57
100
AcDbEntity
  8
_U+30EC_U+30A4_U+30E4_U+30FC 1
 62
     7
420
 16777215
370
     9
100
AcDbVertex
100
AcDb2dVertex
 10
98.85048275589186
 20
-154.1645944059034
 30
0.0
  0
VERTEX
  5
59
330
57
100
AcDbEntity
  8
_U+30EC_U+30A4_U+30E4_U+30FC 1
 62
     7
420
 16777215
370
     9
100
AcDbVertex
100
AcDb2dVertex
 10
98.85048275589186
 20
-151.1818230177599
 30
0.0
  0
SEQEND
  5
5A
330
57
100
AcDbEntity
  8
_U+30EC_U+30A4_U+30E4_U+30FC 1
 62
     7
420
 16777215
370
     9
  0
INSERT
  5
5C
330
1F
100
AcDbEntity
  8
_U+30EC_U+30A4_U+30E4_U+30FC 1
100
AcDbBlockReference
  2
block 3
 10
0.0
 20
0.0
 30
0.0
  0
POLYLINE
  5
61
330
1F
100
AcDbEntity
  8
_U+30EC_U+30A4_U+30E4_U+30FC 1
 62
     7
420
 16777215
370
     9
100
AcDb2dPolyline
 66
     1
 10
0.0
 20
0.0
 30
0.0
  0
VERTEX
  5
62
330
61
100
AcDbEntity
  8
_U+30EC_U+30A4_U+30E4_U+30FC 1
 62
     7
420
 16777215
370
     9
100
AcDbVertex
100
AcDb2dVertex
 10
64.82894751274243
 20
-117.2018088595884
 30
0.0
  0
VERTEX
  5
63
330
61
100
AcDbEntity
  8
_U+30EC_U+30A4_U+30E4_U+30FC 1
 62
     7
420
 16777215
370
     9
100
AcDbVertex
100
AcDb2dVertex
 10
64.82894751274243
 20
-102.5143294188159
 30
0.0
  0
SEQEND
  5
64
330
61
100
AcDbEntity
  8
_U+30EC_U+30A4_U+30E4_U+30FC 1
 62
     7
420
 16777215
370
     9
  0
POLYLINE
  5
65
330
1F
100
AcDbEntity
  8
_U+30EC_U+30A4_U+30E4_U+30FC 1
 62
     7
420
 16777215
370
     9
100
AcDb2dPolyline
 66
     1
 10
0.0
 20
0.0
 30
0.0
  0
VERTEX
  5
66
330
65
100
AcDbEntity
  8
_U+30EC_U+30A4_U+30E4_U+30FC 1
 62
     7
420
 16777215
370
     9
100
AcDbVertex
100
AcDb2dVertex
 10
64.82894751274243
 20
-147.3522438520507
 30
0.0
  0
VERTEX
  5
67
330
65
100
AcDbEntity
  8
_U+30EC_U+30A4_U+30E4_U+30FC 1
 62
     7
420
 16777215
370
     9
100
AcDbVertex
100
AcDb2dVertex
 10
64.82894751274243
 20
-117.2018088595884
 30
0.0
  0
SEQEND
  5
68
330
65
100
AcDbEntity
  8
_U+30EC_U+30A4_U+30E4_U+30FC 1
 62
     7
420
 16777215
370
     9
  0
POLYLINE
  5
69
330
1F
100
AcDbEntity
  8
_U+30EC_U+30A4_U+30E4_U+30FC 1
 62
     7
420
 16777215
370
     9
100
AcDb2dPolyline
 66
     1
 10
0.0
 20
0.0
 30
0.0
  0
VERTEX
  5
6A
330
69
100
AcDbEntity
  8
_U+30EC_U+30A4_U+30E4_U+30FC 1
 62
     7
420
 16777215
370
     9
100
AcDbVertex
100
AcDb2dVertex
 10
88.22802663800441
 20
-147.3522438520507
 30
0.0
  0
VERTEX
  5
6B
330
69
100
AcDbEntity
  8
_U+30EC_U+30A4_U+30E4_U+30FC 1
 62
     7
420
 16777215
370
     9
100
AcDbVertex
100
AcDb2dVertex
 10
63.3565236614182
 20
-147.3522438520507
 30
0.0
  0
SEQEND
  5
6C
330
69
100
AcDbEntity
  8
_U+30EC_U+30A4_U+30E4_U+30FC 1
 62
     7
420
 16777215
370
     9
  0
POLYLINE
  5
6D
330
1F
100
AcDbEntity
  8
_U+30EC_U+30A4_U+30E4_U+30FC 1
 62
     7
420
 16777215
370
     9
100
AcDb2dPolyline
 66
     1
 10
0.0
 20
0.0
 30
0.0
  0
VERTEX
  5
6E
330
6D
100
AcDbEntity
  8
_U+30EC_U+30A4_U+30E4_U+30FC 1
 62
     7
420
 16777215
370
     9
100
AcDbVertex
100
AcDb2dVertex
 10
68.23960298128492
 20
-117.3523391373285
 30
0.0
  0
VERTEX
  5
6F
330
6D
100
AcDbEntity
  8
_U+30EC_U+30A4_U+30E4_U+30FC 1
 62
     7
420
 16777215
370
     9
100
AcDbVertex
100
AcDb2dVertex
 10
63.23488588674366
 20
-117.3523391373285
 30
0.0
  0
SEQEND
  5
70
330
6D
100
AcDbEntity
  8
_U+30EC_U+30A4_U+30E4_U+30FC 1
 62
     7
420
 16777215
370
     9
  0
POLYLINE
  5
71
330
1F
100
AcDbEntity
  8
_U+30EC_U+30A4_U+30E4_U+30FC 1
 62
     7
420
 16777215
370
     9
100
AcDb2dPolyline
 66
     1
 10
0.0
 20
0.0
 30
0.0
  0
VERTEX
  5
72
330
71
100
AcDbEntity
  8
_U+30EC_U+30A4_U+30E4_U+30FC 1
 62
     7
420
 16777215
370
     9
100
AcDbVertex
100
AcDb2dVertex
 10
74.1032986650229
 20
-102.3520516410787
 30
0.0
  0
VERTEX
  5
73
330
71
100
AcDbEntity
  8
_U+30EC_U+30A4_U+30E4_U+30FC 1
 62
     7
420
 16777215
370
     9
100
AcDbVertex
100
AcDb2dVertex
 10
63.23488588674366
 20
-102.3520516410787
 30
0.0
  0
SEQEND
  5
74
330
71
100
AcDbEntity
  8
_U+30EC_U+30A4_U+30E4_U+30FC 1
 62
     7
420
 16777215
370
     9
  0
INSERT
  5
76
330
1F
100
AcDbEntity
  8
_U+30EC_U+30A4_U+30E4_U+30FC 1
100
AcDbBlockReference
  2
block 4
 10
0.0
 20
0.0
 30
0.0
  0
INSERT
  5
7F
330
1F
100
AcDbEntity
  8
_U+30EC_U+30A4_U+30E4_U+30FC 1
100
AcDbBlockReference
  2
block 5
 10
0.0
 20
0.0
 30
0.0
  0
POLYLINE
  5
86
330
1F
100
AcDbEntity
  8
_U+30EC_U+30A4_U+30E4_U+30FC 1
 62
     7
420
 16777215
370
     9
100
AcDb2dPolyline
 66
     1
 10
0.0
 20
0.0
 30
0.0
  0
VERTEX
  5
87
330
86
100
AcDbEntity
  8
_U+30EC_U+30A4_U+30E4_U+30FC 1
 62
     7
420
 16777215
370
     9
100
AcDbVertex
100
AcDb2dVertex
 10
118.067557821179
 20
-140.8396485759011
 30
0.0
  0
VERTEX
  5
88
330
86
100
AcDbEntity
  8
_U+30EC_U+30A4_U+30E4_U+30FC 1
 62
     7
420
 16777215
370
     9
100
AcDbVertex
100
AcDb2dVertex
 10
118.067557821179
 20
-139.8198738539338
 30
0.0
  0
SEQEND
  5
89
330
86
100
AcDbEntity
  8
_U+30EC_U+30A4_U+30E4_U+30FC 1
 62
     7
420
 16777215
370
     9
  0
POLYLINE
  5
8A
330
1F
100
AcDbEntity
  8
_U+30EC_U+30A4_U+30E4_U+30FC 1
 62
     7
420
 16777215
370
     9
100
AcDb2dPolyline
 66
     1
 10
0.0
 20
0.0
 30
0.0
  0
VERTEX
  5
8B
330
8A
100
AcDbEntity
  8
_U+30EC_U+30A4_U+30E4_U+30FC 1
 62
     7
420
 16777215
370
     9
100
AcDbVertex
100
AcDb2dVertex
 10
118.0668522656414
 20
-147.3432832964972
 30
0.0
  0
VERTEX
  5
8C
330
8A
100
AcDbEntity
  8
_U+30EC_U+30A4_U+30E4_U+30FC 1
 62
     7
420
 16777215
370
     9
100
AcDbVertex
100
AcDb2dVertex
 10
118.0668522656414
 20
-140.8396485759011
 30
0.0
  0
SEQEND
  5
8D
330
8A
100
AcDbEntity
  8
_U+30EC_U+30A4_U+30E4_U+30FC 1
 62
     7
420
 16777215
370
     9
  0
POLYLINE
  5
8E
330
1F
100
AcDbEntity
  8
_U+30EC_U+30A4_U+30E4_U+30FC 1
 62
     7
420
 16777215
370
     9
100
AcDb2dPolyline
 66
     1
 10
0.0
 20
0.0
 30
0.0
  0
VERTEX
  5
8F
330
8E
100
AcDbEntity
  8
_U+30EC_U+30A4_U+30E4_U+30FC 1
 62
     7
420
 16777215
370
     9
100
AcDbVertex
100
AcDb2dVertex
 10
119.419402231135
 20
-147.3522438520507
 30
0.0
  0
VERTEX
  5
90
330
8E
100
AcDbEntity
  8
_U+30EC_U+30A4_U+30E4_U+30FC 1
 62
     7
420
 16777215
370
     9
100
AcDbVertex
100
AcDb2dVertex
 10
100.0004324487764
 20
-147.3522438520507
 30
0.0
  0
SEQEND
  5
91
330
8E
100
AcDbEntity
  8
_U+30EC_U+30A4_U+30E4_U+30FC 1
 62
     7
420
 16777215
370
     9
  0
POLYLINE
  5
92
330
1F
100
AcDbEntity
  8
_U+30EC_U+30A4_U+30E4_U+30FC 1
 62
     7
420
 16777215
370
     9
100
AcDb2dPolyline
 66
     1
 10
0.0
 20
0.0
 30
0.0
  0
VERTEX
  5
93
330
92
100
AcDbEntity
  8
_U+30EC_U+30A4_U+30E4_U+30FC 1
 62
     7
420
 16777215
370
     9
100
AcDbVertex
100
AcDb2dVertex
 10
120.0064597161579
 20
-140.8523838536761
 30
0.0
  0
VERTEX
  5
94
330
92
100
AcDbEntity
  8
_U+30EC_U+30A4_U+30E4_U+30FC 1
 62
     7
420
 16777215
370
     9
100
AcDbVertex
100
AcDb2dVertex
 10
115.0007195660872
 20
-140.8523838536761
 30
0.0
  0
SEQEND
  5
95
330
92
100
AcDbEntity
  8
_U+30EC_U+30A4_U+30E4_U+30FC 1
 62
     7
420
 16777215
370
     9
  0
POLYLINE
  5
96
330
1F
100
AcDbEntity
  8
_U+30EC_U+30A4_U+30E4_U+30FC 1
 62
     7
420
 16777215
370
     9
100
AcDb2dPolyline
 66
     1
 10
0.0
 20
0.0
 30
0.0
  0
VERTEX
  5
97
330
96
100
AcDbEntity
  8
_U+30EC_U+30A4_U+30E4_U+30FC 1
 62
     7
420
 16777215
370
     9
100
AcDbVertex
100
AcDb2dVertex
 10
120.0064597161579
 20
-139.8522588539258
 30
0.0
  0
VERTEX
  5
98
330
96
100
AcDbEntity
  8
_U+30EC_U+30A4_U+30E4_U+30FC 1
 62
     7
420
 16777215
370
     9
100
AcDbVertex
100
AcDb2dVertex
 10
115.0007195660872
 20
-139.8522588539258
 30
0.0
  0
SEQEND
  5
99
330
96
100
AcDbEntity
  8
_U+30EC_U+30A4_U+30E4_U+30FC 1
 62
     7
420
 16777215
370
     9
  0
INSERT
  5
9B
330
1F
100
AcDbEntity
  8
_U+30EC_U+30A4_U+30E4_U+30FC 1
100
AcDbBlockReference
  2
block 6
 10
0.0
 20
0.0
 30
0.0
  0
INSERT
  5
AC
330
1F
100
AcDbEntity
  8
_U+30EC_U+30A4_U+30E4_U+30FC 1
100
AcDbBlockReference
  2
block 7
 10
0.0
 20
0.0
 30
0.0
  0
SPLINE
  5
B1
330
1F
100
AcDbEntity
  8
_U+30EC_U+30A4_U+30E4_U+30FC 1
 62
     7
420
 16777215
370
     9
100
AcDbSpline
210
0.0
220
0.0
230
1.0
 70
    11
 71
     3
 72
    17
 73
    13
 74
     0
 42
0.0000000001
 43
0.0000000001
 12
1.0
 22
0.0
 32
0.0
 13
1.0
 23
0.0
 33
0.0
 40
0.0
 40
0.0
 40
0.0
 40
0.0
 40
1.0
 40
1.0
 40
1.0
 40
2.0
 40
2.0
 40
2.0
 40
3.0
 40
3.0
 40
3.0
 40
4.0
 40
4.0
 40
4.0
 40
4.0
 10
64.93333609487782
 20
-102.3827433077375
 30
0.0
 10
64.93333609487782
 20
-102.3279569188625
 30
0.0
 10
64.8885333171111
 20
-102.2835069188736
 30
0.0
 10
64.83325140152151
 20
-102.2835069188736
 30
0.0
 10
64.77828862514595
 20
-102.2835069188736
 30
0.0
 10
64.73352112628807
 20
-102.3279569188625
 30
0.0
 10
64.73352112628807
 20
-102.3827433077375
 30
0.0
 10
64.73352112628807
 20
-102.4381999743905
 30
0.0
 10
64.77828862514595
 20
-102.4829674743794
 30
0.0
 10
64.83325140152151
 20
-102.4829674743794
 30
0.0
 10
64.8885333171111
 20
-102.4829674743794
 30
0.0
 10
64.93333609487782
 20
-102.4381999743905
 30
0.0
 10
64.93333609487782
 20
-102.3827433077375
 30
0.0
  0
SPLINE
  5
B2
330
1F
100
AcDbEntity
  8
_U+30EC_U+30A4_U+30E4_U+30FC 1
 62
     7
420
 16777215
370
     9
100
AcDbSpline
210
0.0
220
0.0
230
1.0
 70
    11
 71
     3
 72
    17
 73
    13
 74
     0
 42
0.0000000001
 43
0.0000000001
 12
1.0
 22
0.0
 32
0.0
 13
1.0
 23
0.0
 33
0.0
 40
0.0
 40
0.0
 40
0.0
 40
0.0
 40
1.0
 40
1.0
 40
1.0
 40
2.0
 40
2.0
 40
2.0
 40
3.0
 40
3.0
 40
3.0
 40
4.0
 40
4.0
 40
4.0
 40
4.0
 10
64.95019723187131
 20
-117.3506458039957
 30
0.0
 10
64.95019723187131
 20
-117.2955066373429
 30
0.0
 10
64.90542973301342
 20
-117.250739137354
 30
0.0
 10
64.85029056775348
 20
-117.250739137354
 30
0.0
 10
64.79536306915479
 20
-117.250739137354
 30
0.0
 10
64.75056029252003
 20
-117.2955066373429
 30
0.0
 10
64.75056029252003
 20
-117.3506458039957
 30
0.0
 10
64.75056029252003
 20
-117.4064552484261
 30
0.0
 10
64.79536306915479
 20
-117.4505524706373
 30
0.0
 10
64.85029056775348
 20
-117.4505524706373
 30
0.0
 10
64.90542973301342
 20
-117.4505524706373
 30
0.0
 10
64.95019723187131
 20
-117.4064552484261
 30
0.0
 10
64.95019723187131
 20
-117.3506458039957
 30
0.0
  0
SPLINE
  5
B3
330
1F
100
AcDbEntity
  8
_U+30EC_U+30A4_U+30E4_U+30FC 1
 62
     7
420
 16777215
370
     9
100
AcDbSpline
210
0.0
220
0.0
230
1.0
 70
    11
 71
     3
 72
    17
 73
    13
 74
     0
 42
0.0000000001
 43
0.0000000001
 12
1.0
 22
0.0
 32
0.0
 13
1.0
 23
0.0
 33
0.0
 40
0.0
 40
0.0
 40
0.0
 40
0.0
 40
1.0
 40
1.0
 40
1.0
 40
2.0
 40
2.0
 40
2.0
 40
3.0
 40
3.0
 40
3.0
 40
4.0
 40
4.0
 40
4.0
 40
4.0
 10
64.92246889924539
 20
-147.3129796853937
 30
0.0
 10
64.92246889924539
 20
-147.2578405187413
 30
0.0
 10
64.87787778927189
 20
-147.2137432965301
 30
0.0
 10
64.82273862401193
 20
-147.2137432965301
 30
0.0
 10
64.7672819587601
 20
-147.2137432965301
 30
0.0
 10
64.72283195989411
 20
-147.2578405187413
 30
0.0
 10
64.72283195989411
 20
-147.3129796853937
 30
0.0
 10
64.72283195989411
 20
-147.3687891298248
 30
0.0
 10
64.7672819587601
 20
-147.4135566298133
 30
0.0
 10
64.82273862401193
 20
-147.4135566298133
 30
0.0
 10
64.87787778927189
 20
-147.4135566298133
 30
0.0
 10
64.92246889924539
 20
-147.3687891298248
 30
0.0
 10
64.92246889924539
 20
-147.3129796853937
 30
0.0
  0
SPLINE
  5
B4
330
1F
100
AcDbEntity
  8
_U+30EC_U+30A4_U+30E4_U+30FC 1
 62
     7
420
 16777215
370
     9
100
AcDbSpline
210
0.0
220
0.0
230
1.0
 70
    11
 71
     3
 72
    17
 73
    13
 74
     0
 42
0.0000000001
 43
0.0000000001
 12
1.0
 22
0.0
 32
0.0
 13
1.0
 23
0.0
 33
0.0
 40
0.0
 40
0.0
 40
0.0
 40
0.0
 40
1.0
 40
1.0
 40
1.0
 40
2.0
 40
2.0
 40
2.0
 40
3.0
 40
3.0
 40
3.0
 40
4.0
 40
4.0
 40
4.0
 40
4.0
 10
68.96565490720623
 20
-152.2126044063915
 30
0.0
 10
68.96565490720623
 20
-152.1574652397384
 30
0.0
 10
68.92085213057146
 20
-152.1130152397495
 30
0.0
 10
68.865571854204
 20
-152.1130152397495
 30
0.0
 10
68.81060907782845
 20
-152.1130152397495
 30
0.0
 10
68.76584157897055
 20
-152.1574652397384
 30
0.0
 10
68.76584157897055
 20
-152.2126044063915
 30
0.0
 10
68.76584157897055
 20
-152.2684138508219
 30
0.0
 10
68.81060907782845
 20
-152.3128285730327
 30
0.0
 10
68.865571854204
 20
-152.3128285730327
 30
0.0
 10
68.92085213057146
 20
-152.3128285730327
 30
0.0
 10
68.96565490720623
 20
-152.2684138508219
 30
0.0
 10
68.96565490720623
 20
-152.2126044063915
 30
0.0
  0
SPLINE
  5
B5
330
1F
100
AcDbEntity
  8
_U+30EC_U+30A4_U+30E4_U+30FC 1
 62
     7
420
 16777215
370
     9
100
AcDbSpline
210
0.0
220
0.0
230
1.0
 70
    11
 71
     3
 72
    17
 73
    13
 74
     0
 42
0.0000000001
 43
0.0000000001
 12
1.0
 22
0.0
 32
0.0
 13
1.0
 23
0.0
 33
0.0
 40
0.0
 40
0.0
 40
0.0
 40
0.0
 40
1.0
 40
1.0
 40
1.0
 40
2.0
 40
2.0
 40
2.0
 40
3.0
 40
3.0
 40
3.0
 40
4.0
 40
4.0
 40
4.0
 40
4.0
 10
93.96877926932338
 20
-152.2243166286108
 30
0.0
 10
93.96877926932338
 20
-152.1691774619577
 30
0.0
 10
93.92397649268862
 20
-152.1244099619691
 30
0.0
 10
93.86919010519745
 20
-152.1244099619691
 30
0.0
 10
93.8137334399456
 20
-152.1244099619691
 30
0.0
 10
93.76928344107961
 20
-152.1691774619577
 30
0.0
 10
93.76928344107961
 20
-152.2243166286108
 30
0.0
 10
93.76928344107961
 20
-152.2794205174856
 30
0.0
 10
93.8137334399456
 20
-152.3242232952524
 30
0.0
 10
93.86919010519745
 20
-152.3242232952524
 30
0.0
 10
93.92397649268862
 20
-152.3242232952524
 30
0.0
 10
93.96877926932338
 20
-152.2794205174856
 30
0.0
 10
93.96877926932338
 20
-152.2243166286108
 30
0.0
  0
SPLINE
  5
B6
330
1F
100
AcDbEntity
  8
_U+30EC_U+30A4_U+30E4_U+30FC 1
 62
     7
420
 16777215
370
     9
100
AcDbSpline
210
0.0
220
0.0
230
1.0
 70
    11
 71
     3
 72
    17
 73
    13
 74
     0
 42
0.0000000001
 43
0.0000000001
 12
1.0
 22
0.0
 32
0.0
 13
1.0
 23
0.0
 33
0.0
 40
0.0
 40
0.0
 40
0.0
 40
0.0
 40
1.0
 40
1.0
 40
1.0
 40
2.0
 40
2.0
 40
2.0
 40
3.0
 40
3.0
 40
3.0
 40
4.0
 40
4.0
 40
4.0
 40
4.0
 10
98.94315747574976
 20
-152.2243166286108
 30
0.0
 10
98.94315747574976
 20
-152.1691774619577
 30
0.0
 10
98.89800192134621
 20
-152.1244099619691
 30
0.0
 10
98.84321553385504
 20
-152.1244099619691
 30
0.0
 10
98.78811164637197
 20
-152.1244099619691
 30
0.0
 10
98.7433088697372
 20
-152.1691774619577
 30
0.0
 10
98.7433088697372
 20
-152.2243166286108
 30
0.0
 10
98.7433088697372
 20
-152.2794205174856
 30
0.0
 10
98.78811164637197
 20
-152.3242232952524
 30
0.0
 10
98.84321553385504
 20
-152.3242232952524
 30
0.0
 10
98.89800192134621
 20
-152.3242232952524
 30
0.0
 10
98.94315747574976
 20
-152.2794205174856
 30
0.0
 10
98.94315747574976
 20
-152.2243166286108
 30
0.0
  0
SPLINE
  5
B7
330
1F
100
AcDbEntity
  8
_U+30EC_U+30A4_U+30E4_U+30FC 1
 62
     7
420
 16777215
370
     9
100
AcDbSpline
210
0.0
220
0.0
230
1.0
 70
    11
 71
     3
 72
    17
 73
    13
 74
     0
 42
0.0000000001
 43
0.0000000001
 12
1.0
 22
0.0
 32
0.0
 13
1.0
 23
0.0
 33
0.0
 40
0.0
 40
0.0
 40
0.0
 40
0.0
 40
1.0
 40
1.0
 40
1.0
 40
2.0
 40
2.0
 40
2.0
 40
3.0
 40
3.0
 40
3.0
 40
4.0
 40
4.0
 40
4.0
 40
4.0
 10
118.1688403185951
 20
-147.3432832964972
 30
0.0
 10
118.1688403185951
 20
-147.2881794076224
 30
0.0
 10
118.1240375419603
 20
-147.2433766298556
 30
0.0
 10
118.0689336544772
 20
-147.2433766298556
 30
0.0
 10
118.0137944892173
 20
-147.2433766298556
 30
0.0
 10
117.9696972681201
 20
-147.2881794076224
 30
0.0
 10
117.9696972681201
 20
-147.3432832964972
 30
0.0
 10
117.9696972681201
 20
-147.3984224631503
 30
0.0
 10
118.0137944892173
 20
-147.4431899631389
 30
0.0
 10
118.0689336544772
 20
-147.4431899631389
 30
0.0
 10
118.1240375419603
 20
-147.4431899631389
 30
0.0
 10
118.1688403185951
 20
-147.3984224631503
 30
0.0
 10
118.1688403185951
 20
-147.3432832964972
 30
0.0
  0
SPLINE
  5
B8
330
1F
100
AcDbEntity
  8
_U+30EC_U+30A4_U+30E4_U+30FC 1
 62
     7
420
 16777215
370
     9
100
AcDbSpline
210
0.0
220
0.0
230
1.0
 70
    11
 71
     3
 72
    17
 73
    13
 74
     0
 42
0.0000000001
 43
0.0000000001
 12
1.0
 22
0.0
 32
0.0
 13
1.0
 23
0.0
 33
0.0
 40
0.0
 40
0.0
 40
0.0
 40
0.0
 40
1.0
 40
1.0
 40
1.0
 40
2.0
 40
2.0
 40
2.0
 40
3.0
 40
3.0
 40
3.0
 40
4.0
 40
4.0
 40
4.0
 40
4.0
 10
118.1688403185951
 20
-140.8175999647955
 30
0.0
 10
118.1688403185951
 20
-140.7624607981424
 30
0.0
 10
118.1240375419603
 20
-140.7176932981538
 30
0.0
 10
118.0689336544772
 20
-140.7176932981538
 30
0.0
 10
118.0137944892173
 20
-140.7176932981538
 30
0.0
 10
117.9696972681201
 20
-140.7624607981424
 30
0.0
 10
117.9696972681201
 20
-140.8175999647955
 30
0.0
 10
117.9696972681201
 20
-140.8723510758933
 30
0.0
 10
118.0137944892173
 20
-140.9175066314371
 30
0.0
 10
118.0689336544772
 20
-140.9175066314371
 30
0.0
 10
118.1240375419603
 20
-140.9175066314371
 30
0.0
 10
118.1688403185951
 20
-140.8723510758933
 30
0.0
 10
118.1688403185951
 20
-140.8175999647955
 30
0.0
  0
SPLINE
  5
B9
330
1F
100
AcDbEntity
  8
_U+30EC_U+30A4_U+30E4_U+30FC 1
 62
     7
420
 16777215
370
     9
100
AcDbSpline
210
0.0
220
0.0
230
1.0
 70
    11
 71
     3
 72
    17
 73
    13
 74
     0
 42
0.0000000001
 43
0.0000000001
 12
1.0
 22
0.0
 32
0.0
 13
1.0
 23
0.0
 33
0.0
 40
0.0
 40
0.0
 40
0.0
 40
0.0
 40
1.0
 40
1.0
 40
1.0
 40
2.0
 40
2.0
 40
2.0
 40
3.0
 40
3.0
 40
3.0
 40
4.0
 40
4.0
 40
4.0
 40
4.0
 10
118.1688403185951
 20
-139.8660524650334
 30
0.0
 10
118.1688403185951
 20
-139.8109485761585
 30
0.0
 10
118.1240375419603
 20
-139.7661457983918
 30
0.0
 10
118.0689336544772
 20
-139.7661457983918
 30
0.0
 10
118.0137944892173
 20
-139.7661457983918
 30
0.0
 10
117.9696972681201
 20
-139.8109485761585
 30
0.0
 10
117.9696972681201
 20
-139.8660524650334
 30
0.0
 10
117.9696972681201
 20
-139.9215091316861
 30
0.0
 10
118.0137944892173
 20
-139.9659591316751
 30
0.0
 10
118.0689336544772
 20
-139.9659591316751
 30
0.0
 10
118.1240375419603
 20
-139.9659591316751
 30
0.0
 10
118.1688403185951
 20
-139.9215091316861
 30
0.0
 10
118.1688403185951
 20
-139.8660524650334
 30
0.0
  0
POLYLINE
  5
BA
330
1F
100
AcDbEntity
  8
_U+30EC_U+30A4_U+30E4_U+30FC 1
 62
     7
420
 16777215
370
     9
100
AcDb2dPolyline
 66
     1
 10
0.0
 20
0.0
 30
0.0
  0
VERTEX
  5
BB
330
BA
100
AcDbEntity
  8
_U+30EC_U+30A4_U+30E4_U+30FC 1
 62
     7
420
 16777215
370
     9
100
AcDbVertex
100
AcDb2dVertex
 10
75.96642389526839
 20
-139.8288344094873
 30
0.0
  0
VERTEX
  5
BC
330
BA
100
AcDbEntity
  8
_U+30EC_U+30A4_U+30E4_U+30FC 1
 62
     7
420
 16777215
370
     9
100
AcDbVertex
100
AcDb2dVertex
 10
76.86939387223171
 20
-139.3072524651729
 30
0.0
  0
SEQEND
  5
BD
330
BA
100
AcDbEntity
  8
_U+30EC_U+30A4_U+30E4_U+30FC 1
 62
     7
420
 16777215
370
     9
  0
POLYLINE
  5
BE
330
1F
100
AcDbEntity
  8
_U+30EC_U+30A4_U+30E4_U+30FC 1
 62
     7
420
 16777215
370
     9
100
AcDb2dPolyline
 66
     1
 10
0.0
 20
0.0
 30
0.0
  0
VERTEX
  5
BF
330
BE
100
AcDbEntity
  8
_U+30EC_U+30A4_U+30E4_U+30FC 1
 62
     7
420
 16777215
370
     9
100
AcDbVertex
100
AcDb2dVertex
 10
75.96642389526839
 20
-139.8288344094873
 30
0.0
  0
VERTEX
  5
C0
330
BE
100
AcDbEntity
  8
_U+30EC_U+30A4_U+30E4_U+30FC 1
 62
     7
420
 16777215
370
     9
100
AcDbVertex
100
AcDb2dVertex
 10
90.15401686664607
 20
-125.1155316353877
 30
0.0
  0
SEQEND
  5
C1
330
BE
100
AcDbEntity
  8
_U+30EC_U+30A4_U+30E4_U+30FC 1
 62
     7
420
 16777215
370
     9
  0
POLYLINE
  5
C2
330
1F
100
AcDbEntity
  8
_U+30EC_U+30A4_U+30E4_U+30FC 1
 62
     7
420
 16777215
370
     9
100
AcDb2dPolyline
 66
     1
 10
0.0
 20
0.0
 30
0.0
  0
VERTEX
  5
C3
330
C2
100
AcDbEntity
  8
_U+30EC_U+30A4_U+30E4_U+30FC 1
 62
     7
420
 16777215
370
     9
100
AcDbVertex
100
AcDb2dVertex
 10
75.96642389526839
 20
-139.8288344094873
 30
0.0
  0
VERTEX
  5
C4
330
C2
100
AcDbEntity
  8
_U+30EC_U+30A4_U+30E4_U+30FC 1
 62
     7
420
 16777215
370
     9
100
AcDbVertex
100
AcDb2dVertex
 10
76.48800582640618
 20
-138.925899687491
 30
0.0
  0
SEQEND
  5
C5
330
C2
100
AcDbEntity
  8
_U+30EC_U+30A4_U+30E4_U+30FC 1
 62
     7
420
 16777215
370
     9
  0
INSERT
  5
C7
330
1F
100
AcDbEntity
  8
_U+30EC_U+30A4_U+30E4_U+30FC 1
100
AcDbBlockReference
  2
block 8
 10
0.0
 20
0.0
 30
0.0
  0
ENDSEC
  0
SECTION
  2
OBJECTS
  0
DICTIONARY
  5
C
330
0
100
AcDbDictionary
281
     1
  3
ACAD_GROUP
350
D
  3
ACAD_LAYOUT
350
1A
  3
ACAD_MATERIAL
350
3B
  3
ACAD_MLEADERSTYLE
350
D2
  3
ACAD_MLINESTYLE
350
17
  3
ACAD_PLOTSETTINGS
350
19
  3
ACAD_PLOTSTYLENAME
350
E
  3
ACAD_TABLESTYLE
350
D1
  3
ACAD_VISUALSTYLE
350
2A
  0
SUN
  5
3F
330
29
100
AcDbSun
 90
        1
290
     0
 63
     7
421
 16777215
 40
1.0
291
     1
 91
  2455826
 92
 54000000
292
     0
 70
     2
 71
   256
280
     1
  0
DICTIONARY
  5
D
102
{ACAD_REACTORS
330
C
102
}
330
C
100
AcDbDictionary
281
     1
  0
DICTIONARY
  5
1A
102
{ACAD_REACTORS
330
C
102
}
330
C
100
AcDbDictionary
281
     1
  3
Layout1
350
1E
  3
Layout2
350
26
  3
Model
350
22
  0
DICTIONARY
  5
3B
102
{ACAD_REACTORS
330
C
102
}
330
C
100
AcDbDictionary
281
     1
  3
ByBlock
350
3D
  3
ByLayer
350
3C
  3
Global
350
3E
  0
DICTIONARY
  5
D2
102
{ACAD_REACTORS
330
C
102
}
330
C
100
AcDbDictionary
281
     1
  0
DICTIONARY
  5
17
102
{ACAD_REACTORS
330
C
102
}
330
C
100
AcDbDictionary
281
     1
  3
Standard
350
18
  0
DICTIONARY
  5
19
102
{ACAD_REACTORS
330
C
102
}
330
C
100
AcDbDictionary
281
     1
  0
ACDBDICTIONARYWDFLT
  5
E
102
{ACAD_REACTORS
330
C
102
}
330
C
100
AcDbDictionary
281
     1
  3
Normal
350
F
100
AcDbDictionaryWithDefault
340
F
  0
DICTIONARY
  5
D1
102
{ACAD_REACTORS
330
C
102
}
330
C
100
AcDbDictionary
281
     1
  0
DICTIONARY
  5
2A
102
{ACAD_REACTORS
330
C
102
}
330
C
100
AcDbDictionary
281
     1
  3
2dWireframe
350
2F
  3
3D Hidden
350
31
  3
3dWireframe
350
30
  3
Basic
350
32
  3
Brighten
350
36
  3
ColorChange
350
3A
  3
Conceptual
350
34
  3
Dim
350
35
  3
Facepattern
350
39
  3
Flat
350
2B
  3
FlatWithEdges
350
2C
  3
Gouraud
350
2D
  3
GouraudWithEdges
350
2E
  3
Linepattern
350
38
  3
Realistic
350
33
  3
Thicken
350
37
  0
LAYOUT
  5
1E
102
{ACAD_REACTORS
330
1A
102
}
330
1A
100
AcDbPlotSettings
  1

  2
none_device
  4

  6

 40
0.0
 41
0.0
 42
0.0
 43
0.0
 44
0.0
 45
0.0
 46
0.0
 47
0.0
 48
0.0
 49
0.0
140
0.0
141
0.0
142
1.0
143
1.0
 70
   688
 72
     0
 73
     0
 74
     5
  7

 75
    16
 76
     0
 77
     2
 78
   300
147
1.0
148
0.0
149
0.0
100
AcDbLayout
  1
Layout1
 70
     1
 71
     1
 10
0.0
 20
0.0
 11
12.0
 21
9.0
 12
0.0
 22
0.0
 32
0.0
 14
1.000000000000000E+20
 24
1.000000000000000E+20
 34
1.000000000000000E+20
 15
-1.000000000000000E+20
 25
-1.000000000000000E+20
 35
-1.000000000000000E+20
146
0.0
 13
0.0
 23
0.0
 33
0.0
 16
1.0
 26
0.0
 36
0.0
 17
0.0
 27
1.0
 37
0.0
 76
     0
330
1B
  0
LAYOUT
  5
26
102
{ACAD_REACTORS
330
1A
102
}
330
1A
100
AcDbPlotSettings
  1

  2
none_device
  4

  6

 40
0.0
 41
0.0
 42
0.0
 43
0.0
 44
0.0
 45
0.0
 46
0.0
 47
0.0
 48
0.0
 49
0.0
140
0.0
141
0.0
142
1.0
143
1.0
 70
   688
 72
     0
 73
     0
 74
     5
  7

 75
    16
 76
     0
 77
     2
 78
   300
147
1.0
148
0.0
149
0.0
100
AcDbLayout
  1
Layout2
 70
     1
 71
     2
 10
0.0
 20
0.0
 11
0.0
 21
0.0
 12
0.0
 22
0.0
 32
0.0
 14
0.0
 24
0.0
 34
0.0
 15
0.0
 25
0.0
 35
0.0
146
0.0
 13
0.0
 23
0.0
 33
0.0
 16
1.0
 26
0.0
 36
0.0
 17
0.0
 27
1.0
 37
0.0
 76
     0
330
23
  0
LAYOUT
  5
22
102
{ACAD_REACTORS
330
1A
102
}
330
1A
100
AcDbPlotSettings
  1

  2
none_device
  4

  6

 40
0.0
 41
0.0
 42
0.0
 43
0.0
 44
0.0
 45
0.0
 46
0.0
 47
0.0
 48
0.0
 49
0.0
140
0.0
141
0.0
142
1.0
143
1.0
 70
  1712
 72
     0
 73
     0
 74
     0
  7

 75
     0
 76
     0
 77
     2
 78
   300
147
1.0
148
0.0
149
0.0
100
AcDbLayout
  1
Model
 70
     1
 71
     0
 10
0.0
 20
0.0
 11
12.0
 21
9.0
 12
0.0
 22
0.0
 32
0.0
 14
1.000000000000000E+20
 24
1.000000000000000E+20
 34
1.000000000000000E+20
 15
-1.000000000000000E+20
 25
-1.000000000000000E+20
 35
-1.000000000000000E+20
146
0.0
 13
0.0
 23
0.0
 33
0.0
 16
1.0
 26
0.0
 36
0.0
 17
0.0
 27
1.0
 37
0.0
 76
     0
330
1F
331
29
  0
MATERIAL
  5
3D
102
{ACAD_REACTORS
330
3B
102
}
330
3B
100
AcDbMaterial
  1
ByBlock
 72
     1
 94
      127
  0
MATERIAL
  5
3C
102
{ACAD_REACTORS
330
3B
102
}
330
3B
100
AcDbMaterial
  1
ByLayer
 72
     1
 94
      127
  0
MATERIAL
  5
3E
102
{ACAD_REACTORS
330
3B
102
}
330
3B
100
AcDbMaterial
  1
Global
 72
     1
 94
      127
  0
MLINESTYLE
  5
18
102
{ACAD_REACTORS
330
17
102
}
330
17
100
AcDbMlineStyle
  2
Standard
 70
     0
  3

 62
   256
 51
90.0
 52
90.0
 71
     2
 49
0.5
 62
   256
  6
BYLAYER
 49
-0.5
 62
   256
  6
BYLAYER
  0
ACDBPLACEHOLDER
  5
F
102
{ACAD_REACTORS
330
E
102
}
330
E
  0
VISUALSTYLE
  5
2F
102
{ACAD_REACTORS
330
2A
102
}
330
2A
100
AcDbVisualStyle
  2
2dWireframe
 70
     4
177
     2
291
     0
 71
     0
176
     1
 72
     2
176
     1
 73
     0
176
     1
 90
        0
176
     1
 40
-0.6
176
     1
 41
-30.0
176
     1
 62
     5
 63
     7
421
 16777215
176
     1
 74
     1
176
     1
 91
        4
176
     1
 64
     7
176
     1
 65
   257
176
     1
 75
     1
176
     1
175
     1
176
     1
 42
1.0
176
     1
 92
        0
176
     1
 66
   257
176
     1
 43
1.0
176
     1
 76
     1
176
     1
 77
     6
176
     1
 78
     2
176
     1
 67
     7
176
     1
 79
     5
176
     1
170
     0
176
     1
171
     0
176
     1
290
     0
176
     1
 93
        1
176
     1
 44
0.0
176
     1
173
     0
176
     1
  0
VISUALSTYLE
  5
31
102
{ACAD_REACTORS
330
2A
102
}
330
2A
100
AcDbVisualStyle
  2
3D Hidden
 70
     6
177
     2
291
     0
 71
     1
176
     1
 72
     2
176
     1
 73
     2
176
     1
 90
        0
176
     1
 40
-0.6
176
     1
 41
-30.0
176
     1
 62
     5
 63
     7
421
 16777215
176
     1
 74
     2
176
     1
 91
        2
176
     1
 64
     7
176
     1
 65
   257
176
     1
 75
     2
176
     1
175
     1
176
     1
 42
40.0
176
     1
 92
        0
176
     1
 66
   257
176
     1
 43
1.0
176
     1
 76
     1
176
     1
 77
     6
176
     1
 78
     2
176
     1
 67
     7
176
     1
 79
     3
176
     1
170
     0
176
     1
171
     0
176
     1
290
     0
176
     1
 93
        1
176
     1
 44
0.0
176
     1
173
     0
176
     1
  0
VISUALSTYLE
  5
30
102
{ACAD_REACTORS
330
2A
102
}
330
2A
100
AcDbVisualStyle
  2
3dWireframe
 70
     5
177
     2
291
     0
 71
     0
176
     1
 72
     2
176
     1
 73
     0
176
     1
 90
        0
176
     1
 40
-0.6
176
     1
 41
-30.0
176
     1
 62
     5
 63
     7
421
 16777215
176
     1
 74
     1
176
     1
 91
        4
176
     1
 64
     7
176
     1
 65
   257
176
     1
 75
     1
176
     1
175
     1
176
     1
 42
1.0
176
     1
 92
        0
176
     1
 66
   257
176
     1
 43
1.0
176
     1
 76
     1
176
     1
 77
     6
176
     1
 78
     2
176
     1
 67
     7
176
     1
 79
     5
176
     1
170
     0
176
     1
171
     0
176
     1
290
     0
176
     1
 93
        1
176
     1
 44
0.0
176
     1
173
     0
176
     1
  0
VISUALSTYLE
  5
32
102
{ACAD_REACTORS
330
2A
102
}
330
2A
100
AcDbVisualStyle
  2
Basic
 70
     7
177
     2
291
     1
 71
     1
176
     1
 72
     0
176
     1
 73
     1
176
     1
 90
        0
176
     1
 40
-0.6
176
     1
 41
-30.0
176
     1
 62
     5
 63
     7
421
 16777215
176
     1
 74
     0
176
     1
 91
        4
176
     1
 64
     7
176
     1
 65
   257
176
     1
 75
     1
176
     1
175
     1
176
     1
 42
1.0
176
     1
 92
        8
176
     1
 66
     7
176
     1
 43
1.0
176
     1
 76
     1
176
     1
 77
     6
176
     1
 78
     2
176
     1
 67
     7
176
     1
 79
     5
176
     1
170
     0
176
     1
171
     0
176
     1
290
     0
176
     1
 93
        1
176
     1
 44
0.0
176
     1
173
     0
176
     1
  0
VISUALSTYLE
  5
36
102
{ACAD_REACTORS
330
2A
102
}
330
2A
100
AcDbVisualStyle
  2
Brighten
 70
    12
177
     2
291
     1
 71
     2
176
     1
 72
     2
176
     1
 73
     0
176
     1
 90
        0
176
     1
 40
-0.6
176
     1
 41
-30.0
176
     1
 62
     5
 63
     7
421
 16777215
176
     1
 74
     1
176
     1
 91
        4
176
     1
 64
     7
176
     1
 65
   257
176
     1
 75
     1
176
     1
175
     1
176
     1
 42
1.0
176
     1
 92
        8
176
     1
 66
     7
176
     1
 43
1.0
176
     1
 76
     1
176
     1
 77
     6
176
     1
 78
     2
176
     1
 67
     7
176
     1
 79
     5
176
     1
170
     0
176
     1
171
     0
176
     1
290
     0
176
     1
 93
        1
176
     1
 44
50.0
176
     1
173
     0
176
     1
  0
VISUALSTYLE
  5
3A
102
{ACAD_REACTORS
330
2A
102
}
330
2A
100
AcDbVisualStyle
  2
ColorChange
 70
    16
177
     2
291
     1
 71
     2
176
     1
 72
     2
176
     1
 73
     3
176
     1
 90
        0
176
     1
 40
-0.6
176
     1
 41
-30.0
176
     1
 62
     5
 63
     8
421
  8421504
176
     1
 74
     1
176
     1
 91
        4
176
     1
 64
     7
176
     1
 65
   257
176
     1
 75
     1
176
     1
175
     1
176
     1
 42
1.0
176
     1
 92
        8
176
     1
 66
     8
424
  8421504
176
     1
 43
1.0
176
     1
 76
     1
176
     1
 77
     6
176
     1
 78
     2
176
     1
 67
     7
176
     1
 79
     5
176
     1
170
     0
176
     1
171
     0
176
     1
290
     0
176
     1
 93
        1
176
     1
 44
0.0
176
     1
173
     0
176
     1
  0
VISUALSTYLE
  5
34
102
{ACAD_REACTORS
330
2A
102
}
330
2A
100
AcDbVisualStyle
  2
Conceptual
 70
     9
177
     2
291
     0
 71
     3
176
     1
 72
     2
176
     1
 73
     0
176
     1
 90
        0
176
     1
 40
-0.6
176
     1
 41
-30.0
176
     1
 62
     5
 63
     7
421
 16777215
176
     1
 74
     2
176
     1
 91
        2
176
     1
 64
     7
176
     1
 65
   257
176
     1
 75
     1
176
     1
175
     1
176
     1
 42
40.0
176
     1
 92
        8
176
     1
 66
     7
176
     1
 43
1.0
176
     1
 76
     1
176
     1
 77
     6
176
     1
 78
     2
176
     1
 67
     7
176
     1
 79
     3
176
     1
170
     0
176
     1
171
     0
176
     1
290
     0
176
     1
 93
        1
176
     1
 44
0.0
176
     1
173
     0
176
     1
  0
VISUALSTYLE
  5
35
102
{ACAD_REACTORS
330
2A
102
}
330
2A
100
AcDbVisualStyle
  2
Dim
 70
    11
177
     2
291
     1
 71
     2
176
     1
 72
     2
176
     1
 73
     0
176
     1
 90
        0
176
     1
 40
-0.6
176
     1
 41
-30.0
176
     1
 62
     5
 63
     7
421
 16777215
176
     1
 74
     1
176
     1
 91
        4
176
     1
 64
     7
176
     1
 65
   257
176
     1
 75
     1
176
     1
175
     1
176
     1
 42
1.0
176
     1
 92
        8
176
     1
 66
     7
176
     1
 43
1.0
176
     1
 76
     1
176
     1
 77
     6
176
     1
 78
     2
176
     1
 67
     7
176
     1
 79
     5
176
     1
170
     0
176
     1
171
     0
176
     1
290
     0
176
     1
 93
        1
176
     1
 44
-50.0
176
     1
173
     0
176
     1
  0
VISUALSTYLE
  5
39
102
{ACAD_REACTORS
330
2A
102
}
330
2A
100
AcDbVisualStyle
  2
Facepattern
 70
    15
177
     2
291
     1
 71
     2
176
     1
 72
     2
176
     1
 73
     0
176
     1
 90
        0
176
     1
 40
-0.6
176
     1
 41
-30.0
176
     1
 62
     5
 63
     7
421
 16777215
176
     1
 74
     1
176
     1
 91
        4
176
     1
 64
     7
176
     1
 65
   257
176
     1
 75
     1
176
     1
175
     1
176
     1
 42
1.0
176
     1
 92
        8
176
     1
 66
     7
176
     1
 43
1.0
176
     1
 76
     1
176
     1
 77
     6
176
     1
 78
     2
176
     1
 67
     7
176
     1
 79
     5
176
     1
170
     0
176
     1
171
     0
176
     1
290
     0
176
     1
 93
        1
176
     1
 44
0.0
176
     1
173
     0
176
     1
  0
VISUALSTYLE
  5
2B
102
{ACAD_REACTORS
330
2A
102
}
330
2A
100
AcDbVisualStyle
  2
Flat
 70
     0
177
     2
291
     1
 71
     2
176
     1
 72
     1
176
     1
 73
     1
176
     1
 90
        2
176
     1
 40
-0.6
176
     1
 41
30.0
176
     1
 62
     5
 63
     7
421
 16777215
176
     1
 74
     0
176
     1
 91
        4
176
     1
 64
     7
176
     1
 65
   257
176
     1
 75
     1
176
     1
175
     1
176
     1
 42
1.0
176
     1
 92
        8
176
     1
 66
     7
176
     1
 43
1.0
176
     1
 76
     1
176
     1
 77
     6
176
     1
 78
     2
176
     1
 67
     7
176
     1
 79
     5
176
     1
170
     0
176
     1
171
     0
176
     1
290
     0
176
     1
 93
       13
176
     1
 44
0.0
176
     1
173
     0
176
     1
  0
VISUALSTYLE
  5
2C
102
{ACAD_REACTORS
330
2A
102
}
330
2A
100
AcDbVisualStyle
  2
FlatWithEdges
 70
     1
177
     2
291
     1
 71
     2
176
     1
 72
     1
176
     1
 73
     1
176
     1
 90
        2
176
     1
 40
-0.6
176
     1
 41
30.0
176
     1
 62
     5
 63
     7
421
 16777215
176
     1
 74
     1
176
     1
 91
        4
176
     1
 64
     7
176
     1
 65
   257
176
     1
 75
     1
176
     1
175
     1
176
     1
 42
1.0
176
     1
 92
        0
176
     1
 66
   257
176
     1
 43
1.0
176
     1
 76
     1
176
     1
 77
     6
176
     1
 78
     2
176
     1
 67
     7
176
     1
 79
     5
176
     1
170
     0
176
     1
171
     0
176
     1
290
     0
176
     1
 93
       13
176
     1
 44
0.0
176
     1
173
     0
176
     1
  0
VISUALSTYLE
  5
2D
102
{ACAD_REACTORS
330
2A
102
}
330
2A
100
AcDbVisualStyle
  2
Gouraud
 70
     2
177
     2
291
     1
 71
     2
176
     1
 72
     2
176
     1
 73
     1
176
     1
 90
        2
176
     1
 40
-0.6
176
     1
 41
30.0
176
     1
 62
     5
 63
     7
421
 16777215
176
     1
 74
     0
176
     1
 91
        4
176
     1
 64
     7
176
     1
 65
   257
176
     1
 75
     1
176
     1
175
     1
176
     1
 42
1.0
176
     1
 92
        0
176
     1
 66
     7
176
     1
 43
1.0
176
     1
 76
     1
176
     1
 77
     6
176
     1
 78
     2
176
     1
 67
     7
176
     1
 79
     5
176
     1
170
     0
176
     1
171
     0
176
     1
290
     0
176
     1
 93
       13
176
     1
 44
0.0
176
     1
173
     0
176
     1
  0
VISUALSTYLE
  5
2E
102
{ACAD_REACTORS
330
2A
102
}
330
2A
100
AcDbVisualStyle
  2
GouraudWithEdges
 70
     3
177
     2
291
     1
 71
     2
176
     1
 72
     2
176
     1
 73
     1
176
     1
 90
        2
176
     1
 40
-0.6
176
     1
 41
30.0
176
     1
 62
     5
 63
     7
421
 16777215
176
     1
 74
     1
176
     1
 91
        4
176
     1
 64
     7
176
     1
 65
   257
176
     1
 75
     1
176
     1
175
     1
176
     1
 42
1.0
176
     1
 92
        0
176
     1
 66
   257
176
     1
 43
1.0
176
     1
 76
     1
176
     1
 77
     6
176
     1
 78
     2
176
     1
 67
     7
176
     1
 79
     5
176
     1
170
     0
176
     1
171
     0
176
     1
290
     0
176
     1
 93
       13
176
     1
 44
0.0
176
     1
173
     0
176
     1
  0
VISUALSTYLE
  5
38
102
{ACAD_REACTORS
330
2A
102
}
330
2A
100
AcDbVisualStyle
  2
Linepattern
 70
    14
177
     2
291
     1
 71
     2
176
     1
 72
     2
176
     1
 73
     0
176
     1
 90
        0
176
     1
 40
-0.6
176
     1
 41
-30.0
176
     1
 62
     5
 63
     7
421
 16777215
176
     1
 74
     1
176
     1
 91
        4
176
     1
 64
     7
176
     1
 65
   257
176
     1
 75
     7
176
     1
175
     7
176
     1
 42
1.0
176
     1
 92
        8
176
     1
 66
     7
176
     1
 43
1.0
176
     1
 76
     1
176
     1
 77
     6
176
     1
 78
     2
176
     1
 67
     7
176
     1
 79
     5
176
     1
170
     0
176
     1
171
     0
176
     1
290
     0
176
     1
 93
        1
176
     1
 44
0.0
176
     1
173
     0
176
     1
  0
VISUALSTYLE
  5
33
102
{ACAD_REACTORS
330
2A
102
}
330
2A
100
AcDbVisualStyle
  2
Realistic
 70
     8
177
     2
291
     0
 71
     2
176
     1
 72
     2
176
     1
 73
     0
176
     1
 90
        0
176
     1
 40
-0.6
176
     1
 41
-30.0
176
     1
 62
     5
 63
     7
421
 16777215
176
     1
 74
     1
176
     1
 91
        0
176
     1
 64
     7
176
     1
 65
   257
176
     1
 75
     1
176
     1
175
     1
176
     1
 42
1.0
176
     1
 92
        8
176
     1
 66
     8
424
  7895160
176
     1
 43
1.0
176
     1
 76
     1
176
     1
 77
     6
176
     1
 78
     2
176
     1
 67
     7
176
     1
 79
     5
176
     1
170
     0
176
     1
171
     0
176
     1
290
     0
176
     1
 93
       13
176
     1
 44
0.0
176
     1
173
     0
176
     1
  0
VISUALSTYLE
  5
37
102
{ACAD_REACTORS
330
2A
102
}
330
2A
100
AcDbVisualStyle
  2
Thicken
 70
    13
177
     2
291
     1
 71
     2
176
     1
 72
     2
176
     1
 73
     0
176
     1
 90
        0
176
     1
 40
-0.6
176
     1
 41
-30.0
176
     1
 62
     5
 63
     7
421
 16777215
176
     1
 74
     1
176
     1
 91
        4
176
     1
 64
     7
176
     1
 65
   257
176
     1
 75
     1
176
     1
175
     1
176
     1
 42
1.0
176
     1
 92
       12
176
     1
 66
     7
176
     1
 43
1.0
176
     1
 76
     1
176
     1
 77
     6
176
     1
 78
     2
176
     1
 67
     7
176
     1
 79
     5
176
     1
170
     0
176
     1
171
     0
176
     1
290
     0
176
     1
 93
        1
176
     1
 44
0.0
176
     1
173
     0
176
     1
  0
ENDSEC
  0
EOF
