  0
SECTION
  2
HEADER
  9
$ACADVER
  1
AC1024
  9
$ACADMAINTVER
 70
     6
  9
$DWGCODEPAGE
  3
UNDEFINED
  9
$INSBASE
 10
0.0
 20
0.0
 30
0.0
  9
$EXTMIN
 10
1.000000000000000E+20
 20
1.000000000000000E+20
 30
1.000000000000000E+20
  9
$EXTMAX
 10
-1.000000000000000E+20
 20
-1.000000000000000E+20
 30
-1.000000000000000E+20
  9
$LIMMIN
 10
0.0
 20
0.0
  9
$LIMMAX
 10
12.0
 20
9.0
  9
$ORTHOMODE
 70
     0
  9
$REGENMODE
 70
     1
  9
$FILLMODE
 70
     1
  9
$QTEXTMODE
 70
     0
  9
$MIRRTEXT
 70
     1
  9
$LTSCALE
 40
1.0
  9
$ATTMODE
 70
     1
  9
$TEXTSIZE
 40
0.2
  9
$TRACEWID
 40
0.05
  9
$TEXTSTYLE
  7
Standard
  9
$CLAYER
  8
0
  9
$CELTYPE
  6
ByLayer
  9
$CECOLOR
 62
   256
  9
$CELTSCALE
 40
1.0
  9
$DISPSILH
 70
     0
  9
$DIMSCALE
 40
1.0
  9
$DIMASZ
 40
0.18
  9
$DIMEXO
 40
0.0625
  9
$DIMDLI
 40
0.38
  9
$DIMRND
 40
0.0
  9
$DIMDLE
 40
0.0
  9
$DIMEXE
 40
0.18
  9
$DIMTP
 40
0.0
  9
$DIMTM
 40
0.0
  9
$DIMTXT
 40
0.18
  9
$DIMCEN
 40
0.09
  9
$DIMTSZ
 40
0.0
  9
$DIMTOL
 70
     0
  9
$DIMLIM
 70
     0
  9
$DIMTIH
 70
     1
  9
$DIMTOH
 70
     1
  9
$DIMSE1
 70
     0
  9
$DIMSE2
 70
     0
  9
$DIMTAD
 70
     0
  9
$DIMZIN
 70
     0
  9
$DIMBLK
  1

  9
$DIMASO
 70
     1
  9
$DIMSHO
 70
     1
  9
$DIMPOST
  1

  9
$DIMAPOST
  1

  9
$DIMALT
 70
     0
  9
$DIMALTD
 70
     2
  9
$DIMALTF
 40
25.4
  9
$DIMLFAC
 40
1.0
  9
$DIMTOFL
 70
     0
  9
$DIMTVP
 40
0.0
  9
$DIMTIX
 70
     0
  9
$DIMSOXD
 70
     0
  9
$DIMSAH
 70
     0
  9
$DIMBLK1
  1

  9
$DIMBLK2
  1

  9
$DIMSTYLE
  2
Standard
  9
$DIMCLRD
 70
     0
  9
$DIMCLRE
 70
     0
  9
$DIMCLRT
 70
     0
  9
$DIMTFAC
 40
1.0
  9
$DIMGAP
 40
0.09
  9
$DIMJUST
 70
     0
  9
$DIMSD1
 70
     0
  9
$DIMSD2
 70
     0
  9
$DIMTOLJ
 70
     1
  9
$DIMTZIN
 70
     0
  9
$DIMALTZ
 70
     0
  9
$DIMALTTZ
 70
     0
  9
$DIMUPT
 70
     0
  9
$DIMDEC
 70
     4
  9
$DIMTDEC
 70
     4
  9
$DIMALTU
 70
     2
  9
$DIMALTTD
 70
     2
  9
$DIMTXSTY
  7
Standard
  9
$DIMAUNIT
 70
     0
  9
$DIMADEC
 70
     0
  9
$DIMALTRND
 40
0.0
  9
$DIMAZIN
 70
     0
  9
$DIMDSEP
 70
    46
  9
$DIMATFIT
 70
     3
  9
$DIMFRAC
 70
     0
  9
$DIMLDRBLK
  1

  9
$DIMLUNIT
 70
     2
  9
$DIMLWD
 70
    -2
  9
$DIMLWE
 70
    -2
  9
$DIMTMOVE
 70
     0
  9
$DIMFXL
 40
1.0
  9
$DIMFXLON
 70
     0
  9
$DIMJOGANG
 40
0.7853981633974483
  9
$DIMTFILL
 70
     0
  9
$DIMTFILLCLR
 70
     0
  9
$DIMARCSYM
 70
     0
  9
$DIMLTYPE
  6

  9
$DIMLTEX1
  6

  9
$DIMLTEX2
  6

  9
$DIMTXTDIRECTION
 70
     0
  9
$LUNITS
 70
     2
  9
$LUPREC
 70
     4
  9
$SKETCHINC
 40
0.1
  9
$FILLETRAD
 40
0.5
  9
$AUNITS
 70
     0
  9
$AUPREC
 70
     0
  9
$MENU
  1
.
  9
$ELEVATION
 40
0.0
  9
$PELEVATION
 40
0.0
  9
$THICKNESS
 40
0.0
  9
$LIMCHECK
 70
     0
  9
$CHAMFERA
 40
0.5
  9
$CHAMFERB
 40
0.5
  9
$CHAMFERC
 40
1.0
  9
$CHAMFERD
 40
0.0
  9
$SKPOLY
 70
     0
  9
$TDCREATE
 40
2457917.61653934
  9
$TDUCREATE
 40
2457917.241539352
  9
$TDUPDATE
 40
2457917.61653934
  9
$TDUUPDATE
 40
2457917.241539352
  9
$TDINDWG
 40
0.0000000116
  9
$TDUSRTIMER
 40
0.0000000116
  9
$USRTIMER
 70
     1
  9
$ANGBASE
 50
0.0
  9
$ANGDIR
 70
     0
  9
$PDMODE
 70
     0
  9
$PDSIZE
 40
0.0
  9
$PLINEWID
 40
0.0
  9
$SPLFRAME
 70
     0
  9
$SPLINETYPE
 70
     6
  9
$SPLINESEGS
 70
     8
  9
$HANDSEED
  5
F1
  9
$SURFTAB1
 70
     6
  9
$SURFTAB2
 70
     6
  9
$SURFTYPE
 70
     6
  9
$SURFU
 70
     6
  9
$SURFV
 70
     6
  9
$UCSBASE
  2

  9
$UCSNAME
  2

  9
$UCSORG
 10
0.0
 20
0.0
 30
0.0
  9
$UCSXDIR
 10
1.0
 20
0.0
 30
0.0
  9
$UCSYDIR
 10
0.0
 20
1.0
 30
0.0
  9
$UCSORTHOREF
  2

  9
$UCSORTHOVIEW
 70
     0
  9
$UCSORGTOP
 10
0.0
 20
0.0
 30
0.0
  9
$UCSORGBOTTOM
 10
0.0
 20
0.0
 30
0.0
  9
$UCSORGLEFT
 10
0.0
 20
0.0
 30
0.0
  9
$UCSORGRIGHT
 10
0.0
 20
0.0
 30
0.0
  9
$UCSORGFRONT
 10
0.0
 20
0.0
 30
0.0
  9
$UCSORGBACK
 10
0.0
 20
0.0
 30
0.0
  9
$PUCSBASE
  2

  9
$PUCSNAME
  2

  9
$PUCSORG
 10
0.0
 20
0.0
 30
0.0
  9
$PUCSXDIR
 10
1.0
 20
0.0
 30
0.0
  9
$PUCSYDIR
 10
0.0
 20
1.0
 30
0.0
  9
$PUCSORTHOREF
  2

  9
$PUCSORTHOVIEW
 70
     0
  9
$PUCSORGTOP
 10
0.0
 20
0.0
 30
0.0
  9
$PUCSORGBOTTOM
 10
0.0
 20
0.0
 30
0.0
  9
$PUCSORGLEFT
 10
0.0
 20
0.0
 30
0.0
  9
$PUCSORGRIGHT
 10
0.0
 20
0.0
 30
0.0
  9
$PUCSORGFRONT
 10
0.0
 20
0.0
 30
0.0
  9
$PUCSORGBACK
 10
0.0
 20
0.0
 30
0.0
  9
$USERI1
 70
     0
  9
$USERI2
 70
     0
  9
$USERI3
 70
     0
  9
$USERI4
 70
     0
  9
$USERI5
 70
     0
  9
$USERR1
 40
0.0
  9
$USERR2
 40
0.0
  9
$USERR3
 40
0.0
  9
$USERR4
 40
0.0
  9
$USERR5
 40
0.0
  9
$WORLDVIEW
 70
     1
  9
$SHADEDGE
 70
     3
  9
$SHADEDIF
 70
    70
  9
$TILEMODE
 70
     1
  9
$MAXACTVP
 70
    64
  9
$PINSBASE
 10
0.0
 20
0.0
 30
0.0
  9
$PLIMCHECK
 70
     0
  9
$PEXTMIN
 10
1.000000000000000E+20
 20
1.000000000000000E+20
 30
1.000000000000000E+20
  9
$PEXTMAX
 10
-1.000000000000000E+20
 20
-1.000000000000000E+20
 30
-1.000000000000000E+20
  9
$PLIMMIN
 10
0.0
 20
0.0
  9
$PLIMMAX
 10
12.0
 20
9.0
  9
$UNITMODE
 70
     0
  9
$VISRETAIN
 70
     1
  9
$PLINEGEN
 70
     0
  9
$PSLTSCALE
 70
     1
  9
$TREEDEPTH
 70
  3020
  9
$CMLSTYLE
  2
Standard
  9
$CMLJUST
 70
     0
  9
$CMLSCALE
 40
1.0
  9
$PROXYGRAPHICS
 70
     1
  9
$MEASUREMENT
 70
     0
  9
$CELWEIGHT
370
    -1
  9
$ENDCAPS
280
     0
  9
$JOINSTYLE
280
     0
  9
$LWDISPLAY
290
     1
  9
$INSUNITS
 70
     1
  9
$HYPERLINKBASE
  1

  9
$STYLESHEET
  1

  9
$XEDIT
290
     1
  9
$CEPSNTYPE
380
     0
  9
$PSTYLEMODE
290
     1
  9
$FINGERPRINTGUID
  2
{F71C7335-B80C-95C4-77B2-923E2266C2A9}
  9
$VERSIONGUID
  2
{FAEB1C32-E019-11D5-929B-00C0DF256EC4}
  9
$EXTNAMES
290
     1
  9
$PSVPSCALE
 40
0.0
  9
$OLESTARTUP
290
     0
  9
$SORTENTS
280
   127
  9
$INDEXCTL
280
     0
  9
$HIDETEXT
280
     1
  9
$XCLIPFRAME
280
     2
  9
$HALOGAP
280
     0
  9
$OBSCOLOR
 70
   257
  9
$OBSLTYPE
280
     0
  9
$INTERSECTIONDISPLAY
280
     0
  9
$INTERSECTIONCOLOR
 70
   257
  9
$DIMASSOC
280
     2
  9
$PROJECTNAME
  1

  9
$CAMERADISPLAY
290
     0
  9
$LENSLENGTH
 40
50.0
  9
$CAMERAHEIGHT
 40
0.0
  9
$STEPSPERSEC
 40
2.0
  9
$STEPSIZE
 40
6.0
  9
$3DDWFPREC
 40
2.0
  9
$PSOLWIDTH
 40
0.25
  9
$PSOLHEIGHT
 40
4.0
  9
$LOFTANG1
 40
1.570796326794897
  9
$LOFTANG2
 40
1.570796326794897
  9
$LOFTMAG1
 40
0.0
  9
$LOFTMAG2
 40
0.0
  9
$LOFTPARAM
 70
     7
  9
$LOFTNORMALS
280
     1
  9
$LATITUDE
 40
37.795
  9
$LONGITUDE
 40
-122.394
  9
$NORTHDIRECTION
 40
0.0
  9
$TIMEZONE
 70
 -8000
  9
$LIGHTGLYPHDISPLAY
280
     1
  9
$TILEMODELIGHTSYNCH
280
     1
  9
$CMATERIAL
347
3C
  9
$SOLIDHIST
280
     1
  9
$SHOWHIST
280
     1
  9
$DWFFRAME
280
     2
  9
$DGNFRAME
280
     2
  9
$REALWORLDSCALE
290
     1
  9
$INTERFERECOLOR
 62
   256
  9
$CSHADOW
280
     0
  9
$SHADOWPLANELOCATION
 40
0.0
  0
ENDSEC
  0
SECTION
  2
CLASSES
  0
CLASS
  1
ACDBDICTIONARYWDFLT
  2
AcDbDictionaryWithDefault
  3
ObjectDBX Classes
 90
        0
 91
        4
280
     0
281
     0
  0
CLASS
  1
VISUALSTYLE
  2
AcDbVisualStyle
  3
ObjectDBX Classes
 90
     4095
 91
        4
280
     0
281
     0
  0
CLASS
  1
MATERIAL
  2
AcDbMaterial
  3
ObjectDBX Classes
 90
     1153
 91
        4
280
     0
281
     0
  0
CLASS
  1
SUN
  2
AcDbSun
  3
SCENEOE
 90
     1024
 91
        4
280
     0
281
     0
  0
ENDSEC
  0
SECTION
  2
TABLES
  0
TABLE
  2
VPORT
  5
8
330
0
100
AcDbSymbolTable
 70
     1
  0
VPORT
  5
29
330
8
100
AcDbSymbolTableRecord
100
AcDbViewportTableRecord
  2
*Active
 70
     0
 10
0.0
 20
0.0
 11
1.0
 21
1.0
 12
0.0
 22
0.0
 13
0.0
 23
0.0
 14
0.5
 24
0.5
 15
0.5
 25
0.5
 16
0.0
 26
0.0
 36
1.0
 17
91.00082462281999
 27
-128.4993055234307
 37
0.0
 40
256.9986110468615
 41
0.7081814508812795
 42
50.0
 43
0.0
 44
0.0
 50
0.0
 51
0.0
 71
     0
 72
   100
 73
     1
 74
     3
 75
     0
 76
     0
 77
     0
 78
     0
281
     0
 65
     1
110
0.0
120
0.0
130
0.0
111
1.0
121
0.0
131
0.0
112
0.0
122
1.0
132
0.0
 79
     0
146
0.0
 60
     3
 61
     5
292
     1
282
     1
141
0.0
142
0.0
 63
   250
361
3F
  0
ENDTAB
  0
TABLE
  2
LTYPE
  5
5
330
0
100
AcDbSymbolTable
 70
     1
  0
LTYPE
  5
14
330
5
100
AcDbSymbolTableRecord
100
AcDbLinetypeTableRecord
  2
ByBlock
 70
     0
  3

 72
    65
 73
     0
 40
0.0
  0
LTYPE
  5
15
330
5
100
AcDbSymbolTableRecord
100
AcDbLinetypeTableRecord
  2
ByLayer
 70
     0
  3

 72
    65
 73
     0
 40
0.0
  0
LTYPE
  5
16
330
5
100
AcDbSymbolTableRecord
100
AcDbLinetypeTableRecord
  2
Continuous
 70
     0
  3
Solid line
 72
    65
 73
     0
 40
0.0
  0
ENDTAB
  0
TABLE
  2
LAYER
  5
2
330
0
100
AcDbSymbolTable
 70
     2
  0
LAYER
  5
10
330
2
100
AcDbSymbolTableRecord
100
AcDbLayerTableRecord
  2
0
 70
     0
 62
     7
  6
Continuous
370
    -3
390
F
347
3E
  0
LAYER
  5
40
330
2
100
AcDbSymbolTableRecord
100
AcDbLayerTableRecord
  2
_U+30EC_U+30A4_U+30E4_U+30FC 1
 70
     0
 62
     7
  6
Continuous
370
    -3
390
F
347
3E
  0
ENDTAB
  0
TABLE
  2
STYLE
  5
3
330
0
100
AcDbSymbolTable
 70
     1
  0
STYLE
  5
11
330
3
100
AcDbSymbolTableRecord
100
AcDbTextStyleTableRecord
  2
Standard
 70
     0
 40
0.0
 41
1.0
 50
0.0
 71
     0
 42
0.2
  3
txt
  4

  0
ENDTAB
  0
TABLE
  2
VIEW
  5
6
330
0
100
AcDbSymbolTable
 70
     0
  0
ENDTAB
  0
TABLE
  2
UCS
  5
7
330
0
100
AcDbSymbolTable
 70
     0
  0
ENDTAB
  0
TABLE
  2
APPID
  5
9
330
0
100
AcDbSymbolTable
 70
     1
  0
APPID
  5
12
330
9
100
AcDbSymbolTableRecord
100
AcDbRegAppTableRecord
  2
ACAD
 70
     0
  0
ENDTAB
  0
TABLE
  2
DIMSTYLE
  5
A
330
0
100
AcDbSymbolTable
 70
     1
100
AcDbDimStyleTable
  0
DIMSTYLE
105
27
330
A
100
AcDbSymbolTableRecord
100
AcDbDimStyleTableRecord
  2
Standard
 70
     0
178
     0
340
11
  0
ENDTAB
  0
TABLE
  2
BLOCK_RECORD
  5
1
330
0
100
AcDbSymbolTable
 70
     7
  0
BLOCK_RECORD
  5
1F
330
1
100
AcDbSymbolTableRecord
100
AcDbBlockTableRecord
  2
*Model_Space
340
22
 70
     0
280
     1
281
     0
  0
BLOCK_RECORD
  5
1B
330
1
100
AcDbSymbolTableRecord
100
AcDbBlockTableRecord
  2
*Paper_Space
340
1E
 70
     0
280
     1
281
     0
  0
BLOCK_RECORD
  5
23
330
1
100
AcDbSymbolTableRecord
100
AcDbBlockTableRecord
  2
*Paper_Space0
340
26
 70
     0
280
     1
281
     0
  0
BLOCK_RECORD
  5
67
330
1
100
AcDbSymbolTableRecord
100
AcDbBlockTableRecord
  2
block 2
340
0
102
{BLKREFS
331
68
102
}
 70
     0
280
     1
281
     0
  0
BLOCK_RECORD
  5
76
330
1
100
AcDbSymbolTableRecord
100
AcDbBlockTableRecord
  2
block 3
340
0
102
{BLKREFS
331
77
102
}
 70
     0
280
     1
281
     0
  0
BLOCK_RECORD
  5
95
330
1
100
AcDbSymbolTableRecord
100
AcDbBlockTableRecord
  2
block 4
340
0
102
{BLKREFS
331
96
102
}
 70
     0
280
     1
281
     0
  0
BLOCK_RECORD
  5
9B
330
1
100
AcDbSymbolTableRecord
100
AcDbBlockTableRecord
  2
block 5
340
0
102
{BLKREFS
331
9C
102
}
 70
     0
280
     1
281
     0
  0
BLOCK_RECORD
  5
BB
330
1
100
AcDbSymbolTableRecord
100
AcDbBlockTableRecord
  2
block 6
340
0
102
{BLKREFS
331
BC
102
}
 70
     0
280
     1
281
     0
  0
BLOCK_RECORD
  5
CF
330
1
100
AcDbSymbolTableRecord
100
AcDbBlockTableRecord
  2
block 7
340
0
102
{BLKREFS
331
D0
102
}
 70
     0
280
     1
281
     0
  0
ENDTAB
  0
ENDSEC
  0
SECTION
  2
BLOCKS
  0
BLOCK
  5
20
330
1F
100
AcDbEntity
  8
0
100
AcDbBlockBegin
  2
*Model_Space
 70
     0
 10
0.0
 20
0.0
 30
0.0
  3
*Model_Space
  1

  0
ENDBLK
  5
21
330
1F
100
AcDbEntity
  8
0
100
AcDbBlockEnd
  0
BLOCK
  5
1C
330
1B
100
AcDbEntity
 67
     1
  8
0
100
AcDbBlockBegin
  2
*Paper_Space
 70
     0
 10
0.0
 20
0.0
 30
0.0
  3
*Paper_Space
  1

  0
ENDBLK
  5
1D
330
1B
100
AcDbEntity
 67
     1
  8
0
100
AcDbBlockEnd
  0
BLOCK
  5
24
330
23
100
AcDbEntity
  8
0
100
AcDbBlockBegin
  2
*Paper_Space0
 70
     0
 10
0.0
 20
0.0
 30
0.0
  3
*Paper_Space0
  1

  0
ENDBLK
  5
25
330
23
100
AcDbEntity
  8
0
100
AcDbBlockEnd
  0
BLOCK
  5
69
330
67
100
AcDbEntity
  8
0
100
AcDbBlockBegin
  2
block 2
 70
     0
 10
0.0
 20
0.0
 30
0.0
  3
block 2
  1

  0
SPLINE
  5
6B
330
67
100
AcDbEntity
  8
_U+30EC_U+30A4_U+30E4_U+30FC 1
370
     0
100
AcDbSpline
210
0.0
220
0.0
230
1.0
 70
    11
 71
     3
 72
    62
 73
    58
 74
     0
 42
0.0000000001
 43
0.0000000001
 12
1.0
 22
0.0
 32
0.0
 13
1.0
 23
0.0
 33
0.0
 40
0.0
 40
0.0
 40
0.0
 40
0.0
 40
1.0
 40
1.0
 40
1.0
 40
2.0
 40
2.0
 40
2.0
 40
3.0
 40
3.0
 40
3.0
 40
4.0
 40
4.0
 40
4.0
 40
5.0
 40
5.0
 40
5.0
 40
6.0
 40
6.0
 40
6.0
 40
7.0
 40
7.0
 40
7.0
 40
8.0
 40
8.0
 40
8.0
 40
9.0
 40
9.0
 40
9.0
 40
10.0
 40
10.0
 40
10.0
 40
11.0
 40
11.0
 40
11.0
 40
12.0
 40
12.0
 40
12.0
 40
13.0
 40
13.0
 40
13.0
 40
14.0
 40
14.0
 40
14.0
 40
15.0
 40
15.0
 40
15.0
 40
16.0
 40
16.0
 40
16.0
 40
17.0
 40
17.0
 40
17.0
 40
18.0
 40
18.0
 40
18.0
 40
19.0
 40
19.0
 40
19.0
 40
19.0
 10
101.1028726960784
 20
-125.1765109279073
 30
0.0
 10
101.1028726960784
 20
-125.2719400728487
 30
0.0
 10
101.0818576136184
 20
-125.4896701075165
 30
0.0
 10
100.8958224574149
 20
-125.614727073631
 30
0.0
 10
100.7835123445958
 20
-125.6887966265639
 30
0.0
 10
100.6842935946206
 20
-125.6929307411462
 30
0.0
 10
100.5995442456834
 20
-125.6970648557285
 30
0.0
 10
100.5995442456834
 20
-125.6970648557285
 30
0.0
 10
100.5995442456834
 20
-125.476923254221
 30
0.0
 10
100.5995442456834
 20
-125.476923254221
 30
0.0
 10
100.6736137986163
 20
-125.4748561969299
 30
0.0
 10
100.9082248011618
 20
-125.4645209104741
 30
0.0
 10
100.9082248011618
 20
-125.1809895520381
 30
0.0
 10
100.9082248011618
 20
-125.0435302421766
 30
0.0
 10
100.8386338723598
 20
-124.8909125121801
 30
0.0
 10
100.6102240416877
 20
-124.8909125121801
 30
0.0
 10
100.4937798142863
 20
-124.8909125121801
 30
0.0
 10
100.4452039679443
 20
-124.9291530720663
 30
0.0
 10
100.41350908948
 20
-124.9608479505306
 30
0.0
 10
100.3394395365471
 20
-125.0349175034635
 30
0.0
 10
100.3266926832517
 20
-125.1513617308649
 30
0.0
 10
100.3266926832517
 20
-125.2061387490804
 30
0.0
 10
100.3266926832517
 20
-125.2254312837978
 30
0.0
 10
100.3287597405428
 20
-125.2612602768444
 30
0.0
 10
100.3328938551251
 20
-125.2888210407264
 30
0.0
 10
100.3328938551251
 20
-125.2888210407264
 30
0.0
 10
100.1382459602085
 20
-125.2888210407264
 30
0.0
 10
100.1382459602085
 20
-125.2888210407264
 30
0.0
 10
100.1447916416305
 20
-125.2505804808401
 30
0.0
 10
100.1468586989216
 20
-125.2085503159201
 30
0.0
 10
100.1468586989216
 20
-125.2020046344981
 30
0.0
 10
100.1468586989216
 20
-125.1365478202784
 30
0.0
 10
100.1254991069131
 20
-124.9377658107795
 30
0.0
 10
99.8888210470764
 20
-124.9377658107795
 30
0.0
 10
99.71105412003752
 20
-124.9377658107795
 30
0.0
 10
99.65593259227352
 20
-125.068679439219
 30
0.0
 10
99.65593259227352
 20
-125.1789224947469
 30
0.0
 10
99.65593259227352
 20
-125.4431613184656
 30
0.0
 10
99.8888210470764
 20
-125.4517740571787
 30
0.0
 10
99.9604790331696
 20
-125.455908171761
 30
0.0
 10
99.9604790331696
 20
-125.455908171761
 30
0.0
 10
99.9604790331696
 20
-125.6591688053908
 30
0.0
 10
99.9604790331696
 20
-125.6591688053908
 30
0.0
 10
99.83576657660356
 20
-125.6505560666776
 30
0.0
 10
99.45921764006576
 20
-125.6229953027956
 30
0.0
 10
99.45921764006576
 20
-125.1661756414515
 30
0.0
 10
99.45921764006576
 20
-124.9418999253618
 30
0.0
 10
99.58634166347147
 20
-124.7007432413943
 30
0.0
 10
99.88227536565444
 20
-124.7007432413943
 30
0.0
 10
100.0686550314065
 20
-124.7007432413943
 30
0.0
 10
100.1509928135039
 20
-124.7958278767872
 30
0.0
 10
100.2123155131414
 20
-124.8953911363109
 30
0.0
 10
100.2398762770234
 20
-124.8340684366734
 30
0.0
 10
100.3201470018297
 20
-124.6521673950522
 30
0.0
 10
100.5974771883923
 20
-124.6521673950522
 30
0.0
 10
100.9357855650438
 20
-124.6521673950522
 30
0.0
 10
101.1028726960784
 20
-124.8995252508932
 30
0.0
 10
101.1028726960784
 20
-125.1765109279073
 30
0.0
  0
HATCH
  5
6C
330
67
100
AcDbEntity
  8
_U+30EC_U+30A4_U+30E4_U+30FC 1
 62
     7
420
 16777215
100
AcDbHatch
 10
0.0
 20
0.0
 30
0.0
210
0.0
220
0.0
230
1.0
  2
SOLID
 70
     1
 71
     0
 91
        1
 92
        1
 93
        1
 72
     4
 94
        3
 73
     0
 74
     1
 95
       62
 96
       58
 40
0.0
 40
0.0
 40
0.0
 40
0.0
 40
1.0
 40
1.0
 40
1.0
 40
2.0
 40
2.0
 40
2.0
 40
3.0
 40
3.0
 40
3.0
 40
4.0
 40
4.0
 40
4.0
 40
5.0
 40
5.0
 40
5.0
 40
6.0
 40
6.0
 40
6.0
 40
7.0
 40
7.0
 40
7.0
 40
8.0
 40
8.0
 40
8.0
 40
9.0
 40
9.0
 40
9.0
 40
10.0
 40
10.0
 40
10.0
 40
11.0
 40
11.0
 40
11.0
 40
12.0
 40
12.0
 40
12.0
 40
13.0
 40
13.0
 40
13.0
 40
14.0
 40
14.0
 40
14.0
 40
15.0
 40
15.0
 40
15.0
 40
16.0
 40
16.0
 40
16.0
 40
17.0
 40
17.0
 40
17.0
 40
18.0
 40
18.0
 40
18.0
 40
19.0
 40
19.0
 40
19.0
 40
19.0
 10
101.1028726960784
 20
-125.1765109279073
 10
101.1028726960784
 20
-125.2719400728487
 10
101.0818576136184
 20
-125.4896701075165
 10
100.8958224574149
 20
-125.614727073631
 10
100.7835123445958
 20
-125.6887966265639
 10
100.6842935946206
 20
-125.6929307411462
 10
100.5995442456834
 20
-125.6970648557285
 10
100.5995442456834
 20
-125.6970648557285
 10
100.5995442456834
 20
-125.476923254221
 10
100.5995442456834
 20
-125.476923254221
 10
100.6736137986163
 20
-125.4748561969299
 10
100.9082248011618
 20
-125.4645209104741
 10
100.9082248011618
 20
-125.1809895520381
 10
100.9082248011618
 20
-125.0435302421766
 10
100.8386338723598
 20
-124.8909125121801
 10
100.6102240416877
 20
-124.8909125121801
 10
100.4937798142863
 20
-124.8909125121801
 10
100.4452039679443
 20
-124.9291530720663
 10
100.41350908948
 20
-124.9608479505306
 10
100.3394395365471
 20
-125.0349175034635
 10
100.3266926832517
 20
-125.1513617308649
 10
100.3266926832517
 20
-125.2061387490804
 10
100.3266926832517
 20
-125.2254312837978
 10
100.3287597405428
 20
-125.2612602768444
 10
100.3328938551251
 20
-125.2888210407264
 10
100.3328938551251
 20
-125.2888210407264
 10
100.1382459602085
 20
-125.2888210407264
 10
100.1382459602085
 20
-125.2888210407264
 10
100.1447916416305
 20
-125.2505804808401
 10
100.1468586989216
 20
-125.2085503159201
 10
100.1468586989216
 20
-125.2020046344981
 10
100.1468586989216
 20
-125.1365478202784
 10
100.1254991069131
 20
-124.9377658107795
 10
99.8888210470764
 20
-124.9377658107795
 10
99.71105412003752
 20
-124.9377658107795
 10
99.65593259227352
 20
-125.068679439219
 10
99.65593259227352
 20
-125.1789224947469
 10
99.65593259227352
 20
-125.4431613184656
 10
99.8888210470764
 20
-125.4517740571787
 10
99.9604790331696
 20
-125.455908171761
 10
99.9604790331696
 20
-125.455908171761
 10
99.9604790331696
 20
-125.6591688053908
 10
99.9604790331696
 20
-125.6591688053908
 10
99.83576657660356
 20
-125.6505560666776
 10
99.45921764006576
 20
-125.6229953027956
 10
99.45921764006576
 20
-125.1661756414515
 10
99.45921764006576
 20
-124.9418999253618
 10
99.58634166347147
 20
-124.7007432413943
 10
99.88227536565444
 20
-124.7007432413943
 10
100.0686550314065
 20
-124.7007432413943
 10
100.1509928135039
 20
-124.7958278767872
 10
100.2123155131414
 20
-124.8953911363109
 10
100.2398762770234
 20
-124.8340684366734
 10
100.3201470018297
 20
-124.6521673950522
 10
100.5974771883923
 20
-124.6521673950522
 10
100.9357855650438
 20
-124.6521673950522
 10
101.1028726960784
 20
-124.8995252508932
 10
101.1028726960784
 20
-125.1765109279073
 97
        0
 97
        0
 75
     2
 76
     1
 98
        0
  0
ENDBLK
  5
6A
330
67
100
AcDbEntity
  8
0
100
AcDbBlockEnd
  0
BLOCK
  5
78
330
76
100
AcDbEntity
  8
0
100
AcDbBlockBegin
  2
block 3
 70
     0
 10
0.0
 20
0.0
 30
0.0
  3
block 3
  1

  0
SPLINE
  5
7A
330
76
100
AcDbEntity
  8
_U+30EC_U+30A4_U+30E4_U+30FC 1
370
     0
100
AcDbSpline
210
0.0
220
0.0
230
1.0
 70
    11
 71
     3
 72
    53
 73
    49
 74
     0
 42
0.0000000001
 43
0.0000000001
 12
1.0
 22
0.0
 32
0.0
 13
1.0
 23
0.0
 33
0.0
 40
0.0
 40
0.0
 40
0.0
 40
0.0
 40
1.0
 40
1.0
 40
1.0
 40
2.0
 40
2.0
 40
2.0
 40
3.0
 40
3.0
 40
3.0
 40
4.0
 40
4.0
 40
4.0
 40
5.0
 40
5.0
 40
5.0
 40
6.0
 40
6.0
 40
6.0
 40
7.0
 40
7.0
 40
7.0
 40
8.0
 40
8.0
 40
8.0
 40
9.0
 40
9.0
 40
9.0
 40
10.0
 40
10.0
 40
10.0
 40
11.0
 40
11.0
 40
11.0
 40
12.0
 40
12.0
 40
12.0
 40
13.0
 40
13.0
 40
13.0
 40
14.0
 40
14.0
 40
14.0
 40
15.0
 40
15.0
 40
15.0
 40
16.0
 40
16.0
 40
16.0
 40
16.0
 10
101.1028726960784
 20
-130.4040988172254
 30
0.0
 10
101.1028726960784
 20
-130.4823024847405
 30
0.0
 10
101.0859917282007
 20
-130.5839328015554
 30
0.0
 10
101.0226019712721
 20
-130.6855631183703
 30
0.0
 10
100.9127034252927
 20
-130.8588514212784
 30
0.0
 10
100.7814452873046
 20
-130.8802110132869
 30
0.0
 10
100.6736137986163
 20
-130.8991590384558
 30
0.0
 10
100.6736137986163
 20
-130.8991590384558
 30
0.0
 10
100.6736137986163
 20
-130.6769503796572
 30
0.0
 10
100.6736137986163
 20
-130.6769503796572
 30
0.0
 10
100.8723958081152
 20
-130.6221733614417
 30
0.0
 10
100.9020236292884
 20
-130.495049338036
 30
0.0
 10
100.9020236292884
 20
-130.4020317599342
 30
0.0
 10
100.9020236292884
 20
-130.2625053927816
 30
0.0
 10
100.8024603697647
 20
-130.1102321723336
 30
0.0
 10
100.5699164245103
 20
-130.1102321723336
 30
0.0
 10
100.3139458299562
 20
-130.1102321723336
 30
0.0
 10
100.2440103916057
 20
-130.2900661566636
 30
0.0
 10
100.2440103916057
 20
-130.4106444986473
 30
0.0
 10
100.2440103916057
 20
-130.4423393771116
 30
0.0
 10
100.2440103916057
 20
-130.5839328015554
 30
0.0
 10
100.3732014723025
 20
-130.6728162650749
 30
0.0
 10
100.3732014723025
 20
-130.6728162650749
 30
0.0
 10
100.3542534471337
 20
-130.8485161348226
 30
0.0
 10
100.3542534471337
 20
-130.8485161348226
 30
0.0
 10
100.3542534471337
 20
-130.8485161348226
 30
0.0
 10
99.50779348640778
 20
-130.7279377928388
 30
0.0
 10
99.50779348640778
 20
-130.7279377928388
 30
0.0
 10
99.50779348640778
 20
-130.7279377928388
 30
0.0
 10
99.50779348640778
 20
-129.9493462131724
 30
0.0
 10
99.50779348640778
 20
-129.9493462131724
 30
0.0
 10
99.50779348640778
 20
-129.9493462131724
 30
0.0
 10
99.70244138132439
 20
-129.9493462131724
 30
0.0
 10
99.70244138132439
 20
-129.9493462131724
 30
0.0
 10
99.70244138132439
 20
-129.9493462131724
 30
0.0
 10
99.70244138132439
 20
-130.5649847763865
 30
0.0
 10
99.70244138132439
 20
-130.5649847763865
 30
0.0
 10
99.70244138132439
 20
-130.5649847763865
 30
0.0
 10
100.1254991069131
 20
-130.6304415906063
 30
0.0
 10
100.1254991069131
 20
-130.6304415906063
 30
0.0
 10
100.0917371711576
 20
-130.5691188909688
 30
0.0
 10
100.0514295539802
 20
-130.4867811088714
 30
0.0
 10
100.0514295539802
 20
-130.3682698241788
 30
0.0
 10
100.0514295539802
 20
-130.1143662869159
 30
0.0
 10
100.2378092197322
 20
-129.8773437175307
 30
0.0
 10
100.5509683993414
 20
-129.8773437175307
 30
0.0
 10
100.8682616935329
 20
-129.8773437175307
 30
0.0
 10
101.1028726960784
 20
-130.1016194336204
 30
0.0
 10
101.1028726960784
 20
-130.4040988172254
 30
0.0
  0
HATCH
  5
7B
330
76
100
AcDbEntity
  8
_U+30EC_U+30A4_U+30E4_U+30FC 1
 62
     7
420
 16777215
100
AcDbHatch
 10
0.0
 20
0.0
 30
0.0
210
0.0
220
0.0
230
1.0
  2
SOLID
 70
     1
 71
     0
 91
        1
 92
        1
 93
        1
 72
     4
 94
        3
 73
     0
 74
     1
 95
       53
 96
       49
 40
0.0
 40
0.0
 40
0.0
 40
0.0
 40
1.0
 40
1.0
 40
1.0
 40
2.0
 40
2.0
 40
2.0
 40
3.0
 40
3.0
 40
3.0
 40
4.0
 40
4.0
 40
4.0
 40
5.0
 40
5.0
 40
5.0
 40
6.0
 40
6.0
 40
6.0
 40
7.0
 40
7.0
 40
7.0
 40
8.0
 40
8.0
 40
8.0
 40
9.0
 40
9.0
 40
9.0
 40
10.0
 40
10.0
 40
10.0
 40
11.0
 40
11.0
 40
11.0
 40
12.0
 40
12.0
 40
12.0
 40
13.0
 40
13.0
 40
13.0
 40
14.0
 40
14.0
 40
14.0
 40
15.0
 40
15.0
 40
15.0
 40
16.0
 40
16.0
 40
16.0
 40
16.0
 10
101.1028726960784
 20
-130.4040988172254
 10
101.1028726960784
 20
-130.4823024847405
 10
101.0859917282007
 20
-130.5839328015554
 10
101.0226019712721
 20
-130.6855631183703
 10
100.9127034252927
 20
-130.8588514212784
 10
100.7814452873046
 20
-130.8802110132869
 10
100.6736137986163
 20
-130.8991590384558
 10
100.6736137986163
 20
-130.8991590384558
 10
100.6736137986163
 20
-130.6769503796572
 10
100.6736137986163
 20
-130.6769503796572
 10
100.8723958081152
 20
-130.6221733614417
 10
100.9020236292884
 20
-130.495049338036
 10
100.9020236292884
 20
-130.4020317599342
 10
100.9020236292884
 20
-130.2625053927816
 10
100.8024603697647
 20
-130.1102321723336
 10
100.5699164245103
 20
-130.1102321723336
 10
100.3139458299562
 20
-130.1102321723336
 10
100.2440103916057
 20
-130.2900661566636
 10
100.2440103916057
 20
-130.4106444986473
 10
100.2440103916057
 20
-130.4423393771116
 10
100.2440103916057
 20
-130.5839328015554
 10
100.3732014723025
 20
-130.6728162650749
 10
100.3732014723025
 20
-130.6728162650749
 10
100.3542534471337
 20
-130.8485161348226
 10
100.3542534471337
 20
-130.8485161348226
 10
100.3542534471337
 20
-130.8485161348226
 10
99.50779348640778
 20
-130.7279377928388
 10
99.50779348640778
 20
-130.7279377928388
 10
99.50779348640778
 20
-130.7279377928388
 10
99.50779348640778
 20
-129.9493462131724
 10
99.50779348640778
 20
-129.9493462131724
 10
99.50779348640778
 20
-129.9493462131724
 10
99.70244138132439
 20
-129.9493462131724
 10
99.70244138132439
 20
-129.9493462131724
 10
99.70244138132439
 20
-129.9493462131724
 10
99.70244138132439
 20
-130.5649847763865
 10
99.70244138132439
 20
-130.5649847763865
 10
99.70244138132439
 20
-130.5649847763865
 10
100.1254991069131
 20
-130.6304415906063
 10
100.1254991069131
 20
-130.6304415906063
 10
100.0917371711576
 20
-130.5691188909688
 10
100.0514295539802
 20
-130.4867811088714
 10
100.0514295539802
 20
-130.3682698241788
 10
100.0514295539802
 20
-130.1143662869159
 10
100.2378092197322
 20
-129.8773437175307
 10
100.5509683993414
 20
-129.8773437175307
 10
100.8682616935329
 20
-129.8773437175307
 10
101.1028726960784
 20
-130.1016194336204
 10
101.1028726960784
 20
-130.4040988172254
 97
        0
 97
        0
 75
     2
 76
     1
 98
        0
  0
POLYLINE
  5
7C
330
76
100
AcDbEntity
  8
_U+30EC_U+30A4_U+30E4_U+30FC 1
370
     0
100
AcDb2dPolyline
 66
     1
 10
0.0
 20
0.0
 30
0.0
  0
VERTEX
  5
7D
330
7C
100
AcDbEntity
  8
_U+30EC_U+30A4_U+30E4_U+30FC 1
370
     0
100
AcDbVertex
100
AcDb2dVertex
 10
101.0522297924453
 20
-129.6482448677615
 30
0.0
  0
VERTEX
  5
7E
330
7C
100
AcDbEntity
  8
_U+30EC_U+30A4_U+30E4_U+30FC 1
370
     0
100
AcDbVertex
100
AcDb2dVertex
 10
100.8003933124735
 20
-129.6482448677615
 30
0.0
  0
VERTEX
  5
7F
330
7C
100
AcDbEntity
  8
_U+30EC_U+30A4_U+30E4_U+30FC 1
370
     0
100
AcDbVertex
100
AcDb2dVertex
 10
100.8003933124735
 20
-129.3964083877898
 30
0.0
  0
VERTEX
  5
80
330
7C
100
AcDbEntity
  8
_U+30EC_U+30A4_U+30E4_U+30FC 1
370
     0
100
AcDbVertex
100
AcDb2dVertex
 10
101.0522297924453
 20
-129.3964083877898
 30
0.0
  0
VERTEX
  5
81
330
7C
100
AcDbEntity
  8
_U+30EC_U+30A4_U+30E4_U+30FC 1
370
     0
100
AcDbVertex
100
AcDb2dVertex
 10
101.0522297924453
 20
-129.6482448677615
 30
0.0
  0
SEQEND
  5
82
330
7C
100
AcDbEntity
  8
_U+30EC_U+30A4_U+30E4_U+30FC 1
370
     0
  0
HATCH
  5
83
330
76
100
AcDbEntity
  8
_U+30EC_U+30A4_U+30E4_U+30FC 1
 62
     7
420
 16777215
100
AcDbHatch
 10
0.0
 20
0.0
 30
0.0
210
0.0
220
0.0
230
1.0
  2
SOLID
 70
     1
 71
     0
 91
        1
 92
        1
 93
        4
 72
     1
 10
101.0522297924453
 20
-129.6482448677615
 11
100.8003933124735
 21
-129.6482448677615
 72
     1
 10
100.8003933124735
 20
-129.6482448677615
 11
100.8003933124735
 21
-129.3964083877898
 72
     1
 10
100.8003933124735
 20
-129.3964083877898
 11
101.0522297924453
 21
-129.3964083877898
 72
     1
 10
101.0522297924453
 20
-129.3964083877898
 11
101.0522297924453
 21
-129.6482448677615
 97
        0
 75
     2
 76
     1
 98
        0
  0
SPLINE
  5
84
330
76
100
AcDbEntity
  8
_U+30EC_U+30A4_U+30E4_U+30FC 1
370
     0
100
AcDbSpline
210
0.0
220
0.0
230
1.0
 70
    11
 71
     3
 72
    53
 73
    49
 74
     0
 42
0.0000000001
 43
0.0000000001
 12
1.0
 22
0.0
 32
0.0
 13
1.0
 23
0.0
 33
0.0
 40
0.0
 40
0.0
 40
0.0
 40
0.0
 40
1.0
 40
1.0
 40
1.0
 40
2.0
 40
2.0
 40
2.0
 40
3.0
 40
3.0
 40
3.0
 40
4.0
 40
4.0
 40
4.0
 40
5.0
 40
5.0
 40
5.0
 40
6.0
 40
6.0
 40
6.0
 40
7.0
 40
7.0
 40
7.0
 40
8.0
 40
8.0
 40
8.0
 40
9.0
 40
9.0
 40
9.0
 40
10.0
 40
10.0
 40
10.0
 40
11.0
 40
11.0
 40
11.0
 40
12.0
 40
12.0
 40
12.0
 40
13.0
 40
13.0
 40
13.0
 40
14.0
 40
14.0
 40
14.0
 40
15.0
 40
15.0
 40
15.0
 40
16.0
 40
16.0
 40
16.0
 40
16.0
 10
101.1028726960784
 20
-128.6791395077608
 30
0.0
 10
101.1028726960784
 20
-128.7573431752759
 30
0.0
 10
101.0859917282007
 20
-128.8589734920908
 30
0.0
 10
101.0226019712721
 20
-128.9606038089057
 30
0.0
 10
100.9127034252927
 20
-129.1338921118138
 30
0.0
 10
100.7814452873046
 20
-129.1552517038223
 30
0.0
 10
100.6736137986163
 20
-129.1741997289912
 30
0.0
 10
100.6736137986163
 20
-129.1741997289912
 30
0.0
 10
100.6736137986163
 20
-128.9519910701926
 30
0.0
 10
100.6736137986163
 20
-128.9519910701926
 30
0.0
 10
100.8723958081152
 20
-128.8972140519771
 30
0.0
 10
100.9020236292884
 20
-128.7700900285714
 30
0.0
 10
100.9020236292884
 20
-128.6770724504696
 30
0.0
 10
100.9020236292884
 20
-128.537546083317
 30
0.0
 10
100.8024603697647
 20
-128.385272862869
 30
0.0
 10
100.5699164245103
 20
-128.385272862869
 30
0.0
 10
100.3139458299562
 20
-128.385272862869
 30
0.0
 10
100.2440103916057
 20
-128.565106847199
 30
0.0
 10
100.2440103916057
 20
-128.6856851891827
 30
0.0
 10
100.2440103916057
 20
-128.717380067647
 30
0.0
 10
100.2440103916057
 20
-128.8589734920908
 30
0.0
 10
100.3732014723025
 20
-128.9478569556103
 30
0.0
 10
100.3732014723025
 20
-128.9478569556103
 30
0.0
 10
100.3542534471337
 20
-129.123556825358
 30
0.0
 10
100.3542534471337
 20
-129.123556825358
 30
0.0
 10
100.3542534471337
 20
-129.123556825358
 30
0.0
 10
99.50779348640778
 20
-129.0029784833742
 30
0.0
 10
99.50779348640778
 20
-129.0029784833742
 30
0.0
 10
99.50779348640778
 20
-129.0029784833742
 30
0.0
 10
99.50779348640778
 20
-128.2243869037078
 30
0.0
 10
99.50779348640778
 20
-128.2243869037078
 30
0.0
 10
99.50779348640778
 20
-128.2243869037078
 30
0.0
 10
99.70244138132439
 20
-128.2243869037078
 30
0.0
 10
99.70244138132439
 20
-128.2243869037078
 30
0.0
 10
99.70244138132439
 20
-128.2243869037078
 30
0.0
 10
99.70244138132439
 20
-128.840025466922
 30
0.0
 10
99.70244138132439
 20
-128.840025466922
 30
0.0
 10
99.70244138132439
 20
-128.840025466922
 30
0.0
 10
100.1254991069131
 20
-128.9054822811417
 30
0.0
 10
100.1254991069131
 20
-128.9054822811417
 30
0.0
 10
100.0917371711576
 20
-128.8441595815042
 30
0.0
 10
100.0514295539802
 20
-128.7618217994068
 30
0.0
 10
100.0514295539802
 20
-128.6433105147142
 30
0.0
 10
100.0514295539802
 20
-128.3894069774513
 30
0.0
 10
100.2378092197322
 20
-128.1523844080661
 30
0.0
 10
100.5509683993414
 20
-128.1523844080661
 30
0.0
 10
100.8682616935329
 20
-128.1523844080661
 30
0.0
 10
101.1028726960784
 20
-128.3766601241558
 30
0.0
 10
101.1028726960784
 20
-128.6791395077608
 30
0.0
  0
HATCH
  5
85
330
76
100
AcDbEntity
  8
_U+30EC_U+30A4_U+30E4_U+30FC 1
 62
     7
420
 16777215
100
AcDbHatch
 10
0.0
 20
0.0
 30
0.0
210
0.0
220
0.0
230
1.0
  2
SOLID
 70
     1
 71
     0
 91
        1
 92
        1
 93
        1
 72
     4
 94
        3
 73
     0
 74
     1
 95
       53
 96
       49
 40
0.0
 40
0.0
 40
0.0
 40
0.0
 40
1.0
 40
1.0
 40
1.0
 40
2.0
 40
2.0
 40
2.0
 40
3.0
 40
3.0
 40
3.0
 40
4.0
 40
4.0
 40
4.0
 40
5.0
 40
5.0
 40
5.0
 40
6.0
 40
6.0
 40
6.0
 40
7.0
 40
7.0
 40
7.0
 40
8.0
 40
8.0
 40
8.0
 40
9.0
 40
9.0
 40
9.0
 40
10.0
 40
10.0
 40
10.0
 40
11.0
 40
11.0
 40
11.0
 40
12.0
 40
12.0
 40
12.0
 40
13.0
 40
13.0
 40
13.0
 40
14.0
 40
14.0
 40
14.0
 40
15.0
 40
15.0
 40
15.0
 40
16.0
 40
16.0
 40
16.0
 40
16.0
 10
101.1028726960784
 20
-128.6791395077608
 10
101.1028726960784
 20
-128.7573431752759
 10
101.0859917282007
 20
-128.8589734920908
 10
101.0226019712721
 20
-128.9606038089057
 10
100.9127034252927
 20
-129.1338921118138
 10
100.7814452873046
 20
-129.1552517038223
 10
100.6736137986163
 20
-129.1741997289912
 10
100.6736137986163
 20
-129.1741997289912
 10
100.6736137986163
 20
-128.9519910701926
 10
100.6736137986163
 20
-128.9519910701926
 10
100.8723958081152
 20
-128.8972140519771
 10
100.9020236292884
 20
-128.7700900285714
 10
100.9020236292884
 20
-128.6770724504696
 10
100.9020236292884
 20
-128.537546083317
 10
100.8024603697647
 20
-128.385272862869
 10
100.5699164245103
 20
-128.385272862869
 10
100.3139458299562
 20
-128.385272862869
 10
100.2440103916057
 20
-128.565106847199
 10
100.2440103916057
 20
-128.6856851891827
 10
100.2440103916057
 20
-128.717380067647
 10
100.2440103916057
 20
-128.8589734920908
 10
100.3732014723025
 20
-128.9478569556103
 10
100.3732014723025
 20
-128.9478569556103
 10
100.3542534471337
 20
-129.123556825358
 10
100.3542534471337
 20
-129.123556825358
 10
100.3542534471337
 20
-129.123556825358
 10
99.50779348640778
 20
-129.0029784833742
 10
99.50779348640778
 20
-129.0029784833742
 10
99.50779348640778
 20
-129.0029784833742
 10
99.50779348640778
 20
-128.2243869037078
 10
99.50779348640778
 20
-128.2243869037078
 10
99.50779348640778
 20
-128.2243869037078
 10
99.70244138132439
 20
-128.2243869037078
 10
99.70244138132439
 20
-128.2243869037078
 10
99.70244138132439
 20
-128.2243869037078
 10
99.70244138132439
 20
-128.840025466922
 10
99.70244138132439
 20
-128.840025466922
 10
99.70244138132439
 20
-128.840025466922
 10
100.1254991069131
 20
-128.9054822811417
 10
100.1254991069131
 20
-128.9054822811417
 10
100.0917371711576
 20
-128.8441595815042
 10
100.0514295539802
 20
-128.7618217994068
 10
100.0514295539802
 20
-128.6433105147142
 10
100.0514295539802
 20
-128.3894069774513
 10
100.2378092197322
 20
-128.1523844080661
 10
100.5509683993414
 20
-128.1523844080661
 10
100.8682616935329
 20
-128.1523844080661
 10
101.1028726960784
 20
-128.3766601241558
 10
101.1028726960784
 20
-128.6791395077608
 97
        0
 97
        0
 75
     2
 76
     1
 98
        0
  0
ENDBLK
  5
79
330
76
100
AcDbEntity
  8
0
100
AcDbBlockEnd
  0
BLOCK
  5
97
330
95
100
AcDbEntity
  8
0
100
AcDbBlockBegin
  2
block 4
 70
     0
 10
0.0
 20
0.0
 30
0.0
  3
block 4
  1

  0
SPLINE
  5
99
330
95
100
AcDbEntity
  8
_U+30EC_U+30A4_U+30E4_U+30FC 1
370
     0
100
AcDbSpline
210
0.0
220
0.0
230
1.0
 70
    11
 71
     3
 72
    26
 73
    22
 74
     0
 42
0.0000000001
 43
0.0000000001
 12
1.0
 22
0.0
 32
0.0
 13
1.0
 23
0.0
 33
0.0
 40
0.0
 40
0.0
 40
0.0
 40
0.0
 40
1.0
 40
1.0
 40
1.0
 40
2.0
 40
2.0
 40
2.0
 40
3.0
 40
3.0
 40
3.0
 40
4.0
 40
4.0
 40
4.0
 40
5.0
 40
5.0
 40
5.0
 40
6.0
 40
6.0
 40
6.0
 40
7.0
 40
7.0
 40
7.0
 40
7.0
 10
104.4311794443783
 20
-132.8663085605334
 30
0.0
 10
104.4311794443783
 20
-132.8663085605334
 30
0.0
 10
103.3270263413557
 20
-132.8663085605334
 30
0.0
 10
103.3270263413557
 20
-132.8663085605334
 30
0.0
 10
103.3270263413557
 20
-132.8663085605334
 30
0.0
 10
103.3270263413557
 20
-133.1963487080204
 30
0.0
 10
103.3270263413557
 20
-133.1963487080204
 30
0.0
 10
103.3270263413557
 20
-133.1963487080204
 30
0.0
 10
103.17888723549
 20
-133.1963487080204
 30
0.0
 10
103.17888723549
 20
-133.1963487080204
 30
0.0
 10
103.1640733249034
 20
-132.8642415032423
 30
0.0
 10
103.0011203084511
 20
-132.8177327141914
 30
0.0
 10
102.8867431383408
 20
-132.7881048930183
 30
0.0
 10
102.8867431383408
 20
-132.7881048930183
 30
0.0
 10
102.8867431383408
 20
-132.6420328444437
 30
0.0
 10
102.8867431383408
 20
-132.6420328444437
 30
0.0
 10
102.8867431383408
 20
-132.6420328444437
 30
0.0
 10
104.4311794443783
 20
-132.6420328444437
 30
0.0
 10
104.4311794443783
 20
-132.6420328444437
 30
0.0
 10
104.4311794443783
 20
-132.6420328444437
 30
0.0
 10
104.4311794443783
 20
-132.8663085605334
 30
0.0
 10
104.4311794443783
 20
-132.8663085605334
 30
0.0
  0
HATCH
  5
9A
330
95
100
AcDbEntity
  8
_U+30EC_U+30A4_U+30E4_U+30FC 1
 62
     7
420
 16777215
100
AcDbHatch
 10
0.0
 20
0.0
 30
0.0
210
0.0
220
0.0
230
1.0
  2
SOLID
 70
     1
 71
     0
 91
        1
 92
        1
 93
        1
 72
     4
 94
        3
 73
     0
 74
     1
 95
       26
 96
       22
 40
0.0
 40
0.0
 40
0.0
 40
0.0
 40
1.0
 40
1.0
 40
1.0
 40
2.0
 40
2.0
 40
2.0
 40
3.0
 40
3.0
 40
3.0
 40
4.0
 40
4.0
 40
4.0
 40
5.0
 40
5.0
 40
5.0
 40
6.0
 40
6.0
 40
6.0
 40
7.0
 40
7.0
 40
7.0
 40
7.0
 10
104.4311794443783
 20
-132.8663085605334
 10
104.4311794443783
 20
-132.8663085605334
 10
103.3270263413557
 20
-132.8663085605334
 10
103.3270263413557
 20
-132.8663085605334
 10
103.3270263413557
 20
-132.8663085605334
 10
103.3270263413557
 20
-133.1963487080204
 10
103.3270263413557
 20
-133.1963487080204
 10
103.3270263413557
 20
-133.1963487080204
 10
103.17888723549
 20
-133.1963487080204
 10
103.17888723549
 20
-133.1963487080204
 10
103.1640733249034
 20
-132.8642415032423
 10
103.0011203084511
 20
-132.8177327141914
 10
102.8867431383408
 20
-132.7881048930183
 10
102.8867431383408
 20
-132.7881048930183
 10
102.8867431383408
 20
-132.6420328444437
 10
102.8867431383408
 20
-132.6420328444437
 10
102.8867431383408
 20
-132.6420328444437
 10
104.4311794443783
 20
-132.6420328444437
 10
104.4311794443783
 20
-132.6420328444437
 10
104.4311794443783
 20
-132.6420328444437
 10
104.4311794443783
 20
-132.8663085605334
 10
104.4311794443783
 20
-132.8663085605334
 97
        0
 97
        0
 75
     2
 76
     1
 98
        0
  0
ENDBLK
  5
98
330
95
100
AcDbEntity
  8
0
100
AcDbBlockEnd
  0
BLOCK
  5
9D
330
9B
100
AcDbEntity
  8
0
100
AcDbBlockBegin
  2
block 5
 70
     0
 10
0.0
 20
0.0
 30
0.0
  3
block 5
  1

  0
SPLINE
  5
9F
330
9B
100
AcDbEntity
  8
_U+30EC_U+30A4_U+30E4_U+30FC 1
370
     0
100
AcDbSpline
210
0.0
220
0.0
230
1.0
 70
    11
 71
     3
 72
    29
 73
    25
 74
     0
 42
0.0000000001
 43
0.0000000001
 12
1.0
 22
0.0
 32
0.0
 13
1.0
 23
0.0
 33
0.0
 40
0.0
 40
0.0
 40
0.0
 40
0.0
 40
1.0
 40
1.0
 40
1.0
 40
2.0
 40
2.0
 40
2.0
 40
3.0
 40
3.0
 40
3.0
 40
4.0
 40
4.0
 40
4.0
 40
5.0
 40
5.0
 40
5.0
 40
6.0
 40
6.0
 40
6.0
 40
7.0
 40
7.0
 40
7.0
 40
8.0
 40
8.0
 40
8.0
 40
8.0
 10
104.4818223480115
 20
-128.8851562177787
 30
0.0
 10
104.4818223480115
 20
-129.1518066083371
 30
0.0
 10
104.34436303815
 20
-129.4057101456
 30
0.0
 10
103.9953748654942
 20
-129.4057101456
 30
0.0
 10
103.7394042709402
 20
-129.4057101456
 30
0.0
 10
103.6443196355473
 20
-129.2637722116077
 30
0.0
 10
103.5829969359098
 20
-129.1580077802105
 30
0.0
 10
103.5237412935635
 20
-129.2827202367766
 30
0.0
 10
103.4093641234532
 20
-129.3588568470006
 30
0.0
 10
103.2484781642921
 20
-129.3588568470006
 30
0.0
 10
102.9735595445691
 20
-129.3588568470006
 30
0.0
 10
102.8381672919988
 20
-129.1600748375017
 30
0.0
 10
102.8381672919988
 20
-128.8851562177787
 30
0.0
 10
102.8381672919988
 20
-128.6016248593426
 30
0.0
 10
102.9821722832822
 20
-128.4111110790084
 30
0.0
 10
103.2484781642921
 20
-128.4111110790084
 30
0.0
 10
103.4093641234532
 20
-128.4111110790084
 30
0.0
 10
103.5237412935635
 20
-128.489659256072
 30
0.0
 10
103.5829969359098
 20
-128.6143717126381
 30
0.0
 10
103.633639839543
 20
-128.5254882491186
 30
0.0
 10
103.7287244749359
 20
-128.3666693472486
 30
0.0
 10
103.9912407509119
 20
-128.3666693472486
 30
0.0
 10
104.3657226301586
 20
-128.3666693472486
 30
0.0
 10
104.4818223480115
 20
-128.6460665911024
 30
0.0
 10
104.4818223480115
 20
-128.8851562177787
 30
0.0
  0
SPLINE
  5
A0
330
9B
100
AcDbEntity
  8
_U+30EC_U+30A4_U+30E4_U+30FC 1
370
     0
100
AcDbSpline
210
0.0
220
0.0
230
1.0
 70
    11
 71
     3
 72
    17
 73
    13
 74
     0
 42
0.0000000001
 43
0.0000000001
 12
1.0
 22
0.0
 32
0.0
 13
1.0
 23
0.0
 33
0.0
 40
0.0
 40
0.0
 40
0.0
 40
0.0
 40
1.0
 40
1.0
 40
1.0
 40
2.0
 40
2.0
 40
2.0
 40
3.0
 40
3.0
 40
3.0
 40
4.0
 40
4.0
 40
4.0
 40
4.0
 10
103.0307481296243
 20
-128.8851562177787
 30
0.0
 10
103.0307481296243
 20
-129.0501762915222
 30
0.0
 10
103.1258327650172
 20
-129.1349256404593
 30
0.0
 10
103.2612250175875
 20
-129.1349256404593
 30
0.0
 10
103.3838704168624
 20
-129.1349256404593
 30
0.0
 10
103.502381701555
 20
-129.0629231448176
 30
0.0
 10
103.502381701555
 20
-128.8851562177787
 30
0.0
 10
103.502381701555
 20
-128.7073892907398
 30
0.0
 10
103.3838704168624
 20
-128.6353867950981
 30
0.0
 10
103.2612250175875
 20
-128.6353867950981
 30
0.0
 10
103.1258327650172
 20
-128.6353867950981
 30
0.0
 10
103.0307481296243
 20
-128.7222032013264
 30
0.0
 10
103.0307481296243
 20
-128.8851562177787
 30
0.0
  0
SPLINE
  5
A1
330
9B
100
AcDbEntity
  8
_U+30EC_U+30A4_U+30E4_U+30FC 1
370
     0
100
AcDbSpline
210
0.0
220
0.0
230
1.0
 70
    11
 71
     3
 72
    17
 73
    13
 74
     0
 42
0.0000000001
 43
0.0000000001
 12
1.0
 22
0.0
 32
0.0
 13
1.0
 23
0.0
 33
0.0
 40
0.0
 40
0.0
 40
0.0
 40
0.0
 40
1.0
 40
1.0
 40
1.0
 40
2.0
 40
2.0
 40
2.0
 40
3.0
 40
3.0
 40
3.0
 40
4.0
 40
4.0
 40
4.0
 40
4.0
 10
103.6908284245981
 20
-128.8851562177787
 30
0.0
 10
103.6908284245981
 20
-129.0288166995136
 30
0.0
 10
103.7776448308264
 20
-129.1814344295102
 30
0.0
 10
103.9805609549076
 20
-129.1814344295102
 30
0.0
 10
104.1858886458285
 20
-129.1814344295102
 30
0.0
 10
104.2871744530949
 20
-129.0543104061045
 30
0.0
 10
104.2871744530949
 20
-128.8851562177787
 30
0.0
 10
104.2871744530949
 20
-128.6991210615752
 30
0.0
 10
104.16452905382
 20
-128.5888780060472
 30
0.0
 10
103.9867621267811
 20
-128.5888780060472
 30
0.0
 10
103.764897977531
 20
-128.5888780060472
 30
0.0
 10
103.6908284245981
 20
-128.7518310224995
 30
0.0
 10
103.6908284245981
 20
-128.8851562177787
 30
0.0
  0
HATCH
  5
A2
330
9B
100
AcDbEntity
  8
_U+30EC_U+30A4_U+30E4_U+30FC 1
 62
     7
420
 16777215
100
AcDbHatch
 10
0.0
 20
0.0
 30
0.0
210
0.0
220
0.0
230
1.0
  2
SOLID
 70
     1
 71
     0
 91
        3
 92
        1
 93
        1
 72
     4
 94
        3
 73
     0
 74
     1
 95
       29
 96
       25
 40
0.0
 40
0.0
 40
0.0
 40
0.0
 40
1.0
 40
1.0
 40
1.0
 40
2.0
 40
2.0
 40
2.0
 40
3.0
 40
3.0
 40
3.0
 40
4.0
 40
4.0
 40
4.0
 40
5.0
 40
5.0
 40
5.0
 40
6.0
 40
6.0
 40
6.0
 40
7.0
 40
7.0
 40
7.0
 40
8.0
 40
8.0
 40
8.0
 40
8.0
 10
104.4818223480115
 20
-128.8851562177787
 10
104.4818223480115
 20
-129.1518066083371
 10
104.34436303815
 20
-129.4057101456
 10
103.9953748654942
 20
-129.4057101456
 10
103.7394042709402
 20
-129.4057101456
 10
103.6443196355473
 20
-129.2637722116077
 10
103.5829969359098
 20
-129.1580077802105
 10
103.5237412935635
 20
-129.2827202367766
 10
103.4093641234532
 20
-129.3588568470006
 10
103.2484781642921
 20
-129.3588568470006
 10
102.9735595445691
 20
-129.3588568470006
 10
102.8381672919988
 20
-129.1600748375017
 10
102.8381672919988
 20
-128.8851562177787
 10
102.8381672919988
 20
-128.6016248593426
 10
102.9821722832822
 20
-128.4111110790084
 10
103.2484781642921
 20
-128.4111110790084
 10
103.4093641234532
 20
-128.4111110790084
 10
103.5237412935635
 20
-128.489659256072
 10
103.5829969359098
 20
-128.6143717126381
 10
103.633639839543
 20
-128.5254882491186
 10
103.7287244749359
 20
-128.3666693472486
 10
103.9912407509119
 20
-128.3666693472486
 10
104.3657226301586
 20
-128.3666693472486
 10
104.4818223480115
 20
-128.6460665911024
 10
104.4818223480115
 20
-128.8851562177787
 97
        0
 97
        0
 92
        1
 93
        1
 72
     4
 94
        3
 73
     0
 74
     1
 95
       17
 96
       13
 40
0.0
 40
0.0
 40
0.0
 40
0.0
 40
1.0
 40
1.0
 40
1.0
 40
2.0
 40
2.0
 40
2.0
 40
3.0
 40
3.0
 40
3.0
 40
4.0
 40
4.0
 40
4.0
 40
4.0
 10
103.0307481296243
 20
-128.8851562177787
 10
103.0307481296243
 20
-129.0501762915222
 10
103.1258327650172
 20
-129.1349256404593
 10
103.2612250175875
 20
-129.1349256404593
 10
103.3838704168624
 20
-129.1349256404593
 10
103.502381701555
 20
-129.0629231448176
 10
103.502381701555
 20
-128.8851562177787
 10
103.502381701555
 20
-128.7073892907398
 10
103.3838704168624
 20
-128.6353867950981
 10
103.2612250175875
 20
-128.6353867950981
 10
103.1258327650172
 20
-128.6353867950981
 10
103.0307481296243
 20
-128.7222032013264
 10
103.0307481296243
 20
-128.8851562177787
 97
        0
 97
        0
 92
        1
 93
        1
 72
     4
 94
        3
 73
     0
 74
     1
 95
       17
 96
       13
 40
0.0
 40
0.0
 40
0.0
 40
0.0
 40
1.0
 40
1.0
 40
1.0
 40
2.0
 40
2.0
 40
2.0
 40
3.0
 40
3.0
 40
3.0
 40
4.0
 40
4.0
 40
4.0
 40
4.0
 10
103.6908284245981
 20
-128.8851562177787
 10
103.6908284245981
 20
-129.0288166995136
 10
103.7776448308264
 20
-129.1814344295102
 10
103.9805609549076
 20
-129.1814344295102
 10
104.1858886458285
 20
-129.1814344295102
 10
104.2871744530949
 20
-129.0543104061045
 10
104.2871744530949
 20
-128.8851562177787
 10
104.2871744530949
 20
-128.6991210615752
 10
104.16452905382
 20
-128.5888780060472
 10
103.9867621267811
 20
-128.5888780060472
 10
103.764897977531
 20
-128.5888780060472
 10
103.6908284245981
 20
-128.7518310224995
 10
103.6908284245981
 20
-128.8851562177787
 97
        0
 97
        0
 75
     2
 76
     1
 98
        0
  0
POLYLINE
  5
A3
330
9B
100
AcDbEntity
  8
_U+30EC_U+30A4_U+30E4_U+30FC 1
370
     0
100
AcDb2dPolyline
 66
     1
 10
0.0
 20
0.0
 30
0.0
  0
VERTEX
  5
A4
330
A3
100
AcDbEntity
  8
_U+30EC_U+30A4_U+30E4_U+30FC 1
370
     0
100
AcDbVertex
100
AcDb2dVertex
 10
104.4311794443783
 20
-128.1482502934838
 30
0.0
  0
VERTEX
  5
A5
330
A3
100
AcDbEntity
  8
_U+30EC_U+30A4_U+30E4_U+30FC 1
370
     0
100
AcDbVertex
100
AcDb2dVertex
 10
104.1793429644066
 20
-128.1482502934838
 30
0.0
  0
VERTEX
  5
A6
330
A3
100
AcDbEntity
  8
_U+30EC_U+30A4_U+30E4_U+30FC 1
370
     0
100
AcDbVertex
100
AcDb2dVertex
 10
104.1793429644066
 20
-127.896413813512
 30
0.0
  0
VERTEX
  5
A7
330
A3
100
AcDbEntity
  8
_U+30EC_U+30A4_U+30E4_U+30FC 1
370
     0
100
AcDbVertex
100
AcDb2dVertex
 10
104.4311794443783
 20
-127.896413813512
 30
0.0
  0
VERTEX
  5
A8
330
A3
100
AcDbEntity
  8
_U+30EC_U+30A4_U+30E4_U+30FC 1
370
     0
100
AcDbVertex
100
AcDb2dVertex
 10
104.4311794443783
 20
-128.1482502934838
 30
0.0
  0
SEQEND
  5
A9
330
A3
100
AcDbEntity
  8
_U+30EC_U+30A4_U+30E4_U+30FC 1
370
     0
  0
HATCH
  5
AA
330
9B
100
AcDbEntity
  8
_U+30EC_U+30A4_U+30E4_U+30FC 1
 62
     7
420
 16777215
100
AcDbHatch
 10
0.0
 20
0.0
 30
0.0
210
0.0
220
0.0
230
1.0
  2
SOLID
 70
     1
 71
     0
 91
        1
 92
        1
 93
        4
 72
     1
 10
104.4311794443783
 20
-128.1482502934838
 11
104.1793429644066
 21
-128.1482502934838
 72
     1
 10
104.1793429644066
 20
-128.1482502934838
 11
104.1793429644066
 21
-127.896413813512
 72
     1
 10
104.1793429644066
 20
-127.896413813512
 11
104.4311794443783
 21
-127.896413813512
 72
     1
 10
104.4311794443783
 20
-127.896413813512
 11
104.4311794443783
 21
-128.1482502934838
 97
        0
 75
     2
 76
     1
 98
        0
  0
SPLINE
  5
AB
330
9B
100
AcDbEntity
  8
_U+30EC_U+30A4_U+30E4_U+30FC 1
370
     0
100
AcDbSpline
210
0.0
220
0.0
230
1.0
 70
    11
 71
     3
 72
    53
 73
    49
 74
     0
 42
0.0000000001
 43
0.0000000001
 12
1.0
 22
0.0
 32
0.0
 13
1.0
 23
0.0
 33
0.0
 40
0.0
 40
0.0
 40
0.0
 40
0.0
 40
1.0
 40
1.0
 40
1.0
 40
2.0
 40
2.0
 40
2.0
 40
3.0
 40
3.0
 40
3.0
 40
4.0
 40
4.0
 40
4.0
 40
5.0
 40
5.0
 40
5.0
 40
6.0
 40
6.0
 40
6.0
 40
7.0
 40
7.0
 40
7.0
 40
8.0
 40
8.0
 40
8.0
 40
9.0
 40
9.0
 40
9.0
 40
10.0
 40
10.0
 40
10.0
 40
11.0
 40
11.0
 40
11.0
 40
12.0
 40
12.0
 40
12.0
 40
13.0
 40
13.0
 40
13.0
 40
14.0
 40
14.0
 40
14.0
 40
15.0
 40
15.0
 40
15.0
 40
16.0
 40
16.0
 40
16.0
 40
16.0
 10
104.4818223480115
 20
-127.179144933483
 30
0.0
 10
104.4818223480115
 20
-127.2573486009982
 30
0.0
 10
104.4649413801338
 20
-127.358978917813
 30
0.0
 10
104.4015516232052
 20
-127.4606092346279
 30
0.0
 10
104.2916530772257
 20
-127.633897537536
 30
0.0
 10
104.1603949392377
 20
-127.6552571295445
 30
0.0
 10
104.0525634505494
 20
-127.6742051547134
 30
0.0
 10
104.0525634505494
 20
-127.6742051547134
 30
0.0
 10
104.0525634505494
 20
-127.4519964959148
 30
0.0
 10
104.0525634505494
 20
-127.4519964959148
 30
0.0
 10
104.2513454600483
 20
-127.3972194776993
 30
0.0
 10
104.2809732812214
 20
-127.2700954542936
 30
0.0
 10
104.2809732812214
 20
-127.1770778761918
 30
0.0
 10
104.2809732812214
 20
-127.0375515090392
 30
0.0
 10
104.1814100216977
 20
-126.8852782885912
 30
0.0
 10
103.9488660764433
 20
-126.8852782885912
 30
0.0
 10
103.6928954818893
 20
-126.8852782885912
 30
0.0
 10
103.6229600435387
 20
-127.0651122729212
 30
0.0
 10
103.6229600435387
 20
-127.185690614905
 30
0.0
 10
103.6229600435387
 20
-127.2173854933693
 30
0.0
 10
103.6229600435387
 20
-127.358978917813
 30
0.0
 10
103.7521511242356
 20
-127.4478623813325
 30
0.0
 10
103.7521511242356
 20
-127.4478623813325
 30
0.0
 10
103.7332030990667
 20
-127.6235622510802
 30
0.0
 10
103.7332030990667
 20
-127.6235622510802
 30
0.0
 10
103.7332030990667
 20
-127.6235622510802
 30
0.0
 10
102.8867431383408
 20
-127.5029839090965
 30
0.0
 10
102.8867431383408
 20
-127.5029839090965
 30
0.0
 10
102.8867431383408
 20
-127.5029839090965
 30
0.0
 10
102.8867431383408
 20
-126.72439232943
 30
0.0
 10
102.8867431383408
 20
-126.72439232943
 30
0.0
 10
102.8867431383408
 20
-126.72439232943
 30
0.0
 10
103.0813910332574
 20
-126.72439232943
 30
0.0
 10
103.0813910332574
 20
-126.72439232943
 30
0.0
 10
103.0813910332574
 20
-126.72439232943
 30
0.0
 10
103.0813910332574
 20
-127.3400308926442
 30
0.0
 10
103.0813910332574
 20
-127.3400308926442
 30
0.0
 10
103.0813910332574
 20
-127.3400308926442
 30
0.0
 10
103.5044487588461
 20
-127.4054877068639
 30
0.0
 10
103.5044487588461
 20
-127.4054877068639
 30
0.0
 10
103.4706868230907
 20
-127.3441650072265
 30
0.0
 10
103.4303792059132
 20
-127.261827225129
 30
0.0
 10
103.4303792059132
 20
-127.1433159404364
 30
0.0
 10
103.4303792059132
 20
-126.8894124031735
 30
0.0
 10
103.6167588716653
 20
-126.6523898337883
 30
0.0
 10
103.9299180512745
 20
-126.6523898337883
 30
0.0
 10
104.247211345466
 20
-126.6523898337883
 30
0.0
 10
104.4818223480115
 20
-126.8766655498781
 30
0.0
 10
104.4818223480115
 20
-127.179144933483
 30
0.0
  0
HATCH
  5
AC
330
9B
100
AcDbEntity
  8
_U+30EC_U+30A4_U+30E4_U+30FC 1
 62
     7
420
 16777215
100
AcDbHatch
 10
0.0
 20
0.0
 30
0.0
210
0.0
220
0.0
230
1.0
  2
SOLID
 70
     1
 71
     0
 91
        1
 92
        1
 93
        1
 72
     4
 94
        3
 73
     0
 74
     1
 95
       53
 96
       49
 40
0.0
 40
0.0
 40
0.0
 40
0.0
 40
1.0
 40
1.0
 40
1.0
 40
2.0
 40
2.0
 40
2.0
 40
3.0
 40
3.0
 40
3.0
 40
4.0
 40
4.0
 40
4.0
 40
5.0
 40
5.0
 40
5.0
 40
6.0
 40
6.0
 40
6.0
 40
7.0
 40
7.0
 40
7.0
 40
8.0
 40
8.0
 40
8.0
 40
9.0
 40
9.0
 40
9.0
 40
10.0
 40
10.0
 40
10.0
 40
11.0
 40
11.0
 40
11.0
 40
12.0
 40
12.0
 40
12.0
 40
13.0
 40
13.0
 40
13.0
 40
14.0
 40
14.0
 40
14.0
 40
15.0
 40
15.0
 40
15.0
 40
16.0
 40
16.0
 40
16.0
 40
16.0
 10
104.4818223480115
 20
-127.179144933483
 10
104.4818223480115
 20
-127.2573486009982
 10
104.4649413801338
 20
-127.358978917813
 10
104.4015516232052
 20
-127.4606092346279
 10
104.2916530772257
 20
-127.633897537536
 10
104.1603949392377
 20
-127.6552571295445
 10
104.0525634505494
 20
-127.6742051547134
 10
104.0525634505494
 20
-127.6742051547134
 10
104.0525634505494
 20
-127.4519964959148
 10
104.0525634505494
 20
-127.4519964959148
 10
104.2513454600483
 20
-127.3972194776993
 10
104.2809732812214
 20
-127.2700954542936
 10
104.2809732812214
 20
-127.1770778761918
 10
104.2809732812214
 20
-127.0375515090392
 10
104.1814100216977
 20
-126.8852782885912
 10
103.9488660764433
 20
-126.8852782885912
 10
103.6928954818893
 20
-126.8852782885912
 10
103.6229600435387
 20
-127.0651122729212
 10
103.6229600435387
 20
-127.185690614905
 10
103.6229600435387
 20
-127.2173854933693
 10
103.6229600435387
 20
-127.358978917813
 10
103.7521511242356
 20
-127.4478623813325
 10
103.7521511242356
 20
-127.4478623813325
 10
103.7332030990667
 20
-127.6235622510802
 10
103.7332030990667
 20
-127.6235622510802
 10
103.7332030990667
 20
-127.6235622510802
 10
102.8867431383408
 20
-127.5029839090965
 10
102.8867431383408
 20
-127.5029839090965
 10
102.8867431383408
 20
-127.5029839090965
 10
102.8867431383408
 20
-126.72439232943
 10
102.8867431383408
 20
-126.72439232943
 10
102.8867431383408
 20
-126.72439232943
 10
103.0813910332574
 20
-126.72439232943
 10
103.0813910332574
 20
-126.72439232943
 10
103.0813910332574
 20
-126.72439232943
 10
103.0813910332574
 20
-127.3400308926442
 10
103.0813910332574
 20
-127.3400308926442
 10
103.0813910332574
 20
-127.3400308926442
 10
103.5044487588461
 20
-127.4054877068639
 10
103.5044487588461
 20
-127.4054877068639
 10
103.4706868230907
 20
-127.3441650072265
 10
103.4303792059132
 20
-127.261827225129
 10
103.4303792059132
 20
-127.1433159404364
 10
103.4303792059132
 20
-126.8894124031735
 10
103.6167588716653
 20
-126.6523898337883
 10
103.9299180512745
 20
-126.6523898337883
 10
104.247211345466
 20
-126.6523898337883
 10
104.4818223480115
 20
-126.8766655498781
 10
104.4818223480115
 20
-127.179144933483
 97
        0
 97
        0
 75
     2
 76
     1
 98
        0
  0
ENDBLK
  5
9E
330
9B
100
AcDbEntity
  8
0
100
AcDbBlockEnd
  0
BLOCK
  5
BD
330
BB
100
AcDbEntity
  8
0
100
AcDbBlockBegin
  2
block 6
 70
     0
 10
0.0
 20
0.0
 30
0.0
  3
block 6
  1

  0
SPLINE
  5
BF
330
BB
100
AcDbEntity
  8
_U+30EC_U+30A4_U+30E4_U+30FC 1
370
     0
100
AcDbSpline
210
0.0
220
0.0
230
1.0
 70
    11
 71
     3
 72
    62
 73
    58
 74
     0
 42
0.0000000001
 43
0.0000000001
 12
1.0
 22
0.0
 32
0.0
 13
1.0
 23
0.0
 33
0.0
 40
0.0
 40
0.0
 40
0.0
 40
0.0
 40
1.0
 40
1.0
 40
1.0
 40
2.0
 40
2.0
 40
2.0
 40
3.0
 40
3.0
 40
3.0
 40
4.0
 40
4.0
 40
4.0
 40
5.0
 40
5.0
 40
5.0
 40
6.0
 40
6.0
 40
6.0
 40
7.0
 40
7.0
 40
7.0
 40
8.0
 40
8.0
 40
8.0
 40
9.0
 40
9.0
 40
9.0
 40
10.0
 40
10.0
 40
10.0
 40
11.0
 40
11.0
 40
11.0
 40
12.0
 40
12.0
 40
12.0
 40
13.0
 40
13.0
 40
13.0
 40
14.0
 40
14.0
 40
14.0
 40
15.0
 40
15.0
 40
15.0
 40
16.0
 40
16.0
 40
16.0
 40
17.0
 40
17.0
 40
17.0
 40
18.0
 40
18.0
 40
18.0
 40
19.0
 40
19.0
 40
19.0
 40
19.0
 10
87.5328138344536
 20
-121.229120520908
 30
0.0
 10
87.43738468951219
 20
-121.229120520908
 30
0.0
 10
87.21965465484439
 20
-121.208105438448
 30
0.0
 10
87.09459768872982
 20
-121.0220702822445
 30
0.0
 10
87.02052813579695
 20
-120.9097601694253
 30
0.0
 10
87.01639402121465
 20
-120.8105414194501
 30
0.0
 10
87.01225990663235
 20
-120.725792070513
 30
0.0
 10
87.01225990663235
 20
-120.725792070513
 30
0.0
 10
87.23240150813982
 20
-120.725792070513
 30
0.0
 10
87.23240150813982
 20
-120.725792070513
 30
0.0
 10
87.23446856543097
 20
-120.7998616234459
 30
0.0
 10
87.24480385188672
 20
-121.0344726259914
 30
0.0
 10
87.52833521032278
 20
-121.0344726259914
 30
0.0
 10
87.66579452018425
 20
-121.0344726259914
 30
0.0
 10
87.81841225018081
 20
-120.9648816971893
 30
0.0
 10
87.81841225018081
 20
-120.7364718665173
 30
0.0
 10
87.81841225018081
 20
-120.6200276391158
 30
0.0
 10
87.78017169029455
 20
-120.5714517927738
 30
0.0
 10
87.74847681183024
 20
-120.5397569143095
 30
0.0
 10
87.67440725889738
 20
-120.4656873613766
 30
0.0
 10
87.55796303149593
 20
-120.4529405080812
 30
0.0
 10
87.50318601328046
 20
-120.4529405080812
 30
0.0
 10
87.48389347856306
 20
-120.4529405080812
 30
0.0
 10
87.44806448551645
 20
-120.4550075653724
 30
0.0
 10
87.42050372163446
 20
-120.4591416799547
 30
0.0
 10
87.42050372163446
 20
-120.4591416799547
 30
0.0
 10
87.42050372163446
 20
-120.2644937850381
 30
0.0
 10
87.42050372163446
 20
-120.2644937850381
 30
0.0
 10
87.45874428152074
 20
-120.27103946646
 30
0.0
 10
87.50077444644079
 20
-120.2731065237512
 30
0.0
 10
87.50732012786276
 20
-120.2731065237512
 30
0.0
 10
87.5727769420825
 20
-120.2731065237512
 30
0.0
 10
87.77155895158143
 20
-120.2517469317426
 30
0.0
 10
87.77155895158143
 20
-120.015068871906
 30
0.0
 10
87.77155895158143
 20
-119.8373019448671
 30
0.0
 10
87.64064532314192
 20
-119.7821804171031
 30
0.0
 10
87.53040226761394
 20
-119.7821804171031
 30
0.0
 10
87.26616344389527
 20
-119.7821804171031
 30
0.0
 10
87.25755070518214
 20
-120.015068871906
 30
0.0
 10
87.25341659059984
 20
-120.0867268579992
 30
0.0
 10
87.25341659059984
 20
-120.0867268579992
 30
0.0
 10
87.0501559569701
 20
-120.0867268579992
 30
0.0
 10
87.0501559569701
 20
-120.0867268579992
 30
0.0
 10
87.05876869568323
 20
-119.9620144014331
 30
0.0
 10
87.08632945956522
 20
-119.5854654648953
 30
0.0
 10
87.54314912090936
 20
-119.5854654648953
 30
0.0
 10
87.76742483699913
 20
-119.5854654648953
 30
0.0
 10
88.00858152096662
 20
-119.712589488301
 30
0.0
 10
88.00858152096662
 20
-120.008523190484
 30
0.0
 10
88.00858152096662
 20
-120.194902856236
 30
0.0
 10
87.91349688557371
 20
-120.2772406383335
 30
0.0
 10
87.81393362604999
 20
-120.3385633379709
 30
0.0
 10
87.87525632568745
 20
-120.3661241018529
 30
0.0
 10
88.05715736730863
 20
-120.4463948266592
 30
0.0
 10
88.05715736730863
 20
-120.7237250132219
 30
0.0
 10
88.05715736730863
 20
-121.0620333898734
 30
0.0
 10
87.80979951146769
 20
-121.229120520908
 30
0.0
 10
87.5328138344536
 20
-121.229120520908
 30
0.0
  0
HATCH
  5
C0
330
BB
100
AcDbEntity
  8
_U+30EC_U+30A4_U+30E4_U+30FC 1
 62
     7
420
 16777215
100
AcDbHatch
 10
0.0
 20
0.0
 30
0.0
210
0.0
220
0.0
230
1.0
  2
SOLID
 70
     1
 71
     0
 91
        1
 92
        1
 93
        1
 72
     4
 94
        3
 73
     0
 74
     1
 95
       62
 96
       58
 40
0.0
 40
0.0
 40
0.0
 40
0.0
 40
1.0
 40
1.0
 40
1.0
 40
2.0
 40
2.0
 40
2.0
 40
3.0
 40
3.0
 40
3.0
 40
4.0
 40
4.0
 40
4.0
 40
5.0
 40
5.0
 40
5.0
 40
6.0
 40
6.0
 40
6.0
 40
7.0
 40
7.0
 40
7.0
 40
8.0
 40
8.0
 40
8.0
 40
9.0
 40
9.0
 40
9.0
 40
10.0
 40
10.0
 40
10.0
 40
11.0
 40
11.0
 40
11.0
 40
12.0
 40
12.0
 40
12.0
 40
13.0
 40
13.0
 40
13.0
 40
14.0
 40
14.0
 40
14.0
 40
15.0
 40
15.0
 40
15.0
 40
16.0
 40
16.0
 40
16.0
 40
17.0
 40
17.0
 40
17.0
 40
18.0
 40
18.0
 40
18.0
 40
19.0
 40
19.0
 40
19.0
 40
19.0
 10
87.5328138344536
 20
-121.229120520908
 10
87.43738468951219
 20
-121.229120520908
 10
87.21965465484439
 20
-121.208105438448
 10
87.09459768872982
 20
-121.0220702822445
 10
87.02052813579695
 20
-120.9097601694253
 10
87.01639402121465
 20
-120.8105414194501
 10
87.01225990663235
 20
-120.725792070513
 10
87.01225990663235
 20
-120.725792070513
 10
87.23240150813982
 20
-120.725792070513
 10
87.23240150813982
 20
-120.725792070513
 10
87.23446856543097
 20
-120.7998616234459
 10
87.24480385188672
 20
-121.0344726259914
 10
87.52833521032278
 20
-121.0344726259914
 10
87.66579452018425
 20
-121.0344726259914
 10
87.81841225018081
 20
-120.9648816971893
 10
87.81841225018081
 20
-120.7364718665173
 10
87.81841225018081
 20
-120.6200276391158
 10
87.78017169029455
 20
-120.5714517927738
 10
87.74847681183024
 20
-120.5397569143095
 10
87.67440725889738
 20
-120.4656873613766
 10
87.55796303149593
 20
-120.4529405080812
 10
87.50318601328046
 20
-120.4529405080812
 10
87.48389347856306
 20
-120.4529405080812
 10
87.44806448551645
 20
-120.4550075653724
 10
87.42050372163446
 20
-120.4591416799547
 10
87.42050372163446
 20
-120.4591416799547
 10
87.42050372163446
 20
-120.2644937850381
 10
87.42050372163446
 20
-120.2644937850381
 10
87.45874428152074
 20
-120.27103946646
 10
87.50077444644079
 20
-120.2731065237512
 10
87.50732012786276
 20
-120.2731065237512
 10
87.5727769420825
 20
-120.2731065237512
 10
87.77155895158143
 20
-120.2517469317426
 10
87.77155895158143
 20
-120.015068871906
 10
87.77155895158143
 20
-119.8373019448671
 10
87.64064532314192
 20
-119.7821804171031
 10
87.53040226761394
 20
-119.7821804171031
 10
87.26616344389527
 20
-119.7821804171031
 10
87.25755070518214
 20
-120.015068871906
 10
87.25341659059984
 20
-120.0867268579992
 10
87.25341659059984
 20
-120.0867268579992
 10
87.0501559569701
 20
-120.0867268579992
 10
87.0501559569701
 20
-120.0867268579992
 10
87.05876869568323
 20
-119.9620144014331
 10
87.08632945956522
 20
-119.5854654648953
 10
87.54314912090936
 20
-119.5854654648953
 10
87.76742483699913
 20
-119.5854654648953
 10
88.00858152096662
 20
-119.712589488301
 10
88.00858152096662
 20
-120.008523190484
 10
88.00858152096662
 20
-120.194902856236
 10
87.91349688557371
 20
-120.2772406383335
 10
87.81393362604999
 20
-120.3385633379709
 10
87.87525632568745
 20
-120.3661241018529
 10
88.05715736730863
 20
-120.4463948266592
 10
88.05715736730863
 20
-120.7237250132219
 10
88.05715736730863
 20
-121.0620333898734
 10
87.80979951146769
 20
-121.229120520908
 10
87.5328138344536
 20
-121.229120520908
 97
        0
 97
        0
 75
     2
 76
     1
 98
        0
  0
ENDBLK
  5
BE
330
BB
100
AcDbEntity
  8
0
100
AcDbBlockEnd
  0
BLOCK
  5
D1
330
CF
100
AcDbEntity
  8
0
100
AcDbBlockBegin
  2
block 7
 70
     0
 10
0.0
 20
0.0
 30
0.0
  3
block 7
  1

  0
SPLINE
  5
D3
330
CF
100
AcDbEntity
  8
_U+30EC_U+30A4_U+30E4_U+30FC 1
370
     0
100
AcDbSpline
210
0.0
220
0.0
230
1.0
 70
    11
 71
     3
 72
    44
 73
    40
 74
     0
 42
0.0000000001
 43
0.0000000001
 12
1.0
 22
0.0
 32
0.0
 13
1.0
 23
0.0
 33
0.0
 40
0.0
 40
0.0
 40
0.0
 40
0.0
 40
1.0
 40
1.0
 40
1.0
 40
2.0
 40
2.0
 40
2.0
 40
3.0
 40
3.0
 40
3.0
 40
4.0
 40
4.0
 40
4.0
 40
5.0
 40
5.0
 40
5.0
 40
6.0
 40
6.0
 40
6.0
 40
7.0
 40
7.0
 40
7.0
 40
8.0
 40
8.0
 40
8.0
 40
9.0
 40
9.0
 40
9.0
 40
10.0
 40
10.0
 40
10.0
 40
11.0
 40
11.0
 40
11.0
 40
12.0
 40
12.0
 40
12.0
 40
13.0
 40
13.0
 40
13.0
 40
13.0
 10
87.16918400598549
 20
-135.3171494887402
 30
0.0
 10
86.95145397131769
 20
-135.4759683906102
 30
0.0
 10
86.85843639321595
 20
-135.5500379435431
 30
0.0
 10
86.80951603732541
 20
-135.693698425278
 30
0.0
 10
86.80951603732541
 20
-135.693698425278
 30
0.0
 10
87.58810761699186
 20
-135.693698425278
 30
0.0
 10
87.58810761699186
 20
-135.693698425278
 30
0.0
 10
87.58810761699186
 20
-135.693698425278
 30
0.0
 10
87.58810761699186
 20
-135.8990261161989
 30
0.0
 10
87.58810761699186
 20
-135.8990261161989
 30
0.0
 10
87.58810761699186
 20
-135.8990261161989
 30
0.0
 10
86.56009112419332
 20
-135.8990261161989
 30
0.0
 10
86.56009112419332
 20
-135.8990261161989
 30
0.0
 10
86.59178600265761
 20
-135.5414252048299
 30
0.0
 10
86.65724281687736
 20
-135.4632215373148
 30
0.0
 10
87.0424044921283
 20
-135.1648762682921
 30
0.0
 10
87.29837508668236
 20
-134.9660942587932
 30
0.0
 10
87.3638319009021
 20
-134.8982258777338
 30
0.0
 10
87.3638319009021
 20
-134.7607665678723
 30
0.0
 10
87.3638319009021
 20
-134.6422552831797
 30
0.0
 10
87.29182940526039
 20
-134.5113416547402
 30
0.0
 10
87.09511445305262
 20
-134.5113416547402
 30
0.0
 10
86.83500974391625
 20
-134.5113416547402
 30
0.0
 10
86.82639700520313
 20
-134.7418185427034
 30
0.0
 10
86.82226289062082
 20
-134.8582627701049
 30
0.0
 10
86.82226289062082
 20
-134.8582627701049
 30
0.0
 10
86.59798717453106
 20
-134.8582627701049
 30
0.0
 10
86.59798717453106
 20
-134.8582627701049
 30
0.0
 10
86.60659991324418
 20
-134.7311387466992
 30
0.0
 10
86.61727970924846
 20
-134.6191731434286
 30
0.0
 10
86.69755043405479
 20
-134.500661858736
 30
0.0
 10
86.80744898003425
 20
-134.3397758995748
 30
0.0
 10
86.99382864578627
 20
-134.3060139638193
 30
0.0
 10
87.10992836363918
 20
-134.3060139638193
 30
0.0
 10
87.3872585502018
 20
-134.3060139638193
 30
0.0
 10
87.59465329841385
 20
-134.4899820627317
 30
0.0
 10
87.59465329841385
 20
-134.7628336251635
 30
0.0
 10
87.59465329841385
 20
-134.991587965384
 30
0.0
 10
87.4782090710124
 20
-135.0908067153592
 30
0.0
 10
87.16918400598549
 20
-135.3171494887402
 30
0.0
  0
HATCH
  5
D4
330
CF
100
AcDbEntity
  8
_U+30EC_U+30A4_U+30E4_U+30FC 1
 62
     7
420
 16777215
100
AcDbHatch
 10
0.0
 20
0.0
 30
0.0
210
0.0
220
0.0
230
1.0
  2
SOLID
 70
     1
 71
     0
 91
        1
 92
        1
 93
        1
 72
     4
 94
        3
 73
     0
 74
     1
 95
       44
 96
       40
 40
0.0
 40
0.0
 40
0.0
 40
0.0
 40
1.0
 40
1.0
 40
1.0
 40
2.0
 40
2.0
 40
2.0
 40
3.0
 40
3.0
 40
3.0
 40
4.0
 40
4.0
 40
4.0
 40
5.0
 40
5.0
 40
5.0
 40
6.0
 40
6.0
 40
6.0
 40
7.0
 40
7.0
 40
7.0
 40
8.0
 40
8.0
 40
8.0
 40
9.0
 40
9.0
 40
9.0
 40
10.0
 40
10.0
 40
10.0
 40
11.0
 40
11.0
 40
11.0
 40
12.0
 40
12.0
 40
12.0
 40
13.0
 40
13.0
 40
13.0
 40
13.0
 10
87.16918400598549
 20
-135.3171494887402
 10
86.95145397131769
 20
-135.4759683906102
 10
86.85843639321595
 20
-135.5500379435431
 10
86.80951603732541
 20
-135.693698425278
 10
86.80951603732541
 20
-135.693698425278
 10
87.58810761699186
 20
-135.693698425278
 10
87.58810761699186
 20
-135.693698425278
 10
87.58810761699186
 20
-135.693698425278
 10
87.58810761699186
 20
-135.8990261161989
 10
87.58810761699186
 20
-135.8990261161989
 10
87.58810761699186
 20
-135.8990261161989
 10
86.56009112419332
 20
-135.8990261161989
 10
86.56009112419332
 20
-135.8990261161989
 10
86.59178600265761
 20
-135.5414252048299
 10
86.65724281687736
 20
-135.4632215373148
 10
87.0424044921283
 20
-135.1648762682921
 10
87.29837508668236
 20
-134.9660942587932
 10
87.3638319009021
 20
-134.8982258777338
 10
87.3638319009021
 20
-134.7607665678723
 10
87.3638319009021
 20
-134.6422552831797
 10
87.29182940526039
 20
-134.5113416547402
 10
87.09511445305262
 20
-134.5113416547402
 10
86.83500974391625
 20
-134.5113416547402
 10
86.82639700520313
 20
-134.7418185427034
 10
86.82226289062082
 20
-134.8582627701049
 10
86.82226289062082
 20
-134.8582627701049
 10
86.59798717453106
 20
-134.8582627701049
 10
86.59798717453106
 20
-134.8582627701049
 10
86.60659991324418
 20
-134.7311387466992
 10
86.61727970924846
 20
-134.6191731434286
 10
86.69755043405479
 20
-134.500661858736
 10
86.80744898003425
 20
-134.3397758995748
 10
86.99382864578627
 20
-134.3060139638193
 10
87.10992836363918
 20
-134.3060139638193
 10
87.3872585502018
 20
-134.3060139638193
 10
87.59465329841385
 20
-134.4899820627317
 10
87.59465329841385
 20
-134.7628336251635
 10
87.59465329841385
 20
-134.991587965384
 10
87.4782090710124
 20
-135.0908067153592
 10
87.16918400598549
 20
-135.3171494887402
 97
        0
 97
        0
 75
     2
 76
     1
 98
        0
  0
SPLINE
  5
D5
330
CF
100
AcDbEntity
  8
_U+30EC_U+30A4_U+30E4_U+30FC 1
370
     0
100
AcDbSpline
210
0.0
220
0.0
230
1.0
 70
    11
 71
     3
 72
    62
 73
    58
 74
     0
 42
0.0000000001
 43
0.0000000001
 12
1.0
 22
0.0
 32
0.0
 13
1.0
 23
0.0
 33
0.0
 40
0.0
 40
0.0
 40
0.0
 40
0.0
 40
1.0
 40
1.0
 40
1.0
 40
2.0
 40
2.0
 40
2.0
 40
3.0
 40
3.0
 40
3.0
 40
4.0
 40
4.0
 40
4.0
 40
5.0
 40
5.0
 40
5.0
 40
6.0
 40
6.0
 40
6.0
 40
7.0
 40
7.0
 40
7.0
 40
8.0
 40
8.0
 40
8.0
 40
9.0
 40
9.0
 40
9.0
 40
10.0
 40
10.0
 40
10.0
 40
11.0
 40
11.0
 40
11.0
 40
12.0
 40
12.0
 40
12.0
 40
13.0
 40
13.0
 40
13.0
 40
14.0
 40
14.0
 40
14.0
 40
15.0
 40
15.0
 40
15.0
 40
16.0
 40
16.0
 40
16.0
 40
17.0
 40
17.0
 40
17.0
 40
18.0
 40
18.0
 40
18.0
 40
19.0
 40
19.0
 40
19.0
 40
19.0
 10
88.24474281648048
 20
-135.949669019832
 30
0.0
 10
88.14931367153906
 20
-135.949669019832
 30
0.0
 10
87.93158363687128
 20
-135.928653937372
 30
0.0
 10
87.80652667075671
 20
-135.7426187811685
 30
0.0
 10
87.73245711782383
 20
-135.6303086683494
 30
0.0
 10
87.72832300324153
 20
-135.5310899183742
 30
0.0
 10
87.72418888865923
 20
-135.446340569437
 30
0.0
 10
87.72418888865923
 20
-135.446340569437
 30
0.0
 10
87.9443304901667
 20
-135.446340569437
 30
0.0
 10
87.9443304901667
 20
-135.446340569437
 30
0.0
 10
87.94639754745785
 20
-135.5204101223699
 30
0.0
 10
87.9567328339136
 20
-135.7550211249154
 30
0.0
 10
88.24026419234966
 20
-135.7550211249154
 30
0.0
 10
88.37772350221113
 20
-135.7550211249154
 30
0.0
 10
88.53034123220769
 20
-135.6854301961134
 30
0.0
 10
88.53034123220769
 20
-135.4570203654413
 30
0.0
 10
88.53034123220769
 20
-135.3405761380399
 30
0.0
 10
88.49210067232143
 20
-135.2920002916978
 30
0.0
 10
88.46040579385712
 20
-135.2603054132335
 30
0.0
 10
88.38633624092425
 20
-135.1862358603007
 30
0.0
 10
88.2698920135228
 20
-135.1734890070053
 30
0.0
 10
88.21511499530733
 20
-135.1734890070053
 30
0.0
 10
88.19582246058994
 20
-135.1734890070053
 30
0.0
 10
88.15999346754334
 20
-135.1755560642964
 30
0.0
 10
88.13243270366134
 20
-135.1796901788787
 30
0.0
 10
88.13243270366134
 20
-135.1796901788787
 30
0.0
 10
88.13243270366134
 20
-134.9850422839621
 30
0.0
 10
88.13243270366134
 20
-134.9850422839621
 30
0.0
 10
88.17067326354761
 20
-134.991587965384
 30
0.0
 10
88.21270342846766
 20
-134.9936550226752
 30
0.0
 10
88.21924910988963
 20
-134.9936550226752
 30
0.0
 10
88.28470592410939
 20
-134.9936550226752
 30
0.0
 10
88.4834879336083
 20
-134.9722954306667
 30
0.0
 10
88.4834879336083
 20
-134.73561737083
 30
0.0
 10
88.4834879336083
 20
-134.5578504437911
 30
0.0
 10
88.3525743051688
 20
-134.5027289160271
 30
0.0
 10
88.24233124964081
 20
-134.5027289160271
 30
0.0
 10
87.97809242592214
 20
-134.5027289160271
 30
0.0
 10
87.96947968720902
 20
-134.73561737083
 30
0.0
 10
87.96534557262672
 20
-134.8072753569232
 30
0.0
 10
87.96534557262672
 20
-134.8072753569232
 30
0.0
 10
87.76208493899698
 20
-134.8072753569232
 30
0.0
 10
87.76208493899698
 20
-134.8072753569232
 30
0.0
 10
87.7706976777101
 20
-134.6825629003571
 30
0.0
 10
87.79825844159211
 20
-134.3060139638193
 30
0.0
 10
88.25507810293624
 20
-134.3060139638193
 30
0.0
 10
88.479353819026
 20
-134.3060139638193
 30
0.0
 10
88.72051050299349
 20
-134.4331379872251
 30
0.0
 10
88.72051050299349
 20
-134.729071689408
 30
0.0
 10
88.72051050299349
 20
-134.91545135516
 30
0.0
 10
88.6254258676006
 20
-134.9977891372575
 30
0.0
 10
88.52586260807688
 20
-135.0591118368949
 30
0.0
 10
88.58718530771432
 20
-135.086672600777
 30
0.0
 10
88.76908634933551
 20
-135.1669433255833
 30
0.0
 10
88.76908634933551
 20
-135.4442735121459
 30
0.0
 10
88.76908634933551
 20
-135.7825818887974
 30
0.0
 10
88.52172849349458
 20
-135.949669019832
 30
0.0
 10
88.24474281648048
 20
-135.949669019832
 30
0.0
  0
HATCH
  5
D6
330
CF
100
AcDbEntity
  8
_U+30EC_U+30A4_U+30E4_U+30FC 1
 62
     7
420
 16777215
100
AcDbHatch
 10
0.0
 20
0.0
 30
0.0
210
0.0
220
0.0
230
1.0
  2
SOLID
 70
     1
 71
     0
 91
        1
 92
        1
 93
        1
 72
     4
 94
        3
 73
     0
 74
     1
 95
       62
 96
       58
 40
0.0
 40
0.0
 40
0.0
 40
0.0
 40
1.0
 40
1.0
 40
1.0
 40
2.0
 40
2.0
 40
2.0
 40
3.0
 40
3.0
 40
3.0
 40
4.0
 40
4.0
 40
4.0
 40
5.0
 40
5.0
 40
5.0
 40
6.0
 40
6.0
 40
6.0
 40
7.0
 40
7.0
 40
7.0
 40
8.0
 40
8.0
 40
8.0
 40
9.0
 40
9.0
 40
9.0
 40
10.0
 40
10.0
 40
10.0
 40
11.0
 40
11.0
 40
11.0
 40
12.0
 40
12.0
 40
12.0
 40
13.0
 40
13.0
 40
13.0
 40
14.0
 40
14.0
 40
14.0
 40
15.0
 40
15.0
 40
15.0
 40
16.0
 40
16.0
 40
16.0
 40
17.0
 40
17.0
 40
17.0
 40
18.0
 40
18.0
 40
18.0
 40
19.0
 40
19.0
 40
19.0
 40
19.0
 10
88.24474281648048
 20
-135.949669019832
 10
88.14931367153906
 20
-135.949669019832
 10
87.93158363687128
 20
-135.928653937372
 10
87.80652667075671
 20
-135.7426187811685
 10
87.73245711782383
 20
-135.6303086683494
 10
87.72832300324153
 20
-135.5310899183742
 10
87.72418888865923
 20
-135.446340569437
 10
87.72418888865923
 20
-135.446340569437
 10
87.9443304901667
 20
-135.446340569437
 10
87.9443304901667
 20
-135.446340569437
 10
87.94639754745785
 20
-135.5204101223699
 10
87.9567328339136
 20
-135.7550211249154
 10
88.24026419234966
 20
-135.7550211249154
 10
88.37772350221113
 20
-135.7550211249154
 10
88.53034123220769
 20
-135.6854301961134
 10
88.53034123220769
 20
-135.4570203654413
 10
88.53034123220769
 20
-135.3405761380399
 10
88.49210067232143
 20
-135.2920002916978
 10
88.46040579385712
 20
-135.2603054132335
 10
88.38633624092425
 20
-135.1862358603007
 10
88.2698920135228
 20
-135.1734890070053
 10
88.21511499530733
 20
-135.1734890070053
 10
88.19582246058994
 20
-135.1734890070053
 10
88.15999346754334
 20
-135.1755560642964
 10
88.13243270366134
 20
-135.1796901788787
 10
88.13243270366134
 20
-135.1796901788787
 10
88.13243270366134
 20
-134.9850422839621
 10
88.13243270366134
 20
-134.9850422839621
 10
88.17067326354761
 20
-134.991587965384
 10
88.21270342846766
 20
-134.9936550226752
 10
88.21924910988963
 20
-134.9936550226752
 10
88.28470592410939
 20
-134.9936550226752
 10
88.4834879336083
 20
-134.9722954306667
 10
88.4834879336083
 20
-134.73561737083
 10
88.4834879336083
 20
-134.5578504437911
 10
88.3525743051688
 20
-134.5027289160271
 10
88.24233124964081
 20
-134.5027289160271
 10
87.97809242592214
 20
-134.5027289160271
 10
87.96947968720902
 20
-134.73561737083
 10
87.96534557262672
 20
-134.8072753569232
 10
87.96534557262672
 20
-134.8072753569232
 10
87.76208493899698
 20
-134.8072753569232
 10
87.76208493899698
 20
-134.8072753569232
 10
87.7706976777101
 20
-134.6825629003571
 10
87.79825844159211
 20
-134.3060139638193
 10
88.25507810293624
 20
-134.3060139638193
 10
88.479353819026
 20
-134.3060139638193
 10
88.72051050299349
 20
-134.4331379872251
 10
88.72051050299349
 20
-134.729071689408
 10
88.72051050299349
 20
-134.91545135516
 10
88.6254258676006
 20
-134.9977891372575
 10
88.52586260807688
 20
-135.0591118368949
 10
88.58718530771432
 20
-135.086672600777
 10
88.76908634933551
 20
-135.1669433255833
 10
88.76908634933551
 20
-135.4442735121459
 10
88.76908634933551
 20
-135.7825818887974
 10
88.52172849349458
 20
-135.949669019832
 10
88.24474281648048
 20
-135.949669019832
 97
        0
 97
        0
 75
     2
 76
     1
 98
        0
  0
ENDBLK
  5
D2
330
CF
100
AcDbEntity
  8
0
100
AcDbBlockEnd
  0
ENDSEC
  0
SECTION
  2
ENTITIES
  0
POLYLINE
  5
41
330
1F
100
AcDbEntity
  8
_U+30EC_U+30A4_U+30E4_U+30FC 1
370
     0
100
AcDb2dPolyline
 66
     1
 10
0.0
 20
0.0
 30
0.0
  0
VERTEX
  5
42
330
41
100
AcDbEntity
  8
_U+30EC_U+30A4_U+30E4_U+30FC 1
370
     0
100
AcDbVertex
100
AcDb2dVertex
 10
88.89689328760686
 20
-126.7116394127666
 30
0.0
  0
VERTEX
  5
43
330
41
100
AcDbEntity
  8
_U+30EC_U+30A4_U+30E4_U+30FC 1
370
     0
100
AcDbVertex
100
AcDb2dVertex
 10
85.99335586168228
 20
-126.7116394127666
 30
0.0
  0
VERTEX
  5
44
330
41
100
AcDbEntity
  8
_U+30EC_U+30A4_U+30E4_U+30FC 1
370
     0
100
AcDbVertex
100
AcDb2dVertex
 10
85.99335586168228
 20
-123.754726635728
 30
0.0
  0
VERTEX
  5
45
330
41
100
AcDbEntity
  8
_U+30EC_U+30A4_U+30E4_U+30FC 1
370
     0
100
AcDbVertex
100
AcDb2dVertex
 10
88.89689328760686
 20
-123.754726635728
 30
0.0
  0
VERTEX
  5
46
330
41
100
AcDbEntity
  8
_U+30EC_U+30A4_U+30E4_U+30FC 1
370
     0
100
AcDbVertex
100
AcDb2dVertex
 10
88.89689328760686
 20
-126.7116394127666
 30
0.0
  0
SEQEND
  5
48
330
41
100
AcDbEntity
  8
_U+30EC_U+30A4_U+30E4_U+30FC 1
370
     0
  0
HATCH
  5
47
330
1F
100
AcDbEntity
  8
_U+30EC_U+30A4_U+30E4_U+30FC 1
 62
   253
420
 11711154
100
AcDbHatch
 10
0.0
 20
0.0
 30
0.0
210
0.0
220
0.0
230
1.0
  2
SOLID
 70
     1
 71
     0
 91
        1
 92
        1
 93
        4
 72
     1
 10
88.89689328760686
 20
-126.7116394127666
 11
85.99335586168228
 21
-126.7116394127666
 72
     1
 10
85.99335586168228
 20
-126.7116394127666
 11
85.99335586168228
 21
-123.754726635728
 72
     1
 10
85.99335586168228
 20
-123.754726635728
 11
88.89689328760686
 21
-123.754726635728
 72
     1
 10
88.89689328760686
 20
-123.754726635728
 11
88.89689328760686
 21
-126.7116394127666
 97
        0
 75
     2
 76
     1
 98
        0
  0
POLYLINE
  5
49
330
1F
100
AcDbEntity
  8
_U+30EC_U+30A4_U+30E4_U+30FC 1
370
     0
100
AcDb2dPolyline
 66
     1
 10
0.0
 20
0.0
 30
0.0
  0
VERTEX
  5
4A
330
49
100
AcDbEntity
  8
_U+30EC_U+30A4_U+30E4_U+30FC 1
370
     0
100
AcDbVertex
100
AcDb2dVertex
 10
87.87542525811112
 20
-132.7657294112532
 30
0.0
  0
VERTEX
  5
4B
330
49
100
AcDbEntity
  8
_U+30EC_U+30A4_U+30E4_U+30FC 1
370
     0
100
AcDbVertex
100
AcDb2dVertex
 10
86.96144861476195
 20
-132.7657294112532
 30
0.0
  0
VERTEX
  5
4C
330
49
100
AcDbEntity
  8
_U+30EC_U+30A4_U+30E4_U+30FC 1
370
     0
100
AcDbVertex
100
AcDb2dVertex
 10
86.96144861476195
 20
-125.4751885797424
 30
0.0
  0
VERTEX
  5
4D
330
49
100
AcDbEntity
  8
_U+30EC_U+30A4_U+30E4_U+30FC 1
370
     0
100
AcDbVertex
100
AcDb2dVertex
 10
87.87542525811112
 20
-125.4751885797424
 30
0.0
  0
VERTEX
  5
4E
330
49
100
AcDbEntity
  8
_U+30EC_U+30A4_U+30E4_U+30FC 1
370
     0
100
AcDbVertex
100
AcDb2dVertex
 10
87.87542525811112
 20
-132.7657294112532
 30
0.0
  0
SEQEND
  5
50
330
49
100
AcDbEntity
  8
_U+30EC_U+30A4_U+30E4_U+30FC 1
370
     0
  0
HATCH
  5
4F
330
1F
100
AcDbEntity
  8
_U+30EC_U+30A4_U+30E4_U+30FC 1
 62
   253
420
 11711154
100
AcDbHatch
 10
0.0
 20
0.0
 30
0.0
210
0.0
220
0.0
230
1.0
  2
SOLID
 70
     1
 71
     0
 91
        1
 92
        1
 93
        4
 72
     1
 10
87.87542525811112
 20
-132.7657294112532
 11
86.96144861476195
 21
-132.7657294112532
 72
     1
 10
86.96144861476195
 20
-132.7657294112532
 11
86.96144861476195
 21
-125.4751885797424
 72
     1
 10
86.96144861476195
 20
-125.4751885797424
 11
87.87542525811112
 21
-125.4751885797424
 72
     1
 10
87.87542525811112
 20
-125.4751885797424
 11
87.87542525811112
 21
-132.7657294112532
 97
        0
 75
     2
 76
     1
 98
        0
  0
POLYLINE
  5
51
330
1F
100
AcDbEntity
  8
_U+30EC_U+30A4_U+30E4_U+30FC 1
370
     0
100
AcDb2dPolyline
 66
     1
 10
0.0
 20
0.0
 30
0.0
  0
VERTEX
  5
52
330
51
100
AcDbEntity
  8
_U+30EC_U+30A4_U+30E4_U+30FC 1
370
     0
100
AcDbVertex
100
AcDb2dVertex
 10
98.95105969777038
 20
-133.1419316333813
 30
0.0
  0
VERTEX
  5
53
330
51
100
AcDbEntity
  8
_U+30EC_U+30A4_U+30E4_U+30FC 1
370
     0
100
AcDbVertex
100
AcDb2dVertex
 10
75.93918945151876
 20
-133.1419316333813
 30
0.0
  0
VERTEX
  5
54
330
51
100
AcDbEntity
  8
_U+30EC_U+30A4_U+30E4_U+30FC 1
370
     0
100
AcDbVertex
100
AcDb2dVertex
 10
75.93918945151876
 20
-132.2816830224852
 30
0.0
  0
VERTEX
  5
55
330
51
100
AcDbEntity
  8
_U+30EC_U+30A4_U+30E4_U+30FC 1
370
     0
100
AcDbVertex
100
AcDb2dVertex
 10
98.95105969777038
 20
-132.2816830224852
 30
0.0
  0
VERTEX
  5
56
330
51
100
AcDbEntity
  8
_U+30EC_U+30A4_U+30E4_U+30FC 1
370
     0
100
AcDbVertex
100
AcDb2dVertex
 10
98.95105969777038
 20
-133.1419316333813
 30
0.0
  0
SEQEND
  5
58
330
51
100
AcDbEntity
  8
_U+30EC_U+30A4_U+30E4_U+30FC 1
370
     0
  0
HATCH
  5
57
330
1F
100
AcDbEntity
  8
_U+30EC_U+30A4_U+30E4_U+30FC 1
 62
   253
420
 11711154
100
AcDbHatch
 10
0.0
 20
0.0
 30
0.0
210
0.0
220
0.0
230
1.0
  2
SOLID
 70
     1
 71
     0
 91
        1
 92
        1
 93
        4
 72
     1
 10
98.95105969777038
 20
-133.1419316333813
 11
75.93918945151876
 21
-133.1419316333813
 72
     1
 10
75.93918945151876
 20
-133.1419316333813
 11
75.93918945151876
 21
-132.2816830224852
 72
     1
 10
75.93918945151876
 20
-132.2816830224852
 11
98.95105969777038
 21
-132.2816830224852
 72
     1
 10
98.95105969777038
 20
-132.2816830224852
 11
98.95105969777038
 21
-133.1419316333813
 97
        0
 75
     2
 76
     1
 98
        0
  0
SPLINE
  5
59
330
1F
100
AcDbEntity
  8
_U+30EC_U+30A4_U+30E4_U+30FC 1
 62
     7
420
 16777215
370
     9
100
AcDbSpline
210
0.0
220
0.0
230
1.0
 70
    11
 71
     3
 72
    17
 73
    13
 74
     0
 42
0.0000000001
 43
0.0000000001
 12
1.0
 22
0.0
 32
0.0
 13
1.0
 23
0.0
 33
0.0
 40
0.0
 40
0.0
 40
0.0
 40
0.0
 40
1.0
 40
1.0
 40
1.0
 40
2.0
 40
2.0
 40
2.0
 40
3.0
 40
3.0
 40
3.0
 40
4.0
 40
4.0
 40
4.0
 40
4.0
 10
101.7484815708466
 20
-126.7274791349848
 30
0.0
 10
101.7484815708466
 20
-126.6723752461096
 30
0.0
 10
101.7036787942119
 20
-126.6275724683431
 30
0.0
 10
101.6485749067288
 20
-126.6275724683431
 30
0.0
 10
101.5934357414689
 20
-126.6275724683431
 30
0.0
 10
101.548668242611
 20
-126.6723752461096
 30
0.0
 10
101.548668242611
 20
-126.7274791349848
 30
0.0
 10
101.548668242611
 20
-126.7832885794152
 30
0.0
 10
101.5934357414689
 20
-126.8280913571819
 30
0.0
 10
101.6485749067288
 20
-126.8280913571819
 30
0.0
 10
101.7036787942119
 20
-126.8280913571819
 30
0.0
 10
101.7484815708466
 20
-126.7832885794152
 30
0.0
 10
101.7484815708466
 20
-126.7274791349848
 30
0.0
  0
POLYLINE
  5
5A
330
1F
100
AcDbEntity
  8
_U+30EC_U+30A4_U+30E4_U+30FC 1
 62
     7
420
 16777215
370
     9
100
AcDb2dPolyline
 66
     1
 10
0.0
 20
0.0
 30
0.0
  0
VERTEX
  5
5B
330
5A
100
AcDbEntity
  8
_U+30EC_U+30A4_U+30E4_U+30FC 1
 62
     7
420
 16777215
370
     9
100
AcDbVertex
100
AcDb2dVertex
 10
101.6485749067288
 20
-126.6275724683431
 30
0.0
  0
VERTEX
  5
5C
330
5A
100
AcDbEntity
  8
_U+30EC_U+30A4_U+30E4_U+30FC 1
 62
     7
420
 16777215
370
     9
100
AcDbVertex
100
AcDb2dVertex
 10
101.6485749067288
 20
-123.6275855246488
 30
0.0
  0
SEQEND
  5
5D
330
5A
100
AcDbEntity
  8
_U+30EC_U+30A4_U+30E4_U+30FC 1
 62
     7
420
 16777215
370
     9
  0
POLYLINE
  5
5E
330
1F
100
AcDbEntity
  8
_U+30EC_U+30A4_U+30E4_U+30FC 1
 62
     7
420
 16777215
370
     9
100
AcDb2dPolyline
 66
     1
 10
0.0
 20
0.0
 30
0.0
  0
VERTEX
  5
5F
330
5E
100
AcDbEntity
  8
_U+30EC_U+30A4_U+30E4_U+30FC 1
 62
     7
420
 16777215
370
     9
100
AcDbVertex
100
AcDb2dVertex
 10
90.46580185869178
 20
-126.7274791349848
 30
0.0
  0
VERTEX
  5
60
330
5E
100
AcDbEntity
  8
_U+30EC_U+30A4_U+30E4_U+30FC 1
 62
     7
420
 16777215
370
     9
100
AcDbVertex
100
AcDb2dVertex
 10
102.3620679440816
 20
-126.7274791349848
 30
0.0
  0
SEQEND
  5
61
330
5E
100
AcDbEntity
  8
_U+30EC_U+30A4_U+30E4_U+30FC 1
 62
     7
420
 16777215
370
     9
  0
SPLINE
  5
62
330
1F
100
AcDbEntity
  8
_U+30EC_U+30A4_U+30E4_U+30FC 1
 62
     7
420
 16777215
370
     9
100
AcDbSpline
210
0.0
220
0.0
230
1.0
 70
    11
 71
     3
 72
    17
 73
    13
 74
     0
 42
0.0000000001
 43
0.0000000001
 12
1.0
 22
0.0
 32
0.0
 13
1.0
 23
0.0
 33
0.0
 40
0.0
 40
0.0
 40
0.0
 40
0.0
 40
1.0
 40
1.0
 40
1.0
 40
2.0
 40
2.0
 40
2.0
 40
3.0
 40
3.0
 40
3.0
 40
4.0
 40
4.0
 40
4.0
 40
4.0
 10
101.7484815708466
 20
-123.7274921912905
 30
0.0
 10
101.7484815708466
 20
-123.6723883024152
 30
0.0
 10
101.7036787942119
 20
-123.6275855246488
 30
0.0
 10
101.6485749067288
 20
-123.6275855246488
 30
0.0
 10
101.5934357414689
 20
-123.6275855246488
 30
0.0
 10
101.548668242611
 20
-123.6723883024152
 30
0.0
 10
101.548668242611
 20
-123.7274921912905
 30
0.0
 10
101.548668242611
 20
-123.7833016357209
 30
0.0
 10
101.5934357414689
 20
-123.8281044134873
 30
0.0
 10
101.6485749067288
 20
-123.8281044134873
 30
0.0
 10
101.7036787942119
 20
-123.8281044134873
 30
0.0
 10
101.7484815708466
 20
-123.7833016357209
 30
0.0
 10
101.7484815708466
 20
-123.7274921912905
 30
0.0
  0
POLYLINE
  5
63
330
1F
100
AcDbEntity
  8
_U+30EC_U+30A4_U+30E4_U+30FC 1
 62
     7
420
 16777215
370
     9
100
AcDb2dPolyline
 66
     1
 10
0.0
 20
0.0
 30
0.0
  0
VERTEX
  5
64
330
63
100
AcDbEntity
  8
_U+30EC_U+30A4_U+30E4_U+30FC 1
 62
     7
420
 16777215
370
     9
100
AcDbVertex
100
AcDb2dVertex
 10
90.46580185869178
 20
-123.7274921912905
 30
0.0
  0
VERTEX
  5
65
330
63
100
AcDbEntity
  8
_U+30EC_U+30A4_U+30E4_U+30FC 1
 62
     7
420
 16777215
370
     9
100
AcDbVertex
100
AcDb2dVertex
 10
106.0638003496426
 20
-123.7274921912905
 30
0.0
  0
SEQEND
  5
66
330
63
100
AcDbEntity
  8
_U+30EC_U+30A4_U+30E4_U+30FC 1
 62
     7
420
 16777215
370
     9
  0
INSERT
  5
68
330
1F
100
AcDbEntity
  8
_U+30EC_U+30A4_U+30E4_U+30FC 1
100
AcDbBlockReference
  2
block 2
 10
0.0
 20
0.0
 30
0.0
  0
SPLINE
  5
6D
330
1F
100
AcDbEntity
  8
_U+30EC_U+30A4_U+30E4_U+30FC 1
 62
     7
420
 16777215
370
     9
100
AcDbSpline
210
0.0
220
0.0
230
1.0
 70
    11
 71
     3
 72
    17
 73
    13
 74
     0
 42
0.0000000001
 43
0.0000000001
 12
1.0
 22
0.0
 32
0.0
 13
1.0
 23
0.0
 33
0.0
 40
0.0
 40
0.0
 40
0.0
 40
0.0
 40
1.0
 40
1.0
 40
1.0
 40
2.0
 40
2.0
 40
2.0
 40
3.0
 40
3.0
 40
3.0
 40
4.0
 40
4.0
 40
4.0
 40
4.0
 10
101.7484815708466
 20
-132.1170063558596
 30
0.0
 10
101.7484815708466
 20
-132.0618671892065
 30
0.0
 10
101.7036787942119
 20
-132.017099689218
 30
0.0
 10
101.6485749067288
 20
-132.017099689218
 30
0.0
 10
101.5934357414689
 20
-132.017099689218
 30
0.0
 10
101.548668242611
 20
-132.0618671892065
 30
0.0
 10
101.548668242611
 20
-132.1170063558596
 30
0.0
 10
101.548668242611
 20
-132.17281580029
 30
0.0
 10
101.5934357414689
 20
-132.2175833002792
 30
0.0
 10
101.6485749067288
 20
-132.2175833002792
 30
0.0
 10
101.7036787942119
 20
-132.2175833002792
 30
0.0
 10
101.7484815708466
 20
-132.17281580029
 30
0.0
 10
101.7484815708466
 20
-132.1170063558596
 30
0.0
  0
POLYLINE
  5
6E
330
1F
100
AcDbEntity
  8
_U+30EC_U+30A4_U+30E4_U+30FC 1
 62
     7
420
 16777215
370
     9
100
AcDb2dPolyline
 66
     1
 10
0.0
 20
0.0
 30
0.0
  0
VERTEX
  5
6F
330
6E
100
AcDbEntity
  8
_U+30EC_U+30A4_U+30E4_U+30FC 1
 62
     7
420
 16777215
370
     9
100
AcDbVertex
100
AcDb2dVertex
 10
101.6485749067288
 20
-132.017099689218
 30
0.0
  0
VERTEX
  5
70
330
6E
100
AcDbEntity
  8
_U+30EC_U+30A4_U+30E4_U+30FC 1
 62
     7
420
 16777215
370
     9
100
AcDbVertex
100
AcDb2dVertex
 10
101.6485749067288
 20
-126.7622983016429
 30
0.0
  0
SEQEND
  5
71
330
6E
100
AcDbEntity
  8
_U+30EC_U+30A4_U+30E4_U+30FC 1
 62
     7
420
 16777215
370
     9
  0
POLYLINE
  5
72
330
1F
100
AcDbEntity
  8
_U+30EC_U+30A4_U+30E4_U+30FC 1
 62
     7
420
 16777215
370
     9
100
AcDb2dPolyline
 66
     1
 10
0.0
 20
0.0
 30
0.0
  0
VERTEX
  5
73
330
72
100
AcDbEntity
  8
_U+30EC_U+30A4_U+30E4_U+30FC 1
 62
     7
420
 16777215
370
     9
100
AcDbVertex
100
AcDb2dVertex
 10
100.1885360860639
 20
-132.1170063558596
 30
0.0
  0
VERTEX
  5
74
330
72
100
AcDbEntity
  8
_U+30EC_U+30A4_U+30E4_U+30FC 1
 62
     7
420
 16777215
370
     9
100
AcDbVertex
100
AcDb2dVertex
 10
105.9749356296875
 20
-132.1170063558596
 30
0.0
  0
SEQEND
  5
75
330
72
100
AcDbEntity
  8
_U+30EC_U+30A4_U+30E4_U+30FC 1
 62
     7
420
 16777215
370
     9
  0
INSERT
  5
77
330
1F
100
AcDbEntity
  8
_U+30EC_U+30A4_U+30E4_U+30FC 1
100
AcDbBlockReference
  2
block 3
 10
0.0
 20
0.0
 30
0.0
  0
SPLINE
  5
86
330
1F
100
AcDbEntity
  8
_U+30EC_U+30A4_U+30E4_U+30FC 1
 62
     7
420
 16777215
370
     9
100
AcDbSpline
210
0.0
220
0.0
230
1.0
 70
    11
 71
     3
 72
    17
 73
    13
 74
     0
 42
0.0000000001
 43
0.0000000001
 12
1.0
 22
0.0
 32
0.0
 13
1.0
 23
0.0
 33
0.0
 40
0.0
 40
0.0
 40
0.0
 40
0.0
 40
1.0
 40
1.0
 40
1.0
 40
2.0
 40
2.0
 40
2.0
 40
3.0
 40
3.0
 40
3.0
 40
4.0
 40
4.0
 40
4.0
 40
4.0
 10
104.9937548213862
 20
-132.0873730225334
 30
0.0
 10
104.9937548213862
 20
-132.032233855881
 30
0.0
 10
104.9489873225283
 20
-131.9874663558918
 30
0.0
 10
104.8938481572683
 20
-131.9874663558918
 30
0.0
 10
104.8387442697853
 20
-131.9874663558918
 30
0.0
 10
104.7939414931505
 20
-132.032233855881
 30
0.0
 10
104.7939414931505
 20
-132.0873730225334
 30
0.0
 10
104.7939414931505
 20
-132.1431824669645
 30
0.0
 10
104.8387442697853
 20
-132.1879852447306
 30
0.0
 10
104.8938481572683
 20
-132.1879852447306
 30
0.0
 10
104.9489873225283
 20
-132.1879852447306
 30
0.0
 10
104.9937548213862
 20
-132.1431824669645
 30
0.0
 10
104.9937548213862
 20
-132.0873730225334
 30
0.0
  0
POLYLINE
  5
87
330
1F
100
AcDbEntity
  8
_U+30EC_U+30A4_U+30E4_U+30FC 1
 62
     7
420
 16777215
370
     9
100
AcDb2dPolyline
 66
     1
 10
0.0
 20
0.0
 30
0.0
  0
VERTEX
  5
88
330
87
100
AcDbEntity
  8
_U+30EC_U+30A4_U+30E4_U+30FC 1
 62
     7
420
 16777215
370
     9
100
AcDbVertex
100
AcDb2dVertex
 10
104.8938481572683
 20
-132.1170063558596
 30
0.0
  0
VERTEX
  5
89
330
87
100
AcDbEntity
  8
_U+30EC_U+30A4_U+30E4_U+30FC 1
 62
     7
420
 16777215
370
     9
100
AcDbVertex
100
AcDb2dVertex
 10
104.8938481572683
 20
-123.8618652468124
 30
0.0
  0
SEQEND
  5
8A
330
87
100
AcDbEntity
  8
_U+30EC_U+30A4_U+30E4_U+30FC 1
 62
     7
420
 16777215
370
     9
  0
SPLINE
  5
8B
330
1F
100
AcDbEntity
  8
_U+30EC_U+30A4_U+30E4_U+30FC 1
 62
     7
420
 16777215
370
     9
100
AcDbSpline
210
0.0
220
0.0
230
1.0
 70
    11
 71
     3
 72
    17
 73
    13
 74
     0
 42
0.0000000001
 43
0.0000000001
 12
1.0
 22
0.0
 32
0.0
 13
1.0
 23
0.0
 33
0.0
 40
0.0
 40
0.0
 40
0.0
 40
0.0
 40
1.0
 40
1.0
 40
1.0
 40
2.0
 40
2.0
 40
2.0
 40
3.0
 40
3.0
 40
3.0
 40
4.0
 40
4.0
 40
4.0
 40
4.0
 10
104.9937548213862
 20
-123.7271746912905
 30
0.0
 10
104.9937548213862
 20
-123.6720355246375
 30
0.0
 10
104.9489873225283
 20
-123.6272680246489
 30
0.0
 10
104.8938481572683
 20
-123.6272680246489
 30
0.0
 10
104.8387442697853
 20
-123.6272680246489
 30
0.0
 10
104.7939414931505
 20
-123.6720355246375
 30
0.0
 10
104.7939414931505
 20
-123.7271746912905
 30
0.0
 10
104.7939414931505
 20
-123.782984135721
 30
0.0
 10
104.8387442697853
 20
-123.8277516357098
 30
0.0
 10
104.8938481572683
 20
-123.8277516357098
 30
0.0
 10
104.9489873225283
 20
-123.8277516357098
 30
0.0
 10
104.9937548213862
 20
-123.782984135721
 30
0.0
 10
104.9937548213862
 20
-123.7271746912905
 30
0.0
  0
SPLINE
  5
8C
330
1F
100
AcDbEntity
  8
_U+30EC_U+30A4_U+30E4_U+30FC 1
 62
     7
420
 16777215
370
     9
100
AcDbSpline
210
0.0
220
0.0
230
1.0
 70
    11
 71
     3
 72
    17
 73
    13
 74
     0
 42
0.0000000001
 43
0.0000000001
 12
1.0
 22
0.0
 32
0.0
 13
1.0
 23
0.0
 33
0.0
 40
0.0
 40
0.0
 40
0.0
 40
0.0
 40
1.0
 40
1.0
 40
1.0
 40
2.0
 40
2.0
 40
2.0
 40
3.0
 40
3.0
 40
3.0
 40
4.0
 40
4.0
 40
4.0
 40
4.0
 10
104.9937548213862
 20
-133.3510230222176
 30
0.0
 10
104.9937548213862
 20
-133.2959191333427
 30
0.0
 10
104.9489873225283
 20
-133.251116355576
 30
0.0
 10
104.8938481572683
 20
-133.251116355576
 30
0.0
 10
104.8387442697853
 20
-133.251116355576
 30
0.0
 10
104.7939414931505
 20
-133.2959191333427
 30
0.0
 10
104.7939414931505
 20
-133.3510230222176
 30
0.0
 10
104.7939414931505
 20
-133.4068324666481
 30
0.0
 10
104.8387442697853
 20
-133.4516352444148
 30
0.0
 10
104.8938481572683
 20
-133.4516352444148
 30
0.0
 10
104.9489873225283
 20
-133.4516352444148
 30
0.0
 10
104.9937548213862
 20
-133.4068324666481
 30
0.0
 10
104.9937548213862
 20
-133.3510230222176
 30
0.0
  0
POLYLINE
  5
8D
330
1F
100
AcDbEntity
  8
_U+30EC_U+30A4_U+30E4_U+30FC 1
 62
     7
420
 16777215
370
     9
100
AcDb2dPolyline
 66
     1
 10
0.0
 20
0.0
 30
0.0
  0
VERTEX
  5
8E
330
8D
100
AcDbEntity
  8
_U+30EC_U+30A4_U+30E4_U+30FC 1
 62
     7
420
 16777215
370
     9
100
AcDbVertex
100
AcDb2dVertex
 10
104.8938481572683
 20
-133.251116355576
 30
0.0
  0
VERTEX
  5
8F
330
8D
100
AcDbEntity
  8
_U+30EC_U+30A4_U+30E4_U+30FC 1
 62
     7
420
 16777215
370
     9
100
AcDbVertex
100
AcDb2dVertex
 10
104.8938481572683
 20
-132.2513441336041
 30
0.0
  0
SEQEND
  5
90
330
8D
100
AcDbEntity
  8
_U+30EC_U+30A4_U+30E4_U+30FC 1
 62
     7
420
 16777215
370
     9
  0
POLYLINE
  5
91
330
1F
100
AcDbEntity
  8
_U+30EC_U+30A4_U+30E4_U+30FC 1
 62
     7
420
 16777215
370
     9
100
AcDb2dPolyline
 66
     1
 10
0.0
 20
0.0
 30
0.0
  0
VERTEX
  5
92
330
91
100
AcDbEntity
  8
_U+30EC_U+30A4_U+30E4_U+30FC 1
 62
     7
420
 16777215
370
     9
100
AcDbVertex
100
AcDb2dVertex
 10
103.4338068056282
 20
-133.3510230222176
 30
0.0
  0
VERTEX
  5
93
330
91
100
AcDbEntity
  8
_U+30EC_U+30A4_U+30E4_U+30FC 1
 62
     7
420
 16777215
370
     9
100
AcDbVertex
100
AcDb2dVertex
 10
105.8936203539842
 20
-133.3510230222176
 30
0.0
  0
SEQEND
  5
94
330
91
100
AcDbEntity
  8
_U+30EC_U+30A4_U+30E4_U+30FC 1
 62
     7
420
 16777215
370
     9
  0
INSERT
  5
96
330
1F
100
AcDbEntity
  8
_U+30EC_U+30A4_U+30E4_U+30FC 1
100
AcDbBlockReference
  2
block 4
 10
0.0
 20
0.0
 30
0.0
  0
INSERT
  5
9C
330
1F
100
AcDbEntity
  8
_U+30EC_U+30A4_U+30E4_U+30FC 1
100
AcDbBlockReference
  2
block 5
 10
0.0
 20
0.0
 30
0.0
  0
SPLINE
  5
AD
330
1F
100
AcDbEntity
  8
_U+30EC_U+30A4_U+30E4_U+30FC 1
 62
     7
420
 16777215
370
     9
100
AcDbSpline
210
0.0
220
0.0
230
1.0
 70
     8
 71
     3
 72
    17
 73
    13
 74
     0
 42
0.0000000001
 43
0.0000000001
 12
1.0
 22
0.0
 32
0.0
 13
1.0
 23
0.0
 33
0.0
 40
0.0
 40
0.0
 40
0.0
 40
0.0
 40
1.0
 40
1.0
 40
1.0
 40
2.0
 40
2.0
 40
2.0
 40
3.0
 40
3.0
 40
3.0
 40
4.0
 40
4.0
 40
4.0
 40
4.0
 10
89.05225661697655
 20
-121.7042058029073
 30
0.0
 10
89.01299245131159
 20
-121.6649416362506
 30
0.0
 10
88.95030384179981
 20
-121.6649416362506
 30
0.0
 10
88.91103967613485
 20
-121.7042058029073
 30
0.0
 10
88.87174023269301
 20
-121.743469969564
 30
0.0
 10
88.87174023269301
 20
-121.8061585806595
 30
0.0
 10
88.91103967613485
 20
-121.8454580250943
 30
0.0
 10
88.95030384179981
 20
-121.8847221917511
 30
0.0
 10
89.01299245131159
 20
-121.8847221917511
 30
0.0
 10
89.05225661697655
 20
-121.8454580250943
 30
0.0
 10
89.07088328316802
 20
-121.8268313584322
 30
0.0
 10
89.08188994955387
 20
-121.8013608028832
 30
0.0
 10
89.08188994955387
 20
-121.7744791362231
 30
0.0
  0
SPLINE
  5
AE
330
1F
100
AcDbEntity
  8
_U+30EC_U+30A4_U+30E4_U+30FC 1
 62
     7
420
 16777215
370
     9
100
AcDbSpline
210
0.0
220
0.0
230
1.0
 70
    11
 71
     3
 72
    17
 73
    13
 74
     0
 42
0.0000000001
 43
0.0000000001
 12
1.0
 22
0.0
 32
0.0
 13
1.0
 23
0.0
 33
0.0
 40
0.0
 40
0.0
 40
0.0
 40
0.0
 40
1.0
 40
1.0
 40
1.0
 40
2.0
 40
2.0
 40
2.0
 40
3.0
 40
3.0
 40
3.0
 40
4.0
 40
4.0
 40
4.0
 40
4.0
 10
86.1818097457633
 20
-121.7744791362231
 30
0.0
 10
86.1818097457633
 20
-121.7193752473478
 30
0.0
 10
86.13704442291007
 20
-121.6745724695814
 30
0.0
 10
86.08190308164546
 20
-121.6745724695814
 30
0.0
 10
86.0267991941624
 20
-121.6745724695814
 30
0.0
 10
85.98199641752764
 20
-121.7193752473478
 30
0.0
 10
85.98199641752764
 20
-121.7744791362231
 30
0.0
 10
85.98199641752764
 20
-121.8302885806535
 30
0.0
 10
86.0267991941624
 20
-121.8750913584202
 30
0.0
 10
86.08190308164546
 20
-121.8750913584202
 30
0.0
 10
86.13704442291007
 20
-121.8750913584202
 30
0.0
 10
86.1818097457633
 20
-121.8302885806535
 30
0.0
 10
86.1818097457633
 20
-121.7744791362231
 30
0.0
  0
POLYLINE
  5
AF
330
1F
100
AcDbEntity
  8
_U+30EC_U+30A4_U+30E4_U+30FC 1
 62
     7
420
 16777215
370
     9
100
AcDb2dPolyline
 66
     1
 10
0.0
 20
0.0
 30
0.0
  0
VERTEX
  5
B0
330
AF
100
AcDbEntity
  8
_U+30EC_U+30A4_U+30E4_U+30FC 1
 62
     7
420
 16777215
370
     9
100
AcDbVertex
100
AcDb2dVertex
 10
86.08190308164546
 20
-121.7744791362231
 30
0.0
  0
VERTEX
  5
B1
330
AF
100
AcDbEntity
  8
_U+30EC_U+30A4_U+30E4_U+30FC 1
 62
     7
420
 16777215
370
     9
100
AcDbVertex
100
AcDb2dVertex
 10
89.08188994955387
 20
-121.7744791362231
 30
0.0
  0
SEQEND
  5
B2
330
AF
100
AcDbEntity
  8
_U+30EC_U+30A4_U+30E4_U+30FC 1
 62
     7
420
 16777215
370
     9
  0
POLYLINE
  5
B3
330
1F
100
AcDbEntity
  8
_U+30EC_U+30A4_U+30E4_U+30FC 1
 62
     7
420
 16777215
370
     9
100
AcDb2dPolyline
 66
     1
 10
0.0
 20
0.0
 30
0.0
  0
VERTEX
  5
B4
330
B3
100
AcDbEntity
  8
_U+30EC_U+30A4_U+30E4_U+30FC 1
 62
     7
420
 16777215
370
     9
100
AcDbVertex
100
AcDb2dVertex
 10
86.08190308164546
 20
-120.3144377476993
 30
0.0
  0
VERTEX
  5
B5
330
B3
100
AcDbEntity
  8
_U+30EC_U+30A4_U+30E4_U+30FC 1
 62
     7
420
 16777215
370
     9
100
AcDbVertex
100
AcDb2dVertex
 10
86.08190308164546
 20
-122.774921635973
 30
0.0
  0
SEQEND
  5
B6
330
B3
100
AcDbEntity
  8
_U+30EC_U+30A4_U+30E4_U+30FC 1
 62
     7
420
 16777215
370
     9
  0
POLYLINE
  5
B7
330
1F
100
AcDbEntity
  8
_U+30EC_U+30A4_U+30E4_U+30FC 1
 62
     7
420
 16777215
370
     9
100
AcDb2dPolyline
 66
     1
 10
0.0
 20
0.0
 30
0.0
  0
VERTEX
  5
B8
330
B7
100
AcDbEntity
  8
_U+30EC_U+30A4_U+30E4_U+30FC 1
 62
     7
420
 16777215
370
     9
100
AcDbVertex
100
AcDb2dVertex
 10
88.98131300767535
 20
-120.3144377476993
 30
0.0
  0
VERTEX
  5
B9
330
B7
100
AcDbEntity
  8
_U+30EC_U+30A4_U+30E4_U+30FC 1
 62
     7
420
 16777215
370
     9
100
AcDbVertex
100
AcDb2dVertex
 10
88.98131300767535
 20
-122.774921635973
 30
0.0
  0
SEQEND
  5
BA
330
B7
100
AcDbEntity
  8
_U+30EC_U+30A4_U+30E4_U+30FC 1
 62
     7
420
 16777215
370
     9
  0
INSERT
  5
BC
330
1F
100
AcDbEntity
  8
_U+30EC_U+30A4_U+30E4_U+30FC 1
100
AcDbBlockReference
  2
block 6
 10
0.0
 20
0.0
 30
0.0
  0
SPLINE
  5
C1
330
1F
100
AcDbEntity
  8
_U+30EC_U+30A4_U+30E4_U+30FC 1
 62
     7
420
 16777215
370
     9
100
AcDbSpline
210
0.0
220
0.0
230
1.0
 70
     8
 71
     3
 72
    17
 73
    13
 74
     0
 42
0.0000000001
 43
0.0000000001
 12
1.0
 22
0.0
 32
0.0
 13
1.0
 23
0.0
 33
0.0
 40
0.0
 40
0.0
 40
0.0
 40
0.0
 40
1.0
 40
1.0
 40
1.0
 40
2.0
 40
2.0
 40
2.0
 40
3.0
 40
3.0
 40
3.0
 40
4.0
 40
4.0
 40
4.0
 40
4.0
 10
99.21634857989118
 20
-136.4243877436716
 30
0.0
 10
99.17704913644936
 20
-136.3851235770146
 30
0.0
 10
99.11436052693756
 20
-136.3851235770146
 30
0.0
 10
99.0750963612726
 20
-136.4243877436716
 30
0.0
 10
99.03579691783077
 20
-136.4636871881061
 30
0.0
 10
99.03579691783077
 20
-136.5263757992016
 30
0.0
 10
99.0750963612726
 20
-136.5656399658587
 30
0.0
 10
99.11436052693756
 20
-136.6049394102932
 30
0.0
 10
99.17704913644936
 20
-136.6049394102932
 30
0.0
 10
99.21634857989118
 20
-136.5656399658587
 30
0.0
 10
99.23493996830577
 20
-136.5470485769744
 30
0.0
 10
99.24594663469162
 20
-136.5215427436475
 30
0.0
 10
99.24594663469162
 20
-136.4946963547652
 30
0.0
  0
SPLINE
  5
C2
330
1F
100
AcDbEntity
  8
_U+30EC_U+30A4_U+30E4_U+30FC 1
 62
     7
420
 16777215
370
     9
100
AcDbSpline
210
0.0
220
0.0
230
1.0
 70
    11
 71
     3
 72
    17
 73
    13
 74
     0
 42
0.0000000001
 43
0.0000000001
 12
1.0
 22
0.0
 32
0.0
 13
1.0
 23
0.0
 33
0.0
 40
0.0
 40
0.0
 40
0.0
 40
0.0
 40
1.0
 40
1.0
 40
1.0
 40
2.0
 40
2.0
 40
2.0
 40
3.0
 40
3.0
 40
3.0
 40
4.0
 40
4.0
 40
4.0
 40
4.0
 10
76.34573055225815
 20
-136.4946963547652
 30
0.0
 10
76.34573055225815
 20
-136.4395571881121
 30
0.0
 10
76.30092777562338
 20
-136.3947896881236
 30
0.0
 10
76.24582388814031
 20
-136.3947896881236
 30
0.0
 10
76.19068472288036
 20
-136.3947896881236
 30
0.0
 10
76.14591722402247
 20
-136.4395571881121
 30
0.0
 10
76.14591722402247
 20
-136.4946963547652
 30
0.0
 10
76.14591722402247
 20
-136.5505057991956
 30
0.0
 10
76.19068472288036
 20
-136.5952732991842
 30
0.0
 10
76.24582388814031
 20
-136.5952732991842
 30
0.0
 10
76.30092777562338
 20
-136.5952732991842
 30
0.0
 10
76.34573055225815
 20
-136.5505057991956
 30
0.0
 10
76.34573055225815
 20
-136.4946963547652
 30
0.0
  0
POLYLINE
  5
C3
330
1F
100
AcDbEntity
  8
_U+30EC_U+30A4_U+30E4_U+30FC 1
 62
     7
420
 16777215
370
     9
100
AcDb2dPolyline
 66
     1
 10
0.0
 20
0.0
 30
0.0
  0
VERTEX
  5
C4
330
C3
100
AcDbEntity
  8
_U+30EC_U+30A4_U+30E4_U+30FC 1
 62
     7
420
 16777215
370
     9
100
AcDbVertex
100
AcDb2dVertex
 10
76.24582388814031
 20
-136.4946963547652
 30
0.0
  0
VERTEX
  5
C5
330
C3
100
AcDbEntity
  8
_U+30EC_U+30A4_U+30E4_U+30FC 1
 62
     7
420
 16777215
370
     9
100
AcDbVertex
100
AcDb2dVertex
 10
99.24594663469162
 20
-136.4946963547652
 30
0.0
  0
SEQEND
  5
C6
330
C3
100
AcDbEntity
  8
_U+30EC_U+30A4_U+30E4_U+30FC 1
 62
     7
420
 16777215
370
     9
  0
POLYLINE
  5
C7
330
1F
100
AcDbEntity
  8
_U+30EC_U+30A4_U+30E4_U+30FC 1
 62
     7
420
 16777215
370
     9
100
AcDb2dPolyline
 66
     1
 10
0.0
 20
0.0
 30
0.0
  0
VERTEX
  5
C8
330
C7
100
AcDbEntity
  8
_U+30EC_U+30A4_U+30E4_U+30FC 1
 62
     7
420
 16777215
370
     9
100
AcDbVertex
100
AcDb2dVertex
 10
76.24582388814031
 20
-135.0346549662415
 30
0.0
  0
VERTEX
  5
C9
330
C7
100
AcDbEntity
  8
_U+30EC_U+30A4_U+30E4_U+30FC 1
 62
     7
420
 16777215
370
     9
100
AcDbVertex
100
AcDb2dVertex
 10
76.24582388814031
 20
-137.4951388545151
 30
0.0
  0
SEQEND
  5
CA
330
C7
100
AcDbEntity
  8
_U+30EC_U+30A4_U+30E4_U+30FC 1
 62
     7
420
 16777215
370
     9
  0
POLYLINE
  5
CB
330
1F
100
AcDbEntity
  8
_U+30EC_U+30A4_U+30E4_U+30FC 1
 62
     7
420
 16777215
370
     9
100
AcDb2dPolyline
 66
     1
 10
0.0
 20
0.0
 30
0.0
  0
VERTEX
  5
CC
330
CB
100
AcDbEntity
  8
_U+30EC_U+30A4_U+30E4_U+30FC 1
 62
     7
420
 16777215
370
     9
100
AcDbVertex
100
AcDb2dVertex
 10
99.14537219743569
 20
-135.0346549662415
 30
0.0
  0
VERTEX
  5
CD
330
CB
100
AcDbEntity
  8
_U+30EC_U+30A4_U+30E4_U+30FC 1
 62
     7
420
 16777215
370
     9
100
AcDbVertex
100
AcDb2dVertex
 10
99.14537219743569
 20
-137.4951388545151
 30
0.0
  0
SEQEND
  5
CE
330
CB
100
AcDbEntity
  8
_U+30EC_U+30A4_U+30E4_U+30FC 1
 62
     7
420
 16777215
370
     9
  0
INSERT
  5
D0
330
1F
100
AcDbEntity
  8
_U+30EC_U+30A4_U+30E4_U+30FC 1
100
AcDbBlockReference
  2
block 7
 10
0.0
 20
0.0
 30
0.0
  0
POLYLINE
  5
D7
330
1F
100
AcDbEntity
  8
_U+30EC_U+30A4_U+30E4_U+30FC 1
 62
     7
420
 16777215
370
    25
100
AcDb2dPolyline
 66
     1
 10
0.0
 20
0.0
 30
0.0
  0
VERTEX
  5
D8
330
D7
100
AcDbEntity
  8
_U+30EC_U+30A4_U+30E4_U+30FC 1
 62
     7
420
 16777215
370
    25
100
AcDbVertex
100
AcDb2dVertex
 10
86.96349472582087
 20
-126.7274791349848
 30
0.0
  0
VERTEX
  5
D9
330
D7
100
AcDbEntity
  8
_U+30EC_U+30A4_U+30E4_U+30FC 1
 62
     7
420
 16777215
370
    25
100
AcDbVertex
100
AcDb2dVertex
 10
85.98199641752764
 20
-126.7274791349848
 30
0.0
  0
VERTEX
  5
DA
330
D7
100
AcDbEntity
  8
_U+30EC_U+30A4_U+30E4_U+30FC 1
 62
     7
420
 16777215
370
    25
100
AcDbVertex
100
AcDb2dVertex
 10
85.98199641752764
 20
-123.7274921912905
 30
0.0
  0
VERTEX
  5
DB
330
D7
100
AcDbEntity
  8
_U+30EC_U+30A4_U+30E4_U+30FC 1
 62
     7
420
 16777215
370
    25
100
AcDbVertex
100
AcDb2dVertex
 10
88.98198328543603
 20
-123.7274921912905
 30
0.0
  0
VERTEX
  5
DC
330
D7
100
AcDbEntity
  8
_U+30EC_U+30A4_U+30E4_U+30FC 1
 62
     7
420
 16777215
370
    25
100
AcDbVertex
100
AcDb2dVertex
 10
88.98198328543603
 20
-126.7274791349848
 30
0.0
  0
VERTEX
  5
DD
330
D7
100
AcDbEntity
  8
_U+30EC_U+30A4_U+30E4_U+30FC 1
 62
     7
420
 16777215
370
    25
100
AcDbVertex
100
AcDb2dVertex
 10
87.98189358872823
 20
-126.7274791349848
 30
0.0
  0
SEQEND
  5
DE
330
D7
100
AcDbEntity
  8
_U+30EC_U+30A4_U+30E4_U+30FC 1
 62
     7
420
 16777215
370
    25
  0
POLYLINE
  5
DF
330
1F
100
AcDbEntity
  8
_U+30EC_U+30A4_U+30E4_U+30FC 1
 62
     7
420
 16777215
370
    25
100
AcDb2dPolyline
 66
     1
 10
0.0
 20
0.0
 30
0.0
  0
VERTEX
  5
E0
330
DF
100
AcDbEntity
  8
_U+30EC_U+30A4_U+30E4_U+30FC 1
 62
     7
420
 16777215
370
    25
100
AcDbVertex
100
AcDb2dVertex
 10
87.98189358872823
 20
-126.7274791349848
 30
0.0
  0
VERTEX
  5
E1
330
DF
100
AcDbEntity
  8
_U+30EC_U+30A4_U+30E4_U+30FC 1
 62
     7
420
 16777215
370
    25
100
AcDbVertex
100
AcDb2dVertex
 10
87.98189358872823
 20
-132.2268966336098
 30
0.0
  0
SEQEND
  5
E2
330
DF
100
AcDbEntity
  8
_U+30EC_U+30A4_U+30E4_U+30FC 1
 62
     7
420
 16777215
370
    25
  0
POLYLINE
  5
E3
330
1F
100
AcDbEntity
  8
_U+30EC_U+30A4_U+30E4_U+30FC 1
 62
     7
420
 16777215
370
    25
100
AcDb2dPolyline
 66
     1
 10
0.0
 20
0.0
 30
0.0
  0
VERTEX
  5
E4
330
E3
100
AcDbEntity
  8
_U+30EC_U+30A4_U+30E4_U+30FC 1
 62
     7
420
 16777215
370
    25
100
AcDbVertex
100
AcDb2dVertex
 10
86.98212139201232
 20
-132.2268966336098
 30
0.0
  0
VERTEX
  5
E5
330
E3
100
AcDbEntity
  8
_U+30EC_U+30A4_U+30E4_U+30FC 1
 62
     7
420
 16777215
370
    25
100
AcDbVertex
100
AcDb2dVertex
 10
86.98212139201232
 20
-126.7274791349848
 30
0.0
  0
SEQEND
  5
E6
330
E3
100
AcDbEntity
  8
_U+30EC_U+30A4_U+30E4_U+30FC 1
 62
     7
420
 16777215
370
    25
  0
POLYLINE
  5
E7
330
1F
100
AcDbEntity
  8
_U+30EC_U+30A4_U+30E4_U+30FC 1
 62
     7
420
 16777215
370
    25
100
AcDb2dPolyline
 66
     1
 10
0.0
 20
0.0
 30
0.0
  0
VERTEX
  5
E8
330
E7
100
AcDbEntity
  8
_U+30EC_U+30A4_U+30E4_U+30FC 1
 62
     7
420
 16777215
370
    25
100
AcDbVertex
100
AcDb2dVertex
 10
87.98189358872823
 20
-132.2268966336098
 30
0.0
  0
VERTEX
  5
E9
330
E7
100
AcDbEntity
  8
_U+30EC_U+30A4_U+30E4_U+30FC 1
 62
     7
420
 16777215
370
    25
100
AcDbVertex
100
AcDb2dVertex
 10
98.98206886364594
 20
-132.2268966336098
 30
0.0
  0
VERTEX
  5
EA
330
E7
100
AcDbEntity
  8
_U+30EC_U+30A4_U+30E4_U+30FC 1
 62
     7
420
 16777215
370
    25
100
AcDbVertex
100
AcDb2dVertex
 10
98.98206886364594
 20
-133.2266688555824
 30
0.0
  0
VERTEX
  5
EB
330
E7
100
AcDbEntity
  8
_U+30EC_U+30A4_U+30E4_U+30FC 1
 62
     7
420
 16777215
370
    25
100
AcDbVertex
100
AcDb2dVertex
 10
75.98191083931773
 20
-133.2266688555824
 30
0.0
  0
VERTEX
  5
EC
330
E7
100
AcDbEntity
  8
_U+30EC_U+30A4_U+30E4_U+30FC 1
 62
     7
420
 16777215
370
    25
100
AcDbVertex
100
AcDb2dVertex
 10
75.98191083931773
 20
-132.2268966336098
 30
0.0
  0
VERTEX
  5
ED
330
E7
100
AcDbEntity
  8
_U+30EC_U+30A4_U+30E4_U+30FC 1
 62
     7
420
 16777215
370
    25
100
AcDbVertex
100
AcDb2dVertex
 10
86.9021819496073
 20
-132.2268966336098
 30
0.0
  0
SEQEND
  5
EE
330
E7
100
AcDbEntity
  8
_U+30EC_U+30A4_U+30E4_U+30FC 1
 62
     7
420
 16777215
370
    25
  0
ENDSEC
  0
SECTION
  2
OBJECTS
  0
DICTIONARY
  5
C
330
0
100
AcDbDictionary
281
     1
  3
ACAD_GROUP
350
D
  3
ACAD_LAYOUT
350
1A
  3
ACAD_MATERIAL
350
3B
  3
ACAD_MLEADERSTYLE
350
F0
  3
ACAD_MLINESTYLE
350
17
  3
ACAD_PLOTSETTINGS
350
19
  3
ACAD_PLOTSTYLENAME
350
E
  3
ACAD_TABLESTYLE
350
EF
  3
ACAD_VISUALSTYLE
350
2A
  0
SUN
  5
3F
330
29
100
AcDbSun
 90
        1
290
     0
 63
     7
421
 16777215
 40
1.0
291
     1
 91
  2455826
 92
 54000000
292
     0
 70
     2
 71
   256
280
     1
  0
DICTIONARY
  5
D
102
{ACAD_REACTORS
330
C
102
}
330
C
100
AcDbDictionary
281
     1
  0
DICTIONARY
  5
1A
102
{ACAD_REACTORS
330
C
102
}
330
C
100
AcDbDictionary
281
     1
  3
Layout1
350
1E
  3
Layout2
350
26
  3
Model
350
22
  0
DICTIONARY
  5
3B
102
{ACAD_REACTORS
330
C
102
}
330
C
100
AcDbDictionary
281
     1
  3
ByBlock
350
3D
  3
ByLayer
350
3C
  3
Global
350
3E
  0
DICTIONARY
  5
F0
102
{ACAD_REACTORS
330
C
102
}
330
C
100
AcDbDictionary
281
     1
  0
DICTIONARY
  5
17
102
{ACAD_REACTORS
330
C
102
}
330
C
100
AcDbDictionary
281
     1
  3
Standard
350
18
  0
DICTIONARY
  5
19
102
{ACAD_REACTORS
330
C
102
}
330
C
100
AcDbDictionary
281
     1
  0
ACDBDICTIONARYWDFLT
  5
E
102
{ACAD_REACTORS
330
C
102
}
330
C
100
AcDbDictionary
281
     1
  3
Normal
350
F
100
AcDbDictionaryWithDefault
340
F
  0
DICTIONARY
  5
EF
102
{ACAD_REACTORS
330
C
102
}
330
C
100
AcDbDictionary
281
     1
  0
DICTIONARY
  5
2A
102
{ACAD_REACTORS
330
C
102
}
330
C
100
AcDbDictionary
281
     1
  3
2dWireframe
350
2F
  3
3D Hidden
350
31
  3
3dWireframe
350
30
  3
Basic
350
32
  3
Brighten
350
36
  3
ColorChange
350
3A
  3
Conceptual
350
34
  3
Dim
350
35
  3
Facepattern
350
39
  3
Flat
350
2B
  3
FlatWithEdges
350
2C
  3
Gouraud
350
2D
  3
GouraudWithEdges
350
2E
  3
Linepattern
350
38
  3
Realistic
350
33
  3
Thicken
350
37
  0
LAYOUT
  5
1E
102
{ACAD_REACTORS
330
1A
102
}
330
1A
100
AcDbPlotSettings
  1

  2
none_device
  4

  6

 40
0.0
 41
0.0
 42
0.0
 43
0.0
 44
0.0
 45
0.0
 46
0.0
 47
0.0
 48
0.0
 49
0.0
140
0.0
141
0.0
142
1.0
143
1.0
 70
   688
 72
     0
 73
     0
 74
     5
  7

 75
    16
 76
     0
 77
     2
 78
   300
147
1.0
148
0.0
149
0.0
100
AcDbLayout
  1
Layout1
 70
     1
 71
     1
 10
0.0
 20
0.0
 11
12.0
 21
9.0
 12
0.0
 22
0.0
 32
0.0
 14
1.000000000000000E+20
 24
1.000000000000000E+20
 34
1.000000000000000E+20
 15
-1.000000000000000E+20
 25
-1.000000000000000E+20
 35
-1.000000000000000E+20
146
0.0
 13
0.0
 23
0.0
 33
0.0
 16
1.0
 26
0.0
 36
0.0
 17
0.0
 27
1.0
 37
0.0
 76
     0
330
1B
  0
LAYOUT
  5
26
102
{ACAD_REACTORS
330
1A
102
}
330
1A
100
AcDbPlotSettings
  1

  2
none_device
  4

  6

 40
0.0
 41
0.0
 42
0.0
 43
0.0
 44
0.0
 45
0.0
 46
0.0
 47
0.0
 48
0.0
 49
0.0
140
0.0
141
0.0
142
1.0
143
1.0
 70
   688
 72
     0
 73
     0
 74
     5
  7

 75
    16
 76
     0
 77
     2
 78
   300
147
1.0
148
0.0
149
0.0
100
AcDbLayout
  1
Layout2
 70
     1
 71
     2
 10
0.0
 20
0.0
 11
0.0
 21
0.0
 12
0.0
 22
0.0
 32
0.0
 14
0.0
 24
0.0
 34
0.0
 15
0.0
 25
0.0
 35
0.0
146
0.0
 13
0.0
 23
0.0
 33
0.0
 16
1.0
 26
0.0
 36
0.0
 17
0.0
 27
1.0
 37
0.0
 76
     0
330
23
  0
LAYOUT
  5
22
102
{ACAD_REACTORS
330
1A
102
}
330
1A
100
AcDbPlotSettings
  1

  2
none_device
  4

  6

 40
0.0
 41
0.0
 42
0.0
 43
0.0
 44
0.0
 45
0.0
 46
0.0
 47
0.0
 48
0.0
 49
0.0
140
0.0
141
0.0
142
1.0
143
1.0
 70
  1712
 72
     0
 73
     0
 74
     0
  7

 75
     0
 76
     0
 77
     2
 78
   300
147
1.0
148
0.0
149
0.0
100
AcDbLayout
  1
Model
 70
     1
 71
     0
 10
0.0
 20
0.0
 11
12.0
 21
9.0
 12
0.0
 22
0.0
 32
0.0
 14
1.000000000000000E+20
 24
1.000000000000000E+20
 34
1.000000000000000E+20
 15
-1.000000000000000E+20
 25
-1.000000000000000E+20
 35
-1.000000000000000E+20
146
0.0
 13
0.0
 23
0.0
 33
0.0
 16
1.0
 26
0.0
 36
0.0
 17
0.0
 27
1.0
 37
0.0
 76
     0
330
1F
331
29
  0
MATERIAL
  5
3D
102
{ACAD_REACTORS
330
3B
102
}
330
3B
100
AcDbMaterial
  1
ByBlock
 72
     1
 94
      127
  0
MATERIAL
  5
3C
102
{ACAD_REACTORS
330
3B
102
}
330
3B
100
AcDbMaterial
  1
ByLayer
 72
     1
 94
      127
  0
MATERIAL
  5
3E
102
{ACAD_REACTORS
330
3B
102
}
330
3B
100
AcDbMaterial
  1
Global
 72
     1
 94
      127
  0
MLINESTYLE
  5
18
102
{ACAD_REACTORS
330
17
102
}
330
17
100
AcDbMlineStyle
  2
Standard
 70
     0
  3

 62
   256
 51
90.0
 52
90.0
 71
     2
 49
0.5
 62
   256
  6
BYLAYER
 49
-0.5
 62
   256
  6
BYLAYER
  0
ACDBPLACEHOLDER
  5
F
102
{ACAD_REACTORS
330
E
102
}
330
E
  0
VISUALSTYLE
  5
2F
102
{ACAD_REACTORS
330
2A
102
}
330
2A
100
AcDbVisualStyle
  2
2dWireframe
 70
     4
177
     2
291
     0
 71
     0
176
     1
 72
     2
176
     1
 73
     0
176
     1
 90
        0
176
     1
 40
-0.6
176
     1
 41
-30.0
176
     1
 62
     5
 63
     7
421
 16777215
176
     1
 74
     1
176
     1
 91
        4
176
     1
 64
     7
176
     1
 65
   257
176
     1
 75
     1
176
     1
175
     1
176
     1
 42
1.0
176
     1
 92
        0
176
     1
 66
   257
176
     1
 43
1.0
176
     1
 76
     1
176
     1
 77
     6
176
     1
 78
     2
176
     1
 67
     7
176
     1
 79
     5
176
     1
170
     0
176
     1
171
     0
176
     1
290
     0
176
     1
 93
        1
176
     1
 44
0.0
176
     1
173
     0
176
     1
  0
VISUALSTYLE
  5
31
102
{ACAD_REACTORS
330
2A
102
}
330
2A
100
AcDbVisualStyle
  2
3D Hidden
 70
     6
177
     2
291
     0
 71
     1
176
     1
 72
     2
176
     1
 73
     2
176
     1
 90
        0
176
     1
 40
-0.6
176
     1
 41
-30.0
176
     1
 62
     5
 63
     7
421
 16777215
176
     1
 74
     2
176
     1
 91
        2
176
     1
 64
     7
176
     1
 65
   257
176
     1
 75
     2
176
     1
175
     1
176
     1
 42
40.0
176
     1
 92
        0
176
     1
 66
   257
176
     1
 43
1.0
176
     1
 76
     1
176
     1
 77
     6
176
     1
 78
     2
176
     1
 67
     7
176
     1
 79
     3
176
     1
170
     0
176
     1
171
     0
176
     1
290
     0
176
     1
 93
        1
176
     1
 44
0.0
176
     1
173
     0
176
     1
  0
VISUALSTYLE
  5
30
102
{ACAD_REACTORS
330
2A
102
}
330
2A
100
AcDbVisualStyle
  2
3dWireframe
 70
     5
177
     2
291
     0
 71
     0
176
     1
 72
     2
176
     1
 73
     0
176
     1
 90
        0
176
     1
 40
-0.6
176
     1
 41
-30.0
176
     1
 62
     5
 63
     7
421
 16777215
176
     1
 74
     1
176
     1
 91
        4
176
     1
 64
     7
176
     1
 65
   257
176
     1
 75
     1
176
     1
175
     1
176
     1
 42
1.0
176
     1
 92
        0
176
     1
 66
   257
176
     1
 43
1.0
176
     1
 76
     1
176
     1
 77
     6
176
     1
 78
     2
176
     1
 67
     7
176
     1
 79
     5
176
     1
170
     0
176
     1
171
     0
176
     1
290
     0
176
     1
 93
        1
176
     1
 44
0.0
176
     1
173
     0
176
     1
  0
VISUALSTYLE
  5
32
102
{ACAD_REACTORS
330
2A
102
}
330
2A
100
AcDbVisualStyle
  2
Basic
 70
     7
177
     2
291
     1
 71
     1
176
     1
 72
     0
176
     1
 73
     1
176
     1
 90
        0
176
     1
 40
-0.6
176
     1
 41
-30.0
176
     1
 62
     5
 63
     7
421
 16777215
176
     1
 74
     0
176
     1
 91
        4
176
     1
 64
     7
176
     1
 65
   257
176
     1
 75
     1
176
     1
175
     1
176
     1
 42
1.0
176
     1
 92
        8
176
     1
 66
     7
176
     1
 43
1.0
176
     1
 76
     1
176
     1
 77
     6
176
     1
 78
     2
176
     1
 67
     7
176
     1
 79
     5
176
     1
170
     0
176
     1
171
     0
176
     1
290
     0
176
     1
 93
        1
176
     1
 44
0.0
176
     1
173
     0
176
     1
  0
VISUALSTYLE
  5
36
102
{ACAD_REACTORS
330
2A
102
}
330
2A
100
AcDbVisualStyle
  2
Brighten
 70
    12
177
     2
291
     1
 71
     2
176
     1
 72
     2
176
     1
 73
     0
176
     1
 90
        0
176
     1
 40
-0.6
176
     1
 41
-30.0
176
     1
 62
     5
 63
     7
421
 16777215
176
     1
 74
     1
176
     1
 91
        4
176
     1
 64
     7
176
     1
 65
   257
176
     1
 75
     1
176
     1
175
     1
176
     1
 42
1.0
176
     1
 92
        8
176
     1
 66
     7
176
     1
 43
1.0
176
     1
 76
     1
176
     1
 77
     6
176
     1
 78
     2
176
     1
 67
     7
176
     1
 79
     5
176
     1
170
     0
176
     1
171
     0
176
     1
290
     0
176
     1
 93
        1
176
     1
 44
50.0
176
     1
173
     0
176
     1
  0
VISUALSTYLE
  5
3A
102
{ACAD_REACTORS
330
2A
102
}
330
2A
100
AcDbVisualStyle
  2
ColorChange
 70
    16
177
     2
291
     1
 71
     2
176
     1
 72
     2
176
     1
 73
     3
176
     1
 90
        0
176
     1
 40
-0.6
176
     1
 41
-30.0
176
     1
 62
     5
 63
     8
421
  8421504
176
     1
 74
     1
176
     1
 91
        4
176
     1
 64
     7
176
     1
 65
   257
176
     1
 75
     1
176
     1
175
     1
176
     1
 42
1.0
176
     1
 92
        8
176
     1
 66
     8
424
  8421504
176
     1
 43
1.0
176
     1
 76
     1
176
     1
 77
     6
176
     1
 78
     2
176
     1
 67
     7
176
     1
 79
     5
176
     1
170
     0
176
     1
171
     0
176
     1
290
     0
176
     1
 93
        1
176
     1
 44
0.0
176
     1
173
     0
176
     1
  0
VISUALSTYLE
  5
34
102
{ACAD_REACTORS
330
2A
102
}
330
2A
100
AcDbVisualStyle
  2
Conceptual
 70
     9
177
     2
291
     0
 71
     3
176
     1
 72
     2
176
     1
 73
     0
176
     1
 90
        0
176
     1
 40
-0.6
176
     1
 41
-30.0
176
     1
 62
     5
 63
     7
421
 16777215
176
     1
 74
     2
176
     1
 91
        2
176
     1
 64
     7
176
     1
 65
   257
176
     1
 75
     1
176
     1
175
     1
176
     1
 42
40.0
176
     1
 92
        8
176
     1
 66
     7
176
     1
 43
1.0
176
     1
 76
     1
176
     1
 77
     6
176
     1
 78
     2
176
     1
 67
     7
176
     1
 79
     3
176
     1
170
     0
176
     1
171
     0
176
     1
290
     0
176
     1
 93
        1
176
     1
 44
0.0
176
     1
173
     0
176
     1
  0
VISUALSTYLE
  5
35
102
{ACAD_REACTORS
330
2A
102
}
330
2A
100
AcDbVisualStyle
  2
Dim
 70
    11
177
     2
291
     1
 71
     2
176
     1
 72
     2
176
     1
 73
     0
176
     1
 90
        0
176
     1
 40
-0.6
176
     1
 41
-30.0
176
     1
 62
     5
 63
     7
421
 16777215
176
     1
 74
     1
176
     1
 91
        4
176
     1
 64
     7
176
     1
 65
   257
176
     1
 75
     1
176
     1
175
     1
176
     1
 42
1.0
176
     1
 92
        8
176
     1
 66
     7
176
     1
 43
1.0
176
     1
 76
     1
176
     1
 77
     6
176
     1
 78
     2
176
     1
 67
     7
176
     1
 79
     5
176
     1
170
     0
176
     1
171
     0
176
     1
290
     0
176
     1
 93
        1
176
     1
 44
-50.0
176
     1
173
     0
176
     1
  0
VISUALSTYLE
  5
39
102
{ACAD_REACTORS
330
2A
102
}
330
2A
100
AcDbVisualStyle
  2
Facepattern
 70
    15
177
     2
291
     1
 71
     2
176
     1
 72
     2
176
     1
 73
     0
176
     1
 90
        0
176
     1
 40
-0.6
176
     1
 41
-30.0
176
     1
 62
     5
 63
     7
421
 16777215
176
     1
 74
     1
176
     1
 91
        4
176
     1
 64
     7
176
     1
 65
   257
176
     1
 75
     1
176
     1
175
     1
176
     1
 42
1.0
176
     1
 92
        8
176
     1
 66
     7
176
     1
 43
1.0
176
     1
 76
     1
176
     1
 77
     6
176
     1
 78
     2
176
     1
 67
     7
176
     1
 79
     5
176
     1
170
     0
176
     1
171
     0
176
     1
290
     0
176
     1
 93
        1
176
     1
 44
0.0
176
     1
173
     0
176
     1
  0
VISUALSTYLE
  5
2B
102
{ACAD_REACTORS
330
2A
102
}
330
2A
100
AcDbVisualStyle
  2
Flat
 70
     0
177
     2
291
     1
 71
     2
176
     1
 72
     1
176
     1
 73
     1
176
     1
 90
        2
176
     1
 40
-0.6
176
     1
 41
30.0
176
     1
 62
     5
 63
     7
421
 16777215
176
     1
 74
     0
176
     1
 91
        4
176
     1
 64
     7
176
     1
 65
   257
176
     1
 75
     1
176
     1
175
     1
176
     1
 42
1.0
176
     1
 92
        8
176
     1
 66
     7
176
     1
 43
1.0
176
     1
 76
     1
176
     1
 77
     6
176
     1
 78
     2
176
     1
 67
     7
176
     1
 79
     5
176
     1
170
     0
176
     1
171
     0
176
     1
290
     0
176
     1
 93
       13
176
     1
 44
0.0
176
     1
173
     0
176
     1
  0
VISUALSTYLE
  5
2C
102
{ACAD_REACTORS
330
2A
102
}
330
2A
100
AcDbVisualStyle
  2
FlatWithEdges
 70
     1
177
     2
291
     1
 71
     2
176
     1
 72
     1
176
     1
 73
     1
176
     1
 90
        2
176
     1
 40
-0.6
176
     1
 41
30.0
176
     1
 62
     5
 63
     7
421
 16777215
176
     1
 74
     1
176
     1
 91
        4
176
     1
 64
     7
176
     1
 65
   257
176
     1
 75
     1
176
     1
175
     1
176
     1
 42
1.0
176
     1
 92
        0
176
     1
 66
   257
176
     1
 43
1.0
176
     1
 76
     1
176
     1
 77
     6
176
     1
 78
     2
176
     1
 67
     7
176
     1
 79
     5
176
     1
170
     0
176
     1
171
     0
176
     1
290
     0
176
     1
 93
       13
176
     1
 44
0.0
176
     1
173
     0
176
     1
  0
VISUALSTYLE
  5
2D
102
{ACAD_REACTORS
330
2A
102
}
330
2A
100
AcDbVisualStyle
  2
Gouraud
 70
     2
177
     2
291
     1
 71
     2
176
     1
 72
     2
176
     1
 73
     1
176
     1
 90
        2
176
     1
 40
-0.6
176
     1
 41
30.0
176
     1
 62
     5
 63
     7
421
 16777215
176
     1
 74
     0
176
     1
 91
        4
176
     1
 64
     7
176
     1
 65
   257
176
     1
 75
     1
176
     1
175
     1
176
     1
 42
1.0
176
     1
 92
        0
176
     1
 66
     7
176
     1
 43
1.0
176
     1
 76
     1
176
     1
 77
     6
176
     1
 78
     2
176
     1
 67
     7
176
     1
 79
     5
176
     1
170
     0
176
     1
171
     0
176
     1
290
     0
176
     1
 93
       13
176
     1
 44
0.0
176
     1
173
     0
176
     1
  0
VISUALSTYLE
  5
2E
102
{ACAD_REACTORS
330
2A
102
}
330
2A
100
AcDbVisualStyle
  2
GouraudWithEdges
 70
     3
177
     2
291
     1
 71
     2
176
     1
 72
     2
176
     1
 73
     1
176
     1
 90
        2
176
     1
 40
-0.6
176
     1
 41
30.0
176
     1
 62
     5
 63
     7
421
 16777215
176
     1
 74
     1
176
     1
 91
        4
176
     1
 64
     7
176
     1
 65
   257
176
     1
 75
     1
176
     1
175
     1
176
     1
 42
1.0
176
     1
 92
        0
176
     1
 66
   257
176
     1
 43
1.0
176
     1
 76
     1
176
     1
 77
     6
176
     1
 78
     2
176
     1
 67
     7
176
     1
 79
     5
176
     1
170
     0
176
     1
171
     0
176
     1
290
     0
176
     1
 93
       13
176
     1
 44
0.0
176
     1
173
     0
176
     1
  0
VISUALSTYLE
  5
38
102
{ACAD_REACTORS
330
2A
102
}
330
2A
100
AcDbVisualStyle
  2
Linepattern
 70
    14
177
     2
291
     1
 71
     2
176
     1
 72
     2
176
     1
 73
     0
176
     1
 90
        0
176
     1
 40
-0.6
176
     1
 41
-30.0
176
     1
 62
     5
 63
     7
421
 16777215
176
     1
 74
     1
176
     1
 91
        4
176
     1
 64
     7
176
     1
 65
   257
176
     1
 75
     7
176
     1
175
     7
176
     1
 42
1.0
176
     1
 92
        8
176
     1
 66
     7
176
     1
 43
1.0
176
     1
 76
     1
176
     1
 77
     6
176
     1
 78
     2
176
     1
 67
     7
176
     1
 79
     5
176
     1
170
     0
176
     1
171
     0
176
     1
290
     0
176
     1
 93
        1
176
     1
 44
0.0
176
     1
173
     0
176
     1
  0
VISUALSTYLE
  5
33
102
{ACAD_REACTORS
330
2A
102
}
330
2A
100
AcDbVisualStyle
  2
Realistic
 70
     8
177
     2
291
     0
 71
     2
176
     1
 72
     2
176
     1
 73
     0
176
     1
 90
        0
176
     1
 40
-0.6
176
     1
 41
-30.0
176
     1
 62
     5
 63
     7
421
 16777215
176
     1
 74
     1
176
     1
 91
        0
176
     1
 64
     7
176
     1
 65
   257
176
     1
 75
     1
176
     1
175
     1
176
     1
 42
1.0
176
     1
 92
        8
176
     1
 66
     8
424
  7895160
176
     1
 43
1.0
176
     1
 76
     1
176
     1
 77
     6
176
     1
 78
     2
176
     1
 67
     7
176
     1
 79
     5
176
     1
170
     0
176
     1
171
     0
176
     1
290
     0
176
     1
 93
       13
176
     1
 44
0.0
176
     1
173
     0
176
     1
  0
VISUALSTYLE
  5
37
102
{ACAD_REACTORS
330
2A
102
}
330
2A
100
AcDbVisualStyle
  2
Thicken
 70
    13
177
     2
291
     1
 71
     2
176
     1
 72
     2
176
     1
 73
     0
176
     1
 90
        0
176
     1
 40
-0.6
176
     1
 41
-30.0
176
     1
 62
     5
 63
     7
421
 16777215
176
     1
 74
     1
176
     1
 91
        4
176
     1
 64
     7
176
     1
 65
   257
176
     1
 75
     1
176
     1
175
     1
176
     1
 42
1.0
176
     1
 92
       12
176
     1
 66
     7
176
     1
 43
1.0
176
     1
 76
     1
176
     1
 77
     6
176
     1
 78
     2
176
     1
 67
     7
176
     1
 79
     5
176
     1
170
     0
176
     1
171
     0
176
     1
290
     0
176
     1
 93
        1
176
     1
 44
0.0
176
     1
173
     0
176
     1
  0
ENDSEC
  0
EOF
