  0
SECTION
  2
HEADER
  9
$ACADVER
  1
AC1024
  9
$ACADMAINTVER
 70
     6
  9
$DWGCODEPAGE
  3
UNDEFINED
  9
$INSBASE
 10
0.0
 20
0.0
 30
0.0
  9
$EXTMIN
 10
1.000000000000000E+20
 20
1.000000000000000E+20
 30
1.000000000000000E+20
  9
$EXTMAX
 10
-1.000000000000000E+20
 20
-1.000000000000000E+20
 30
-1.000000000000000E+20
  9
$LIMMIN
 10
0.0
 20
0.0
  9
$LIMMAX
 10
12.0
 20
9.0
  9
$ORTHOMODE
 70
     0
  9
$REGENMODE
 70
     1
  9
$FILLMODE
 70
     1
  9
$QTEXTMODE
 70
     0
  9
$MIRRTEXT
 70
     1
  9
$LTSCALE
 40
1.0
  9
$ATTMODE
 70
     1
  9
$TEXTSIZE
 40
0.2
  9
$TRACEWID
 40
0.05
  9
$TEXTSTYLE
  7
Standard
  9
$CLAYER
  8
0
  9
$CELTYPE
  6
ByLayer
  9
$CECOLOR
 62
   256
  9
$CELTSCALE
 40
1.0
  9
$DISPSILH
 70
     0
  9
$DIMSCALE
 40
1.0
  9
$DIMASZ
 40
0.18
  9
$DIMEXO
 40
0.0625
  9
$DIMDLI
 40
0.38
  9
$DIMRND
 40
0.0
  9
$DIMDLE
 40
0.0
  9
$DIMEXE
 40
0.18
  9
$DIMTP
 40
0.0
  9
$DIMTM
 40
0.0
  9
$DIMTXT
 40
0.18
  9
$DIMCEN
 40
0.09
  9
$DIMTSZ
 40
0.0
  9
$DIMTOL
 70
     0
  9
$DIMLIM
 70
     0
  9
$DIMTIH
 70
     1
  9
$DIMTOH
 70
     1
  9
$DIMSE1
 70
     0
  9
$DIMSE2
 70
     0
  9
$DIMTAD
 70
     0
  9
$DIMZIN
 70
     0
  9
$DIMBLK
  1

  9
$DIMASO
 70
     1
  9
$DIMSHO
 70
     1
  9
$DIMPOST
  1

  9
$DIMAPOST
  1

  9
$DIMALT
 70
     0
  9
$DIMALTD
 70
     2
  9
$DIMALTF
 40
25.4
  9
$DIMLFAC
 40
1.0
  9
$DIMTOFL
 70
     0
  9
$DIMTVP
 40
0.0
  9
$DIMTIX
 70
     0
  9
$DIMSOXD
 70
     0
  9
$DIMSAH
 70
     0
  9
$DIMBLK1
  1

  9
$DIMBLK2
  1

  9
$DIMSTYLE
  2
Standard
  9
$DIMCLRD
 70
     0
  9
$DIMCLRE
 70
     0
  9
$DIMCLRT
 70
     0
  9
$DIMTFAC
 40
1.0
  9
$DIMGAP
 40
0.09
  9
$DIMJUST
 70
     0
  9
$DIMSD1
 70
     0
  9
$DIMSD2
 70
     0
  9
$DIMTOLJ
 70
     1
  9
$DIMTZIN
 70
     0
  9
$DIMALTZ
 70
     0
  9
$DIMALTTZ
 70
     0
  9
$DIMUPT
 70
     0
  9
$DIMDEC
 70
     4
  9
$DIMTDEC
 70
     4
  9
$DIMALTU
 70
     2
  9
$DIMALTTD
 70
     2
  9
$DIMTXSTY
  7
Standard
  9
$DIMAUNIT
 70
     0
  9
$DIMADEC
 70
     0
  9
$DIMALTRND
 40
0.0
  9
$DIMAZIN
 70
     0
  9
$DIMDSEP
 70
    46
  9
$DIMATFIT
 70
     3
  9
$DIMFRAC
 70
     0
  9
$DIMLDRBLK
  1

  9
$DIMLUNIT
 70
     2
  9
$DIMLWD
 70
    -2
  9
$DIMLWE
 70
    -2
  9
$DIMTMOVE
 70
     0
  9
$DIMFXL
 40
1.0
  9
$DIMFXLON
 70
     0
  9
$DIMJOGANG
 40
0.7853981633974483
  9
$DIMTFILL
 70
     0
  9
$DIMTFILLCLR
 70
     0
  9
$DIMARCSYM
 70
     0
  9
$DIMLTYPE
  6

  9
$DIMLTEX1
  6

  9
$DIMLTEX2
  6

  9
$DIMTXTDIRECTION
 70
     0
  9
$LUNITS
 70
     2
  9
$LUPREC
 70
     4
  9
$SKETCHINC
 40
0.1
  9
$FILLETRAD
 40
0.5
  9
$AUNITS
 70
     0
  9
$AUPREC
 70
     0
  9
$MENU
  1
.
  9
$ELEVATION
 40
0.0
  9
$PELEVATION
 40
0.0
  9
$THICKNESS
 40
0.0
  9
$LIMCHECK
 70
     0
  9
$CHAMFERA
 40
0.5
  9
$CHAMFERB
 40
0.5
  9
$CHAMFERC
 40
1.0
  9
$CHAMFERD
 40
0.0
  9
$SKPOLY
 70
     0
  9
$TDCREATE
 40
2457917.616319444
  9
$TDUCREATE
 40
2457917.241319444
  9
$TDUPDATE
 40
2457917.616331007
  9
$TDUUPDATE
 40
2457917.241331019
  9
$TDINDWG
 40
0.0000000116
  9
$TDUSRTIMER
 40
0.0000000116
  9
$USRTIMER
 70
     1
  9
$ANGBASE
 50
0.0
  9
$ANGDIR
 70
     0
  9
$PDMODE
 70
     0
  9
$PDSIZE
 40
0.0
  9
$PLINEWID
 40
0.0
  9
$SPLFRAME
 70
     0
  9
$SPLINETYPE
 70
     6
  9
$SPLINESEGS
 70
     8
  9
$HANDSEED
  5
E0
  9
$SURFTAB1
 70
     6
  9
$SURFTAB2
 70
     6
  9
$SURFTYPE
 70
     6
  9
$SURFU
 70
     6
  9
$SURFV
 70
     6
  9
$UCSBASE
  2

  9
$UCSNAME
  2

  9
$UCSORG
 10
0.0
 20
0.0
 30
0.0
  9
$UCSXDIR
 10
1.0
 20
0.0
 30
0.0
  9
$UCSYDIR
 10
0.0
 20
1.0
 30
0.0
  9
$UCSORTHOREF
  2

  9
$UCSORTHOVIEW
 70
     0
  9
$UCSORGTOP
 10
0.0
 20
0.0
 30
0.0
  9
$UCSORGBOTTOM
 10
0.0
 20
0.0
 30
0.0
  9
$UCSORGLEFT
 10
0.0
 20
0.0
 30
0.0
  9
$UCSORGRIGHT
 10
0.0
 20
0.0
 30
0.0
  9
$UCSORGFRONT
 10
0.0
 20
0.0
 30
0.0
  9
$UCSORGBACK
 10
0.0
 20
0.0
 30
0.0
  9
$PUCSBASE
  2

  9
$PUCSNAME
  2

  9
$PUCSORG
 10
0.0
 20
0.0
 30
0.0
  9
$PUCSXDIR
 10
1.0
 20
0.0
 30
0.0
  9
$PUCSYDIR
 10
0.0
 20
1.0
 30
0.0
  9
$PUCSORTHOREF
  2

  9
$PUCSORTHOVIEW
 70
     0
  9
$PUCSORGTOP
 10
0.0
 20
0.0
 30
0.0
  9
$PUCSORGBOTTOM
 10
0.0
 20
0.0
 30
0.0
  9
$PUCSORGLEFT
 10
0.0
 20
0.0
 30
0.0
  9
$PUCSORGRIGHT
 10
0.0
 20
0.0
 30
0.0
  9
$PUCSORGFRONT
 10
0.0
 20
0.0
 30
0.0
  9
$PUCSORGBACK
 10
0.0
 20
0.0
 30
0.0
  9
$USERI1
 70
     0
  9
$USERI2
 70
     0
  9
$USERI3
 70
     0
  9
$USERI4
 70
     0
  9
$USERI5
 70
     0
  9
$USERR1
 40
0.0
  9
$USERR2
 40
0.0
  9
$USERR3
 40
0.0
  9
$USERR4
 40
0.0
  9
$USERR5
 40
0.0
  9
$WORLDVIEW
 70
     1
  9
$SHADEDGE
 70
     3
  9
$SHADEDIF
 70
    70
  9
$TILEMODE
 70
     1
  9
$MAXACTVP
 70
    64
  9
$PINSBASE
 10
0.0
 20
0.0
 30
0.0
  9
$PLIMCHECK
 70
     0
  9
$PEXTMIN
 10
1.000000000000000E+20
 20
1.000000000000000E+20
 30
1.000000000000000E+20
  9
$PEXTMAX
 10
-1.000000000000000E+20
 20
-1.000000000000000E+20
 30
-1.000000000000000E+20
  9
$PLIMMIN
 10
0.0
 20
0.0
  9
$PLIMMAX
 10
12.0
 20
9.0
  9
$UNITMODE
 70
     0
  9
$VISRETAIN
 70
     1
  9
$PLINEGEN
 70
     0
  9
$PSLTSCALE
 70
     1
  9
$TREEDEPTH
 70
  3020
  9
$CMLSTYLE
  2
Standard
  9
$CMLJUST
 70
     0
  9
$CMLSCALE
 40
1.0
  9
$PROXYGRAPHICS
 70
     1
  9
$MEASUREMENT
 70
     0
  9
$CELWEIGHT
370
    -1
  9
$ENDCAPS
280
     0
  9
$JOINSTYLE
280
     0
  9
$LWDISPLAY
290
     1
  9
$INSUNITS
 70
     1
  9
$HYPERLINKBASE
  1

  9
$STYLESHEET
  1

  9
$XEDIT
290
     1
  9
$CEPSNTYPE
380
     0
  9
$PSTYLEMODE
290
     1
  9
$FINGERPRINTGUID
  2
{3E543FBF-91FB-BE76-9954-8DE4ED5896E5}
  9
$VERSIONGUID
  2
{FAEB1C32-E019-11D5-929B-00C0DF256EC4}
  9
$EXTNAMES
290
     1
  9
$PSVPSCALE
 40
0.0
  9
$OLESTARTUP
290
     0
  9
$SORTENTS
280
   127
  9
$INDEXCTL
280
     0
  9
$HIDETEXT
280
     1
  9
$XCLIPFRAME
280
     2
  9
$HALOGAP
280
     0
  9
$OBSCOLOR
 70
   257
  9
$OBSLTYPE
280
     0
  9
$INTERSECTIONDISPLAY
280
     0
  9
$INTERSECTIONCOLOR
 70
   257
  9
$DIMASSOC
280
     2
  9
$PROJECTNAME
  1

  9
$CAMERADISPLAY
290
     0
  9
$LENSLENGTH
 40
50.0
  9
$CAMERAHEIGHT
 40
0.0
  9
$STEPSPERSEC
 40
2.0
  9
$STEPSIZE
 40
6.0
  9
$3DDWFPREC
 40
2.0
  9
$PSOLWIDTH
 40
0.25
  9
$PSOLHEIGHT
 40
4.0
  9
$LOFTANG1
 40
1.570796326794897
  9
$LOFTANG2
 40
1.570796326794897
  9
$LOFTMAG1
 40
0.0
  9
$LOFTMAG2
 40
0.0
  9
$LOFTPARAM
 70
     7
  9
$LOFTNORMALS
280
     1
  9
$LATITUDE
 40
37.795
  9
$LONGITUDE
 40
-122.394
  9
$NORTHDIRECTION
 40
0.0
  9
$TIMEZONE
 70
 -8000
  9
$LIGHTGLYPHDISPLAY
280
     1
  9
$TILEMODELIGHTSYNCH
280
     1
  9
$CMATERIAL
347
3C
  9
$SOLIDHIST
280
     1
  9
$SHOWHIST
280
     1
  9
$DWFFRAME
280
     2
  9
$DGNFRAME
280
     2
  9
$REALWORLDSCALE
290
     1
  9
$INTERFERECOLOR
 62
   256
  9
$CSHADOW
280
     0
  9
$SHADOWPLANELOCATION
 40
0.0
  0
ENDSEC
  0
SECTION
  2
CLASSES
  0
CLASS
  1
ACDBDICTIONARYWDFLT
  2
AcDbDictionaryWithDefault
  3
ObjectDBX Classes
 90
        0
 91
        4
280
     0
281
     0
  0
CLASS
  1
VISUALSTYLE
  2
AcDbVisualStyle
  3
ObjectDBX Classes
 90
     4095
 91
        4
280
     0
281
     0
  0
CLASS
  1
MATERIAL
  2
AcDbMaterial
  3
ObjectDBX Classes
 90
     1153
 91
        4
280
     0
281
     0
  0
CLASS
  1
SUN
  2
AcDbSun
  3
SCENEOE
 90
     1024
 91
        4
280
     0
281
     0
  0
ENDSEC
  0
SECTION
  2
TABLES
  0
TABLE
  2
VPORT
  5
8
330
0
100
AcDbSymbolTable
 70
     1
  0
VPORT
  5
29
330
8
100
AcDbSymbolTableRecord
100
AcDbViewportTableRecord
  2
*Active
 70
     0
 10
0.0
 20
0.0
 11
1.0
 21
1.0
 12
0.0
 22
0.0
 13
0.0
 23
0.0
 14
0.5
 24
0.5
 15
0.5
 25
0.5
 16
0.0
 26
0.0
 36
1.0
 17
91.00082462281999
 27
-128.4993055234307
 37
0.0
 40
256.9986110468615
 41
0.7081814508812795
 42
50.0
 43
0.0
 44
0.0
 50
0.0
 51
0.0
 71
     0
 72
   100
 73
     1
 74
     3
 75
     0
 76
     0
 77
     0
 78
     0
281
     0
 65
     1
110
0.0
120
0.0
130
0.0
111
1.0
121
0.0
131
0.0
112
0.0
122
1.0
132
0.0
 79
     0
146
0.0
 60
     3
 61
     5
292
     1
282
     1
141
0.0
142
0.0
 63
   250
361
3F
  0
ENDTAB
  0
TABLE
  2
LTYPE
  5
5
330
0
100
AcDbSymbolTable
 70
     1
  0
LTYPE
  5
14
330
5
100
AcDbSymbolTableRecord
100
AcDbLinetypeTableRecord
  2
ByBlock
 70
     0
  3

 72
    65
 73
     0
 40
0.0
  0
LTYPE
  5
15
330
5
100
AcDbSymbolTableRecord
100
AcDbLinetypeTableRecord
  2
ByLayer
 70
     0
  3

 72
    65
 73
     0
 40
0.0
  0
LTYPE
  5
16
330
5
100
AcDbSymbolTableRecord
100
AcDbLinetypeTableRecord
  2
Continuous
 70
     0
  3
Solid line
 72
    65
 73
     0
 40
0.0
  0
ENDTAB
  0
TABLE
  2
LAYER
  5
2
330
0
100
AcDbSymbolTable
 70
     2
  0
LAYER
  5
10
330
2
100
AcDbSymbolTableRecord
100
AcDbLayerTableRecord
  2
0
 70
     0
 62
     7
  6
Continuous
370
    -3
390
F
347
3E
  0
LAYER
  5
40
330
2
100
AcDbSymbolTableRecord
100
AcDbLayerTableRecord
  2
_U+30EC_U+30A4_U+30E4_U+30FC 1
 70
     0
 62
     7
  6
Continuous
370
    -3
390
F
347
3E
  0
ENDTAB
  0
TABLE
  2
STYLE
  5
3
330
0
100
AcDbSymbolTable
 70
     1
  0
STYLE
  5
11
330
3
100
AcDbSymbolTableRecord
100
AcDbTextStyleTableRecord
  2
Standard
 70
     0
 40
0.0
 41
1.0
 50
0.0
 71
     0
 42
0.2
  3
txt
  4

  0
ENDTAB
  0
TABLE
  2
VIEW
  5
6
330
0
100
AcDbSymbolTable
 70
     0
  0
ENDTAB
  0
TABLE
  2
UCS
  5
7
330
0
100
AcDbSymbolTable
 70
     0
  0
ENDTAB
  0
TABLE
  2
APPID
  5
9
330
0
100
AcDbSymbolTable
 70
     1
  0
APPID
  5
12
330
9
100
AcDbSymbolTableRecord
100
AcDbRegAppTableRecord
  2
ACAD
 70
     0
  0
ENDTAB
  0
TABLE
  2
DIMSTYLE
  5
A
330
0
100
AcDbSymbolTable
 70
     1
100
AcDbDimStyleTable
  0
DIMSTYLE
105
27
330
A
100
AcDbSymbolTableRecord
100
AcDbDimStyleTableRecord
  2
Standard
 70
     0
178
     0
340
11
  0
ENDTAB
  0
TABLE
  2
BLOCK_RECORD
  5
1
330
0
100
AcDbSymbolTable
 70
     7
  0
BLOCK_RECORD
  5
1F
330
1
100
AcDbSymbolTableRecord
100
AcDbBlockTableRecord
  2
*Model_Space
340
22
 70
     0
280
     1
281
     0
  0
BLOCK_RECORD
  5
1B
330
1
100
AcDbSymbolTableRecord
100
AcDbBlockTableRecord
  2
*Paper_Space
340
1E
 70
     0
280
     1
281
     0
  0
BLOCK_RECORD
  5
23
330
1
100
AcDbSymbolTableRecord
100
AcDbBlockTableRecord
  2
*Paper_Space0
340
26
 70
     0
280
     1
281
     0
  0
BLOCK_RECORD
  5
41
330
1
100
AcDbSymbolTableRecord
100
AcDbBlockTableRecord
  2
block 2
340
0
102
{BLKREFS
331
42
102
}
 70
     0
280
     1
281
     0
  0
BLOCK_RECORD
  5
8F
330
1
100
AcDbSymbolTableRecord
100
AcDbBlockTableRecord
  2
block 3
340
0
102
{BLKREFS
331
90
102
}
 70
     0
280
     1
281
     0
  0
BLOCK_RECORD
  5
A3
330
1
100
AcDbSymbolTableRecord
100
AcDbBlockTableRecord
  2
block 4
340
0
102
{BLKREFS
331
A4
102
}
 70
     0
280
     1
281
     0
  0
BLOCK_RECORD
  5
BA
330
1
100
AcDbSymbolTableRecord
100
AcDbBlockTableRecord
  2
block 5
340
0
102
{BLKREFS
331
BB
102
}
 70
     0
280
     1
281
     0
  0
BLOCK_RECORD
  5
C8
330
1
100
AcDbSymbolTableRecord
100
AcDbBlockTableRecord
  2
block 6
340
0
102
{BLKREFS
331
C9
102
}
 70
     0
280
     1
281
     0
  0
BLOCK_RECORD
  5
D8
330
1
100
AcDbSymbolTableRecord
100
AcDbBlockTableRecord
  2
block 7
340
0
102
{BLKREFS
331
D9
102
}
 70
     0
280
     1
281
     0
  0
ENDTAB
  0
ENDSEC
  0
SECTION
  2
BLOCKS
  0
BLOCK
  5
20
330
1F
100
AcDbEntity
  8
0
100
AcDbBlockBegin
  2
*Model_Space
 70
     0
 10
0.0
 20
0.0
 30
0.0
  3
*Model_Space
  1

  0
ENDBLK
  5
21
330
1F
100
AcDbEntity
  8
0
100
AcDbBlockEnd
  0
BLOCK
  5
1C
330
1B
100
AcDbEntity
 67
     1
  8
0
100
AcDbBlockBegin
  2
*Paper_Space
 70
     0
 10
0.0
 20
0.0
 30
0.0
  3
*Paper_Space
  1

  0
ENDBLK
  5
1D
330
1B
100
AcDbEntity
 67
     1
  8
0
100
AcDbBlockEnd
  0
BLOCK
  5
24
330
23
100
AcDbEntity
  8
0
100
AcDbBlockBegin
  2
*Paper_Space0
 70
     0
 10
0.0
 20
0.0
 30
0.0
  3
*Paper_Space0
  1

  0
ENDBLK
  5
25
330
23
100
AcDbEntity
  8
0
100
AcDbBlockEnd
  0
BLOCK
  5
43
330
41
100
AcDbEntity
  8
0
100
AcDbBlockBegin
  2
block 2
 70
     0
 10
0.0
 20
0.0
 30
0.0
  3
block 2
  1

  0
POLYLINE
  5
45
330
41
100
AcDbEntity
  8
_U+30EC_U+30A4_U+30E4_U+30FC 1
370
     0
100
AcDb2dPolyline
 66
     1
 10
0.0
 20
0.0
 30
0.0
  0
VERTEX
  5
46
330
45
100
AcDbEntity
  8
_U+30EC_U+30A4_U+30E4_U+30FC 1
370
     0
100
AcDbVertex
100
AcDb2dVertex
 10
78.34559442485816
 20
-137.5915882989354
 30
0.0
  0
VERTEX
  5
47
330
45
100
AcDbEntity
  8
_U+30EC_U+30A4_U+30E4_U+30FC 1
370
     0
100
AcDbVertex
100
AcDb2dVertex
 10
84.35004645916214
 20
-137.5915882989354
 30
0.0
  0
VERTEX
  5
48
330
45
100
AcDbEntity
  8
_U+30EC_U+30A4_U+30E4_U+30FC 1
370
     0
100
AcDbVertex
100
AcDb2dVertex
 10
84.29148534954506
 20
-135.6513105216428
 30
0.0
  0
VERTEX
  5
49
330
45
100
AcDbEntity
  8
_U+30EC_U+30A4_U+30E4_U+30FC 1
370
     0
100
AcDbVertex
100
AcDb2dVertex
 10
83.32134648540647
 20
-135.6805910771912
 30
0.0
  0
VERTEX
  5
4A
330
45
100
AcDbEntity
  8
_U+30EC_U+30A4_U+30E4_U+30FC 1
370
     0
100
AcDbVertex
100
AcDb2dVertex
 10
83.29171315282915
 20
-136.5918513547411
 30
0.0
  0
VERTEX
  5
4B
330
45
100
AcDbEntity
  8
_U+30EC_U+30A4_U+30E4_U+30FC 1
370
     0
100
AcDbVertex
100
AcDb2dVertex
 10
79.34536664683039
 20
-136.6504124658373
 30
0.0
  0
VERTEX
  5
4C
330
45
100
AcDbEntity
  8
_U+30EC_U+30A4_U+30E4_U+30FC 1
370
     0
100
AcDbVertex
100
AcDb2dVertex
 10
79.34536664683039
 20
-122.5213802471473
 30
0.0
  0
VERTEX
  5
4D
330
45
100
AcDbEntity
  8
_U+30EC_U+30A4_U+30E4_U+30FC 1
370
     0
100
AcDbVertex
100
AcDb2dVertex
 10
93.34587956299265
 20
-122.5213802471473
 30
0.0
  0
VERTEX
  5
4E
330
45
100
AcDbEntity
  8
_U+30EC_U+30A4_U+30E4_U+30FC 1
370
     0
100
AcDbVertex
100
AcDb2dVertex
 10
93.34587956299265
 20
-121.5216080251751
 30
0.0
  0
VERTEX
  5
4F
330
45
100
AcDbEntity
  8
_U+30EC_U+30A4_U+30E4_U+30FC 1
370
     0
100
AcDbVertex
100
AcDb2dVertex
 10
78.34559442485816
 20
-121.5216080251751
 30
0.0
  0
VERTEX
  5
50
330
45
100
AcDbEntity
  8
_U+30EC_U+30A4_U+30E4_U+30FC 1
370
     0
100
AcDbVertex
100
AcDb2dVertex
 10
78.34559442485816
 20
-137.5915882989354
 30
0.0
  0
SEQEND
  5
52
330
45
100
AcDbEntity
  8
_U+30EC_U+30A4_U+30E4_U+30FC 1
370
     0
  0
HATCH
  5
51
330
41
100
AcDbEntity
  8
_U+30EC_U+30A4_U+30E4_U+30FC 1
 62
   253
420
 11711154
100
AcDbHatch
 10
0.0
 20
0.0
 30
0.0
210
0.0
220
0.0
230
1.0
  2
SOLID
 70
     1
 71
     0
 91
        1
 92
        1
 93
       10
 72
     1
 10
78.34559442485816
 20
-137.5915882989354
 11
84.35004645916214
 21
-137.5915882989354
 72
     1
 10
84.35004645916214
 20
-137.5915882989354
 11
84.29148534954506
 21
-135.6513105216428
 72
     1
 10
84.29148534954506
 20
-135.6513105216428
 11
83.32134648540647
 21
-135.6805910771912
 72
     1
 10
83.32134648540647
 20
-135.6805910771912
 11
83.29171315282915
 21
-136.5918513547411
 72
     1
 10
83.29171315282915
 20
-136.5918513547411
 11
79.34536664683039
 21
-136.6504124658373
 72
     1
 10
79.34536664683039
 20
-136.6504124658373
 11
79.34536664683039
 21
-122.5213802471473
 72
     1
 10
79.34536664683039
 20
-122.5213802471473
 11
93.34587956299265
 21
-122.5213802471473
 72
     1
 10
93.34587956299265
 20
-122.5213802471473
 11
93.34587956299265
 21
-121.5216080251751
 72
     1
 10
93.34587956299265
 20
-121.5216080251751
 11
78.34559442485816
 21
-121.5216080251751
 72
     1
 10
78.34559442485816
 20
-121.5216080251751
 11
78.34559442485816
 21
-137.5915882989354
 97
        0
 75
     2
 76
     1
 98
        0
  0
POLYLINE
  5
53
330
41
100
AcDbEntity
  8
_U+30EC_U+30A4_U+30E4_U+30FC 1
 62
     7
420
 16777215
370
    25
100
AcDb2dPolyline
 66
     1
 10
0.0
 20
0.0
 30
0.0
  0
VERTEX
  5
54
330
53
100
AcDbEntity
  8
_U+30EC_U+30A4_U+30E4_U+30FC 1
 62
     7
420
 16777215
370
    25
100
AcDbVertex
100
AcDb2dVertex
 10
78.34559442485816
 20
-137.5213149656194
 30
0.0
  0
VERTEX
  5
55
330
53
100
AcDbEntity
  8
_U+30EC_U+30A4_U+30E4_U+30FC 1
 62
     7
420
 16777215
370
    25
100
AcDbVertex
100
AcDb2dVertex
 10
78.34559442485816
 20
-121.5216080251751
 30
0.0
  0
SEQEND
  5
56
330
53
100
AcDbEntity
  8
_U+30EC_U+30A4_U+30E4_U+30FC 1
 62
     7
420
 16777215
370
    25
  0
POLYLINE
  5
57
330
41
100
AcDbEntity
  8
_U+30EC_U+30A4_U+30E4_U+30FC 1
 62
     7
420
 16777215
370
    25
100
AcDb2dPolyline
 66
     1
 10
0.0
 20
0.0
 30
0.0
  0
VERTEX
  5
58
330
57
100
AcDbEntity
  8
_U+30EC_U+30A4_U+30E4_U+30FC 1
 62
     7
420
 16777215
370
    25
100
AcDbVertex
100
AcDb2dVertex
 10
93.34520928523197
 20
-122.5213802471473
 30
0.0
  0
VERTEX
  5
59
330
57
100
AcDbEntity
  8
_U+30EC_U+30A4_U+30E4_U+30FC 1
 62
     7
420
 16777215
370
    25
100
AcDbVertex
100
AcDb2dVertex
 10
93.34520928523197
 20
-121.5216080251751
 30
0.0
  0
SEQEND
  5
5A
330
57
100
AcDbEntity
  8
_U+30EC_U+30A4_U+30E4_U+30FC 1
 62
     7
420
 16777215
370
    25
  0
POLYLINE
  5
5B
330
41
100
AcDbEntity
  8
_U+30EC_U+30A4_U+30E4_U+30FC 1
 62
     7
420
 16777215
370
    25
100
AcDb2dPolyline
 66
     1
 10
0.0
 20
0.0
 30
0.0
  0
VERTEX
  5
5C
330
5B
100
AcDbEntity
  8
_U+30EC_U+30A4_U+30E4_U+30FC 1
 62
     7
420
 16777215
370
    25
100
AcDbVertex
100
AcDb2dVertex
 10
79.34536664683039
 20
-122.5213802471473
 30
0.0
  0
VERTEX
  5
5D
330
5B
100
AcDbEntity
  8
_U+30EC_U+30A4_U+30E4_U+30FC 1
 62
     7
420
 16777215
370
    25
100
AcDbVertex
100
AcDb2dVertex
 10
93.34520928523197
 20
-122.5213802471473
 30
0.0
  0
SEQEND
  5
5E
330
5B
100
AcDbEntity
  8
_U+30EC_U+30A4_U+30E4_U+30FC 1
 62
     7
420
 16777215
370
    25
  0
POLYLINE
  5
5F
330
41
100
AcDbEntity
  8
_U+30EC_U+30A4_U+30E4_U+30FC 1
 62
     7
420
 16777215
370
    25
100
AcDb2dPolyline
 66
     1
 10
0.0
 20
0.0
 30
0.0
  0
VERTEX
  5
60
330
5F
100
AcDbEntity
  8
_U+30EC_U+30A4_U+30E4_U+30FC 1
 62
     7
420
 16777215
370
    25
100
AcDbVertex
100
AcDb2dVertex
 10
78.34559442485816
 20
-137.62330302115
 30
0.0
  0
VERTEX
  5
61
330
5F
100
AcDbEntity
  8
_U+30EC_U+30A4_U+30E4_U+30FC 1
 62
     7
420
 16777215
370
    25
100
AcDbVertex
100
AcDb2dVertex
 10
84.34524868150677
 20
-137.62330302115
 30
0.0
  0
SEQEND
  5
62
330
5F
100
AcDbEntity
  8
_U+30EC_U+30A4_U+30E4_U+30FC 1
 62
     7
420
 16777215
370
    25
  0
POLYLINE
  5
63
330
41
100
AcDbEntity
  8
_U+30EC_U+30A4_U+30E4_U+30FC 1
 62
     7
420
 16777215
370
    25
100
AcDb2dPolyline
 66
     1
 10
0.0
 20
0.0
 30
0.0
  0
VERTEX
  5
64
330
63
100
AcDbEntity
  8
_U+30EC_U+30A4_U+30E4_U+30FC 1
 62
     7
420
 16777215
370
    25
100
AcDbVertex
100
AcDb2dVertex
 10
78.34559442485816
 20
-121.5216080251751
 30
0.0
  0
VERTEX
  5
65
330
63
100
AcDbEntity
  8
_U+30EC_U+30A4_U+30E4_U+30FC 1
 62
     7
420
 16777215
370
    25
100
AcDbVertex
100
AcDb2dVertex
 10
93.34520928523197
 20
-121.5216080251751
 30
0.0
  0
SEQEND
  5
66
330
63
100
AcDbEntity
  8
_U+30EC_U+30A4_U+30E4_U+30FC 1
 62
     7
420
 16777215
370
    25
  0
POLYLINE
  5
67
330
41
100
AcDbEntity
  8
_U+30EC_U+30A4_U+30E4_U+30FC 1
 62
     7
420
 16777215
370
    25
100
AcDb2dPolyline
 66
     1
 10
0.0
 20
0.0
 30
0.0
  0
VERTEX
  5
68
330
67
100
AcDbEntity
  8
_U+30EC_U+30A4_U+30E4_U+30FC 1
 62
     7
420
 16777215
370
    25
100
AcDbVertex
100
AcDb2dVertex
 10
79.34536664683039
 20
-136.5215427436475
 30
0.0
  0
VERTEX
  5
69
330
67
100
AcDbEntity
  8
_U+30EC_U+30A4_U+30E4_U+30FC 1
 62
     7
420
 16777215
370
    25
100
AcDbVertex
100
AcDb2dVertex
 10
79.34536664683039
 20
-122.5213802471473
 30
0.0
  0
SEQEND
  5
6A
330
67
100
AcDbEntity
  8
_U+30EC_U+30A4_U+30E4_U+30FC 1
 62
     7
420
 16777215
370
    25
  0
POLYLINE
  5
6B
330
41
100
AcDbEntity
  8
_U+30EC_U+30A4_U+30E4_U+30FC 1
 62
     7
420
 16777215
370
    25
100
AcDb2dPolyline
 66
     1
 10
0.0
 20
0.0
 30
0.0
  0
VERTEX
  5
6C
330
6B
100
AcDbEntity
  8
_U+30EC_U+30A4_U+30E4_U+30FC 1
 62
     7
420
 16777215
370
    25
100
AcDbVertex
100
AcDb2dVertex
 10
83.34547648479086
 20
-135.6234057994272
 30
0.0
  0
VERTEX
  5
6D
330
6B
100
AcDbEntity
  8
_U+30EC_U+30A4_U+30E4_U+30FC 1
 62
     7
420
 16777215
370
    25
100
AcDbVertex
100
AcDb2dVertex
 10
84.34524868150677
 20
-135.6234057994272
 30
0.0
  0
SEQEND
  5
6E
330
6B
100
AcDbEntity
  8
_U+30EC_U+30A4_U+30E4_U+30FC 1
 62
     7
420
 16777215
370
    25
  0
POLYLINE
  5
6F
330
41
100
AcDbEntity
  8
_U+30EC_U+30A4_U+30E4_U+30FC 1
 62
     7
420
 16777215
370
    25
100
AcDb2dPolyline
 66
     1
 10
0.0
 20
0.0
 30
0.0
  0
VERTEX
  5
70
330
6F
100
AcDbEntity
  8
_U+30EC_U+30A4_U+30E4_U+30FC 1
 62
     7
420
 16777215
370
    25
100
AcDbVertex
100
AcDb2dVertex
 10
84.34524868150677
 20
-137.62330302115
 30
0.0
  0
VERTEX
  5
71
330
6F
100
AcDbEntity
  8
_U+30EC_U+30A4_U+30E4_U+30FC 1
 62
     7
420
 16777215
370
    25
100
AcDbVertex
100
AcDb2dVertex
 10
84.34524868150677
 20
-135.6234057994272
 30
0.0
  0
SEQEND
  5
72
330
6F
100
AcDbEntity
  8
_U+30EC_U+30A4_U+30E4_U+30FC 1
 62
     7
420
 16777215
370
    25
  0
POLYLINE
  5
73
330
41
100
AcDbEntity
  8
_U+30EC_U+30A4_U+30E4_U+30FC 1
 62
     7
420
 16777215
370
    25
100
AcDb2dPolyline
 66
     1
 10
0.0
 20
0.0
 30
0.0
  0
VERTEX
  5
74
330
73
100
AcDbEntity
  8
_U+30EC_U+30A4_U+30E4_U+30FC 1
 62
     7
420
 16777215
370
    25
100
AcDbVertex
100
AcDb2dVertex
 10
83.34547648479086
 20
-136.6235307991775
 30
0.0
  0
VERTEX
  5
75
330
73
100
AcDbEntity
  8
_U+30EC_U+30A4_U+30E4_U+30FC 1
 62
     7
420
 16777215
370
    25
100
AcDbVertex
100
AcDb2dVertex
 10
83.34547648479086
 20
-135.6234057994272
 30
0.0
  0
SEQEND
  5
76
330
73
100
AcDbEntity
  8
_U+30EC_U+30A4_U+30E4_U+30FC 1
 62
     7
420
 16777215
370
    25
  0
POLYLINE
  5
77
330
41
100
AcDbEntity
  8
_U+30EC_U+30A4_U+30E4_U+30FC 1
 62
     7
420
 16777215
370
    25
100
AcDb2dPolyline
 66
     1
 10
0.0
 20
0.0
 30
0.0
  0
VERTEX
  5
78
330
77
100
AcDbEntity
  8
_U+30EC_U+30A4_U+30E4_U+30FC 1
 62
     7
420
 16777215
370
    25
100
AcDbVertex
100
AcDb2dVertex
 10
79.34536664683039
 20
-136.6235307991775
 30
0.0
  0
VERTEX
  5
79
330
77
100
AcDbEntity
  8
_U+30EC_U+30A4_U+30E4_U+30FC 1
 62
     7
420
 16777215
370
    25
100
AcDbVertex
100
AcDb2dVertex
 10
83.34547648479086
 20
-136.6235307991775
 30
0.0
  0
SEQEND
  5
7A
330
77
100
AcDbEntity
  8
_U+30EC_U+30A4_U+30E4_U+30FC 1
 62
     7
420
 16777215
370
    25
  0
SPLINE
  5
7B
330
41
100
AcDbEntity
  8
_U+30EC_U+30A4_U+30E4_U+30FC 1
 62
     7
420
 16777215
370
     9
100
AcDbSpline
210
0.0
220
0.0
230
1.0
 70
    11
 71
     3
 72
    17
 73
    13
 74
     0
 42
0.0000000001
 43
0.0000000001
 12
1.0
 22
0.0
 32
0.0
 13
1.0
 23
0.0
 33
0.0
 40
0.0
 40
0.0
 40
0.0
 40
0.0
 40
1.0
 40
1.0
 40
1.0
 40
2.0
 40
2.0
 40
2.0
 40
3.0
 40
3.0
 40
3.0
 40
4.0
 40
4.0
 40
4.0
 40
4.0
 10
78.4454991097997
 20
-142.021983297828
 30
0.0
 10
78.4454991097997
 20
-141.966879408953
 30
0.0
 10
78.40073161094182
 20
-141.9220766311863
 30
0.0
 10
78.34559442485816
 20
-141.9220766311863
 30
0.0
 10
78.29048855819879
 20
-141.9220766311863
 30
0.0
 10
78.24568578156402
 20
-141.966879408953
 30
0.0
 10
78.24568578156402
 20
-142.021983297828
 30
0.0
 10
78.24568578156402
 20
-142.0771224644811
 30
0.0
 10
78.29048855819879
 20
-142.1218899644696
 30
0.0
 10
78.34559442485816
 20
-142.1218899644696
 30
0.0
 10
78.40073161094182
 20
-142.1218899644696
 30
0.0
 10
78.4454991097997
 20
-142.0771224644811
 30
0.0
 10
78.4454991097997
 20
-142.021983297828
 30
0.0
  0
SPLINE
  5
7C
330
41
100
AcDbEntity
  8
_U+30EC_U+30A4_U+30E4_U+30FC 1
 62
     7
420
 16777215
370
     9
100
AcDbSpline
210
0.0
220
0.0
230
1.0
 70
    11
 71
     3
 72
    17
 73
    13
 74
     0
 42
0.0000000001
 43
0.0000000001
 12
1.0
 22
0.0
 32
0.0
 13
1.0
 23
0.0
 33
0.0
 40
0.0
 40
0.0
 40
0.0
 40
0.0
 40
1.0
 40
1.0
 40
1.0
 40
2.0
 40
2.0
 40
2.0
 40
3.0
 40
3.0
 40
3.0
 40
4.0
 40
4.0
 40
4.0
 40
4.0
 10
84.34524868150677
 20
-142.021983297828
 30
0.0
 10
84.34524868150677
 20
-141.966879408953
 30
0.0
 10
84.300445904872
 20
-141.9220766311863
 30
0.0
 10
84.24534201738894
 20
-141.9220766311863
 30
0.0
 10
84.1895325743683
 20
-141.9220766311863
 30
0.0
 10
84.1454353532711
 20
-141.966879408953
 30
0.0
 10
84.1454353532711
 20
-142.021983297828
 30
0.0
 10
84.1454353532711
 20
-142.0771224644811
 30
0.0
 10
84.1895325743683
 20
-142.1218899644696
 30
0.0
 10
84.24534201738894
 20
-142.1218899644696
 30
0.0
 10
84.300445904872
 20
-142.1218899644696
 30
0.0
 10
84.34524868150677
 20
-142.0771224644811
 30
0.0
 10
84.34524868150677
 20
-142.021983297828
 30
0.0
  0
SPLINE
  5
7D
330
41
100
AcDbEntity
  8
_U+30EC_U+30A4_U+30E4_U+30FC 1
 62
     7
420
 16777215
370
     9
100
AcDbSpline
210
0.0
220
0.0
230
1.0
 70
    11
 71
     3
 72
    17
 73
    13
 74
     0
 42
0.0000000001
 43
0.0000000001
 12
1.0
 22
0.0
 32
0.0
 13
1.0
 23
0.0
 33
0.0
 40
0.0
 40
0.0
 40
0.0
 40
0.0
 40
1.0
 40
1.0
 40
1.0
 40
2.0
 40
2.0
 40
2.0
 40
3.0
 40
3.0
 40
3.0
 40
4.0
 40
4.0
 40
4.0
 40
4.0
 10
97.4455452917348
 20
-137.6239732989274
 30
0.0
 10
97.4455452917348
 20
-137.5688694100525
 30
0.0
 10
97.40077779287692
 20
-137.5240666322858
 30
0.0
 10
97.34496834985629
 20
-137.5240666322858
 30
0.0
 10
97.28982918459634
 20
-137.5240666322858
 30
0.0
 10
97.24506168573845
 20
-137.5688694100525
 30
0.0
 10
97.24506168573845
 20
-137.6239732989274
 30
0.0
 10
97.24506168573845
 20
-137.6791124655805
 30
0.0
 10
97.28982918459634
 20
-137.723879965569
 30
0.0
 10
97.34496834985629
 20
-137.723879965569
 30
0.0
 10
97.40077779287692
 20
-137.723879965569
 30
0.0
 10
97.4455452917348
 20
-137.6791124655805
 30
0.0
 10
97.4455452917348
 20
-137.6239732989274
 30
0.0
  0
SPLINE
  5
7E
330
41
100
AcDbEntity
  8
_U+30EC_U+30A4_U+30E4_U+30FC 1
 62
     7
420
 16777215
370
     9
100
AcDbSpline
210
0.0
220
0.0
230
1.0
 70
    11
 71
     3
 72
    17
 73
    13
 74
     0
 42
0.0000000001
 43
0.0000000001
 12
1.0
 22
0.0
 32
0.0
 13
1.0
 23
0.0
 33
0.0
 40
0.0
 40
0.0
 40
0.0
 40
0.0
 40
1.0
 40
1.0
 40
1.0
 40
2.0
 40
2.0
 40
2.0
 40
3.0
 40
3.0
 40
3.0
 40
4.0
 40
4.0
 40
4.0
 40
4.0
 10
97.4455452917348
 20
-135.6234057994272
 30
0.0
 10
97.4455452917348
 20
-135.5683019105523
 30
0.0
 10
97.40077779287692
 20
-135.5234991327856
 30
0.0
 10
97.34496834985629
 20
-135.5234991327856
 30
0.0
 10
97.28982918459634
 20
-135.5234991327856
 30
0.0
 10
97.24506168573845
 20
-135.5683019105523
 30
0.0
 10
97.24506168573845
 20
-135.6234057994272
 30
0.0
 10
97.24506168573845
 20
-135.6785449660803
 30
0.0
 10
97.28982918459634
 20
-135.7233124660695
 30
0.0
 10
97.34496834985629
 20
-135.7233124660695
 30
0.0
 10
97.40077779287692
 20
-135.7233124660695
 30
0.0
 10
97.4455452917348
 20
-135.6785449660803
 30
0.0
 10
97.4455452917348
 20
-135.6234057994272
 30
0.0
  0
SPLINE
  5
7F
330
41
100
AcDbEntity
  8
_U+30EC_U+30A4_U+30E4_U+30FC 1
 62
     7
420
 16777215
370
     9
100
AcDbSpline
210
0.0
220
0.0
230
1.0
 70
    11
 71
     3
 72
    17
 73
    13
 74
     0
 42
0.0000000001
 43
0.0000000001
 12
1.0
 22
0.0
 32
0.0
 13
1.0
 23
0.0
 33
0.0
 40
0.0
 40
0.0
 40
0.0
 40
0.0
 40
1.0
 40
1.0
 40
1.0
 40
2.0
 40
2.0
 40
2.0
 40
3.0
 40
3.0
 40
3.0
 40
4.0
 40
4.0
 40
4.0
 40
4.0
 10
97.4455452917348
 20
-122.5213802471473
 30
0.0
 10
97.4455452917348
 20
-122.4662410804946
 30
0.0
 10
97.40077779287692
 20
-122.4214735805057
 30
0.0
 10
97.34496834985629
 20
-122.4214735805057
 30
0.0
 10
97.28982918459634
 20
-122.4214735805057
 30
0.0
 10
97.24506168573845
 20
-122.4662410804946
 30
0.0
 10
97.24506168573845
 20
-122.5213802471473
 30
0.0
 10
97.24506168573845
 20
-122.5764841360226
 30
0.0
 10
97.28982918459634
 20
-122.6212869137893
 30
0.0
 10
97.34496834985629
 20
-122.6212869137893
 30
0.0
 10
97.40077779287692
 20
-122.6212869137893
 30
0.0
 10
97.4455452917348
 20
-122.5764841360226
 30
0.0
 10
97.4455452917348
 20
-122.5213802471473
 30
0.0
  0
SPLINE
  5
80
330
41
100
AcDbEntity
  8
_U+30EC_U+30A4_U+30E4_U+30FC 1
 62
     7
420
 16777215
370
     9
100
AcDbSpline
210
0.0
220
0.0
230
1.0
 70
    11
 71
     3
 72
    17
 73
    13
 74
     0
 42
0.0000000001
 43
0.0000000001
 12
1.0
 22
0.0
 32
0.0
 13
1.0
 23
0.0
 33
0.0
 40
0.0
 40
0.0
 40
0.0
 40
0.0
 40
1.0
 40
1.0
 40
1.0
 40
2.0
 40
2.0
 40
2.0
 40
3.0
 40
3.0
 40
3.0
 40
4.0
 40
4.0
 40
4.0
 40
4.0
 10
97.4455452917348
 20
-121.5216080251751
 30
0.0
 10
97.4455452917348
 20
-121.4657985807447
 30
0.0
 10
97.40077779287692
 20
-121.4209958029779
 30
0.0
 10
97.34496834985629
 20
-121.4209958029779
 30
0.0
 10
97.28982918459634
 20
-121.4209958029779
 30
0.0
 10
97.24506168573845
 20
-121.4657985807447
 30
0.0
 10
97.24506168573845
 20
-121.5216080251751
 30
0.0
 10
97.24506168573845
 20
-121.5767471918282
 30
0.0
 10
97.28982918459634
 20
-121.6215146918167
 30
0.0
 10
97.34496834985629
 20
-121.6215146918167
 30
0.0
 10
97.40077779287692
 20
-121.6215146918167
 30
0.0
 10
97.4455452917348
 20
-121.5767471918282
 30
0.0
 10
97.4455452917348
 20
-121.5216080251751
 30
0.0
  0
SPLINE
  5
81
330
41
100
AcDbEntity
  8
_U+30EC_U+30A4_U+30E4_U+30FC 1
 62
     7
420
 16777215
370
     9
100
AcDbSpline
210
0.0
220
0.0
230
1.0
 70
    11
 71
     3
 72
    17
 73
    13
 74
     0
 42
0.0000000001
 43
0.0000000001
 12
1.0
 22
0.0
 32
0.0
 13
1.0
 23
0.0
 33
0.0
 40
0.0
 40
0.0
 40
0.0
 40
0.0
 40
1.0
 40
1.0
 40
1.0
 40
2.0
 40
2.0
 40
2.0
 40
3.0
 40
3.0
 40
3.0
 40
4.0
 40
4.0
 40
4.0
 40
4.0
 10
93.44511594934981
 20
-117.5211785817309
 30
0.0
 10
93.44511594934981
 20
-117.4660394150778
 30
0.0
 10
93.40031317271504
 20
-117.4212719150892
 30
0.0
 10
93.34520928523197
 20
-117.4212719150892
 30
0.0
 10
93.29007011997203
 20
-117.4212719150892
 30
0.0
 10
93.24530262111415
 20
-117.4660394150778
 30
0.0
 10
93.24530262111415
 20
-117.5211785817309
 30
0.0
 10
93.24530262111415
 20
-117.5762824706058
 30
0.0
 10
93.29007011997203
 20
-117.6210852483725
 30
0.0
 10
93.34520928523197
 20
-117.6210852483725
 30
0.0
 10
93.40031317271504
 20
-117.6210852483725
 30
0.0
 10
93.44511594934981
 20
-117.5762824706058
 30
0.0
 10
93.44511594934981
 20
-117.5211785817309
 30
0.0
  0
SPLINE
  5
82
330
41
100
AcDbEntity
  8
_U+30EC_U+30A4_U+30E4_U+30FC 1
 62
     7
420
 16777215
370
     9
100
AcDbSpline
210
0.0
220
0.0
230
1.0
 70
    11
 71
     3
 72
    17
 73
    13
 74
     0
 42
0.0000000001
 43
0.0000000001
 12
1.0
 22
0.0
 32
0.0
 13
1.0
 23
0.0
 33
0.0
 40
0.0
 40
0.0
 40
0.0
 40
0.0
 40
1.0
 40
1.0
 40
1.0
 40
2.0
 40
2.0
 40
2.0
 40
3.0
 40
3.0
 40
3.0
 40
4.0
 40
4.0
 40
4.0
 40
4.0
 10
78.4454991097997
 20
-117.5211785817309
 30
0.0
 10
78.4454991097997
 20
-117.4660394150778
 30
0.0
 10
78.40073161094182
 20
-117.4212719150892
 30
0.0
 10
78.34559442485816
 20
-117.4212719150892
 30
0.0
 10
78.29048855819879
 20
-117.4212719150892
 30
0.0
 10
78.24568578156402
 20
-117.4660394150778
 30
0.0
 10
78.24568578156402
 20
-117.5211785817309
 30
0.0
 10
78.24568578156402
 20
-117.5762824706058
 30
0.0
 10
78.29048855819879
 20
-117.6210852483725
 30
0.0
 10
78.34559442485816
 20
-117.6210852483725
 30
0.0
 10
78.40073161094182
 20
-117.6210852483725
 30
0.0
 10
78.4454991097997
 20
-117.5762824706058
 30
0.0
 10
78.4454991097997
 20
-117.5211785817309
 30
0.0
  0
POLYLINE
  5
83
330
41
100
AcDbEntity
  8
_U+30EC_U+30A4_U+30E4_U+30FC 1
 62
     7
420
 16777215
370
     9
100
AcDb2dPolyline
 66
     1
 10
0.0
 20
0.0
 30
0.0
  0
VERTEX
  5
84
330
83
100
AcDbEntity
  8
_U+30EC_U+30A4_U+30E4_U+30FC 1
 62
     7
420
 16777215
370
     9
100
AcDbVertex
100
AcDb2dVertex
 10
78.34559442485816
 20
-117.5211785817309
 30
0.0
  0
VERTEX
  5
85
330
83
100
AcDbEntity
  8
_U+30EC_U+30A4_U+30E4_U+30FC 1
 62
     7
420
 16777215
370
     9
100
AcDbVertex
100
AcDb2dVertex
 10
93.34520928523197
 20
-117.5211785817309
 30
0.0
  0
SEQEND
  5
86
330
83
100
AcDbEntity
  8
_U+30EC_U+30A4_U+30E4_U+30FC 1
 62
     7
420
 16777215
370
     9
  0
POLYLINE
  5
87
330
41
100
AcDbEntity
  8
_U+30EC_U+30A4_U+30E4_U+30FC 1
 62
     7
420
 16777215
370
     9
100
AcDb2dPolyline
 66
     1
 10
0.0
 20
0.0
 30
0.0
  0
VERTEX
  5
88
330
87
100
AcDbEntity
  8
_U+30EC_U+30A4_U+30E4_U+30FC 1
 62
     7
420
 16777215
370
     9
100
AcDbVertex
100
AcDb2dVertex
 10
78.34559442485816
 20
-118.981184692477
 30
0.0
  0
VERTEX
  5
89
330
87
100
AcDbEntity
  8
_U+30EC_U+30A4_U+30E4_U+30FC 1
 62
     7
420
 16777215
370
     9
100
AcDbVertex
100
AcDb2dVertex
 10
78.34559442485816
 20
-116.5214063597586
 30
0.0
  0
SEQEND
  5
8A
330
87
100
AcDbEntity
  8
_U+30EC_U+30A4_U+30E4_U+30FC 1
 62
     7
420
 16777215
370
     9
  0
POLYLINE
  5
8B
330
41
100
AcDbEntity
  8
_U+30EC_U+30A4_U+30E4_U+30FC 1
 62
     7
420
 16777215
370
     9
100
AcDb2dPolyline
 66
     1
 10
0.0
 20
0.0
 30
0.0
  0
VERTEX
  5
8C
330
8B
100
AcDbEntity
  8
_U+30EC_U+30A4_U+30E4_U+30FC 1
 62
     7
420
 16777215
370
     9
100
AcDbVertex
100
AcDb2dVertex
 10
93.34520928523197
 20
-118.981184692477
 30
0.0
  0
VERTEX
  5
8D
330
8B
100
AcDbEntity
  8
_U+30EC_U+30A4_U+30E4_U+30FC 1
 62
     7
420
 16777215
370
     9
100
AcDbVertex
100
AcDb2dVertex
 10
93.34520928523197
 20
-116.5214063597586
 30
0.0
  0
SEQEND
  5
8E
330
8B
100
AcDbEntity
  8
_U+30EC_U+30A4_U+30E4_U+30FC 1
 62
     7
420
 16777215
370
     9
  0
INSERT
  5
90
330
41
100
AcDbEntity
  8
_U+30EC_U+30A4_U+30E4_U+30FC 1
100
AcDbBlockReference
  2
block 3
 10
0.0
 20
0.0
 30
0.0
  0
POLYLINE
  5
97
330
41
100
AcDbEntity
  8
_U+30EC_U+30A4_U+30E4_U+30FC 1
 62
     7
420
 16777215
370
     9
100
AcDb2dPolyline
 66
     1
 10
0.0
 20
0.0
 30
0.0
  0
VERTEX
  5
98
330
97
100
AcDbEntity
  8
_U+30EC_U+30A4_U+30E4_U+30FC 1
 62
     7
420
 16777215
370
     9
100
AcDbVertex
100
AcDb2dVertex
 10
78.34559442485816
 20
-142.021983297828
 30
0.0
  0
VERTEX
  5
99
330
97
100
AcDbEntity
  8
_U+30EC_U+30A4_U+30E4_U+30FC 1
 62
     7
420
 16777215
370
     9
100
AcDbVertex
100
AcDb2dVertex
 10
84.34524868150677
 20
-142.021983297828
 30
0.0
  0
SEQEND
  5
9A
330
97
100
AcDbEntity
  8
_U+30EC_U+30A4_U+30E4_U+30FC 1
 62
     7
420
 16777215
370
     9
  0
POLYLINE
  5
9B
330
41
100
AcDbEntity
  8
_U+30EC_U+30A4_U+30E4_U+30FC 1
 62
     7
420
 16777215
370
     9
100
AcDb2dPolyline
 66
     1
 10
0.0
 20
0.0
 30
0.0
  0
VERTEX
  5
9C
330
9B
100
AcDbEntity
  8
_U+30EC_U+30A4_U+30E4_U+30FC 1
 62
     7
420
 16777215
370
     9
100
AcDbVertex
100
AcDb2dVertex
 10
78.34559442485816
 20
-140.5619771870818
 30
0.0
  0
VERTEX
  5
9D
330
9B
100
AcDbEntity
  8
_U+30EC_U+30A4_U+30E4_U+30FC 1
 62
     7
420
 16777215
370
     9
100
AcDbVertex
100
AcDb2dVertex
 10
78.34559442485816
 20
-143.0217555197999
 30
0.0
  0
SEQEND
  5
9E
330
9B
100
AcDbEntity
  8
_U+30EC_U+30A4_U+30E4_U+30FC 1
 62
     7
420
 16777215
370
     9
  0
POLYLINE
  5
9F
330
41
100
AcDbEntity
  8
_U+30EC_U+30A4_U+30E4_U+30FC 1
 62
     7
420
 16777215
370
     9
100
AcDb2dPolyline
 66
     1
 10
0.0
 20
0.0
 30
0.0
  0
VERTEX
  5
A0
330
9F
100
AcDbEntity
  8
_U+30EC_U+30A4_U+30E4_U+30FC 1
 62
     7
420
 16777215
370
     9
100
AcDbVertex
100
AcDb2dVertex
 10
84.24534201738894
 20
-140.5619771870818
 30
0.0
  0
VERTEX
  5
A1
330
9F
100
AcDbEntity
  8
_U+30EC_U+30A4_U+30E4_U+30FC 1
 62
     7
420
 16777215
370
     9
100
AcDbVertex
100
AcDb2dVertex
 10
84.24534201738894
 20
-143.0217555197999
 30
0.0
  0
SEQEND
  5
A2
330
9F
100
AcDbEntity
  8
_U+30EC_U+30A4_U+30E4_U+30FC 1
 62
     7
420
 16777215
370
     9
  0
INSERT
  5
A4
330
41
100
AcDbEntity
  8
_U+30EC_U+30A4_U+30E4_U+30FC 1
100
AcDbBlockReference
  2
block 4
 10
0.0
 20
0.0
 30
0.0
  0
POLYLINE
  5
AA
330
41
100
AcDbEntity
  8
_U+30EC_U+30A4_U+30E4_U+30FC 1
 62
     7
420
 16777215
370
     9
100
AcDb2dPolyline
 66
     1
 10
0.0
 20
0.0
 30
0.0
  0
VERTEX
  5
AB
330
AA
100
AcDbEntity
  8
_U+30EC_U+30A4_U+30E4_U+30FC 1
 62
     7
420
 16777215
370
     9
100
AcDbVertex
100
AcDb2dVertex
 10
97.34496834985629
 20
-121.5216080251751
 30
0.0
  0
VERTEX
  5
AC
330
AA
100
AcDbEntity
  8
_U+30EC_U+30A4_U+30E4_U+30FC 1
 62
     7
420
 16777215
370
     9
100
AcDbVertex
100
AcDb2dVertex
 10
97.34496834985629
 20
-117.7512955261177
 30
0.0
  0
SEQEND
  5
AD
330
AA
100
AcDbEntity
  8
_U+30EC_U+30A4_U+30E4_U+30FC 1
 62
     7
420
 16777215
370
     9
  0
POLYLINE
  5
AE
330
41
100
AcDbEntity
  8
_U+30EC_U+30A4_U+30E4_U+30FC 1
 62
     7
420
 16777215
370
     9
100
AcDb2dPolyline
 66
     1
 10
0.0
 20
0.0
 30
0.0
  0
VERTEX
  5
AF
330
AE
100
AcDbEntity
  8
_U+30EC_U+30A4_U+30E4_U+30FC 1
 62
     7
420
 16777215
370
     9
100
AcDbVertex
100
AcDb2dVertex
 10
97.34496834985629
 20
-121.5216080251751
 30
0.0
  0
VERTEX
  5
B0
330
AE
100
AcDbEntity
  8
_U+30EC_U+30A4_U+30E4_U+30FC 1
 62
     7
420
 16777215
370
     9
100
AcDbVertex
100
AcDb2dVertex
 10
97.34496834985629
 20
-122.5213802471473
 30
0.0
  0
SEQEND
  5
B1
330
AE
100
AcDbEntity
  8
_U+30EC_U+30A4_U+30E4_U+30FC 1
 62
     7
420
 16777215
370
     9
  0
POLYLINE
  5
B2
330
41
100
AcDbEntity
  8
_U+30EC_U+30A4_U+30E4_U+30FC 1
 62
     7
420
 16777215
370
     9
100
AcDb2dPolyline
 66
     1
 10
0.0
 20
0.0
 30
0.0
  0
VERTEX
  5
B3
330
B2
100
AcDbEntity
  8
_U+30EC_U+30A4_U+30E4_U+30FC 1
 62
     7
420
 16777215
370
     9
100
AcDbVertex
100
AcDb2dVertex
 10
95.88492699821616
 20
-121.5216080251751
 30
0.0
  0
VERTEX
  5
B4
330
B2
100
AcDbEntity
  8
_U+30EC_U+30A4_U+30E4_U+30FC 1
 62
     7
420
 16777215
370
     9
100
AcDbVertex
100
AcDb2dVertex
 10
98.34541082433287
 20
-121.5216080251751
 30
0.0
  0
SEQEND
  5
B5
330
B2
100
AcDbEntity
  8
_U+30EC_U+30A4_U+30E4_U+30FC 1
 62
     7
420
 16777215
370
     9
  0
POLYLINE
  5
B6
330
41
100
AcDbEntity
  8
_U+30EC_U+30A4_U+30E4_U+30FC 1
 62
     7
420
 16777215
370
     9
100
AcDb2dPolyline
 66
     1
 10
0.0
 20
0.0
 30
0.0
  0
VERTEX
  5
B7
330
B6
100
AcDbEntity
  8
_U+30EC_U+30A4_U+30E4_U+30FC 1
 62
     7
420
 16777215
370
     9
100
AcDbVertex
100
AcDb2dVertex
 10
95.88492699821616
 20
-122.5213802471473
 30
0.0
  0
VERTEX
  5
B8
330
B6
100
AcDbEntity
  8
_U+30EC_U+30A4_U+30E4_U+30FC 1
 62
     7
420
 16777215
370
     9
100
AcDbVertex
100
AcDb2dVertex
 10
98.34541082433287
 20
-122.5213802471473
 30
0.0
  0
SEQEND
  5
B9
330
B6
100
AcDbEntity
  8
_U+30EC_U+30A4_U+30E4_U+30FC 1
 62
     7
420
 16777215
370
     9
  0
INSERT
  5
BB
330
41
100
AcDbEntity
  8
_U+30EC_U+30A4_U+30E4_U+30FC 1
100
AcDbBlockReference
  2
block 5
 10
0.0
 20
0.0
 30
0.0
  0
POLYLINE
  5
C0
330
41
100
AcDbEntity
  8
_U+30EC_U+30A4_U+30E4_U+30FC 1
 62
     7
420
 16777215
370
     9
100
AcDb2dPolyline
 66
     1
 10
0.0
 20
0.0
 30
0.0
  0
VERTEX
  5
C1
330
C0
100
AcDbEntity
  8
_U+30EC_U+30A4_U+30E4_U+30FC 1
 62
     7
420
 16777215
370
     9
100
AcDbVertex
100
AcDb2dVertex
 10
97.34496834985629
 20
-122.5213802471473
 30
0.0
  0
VERTEX
  5
C2
330
C0
100
AcDbEntity
  8
_U+30EC_U+30A4_U+30E4_U+30FC 1
 62
     7
420
 16777215
370
     9
100
AcDbVertex
100
AcDb2dVertex
 10
97.34496834985629
 20
-135.5211002438976
 30
0.0
  0
SEQEND
  5
C3
330
C0
100
AcDbEntity
  8
_U+30EC_U+30A4_U+30E4_U+30FC 1
 62
     7
420
 16777215
370
     9
  0
POLYLINE
  5
C4
330
41
100
AcDbEntity
  8
_U+30EC_U+30A4_U+30E4_U+30FC 1
 62
     7
420
 16777215
370
     9
100
AcDb2dPolyline
 66
     1
 10
0.0
 20
0.0
 30
0.0
  0
VERTEX
  5
C5
330
C4
100
AcDbEntity
  8
_U+30EC_U+30A4_U+30E4_U+30FC 1
 62
     7
420
 16777215
370
     9
100
AcDbVertex
100
AcDb2dVertex
 10
84.88542200105913
 20
-135.6234057994272
 30
0.0
  0
VERTEX
  5
C6
330
C4
100
AcDbEntity
  8
_U+30EC_U+30A4_U+30E4_U+30FC 1
 62
     7
420
 16777215
370
     9
100
AcDbVertex
100
AcDb2dVertex
 10
98.34541082433287
 20
-135.6234057994272
 30
0.0
  0
SEQEND
  5
C7
330
C4
100
AcDbEntity
  8
_U+30EC_U+30A4_U+30E4_U+30FC 1
 62
     7
420
 16777215
370
     9
  0
INSERT
  5
C9
330
41
100
AcDbEntity
  8
_U+30EC_U+30A4_U+30E4_U+30FC 1
100
AcDbBlockReference
  2
block 6
 10
0.0
 20
0.0
 30
0.0
  0
POLYLINE
  5
D0
330
41
100
AcDbEntity
  8
_U+30EC_U+30A4_U+30E4_U+30FC 1
 62
     7
420
 16777215
370
     9
100
AcDb2dPolyline
 66
     1
 10
0.0
 20
0.0
 30
0.0
  0
VERTEX
  5
D1
330
D0
100
AcDbEntity
  8
_U+30EC_U+30A4_U+30E4_U+30FC 1
 62
     7
420
 16777215
370
     9
100
AcDbVertex
100
AcDb2dVertex
 10
97.34496834985629
 20
-137.6239732989274
 30
0.0
  0
VERTEX
  5
D2
330
D0
100
AcDbEntity
  8
_U+30EC_U+30A4_U+30E4_U+30FC 1
 62
     7
420
 16777215
370
     9
100
AcDbVertex
100
AcDb2dVertex
 10
97.34496834985629
 20
-135.6234057994272
 30
0.0
  0
SEQEND
  5
D3
330
D0
100
AcDbEntity
  8
_U+30EC_U+30A4_U+30E4_U+30FC 1
 62
     7
420
 16777215
370
     9
  0
POLYLINE
  5
D4
330
41
100
AcDbEntity
  8
_U+30EC_U+30A4_U+30E4_U+30FC 1
 62
     7
420
 16777215
370
     9
100
AcDb2dPolyline
 66
     1
 10
0.0
 20
0.0
 30
0.0
  0
VERTEX
  5
D5
330
D4
100
AcDbEntity
  8
_U+30EC_U+30A4_U+30E4_U+30FC 1
 62
     7
420
 16777215
370
     9
100
AcDbVertex
100
AcDb2dVertex
 10
84.88542200105913
 20
-137.6239732989274
 30
0.0
  0
VERTEX
  5
D6
330
D4
100
AcDbEntity
  8
_U+30EC_U+30A4_U+30E4_U+30FC 1
 62
     7
420
 16777215
370
     9
100
AcDbVertex
100
AcDb2dVertex
 10
98.34541082433287
 20
-137.6239732989274
 30
0.0
  0
SEQEND
  5
D7
330
D4
100
AcDbEntity
  8
_U+30EC_U+30A4_U+30E4_U+30FC 1
 62
     7
420
 16777215
370
     9
  0
INSERT
  5
D9
330
41
100
AcDbEntity
  8
_U+30EC_U+30A4_U+30E4_U+30FC 1
100
AcDbBlockReference
  2
block 7
 10
0.0
 20
0.0
 30
0.0
  0
ENDBLK
  5
44
330
41
100
AcDbEntity
  8
0
100
AcDbBlockEnd
  0
BLOCK
  5
91
330
8F
100
AcDbEntity
  8
0
100
AcDbBlockBegin
  2
block 3
 70
     0
 10
0.0
 20
0.0
 30
0.0
  3
block 3
  1

  0
SPLINE
  5
93
330
8F
100
AcDbEntity
  8
_U+30EC_U+30A4_U+30E4_U+30FC 1
370
     0
100
AcDbSpline
210
0.0
220
0.0
230
1.0
 70
    11
 71
     3
 72
    26
 73
    22
 74
     0
 42
0.0000000001
 43
0.0000000001
 12
1.0
 22
0.0
 32
0.0
 13
1.0
 23
0.0
 33
0.0
 40
0.0
 40
0.0
 40
0.0
 40
0.0
 40
1.0
 40
1.0
 40
1.0
 40
2.0
 40
2.0
 40
2.0
 40
3.0
 40
3.0
 40
3.0
 40
4.0
 40
4.0
 40
4.0
 40
5.0
 40
5.0
 40
5.0
 40
6.0
 40
6.0
 40
6.0
 40
7.0
 40
7.0
 40
7.0
 40
7.0
 10
85.20806340100701
 20
-116.8745198275522
 30
0.0
 10
85.20806340100701
 20
-116.8745198275522
 30
0.0
 10
85.20806340100701
 20
-115.7701944697554
 30
0.0
 10
85.20806340100701
 20
-115.7701944697554
 30
0.0
 10
85.20806340100701
 20
-115.7701944697554
 30
0.0
 10
84.87802325352008
 20
-115.7701944697554
 30
0.0
 10
84.87802325352008
 20
-115.7701944697554
 30
0.0
 10
84.87802325352008
 20
-115.7701944697554
 30
0.0
 10
84.87802325352008
 20
-115.6222276186639
 30
0.0
 10
84.87802325352008
 20
-115.6222276186639
 30
0.0
 10
85.21013045829817
 20
-115.6074137080773
 30
0.0
 10
85.25663924734904
 20
-115.444460691625
 30
0.0
 10
85.28626706852219
 20
-115.330255776289
 30
0.0
 10
85.28626706852219
 20
-115.330255776289
 30
0.0
 10
85.43233911709677
 20
-115.330255776289
 30
0.0
 10
85.43233911709677
 20
-115.330255776289
 30
0.0
 10
85.43233911709677
 20
-115.330255776289
 30
0.0
 10
85.43233911709677
 20
-116.8745198275522
 30
0.0
 10
85.43233911709677
 20
-116.8745198275522
 30
0.0
 10
85.43233911709677
 20
-116.8745198275522
 30
0.0
 10
85.20806340100701
 20
-116.8745198275522
 30
0.0
 10
85.20806340100701
 20
-116.8745198275522
 30
0.0
  0
HATCH
  5
94
330
8F
100
AcDbEntity
  8
_U+30EC_U+30A4_U+30E4_U+30FC 1
 62
     7
420
 16777215
100
AcDbHatch
 10
0.0
 20
0.0
 30
0.0
210
0.0
220
0.0
230
1.0
  2
SOLID
 70
     1
 71
     0
 91
        1
 92
        1
 93
        1
 72
     4
 94
        3
 73
     0
 74
     1
 95
       26
 96
       22
 40
0.0
 40
0.0
 40
0.0
 40
0.0
 40
1.0
 40
1.0
 40
1.0
 40
2.0
 40
2.0
 40
2.0
 40
3.0
 40
3.0
 40
3.0
 40
4.0
 40
4.0
 40
4.0
 40
5.0
 40
5.0
 40
5.0
 40
6.0
 40
6.0
 40
6.0
 40
7.0
 40
7.0
 40
7.0
 40
7.0
 10
85.20806340100701
 20
-116.8745198275522
 10
85.20806340100701
 20
-116.8745198275522
 10
85.20806340100701
 20
-115.7701944697554
 10
85.20806340100701
 20
-115.7701944697554
 10
85.20806340100701
 20
-115.7701944697554
 10
84.87802325352008
 20
-115.7701944697554
 10
84.87802325352008
 20
-115.7701944697554
 10
84.87802325352008
 20
-115.7701944697554
 10
84.87802325352008
 20
-115.6222276186639
 10
84.87802325352008
 20
-115.6222276186639
 10
85.21013045829817
 20
-115.6074137080773
 10
85.25663924734904
 20
-115.444460691625
 10
85.28626706852219
 20
-115.330255776289
 10
85.28626706852219
 20
-115.330255776289
 10
85.43233911709677
 20
-115.330255776289
 10
85.43233911709677
 20
-115.330255776289
 10
85.43233911709677
 20
-115.330255776289
 10
85.43233911709677
 20
-116.8745198275522
 10
85.43233911709677
 20
-116.8745198275522
 10
85.43233911709677
 20
-116.8745198275522
 10
85.20806340100701
 20
-116.8745198275522
 10
85.20806340100701
 20
-116.8745198275522
 97
        0
 97
        0
 75
     2
 76
     1
 98
        0
  0
SPLINE
  5
95
330
8F
100
AcDbEntity
  8
_U+30EC_U+30A4_U+30E4_U+30FC 1
370
     0
100
AcDbSpline
210
0.0
220
0.0
230
1.0
 70
    11
 71
     3
 72
    53
 73
    49
 74
     0
 42
0.0000000001
 43
0.0000000001
 12
1.0
 22
0.0
 32
0.0
 13
1.0
 23
0.0
 33
0.0
 40
0.0
 40
0.0
 40
0.0
 40
0.0
 40
1.0
 40
1.0
 40
1.0
 40
2.0
 40
2.0
 40
2.0
 40
3.0
 40
3.0
 40
3.0
 40
4.0
 40
4.0
 40
4.0
 40
5.0
 40
5.0
 40
5.0
 40
6.0
 40
6.0
 40
6.0
 40
7.0
 40
7.0
 40
7.0
 40
8.0
 40
8.0
 40
8.0
 40
9.0
 40
9.0
 40
9.0
 40
10.0
 40
10.0
 40
10.0
 40
11.0
 40
11.0
 40
11.0
 40
12.0
 40
12.0
 40
12.0
 40
13.0
 40
13.0
 40
13.0
 40
14.0
 40
14.0
 40
14.0
 40
15.0
 40
15.0
 40
15.0
 40
16.0
 40
16.0
 40
16.0
 40
16.0
 10
86.41453583994151
 20
-116.9253349859596
 30
0.0
 10
86.33633217242634
 20
-116.9253349859596
 30
0.0
 10
86.23470185561146
 20
-116.9082817633077
 30
0.0
 10
86.1330715387966
 20
-116.8448920063791
 30
0.0
 10
85.95961098111427
 20
-116.7348212056253
 30
0.0
 10
85.93842364387999
 20
-116.6037353224116
 30
0.0
 10
85.9194756187111
 20
-116.4959038337232
 30
0.0
 10
85.9194756187111
 20
-116.4959038337232
 30
0.0
 10
86.14168427750973
 20
-116.4959038337232
 30
0.0
 10
86.14168427750973
 20
-116.4959038337232
 30
0.0
 10
86.1964612957252
 20
-116.6946858432222
 30
0.0
 10
86.32358531913091
 20
-116.7243136643953
 30
0.0
 10
86.41660289723266
 20
-116.7243136643953
 30
0.0
 10
86.55612926438528
 20
-116.7243136643953
 30
0.0
 10
86.70840248483331
 20
-116.6249226596459
 30
0.0
 10
86.70840248483331
 20
-116.3922064596172
 30
0.0
 10
86.70840248483331
 20
-116.1362358650632
 30
0.0
 10
86.52856850050328
 20
-116.0664726814869
 30
0.0
 10
86.40799015851954
 20
-116.0664726814869
 30
0.0
 10
86.37629528005523
 20
-116.0664726814869
 30
0.0
 10
86.23470185561146
 20
-116.0664726814869
 30
0.0
 10
86.14581839209202
 20
-116.1954915074095
 30
0.0
 10
86.14581839209202
 20
-116.1954915074095
 30
0.0
 10
85.97029077711855
 20
-116.1763712274663
 30
0.0
 10
85.97029077711855
 20
-116.1763712274663
 30
0.0
 10
85.97029077711855
 20
-116.1763712274663
 30
0.0
 10
86.09069686432802
 20
-115.330255776289
 30
0.0
 10
86.09069686432802
 20
-115.330255776289
 30
0.0
 10
86.09069686432802
 20
-115.330255776289
 30
0.0
 10
86.86928844399449
 20
-115.330255776289
 30
0.0
 10
86.86928844399449
 20
-115.330255776289
 30
0.0
 10
86.86928844399449
 20
-115.330255776289
 30
0.0
 10
86.86928844399449
 20
-115.5249036712056
 30
0.0
 10
86.86928844399449
 20
-115.5249036712056
 30
0.0
 10
86.86928844399449
 20
-115.5249036712056
 30
0.0
 10
86.25364988078034
 20
-115.5249036712056
 30
0.0
 10
86.25364988078034
 20
-115.5249036712056
 30
0.0
 10
86.25364988078034
 20
-115.5249036712056
 30
0.0
 10
86.1881930665606
 20
-115.9479613967943
 30
0.0
 10
86.1881930665606
 20
-115.9479613967943
 30
0.0
 10
86.24951576619804
 20
-115.9140272062645
 30
0.0
 10
86.33185354829551
 20
-115.8738918438614
 30
0.0
 10
86.4503648329881
 20
-115.8738918438614
 30
0.0
 10
86.70426837025101
 20
-115.8738918438614
 30
0.0
 10
86.9412909396362
 20
-116.0600992548391
 30
0.0
 10
86.9412909396362
 20
-116.3730861796741
 30
0.0
 10
86.9412909396362
 20
-116.6905517286399
 30
0.0
 10
86.71701522354644
 20
-116.9253349859596
 30
0.0
 10
86.41453583994151
 20
-116.9253349859596
 30
0.0
  0
HATCH
  5
96
330
8F
100
AcDbEntity
  8
_U+30EC_U+30A4_U+30E4_U+30FC 1
 62
     7
420
 16777215
100
AcDbHatch
 10
0.0
 20
0.0
 30
0.0
210
0.0
220
0.0
230
1.0
  2
SOLID
 70
     1
 71
     0
 91
        1
 92
        1
 93
        1
 72
     4
 94
        3
 73
     0
 74
     1
 95
       53
 96
       49
 40
0.0
 40
0.0
 40
0.0
 40
0.0
 40
1.0
 40
1.0
 40
1.0
 40
2.0
 40
2.0
 40
2.0
 40
3.0
 40
3.0
 40
3.0
 40
4.0
 40
4.0
 40
4.0
 40
5.0
 40
5.0
 40
5.0
 40
6.0
 40
6.0
 40
6.0
 40
7.0
 40
7.0
 40
7.0
 40
8.0
 40
8.0
 40
8.0
 40
9.0
 40
9.0
 40
9.0
 40
10.0
 40
10.0
 40
10.0
 40
11.0
 40
11.0
 40
11.0
 40
12.0
 40
12.0
 40
12.0
 40
13.0
 40
13.0
 40
13.0
 40
14.0
 40
14.0
 40
14.0
 40
15.0
 40
15.0
 40
15.0
 40
16.0
 40
16.0
 40
16.0
 40
16.0
 10
86.41453583994151
 20
-116.9253349859596
 10
86.33633217242634
 20
-116.9253349859596
 10
86.23470185561146
 20
-116.9082817633077
 10
86.1330715387966
 20
-116.8448920063791
 10
85.95961098111427
 20
-116.7348212056253
 10
85.93842364387999
 20
-116.6037353224116
 10
85.9194756187111
 20
-116.4959038337232
 10
85.9194756187111
 20
-116.4959038337232
 10
86.14168427750973
 20
-116.4959038337232
 10
86.14168427750973
 20
-116.4959038337232
 10
86.1964612957252
 20
-116.6946858432222
 10
86.32358531913091
 20
-116.7243136643953
 10
86.41660289723266
 20
-116.7243136643953
 10
86.55612926438528
 20
-116.7243136643953
 10
86.70840248483331
 20
-116.6249226596459
 10
86.70840248483331
 20
-116.3922064596172
 10
86.70840248483331
 20
-116.1362358650632
 10
86.52856850050328
 20
-116.0664726814869
 10
86.40799015851954
 20
-116.0664726814869
 10
86.37629528005523
 20
-116.0664726814869
 10
86.23470185561146
 20
-116.0664726814869
 10
86.14581839209202
 20
-116.1954915074095
 10
86.14581839209202
 20
-116.1954915074095
 10
85.97029077711855
 20
-116.1763712274663
 10
85.97029077711855
 20
-116.1763712274663
 10
85.97029077711855
 20
-116.1763712274663
 10
86.09069686432802
 20
-115.330255776289
 10
86.09069686432802
 20
-115.330255776289
 10
86.09069686432802
 20
-115.330255776289
 10
86.86928844399449
 20
-115.330255776289
 10
86.86928844399449
 20
-115.330255776289
 10
86.86928844399449
 20
-115.330255776289
 10
86.86928844399449
 20
-115.5249036712056
 10
86.86928844399449
 20
-115.5249036712056
 10
86.86928844399449
 20
-115.5249036712056
 10
86.25364988078034
 20
-115.5249036712056
 10
86.25364988078034
 20
-115.5249036712056
 10
86.25364988078034
 20
-115.5249036712056
 10
86.1881930665606
 20
-115.9479613967943
 10
86.1881930665606
 20
-115.9479613967943
 10
86.24951576619804
 20
-115.9140272062645
 10
86.33185354829551
 20
-115.8738918438614
 10
86.4503648329881
 20
-115.8738918438614
 10
86.70426837025101
 20
-115.8738918438614
 10
86.9412909396362
 20
-116.0600992548391
 10
86.9412909396362
 20
-116.3730861796741
 10
86.9412909396362
 20
-116.6905517286399
 10
86.71701522354644
 20
-116.9253349859596
 10
86.41453583994151
 20
-116.9253349859596
 97
        0
 97
        0
 75
     2
 76
     1
 98
        0
  0
ENDBLK
  5
92
330
8F
100
AcDbEntity
  8
0
100
AcDbBlockEnd
  0
BLOCK
  5
A5
330
A3
100
AcDbEntity
  8
0
100
AcDbBlockBegin
  2
block 4
 70
     0
 10
0.0
 20
0.0
 30
0.0
  3
block 4
  1

  0
SPLINE
  5
A7
330
A3
100
AcDbEntity
  8
_U+30EC_U+30A4_U+30E4_U+30FC 1
370
     0
100
AcDbSpline
210
0.0
220
0.0
230
1.0
 70
    11
 71
     3
 72
    32
 73
    28
 74
     0
 42
0.0000000001
 43
0.0000000001
 12
1.0
 22
0.0
 32
0.0
 13
1.0
 23
0.0
 33
0.0
 40
0.0
 40
0.0
 40
0.0
 40
0.0
 40
1.0
 40
1.0
 40
1.0
 40
2.0
 40
2.0
 40
2.0
 40
3.0
 40
3.0
 40
3.0
 40
4.0
 40
4.0
 40
4.0
 40
5.0
 40
5.0
 40
5.0
 40
6.0
 40
6.0
 40
6.0
 40
7.0
 40
7.0
 40
7.0
 40
8.0
 40
8.0
 40
8.0
 40
9.0
 40
9.0
 40
9.0
 40
9.0
 10
81.34938420275293
 20
-141.4253037840881
 30
0.0
 10
80.83313664428825
 20
-141.4253037840881
 30
0.0
 10
80.82469616034939
 20
-140.87133243006
 30
0.0
 10
80.82469616034939
 20
-140.6573920004259
 30
0.0
 10
80.82469616034939
 20
-140.4269151124627
 30
0.0
 10
80.84381644029253
 20
-139.7795816707843
 30
0.0
 10
81.38745250786495
 20
-139.7795816707843
 30
0.0
 10
81.56091306554728
 20
-139.7795816707843
 30
0.0
 10
81.80620386409706
 20
-139.8495171091348
 30
0.0
 10
81.84444442398333
 20
-140.1816243139129
 30
0.0
 10
81.84444442398333
 20
-140.1816243139129
 30
0.0
 10
81.63067624912358
 20
-140.1816243139129
 30
0.0
 10
81.63067624912358
 20
-140.1816243139129
 30
0.0
 10
81.62016870789357
 20
-140.1244357288578
 30
0.0
 10
81.58847382942928
 20
-139.976296622992
 30
0.0
 10
81.38538545057379
 20
-139.976296622992
 30
0.0
 10
81.09341360819887
 20
-139.976296622992
 30
0.0
 10
81.05310599102145
 20
-140.3042697131878
 30
0.0
 10
81.04053139250028
 20
-140.5092528945602
 30
0.0
 10
81.13354897060204
 20
-140.431049227045
 30
0.0
 10
81.20124509688719
 20
-140.3717935846987
 30
0.0
 10
81.38314613850838
 20
-140.3717935846987
 30
0.0
 10
81.56298012283843
 20
-140.3717935846987
 30
0.0
 10
81.86545950644336
 20
-140.4799695829356
 30
0.0
 10
81.86545950644336
 20
-140.8861463406465
 30
0.0
 10
81.86545950644336
 20
-141.2055066921292
 30
0.0
 10
81.66667749694444
 20
-141.4253037840881
 30
0.0
 10
81.34938420275293
 20
-141.4253037840881
 30
0.0
  0
SPLINE
  5
A8
330
A3
100
AcDbEntity
  8
_U+30EC_U+30A4_U+30E4_U+30FC 1
370
     0
100
AcDbSpline
210
0.0
220
0.0
230
1.0
 70
    11
 71
     3
 72
    17
 73
    13
 74
     0
 42
0.0000000001
 43
0.0000000001
 12
1.0
 22
0.0
 32
0.0
 13
1.0
 23
0.0
 33
0.0
 40
0.0
 40
0.0
 40
0.0
 40
0.0
 40
1.0
 40
1.0
 40
1.0
 40
2.0
 40
2.0
 40
2.0
 40
3.0
 40
3.0
 40
3.0
 40
4.0
 40
4.0
 40
4.0
 40
4.0
 10
81.36626517063065
 20
-140.5664414796153
 30
0.0
 10
81.10392114942888
 20
-140.5664414796153
 30
0.0
 10
81.06585284431688
 20
-140.7779703424097
 30
0.0
 10
81.06585284431688
 20
-140.8944145698111
 30
0.0
 10
81.06585284431688
 20
-141.0701144395589
 30
0.0
 10
81.16110973448403
 20
-141.2330674560112
 30
0.0
 10
81.34507783339637
 20
-141.2330674560112
 30
0.0
 10
81.46565617538012
 20
-141.2330674560112
 30
0.0
 10
81.64135604512786
 20
-141.1738118136649
 30
0.0
 10
81.64135604512786
 20
-140.8882133979377
 30
0.0
 10
81.64135604512786
 20
-140.6639376818479
 30
0.0
 10
81.50165742320098
 20
-140.5664414796153
 30
0.0
 10
81.36626517063065
 20
-140.5664414796153
 30
0.0
  0
HATCH
  5
A9
330
A3
100
AcDbEntity
  8
_U+30EC_U+30A4_U+30E4_U+30FC 1
 62
     7
420
 16777215
100
AcDbHatch
 10
0.0
 20
0.0
 30
0.0
210
0.0
220
0.0
230
1.0
  2
SOLID
 70
     1
 71
     0
 91
        2
 92
        1
 93
        1
 72
     4
 94
        3
 73
     0
 74
     1
 95
       32
 96
       28
 40
0.0
 40
0.0
 40
0.0
 40
0.0
 40
1.0
 40
1.0
 40
1.0
 40
2.0
 40
2.0
 40
2.0
 40
3.0
 40
3.0
 40
3.0
 40
4.0
 40
4.0
 40
4.0
 40
5.0
 40
5.0
 40
5.0
 40
6.0
 40
6.0
 40
6.0
 40
7.0
 40
7.0
 40
7.0
 40
8.0
 40
8.0
 40
8.0
 40
9.0
 40
9.0
 40
9.0
 40
9.0
 10
81.34938420275293
 20
-141.4253037840881
 10
80.83313664428825
 20
-141.4253037840881
 10
80.82469616034939
 20
-140.87133243006
 10
80.82469616034939
 20
-140.6573920004259
 10
80.82469616034939
 20
-140.4269151124627
 10
80.84381644029253
 20
-139.7795816707843
 10
81.38745250786495
 20
-139.7795816707843
 10
81.56091306554728
 20
-139.7795816707843
 10
81.80620386409706
 20
-139.8495171091348
 10
81.84444442398333
 20
-140.1816243139129
 10
81.84444442398333
 20
-140.1816243139129
 10
81.63067624912358
 20
-140.1816243139129
 10
81.63067624912358
 20
-140.1816243139129
 10
81.62016870789357
 20
-140.1244357288578
 10
81.58847382942928
 20
-139.976296622992
 10
81.38538545057379
 20
-139.976296622992
 10
81.09341360819887
 20
-139.976296622992
 10
81.05310599102145
 20
-140.3042697131878
 10
81.04053139250028
 20
-140.5092528945602
 10
81.13354897060204
 20
-140.431049227045
 10
81.20124509688719
 20
-140.3717935846987
 10
81.38314613850838
 20
-140.3717935846987
 10
81.56298012283843
 20
-140.3717935846987
 10
81.86545950644336
 20
-140.4799695829356
 10
81.86545950644336
 20
-140.8861463406465
 10
81.86545950644336
 20
-141.2055066921292
 10
81.66667749694444
 20
-141.4253037840881
 10
81.34938420275293
 20
-141.4253037840881
 97
        0
 97
        0
 92
        1
 93
        1
 72
     4
 94
        3
 73
     0
 74
     1
 95
       17
 96
       13
 40
0.0
 40
0.0
 40
0.0
 40
0.0
 40
1.0
 40
1.0
 40
1.0
 40
2.0
 40
2.0
 40
2.0
 40
3.0
 40
3.0
 40
3.0
 40
4.0
 40
4.0
 40
4.0
 40
4.0
 10
81.36626517063065
 20
-140.5664414796153
 10
81.10392114942888
 20
-140.5664414796153
 10
81.06585284431688
 20
-140.7779703424097
 10
81.06585284431688
 20
-140.8944145698111
 10
81.06585284431688
 20
-141.0701144395589
 10
81.16110973448403
 20
-141.2330674560112
 10
81.34507783339637
 20
-141.2330674560112
 10
81.46565617538012
 20
-141.2330674560112
 10
81.64135604512786
 20
-141.1738118136649
 10
81.64135604512786
 20
-140.8882133979377
 10
81.64135604512786
 20
-140.6639376818479
 10
81.50165742320098
 20
-140.5664414796153
 10
81.36626517063065
 20
-140.5664414796153
 97
        0
 97
        0
 75
     2
 76
     1
 98
        0
  0
ENDBLK
  5
A6
330
A3
100
AcDbEntity
  8
0
100
AcDbBlockEnd
  0
BLOCK
  5
BC
330
BA
100
AcDbEntity
  8
0
100
AcDbBlockBegin
  2
block 5
 70
     0
 10
0.0
 20
0.0
 30
0.0
  3
block 5
  1

  0
SPLINE
  5
BE
330
BA
100
AcDbEntity
  8
_U+30EC_U+30A4_U+30E4_U+30FC 1
370
     0
100
AcDbSpline
210
0.0
220
0.0
230
1.0
 70
    11
 71
     3
 72
    26
 73
    22
 74
     0
 42
0.0000000001
 43
0.0000000001
 12
1.0
 22
0.0
 32
0.0
 13
1.0
 23
0.0
 33
0.0
 40
0.0
 40
0.0
 40
0.0
 40
0.0
 40
1.0
 40
1.0
 40
1.0
 40
2.0
 40
2.0
 40
2.0
 40
3.0
 40
3.0
 40
3.0
 40
4.0
 40
4.0
 40
4.0
 40
5.0
 40
5.0
 40
5.0
 40
6.0
 40
6.0
 40
6.0
 40
7.0
 40
7.0
 40
7.0
 40
7.0
 10
101.2861517758937
 20
-122.0941839972542
 30
0.0
 10
101.2861517758937
 20
-122.0941839972542
 30
0.0
 10
100.1819986728712
 20
-122.0941839972542
 30
0.0
 10
100.1819986728712
 20
-122.0941839972542
 30
0.0
 10
100.1819986728712
 20
-122.0941839972542
 30
0.0
 10
100.1819986728712
 20
-122.4242241447412
 30
0.0
 10
100.1819986728712
 20
-122.4242241447412
 30
0.0
 10
100.1819986728712
 20
-122.4242241447412
 30
0.0
 10
100.0338595670054
 20
-122.4242241447412
 30
0.0
 10
100.0338595670054
 20
-122.4242241447412
 30
0.0
 10
100.0190456564189
 20
-122.0921169399631
 30
0.0
 10
99.85609263996653
 20
-122.0456081509122
 30
0.0
 10
99.74171546985625
 20
-122.0159803297391
 30
0.0
 10
99.74171546985625
 20
-122.0159803297391
 30
0.0
 10
99.74171546985625
 20
-121.8699082811645
 30
0.0
 10
99.74171546985625
 20
-121.8699082811645
 30
0.0
 10
99.74171546985625
 20
-121.8699082811645
 30
0.0
 10
101.2861517758937
 20
-121.8699082811645
 30
0.0
 10
101.2861517758937
 20
-121.8699082811645
 30
0.0
 10
101.2861517758937
 20
-121.8699082811645
 30
0.0
 10
101.2861517758937
 20
-122.0941839972542
 30
0.0
 10
101.2861517758937
 20
-122.0941839972542
 30
0.0
  0
HATCH
  5
BF
330
BA
100
AcDbEntity
  8
_U+30EC_U+30A4_U+30E4_U+30FC 1
 62
     7
420
 16777215
100
AcDbHatch
 10
0.0
 20
0.0
 30
0.0
210
0.0
220
0.0
230
1.0
  2
SOLID
 70
     1
 71
     0
 91
        1
 92
        1
 93
        1
 72
     4
 94
        3
 73
     0
 74
     1
 95
       26
 96
       22
 40
0.0
 40
0.0
 40
0.0
 40
0.0
 40
1.0
 40
1.0
 40
1.0
 40
2.0
 40
2.0
 40
2.0
 40
3.0
 40
3.0
 40
3.0
 40
4.0
 40
4.0
 40
4.0
 40
5.0
 40
5.0
 40
5.0
 40
6.0
 40
6.0
 40
6.0
 40
7.0
 40
7.0
 40
7.0
 40
7.0
 10
101.2861517758937
 20
-122.0941839972542
 10
101.2861517758937
 20
-122.0941839972542
 10
100.1819986728712
 20
-122.0941839972542
 10
100.1819986728712
 20
-122.0941839972542
 10
100.1819986728712
 20
-122.0941839972542
 10
100.1819986728712
 20
-122.4242241447412
 10
100.1819986728712
 20
-122.4242241447412
 10
100.1819986728712
 20
-122.4242241447412
 10
100.0338595670054
 20
-122.4242241447412
 10
100.0338595670054
 20
-122.4242241447412
 10
100.0190456564189
 20
-122.0921169399631
 10
99.85609263996653
 20
-122.0456081509122
 10
99.74171546985625
 20
-122.0159803297391
 10
99.74171546985625
 20
-122.0159803297391
 10
99.74171546985625
 20
-121.8699082811645
 10
99.74171546985625
 20
-121.8699082811645
 10
99.74171546985625
 20
-121.8699082811645
 10
101.2861517758937
 20
-121.8699082811645
 10
101.2861517758937
 20
-121.8699082811645
 10
101.2861517758937
 20
-121.8699082811645
 10
101.2861517758937
 20
-122.0941839972542
 10
101.2861517758937
 20
-122.0941839972542
 97
        0
 97
        0
 75
     2
 76
     1
 98
        0
  0
ENDBLK
  5
BD
330
BA
100
AcDbEntity
  8
0
100
AcDbBlockEnd
  0
BLOCK
  5
CA
330
C8
100
AcDbEntity
  8
0
100
AcDbBlockBegin
  2
block 6
 70
     0
 10
0.0
 20
0.0
 30
0.0
  3
block 6
  1

  0
SPLINE
  5
CC
330
C8
100
AcDbEntity
  8
_U+30EC_U+30A4_U+30E4_U+30FC 1
370
     0
100
AcDbSpline
210
0.0
220
0.0
230
1.0
 70
    11
 71
     3
 72
    26
 73
    22
 74
     0
 42
0.0000000001
 43
0.0000000001
 12
1.0
 22
0.0
 32
0.0
 13
1.0
 23
0.0
 33
0.0
 40
0.0
 40
0.0
 40
0.0
 40
0.0
 40
1.0
 40
1.0
 40
1.0
 40
2.0
 40
2.0
 40
2.0
 40
3.0
 40
3.0
 40
3.0
 40
4.0
 40
4.0
 40
4.0
 40
5.0
 40
5.0
 40
5.0
 40
6.0
 40
6.0
 40
6.0
 40
7.0
 40
7.0
 40
7.0
 40
7.0
 10
96.70004066592917
 20
-129.655135058732
 30
0.0
 10
96.70004066592917
 20
-129.655135058732
 30
0.0
 10
95.59588756290658
 20
-129.655135058732
 30
0.0
 10
95.59588756290658
 20
-129.655135058732
 30
0.0
 10
95.59588756290658
 20
-129.655135058732
 30
0.0
 10
95.59588756290658
 20
-129.985175206219
 30
0.0
 10
95.59588756290658
 20
-129.985175206219
 30
0.0
 10
95.59588756290658
 20
-129.985175206219
 30
0.0
 10
95.44774845704084
 20
-129.985175206219
 30
0.0
 10
95.44774845704084
 20
-129.985175206219
 30
0.0
 10
95.43293454645428
 20
-129.6530680014409
 30
0.0
 10
95.26998153000196
 20
-129.60655921239
 30
0.0
 10
95.15560435989165
 20
-129.5769313912169
 30
0.0
 10
95.15560435989165
 20
-129.5769313912169
 30
0.0
 10
95.15560435989165
 20
-129.4308593426423
 30
0.0
 10
95.15560435989165
 20
-129.4308593426423
 30
0.0
 10
95.15560435989165
 20
-129.4308593426423
 30
0.0
 10
96.70004066592917
 20
-129.4308593426423
 30
0.0
 10
96.70004066592917
 20
-129.4308593426423
 30
0.0
 10
96.70004066592917
 20
-129.4308593426423
 30
0.0
 10
96.70004066592917
 20
-129.655135058732
 30
0.0
 10
96.70004066592917
 20
-129.655135058732
 30
0.0
  0
HATCH
  5
CD
330
C8
100
AcDbEntity
  8
_U+30EC_U+30A4_U+30E4_U+30FC 1
 62
     7
420
 16777215
100
AcDbHatch
 10
0.0
 20
0.0
 30
0.0
210
0.0
220
0.0
230
1.0
  2
SOLID
 70
     1
 71
     0
 91
        1
 92
        1
 93
        1
 72
     4
 94
        3
 73
     0
 74
     1
 95
       26
 96
       22
 40
0.0
 40
0.0
 40
0.0
 40
0.0
 40
1.0
 40
1.0
 40
1.0
 40
2.0
 40
2.0
 40
2.0
 40
3.0
 40
3.0
 40
3.0
 40
4.0
 40
4.0
 40
4.0
 40
5.0
 40
5.0
 40
5.0
 40
6.0
 40
6.0
 40
6.0
 40
7.0
 40
7.0
 40
7.0
 40
7.0
 10
96.70004066592917
 20
-129.655135058732
 10
96.70004066592917
 20
-129.655135058732
 10
95.59588756290658
 20
-129.655135058732
 10
95.59588756290658
 20
-129.655135058732
 10
95.59588756290658
 20
-129.655135058732
 10
95.59588756290658
 20
-129.985175206219
 10
95.59588756290658
 20
-129.985175206219
 10
95.59588756290658
 20
-129.985175206219
 10
95.44774845704084
 20
-129.985175206219
 10
95.44774845704084
 20
-129.985175206219
 10
95.43293454645428
 20
-129.6530680014409
 10
95.26998153000196
 20
-129.60655921239
 10
95.15560435989165
 20
-129.5769313912169
 10
95.15560435989165
 20
-129.5769313912169
 10
95.15560435989165
 20
-129.4308593426423
 10
95.15560435989165
 20
-129.4308593426423
 10
95.15560435989165
 20
-129.4308593426423
 10
96.70004066592917
 20
-129.4308593426423
 10
96.70004066592917
 20
-129.4308593426423
 10
96.70004066592917
 20
-129.4308593426423
 10
96.70004066592917
 20
-129.655135058732
 10
96.70004066592917
 20
-129.655135058732
 97
        0
 97
        0
 75
     2
 76
     1
 98
        0
  0
SPLINE
  5
CE
330
C8
100
AcDbEntity
  8
_U+30EC_U+30A4_U+30E4_U+30FC 1
370
     0
100
AcDbSpline
210
0.0
220
0.0
230
1.0
 70
    11
 71
     3
 72
    62
 73
    58
 74
     0
 42
0.0000000001
 43
0.0000000001
 12
1.0
 22
0.0
 32
0.0
 13
1.0
 23
0.0
 33
0.0
 40
0.0
 40
0.0
 40
0.0
 40
0.0
 40
1.0
 40
1.0
 40
1.0
 40
2.0
 40
2.0
 40
2.0
 40
3.0
 40
3.0
 40
3.0
 40
4.0
 40
4.0
 40
4.0
 40
5.0
 40
5.0
 40
5.0
 40
6.0
 40
6.0
 40
6.0
 40
7.0
 40
7.0
 40
7.0
 40
8.0
 40
8.0
 40
8.0
 40
9.0
 40
9.0
 40
9.0
 40
10.0
 40
10.0
 40
10.0
 40
11.0
 40
11.0
 40
11.0
 40
12.0
 40
12.0
 40
12.0
 40
13.0
 40
13.0
 40
13.0
 40
14.0
 40
14.0
 40
14.0
 40
15.0
 40
15.0
 40
15.0
 40
16.0
 40
16.0
 40
16.0
 40
17.0
 40
17.0
 40
17.0
 40
18.0
 40
18.0
 40
18.0
 40
19.0
 40
19.0
 40
19.0
 40
19.0
 10
96.75068356956233
 20
-128.4379828237933
 30
0.0
 10
96.75068356956233
 20
-128.5334119687347
 30
0.0
 10
96.72966848710232
 20
-128.7511420034025
 30
0.0
 10
96.54363333089881
 20
-128.8761989695171
 30
0.0
 10
96.43132321807967
 20
-128.9499240129014
 30
0.0
 10
96.33210446810448
 20
-128.9544026370322
 30
0.0
 10
96.24735511916734
 20
-128.9585367516145
 30
0.0
 10
96.24735511916734
 20
-128.9585367516145
 30
0.0
 10
96.24735511916734
 20
-128.7383951501071
 30
0.0
 10
96.24735511916734
 20
-128.7383951501071
 30
0.0
 10
96.3214246721002
 20
-128.7363280928159
 30
0.0
 10
96.55603567464571
 20
-128.7259928063602
 30
0.0
 10
96.55603567464571
 20
-128.4424614479241
 30
0.0
 10
96.55603567464571
 20
-128.3050021380626
 30
0.0
 10
96.48644474584367
 20
-128.1523844080661
 30
0.0
 10
96.2580349151716
 20
-128.1523844080661
 30
0.0
 10
96.14159068777016
 20
-128.1523844080661
 30
0.0
 10
96.09301484142814
 20
-128.1906249679523
 30
0.0
 10
96.06131996296384
 20
-128.2223198464166
 30
0.0
 10
95.98725041003097
 20
-128.2963893993495
 30
0.0
 10
95.97450355673554
 20
-128.412833626751
 30
0.0
 10
95.97450355673554
 20
-128.4676106449664
 30
0.0
 10
95.97450355673554
 20
-128.4869031796838
 30
0.0
 10
95.9765706140267
 20
-128.5227321727304
 30
0.0
 10
95.980704728609
 20
-128.5502929366124
 30
0.0
 10
95.980704728609
 20
-128.5502929366124
 30
0.0
 10
95.78605683369238
 20
-128.5502929366124
 30
0.0
 10
95.78605683369238
 20
-128.5502929366124
 30
0.0
 10
95.79260251511435
 20
-128.5120523767262
 30
0.0
 10
95.79466957240551
 20
-128.4700222118061
 30
0.0
 10
95.79466957240551
 20
-128.4634765303841
 30
0.0
 10
95.79466957240551
 20
-128.3980197161644
 30
0.0
 10
95.77330998039696
 20
-128.1992377066655
 30
0.0
 10
95.5366319205603
 20
-128.1992377066655
 30
0.0
 10
95.3588649935214
 20
-128.1992377066655
 30
0.0
 10
95.3037434657574
 20
-128.330151335105
 30
0.0
 10
95.3037434657574
 20
-128.440394390633
 30
0.0
 10
95.3037434657574
 20
-128.7046332143516
 30
0.0
 10
95.5366319205603
 20
-128.7132459530648
 30
0.0
 10
95.60828990665348
 20
-128.717380067647
 30
0.0
 10
95.60828990665348
 20
-128.717380067647
 30
0.0
 10
95.60828990665348
 20
-128.9206407012768
 30
0.0
 10
95.60828990665348
 20
-128.9206407012768
 30
0.0
 10
95.48357745008744
 20
-128.9120279625637
 30
0.0
 10
95.10702851354964
 20
-128.8844671986817
 30
0.0
 10
95.10702851354964
 20
-128.4276475373375
 30
0.0
 10
95.10702851354964
 20
-128.2033718212478
 30
0.0
 10
95.23415253695535
 20
-127.9622151372803
 30
0.0
 10
95.53008623913831
 20
-127.9622151372803
 30
0.0
 10
95.71646590489033
 20
-127.9622151372803
 30
0.0
 10
95.79880368698781
 20
-128.0572997726732
 30
0.0
 10
95.86012638662525
 20
-128.1568630321969
 30
0.0
 10
95.88768715050725
 20
-128.0955403325595
 30
0.0
 10
95.96795787531357
 20
-127.9136392909383
 30
0.0
 10
96.24528806187618
 20
-127.9136392909383
 30
0.0
 10
96.58359643852772
 20
-127.9136392909383
 30
0.0
 10
96.75068356956233
 20
-128.1609971467792
 30
0.0
 10
96.75068356956233
 20
-128.4379828237933
 30
0.0
  0
HATCH
  5
CF
330
C8
100
AcDbEntity
  8
_U+30EC_U+30A4_U+30E4_U+30FC 1
 62
     7
420
 16777215
100
AcDbHatch
 10
0.0
 20
0.0
 30
0.0
210
0.0
220
0.0
230
1.0
  2
SOLID
 70
     1
 71
     0
 91
        1
 92
        1
 93
        1
 72
     4
 94
        3
 73
     0
 74
     1
 95
       62
 96
       58
 40
0.0
 40
0.0
 40
0.0
 40
0.0
 40
1.0
 40
1.0
 40
1.0
 40
2.0
 40
2.0
 40
2.0
 40
3.0
 40
3.0
 40
3.0
 40
4.0
 40
4.0
 40
4.0
 40
5.0
 40
5.0
 40
5.0
 40
6.0
 40
6.0
 40
6.0
 40
7.0
 40
7.0
 40
7.0
 40
8.0
 40
8.0
 40
8.0
 40
9.0
 40
9.0
 40
9.0
 40
10.0
 40
10.0
 40
10.0
 40
11.0
 40
11.0
 40
11.0
 40
12.0
 40
12.0
 40
12.0
 40
13.0
 40
13.0
 40
13.0
 40
14.0
 40
14.0
 40
14.0
 40
15.0
 40
15.0
 40
15.0
 40
16.0
 40
16.0
 40
16.0
 40
17.0
 40
17.0
 40
17.0
 40
18.0
 40
18.0
 40
18.0
 40
19.0
 40
19.0
 40
19.0
 40
19.0
 10
96.75068356956233
 20
-128.4379828237933
 10
96.75068356956233
 20
-128.5334119687347
 10
96.72966848710232
 20
-128.7511420034025
 10
96.54363333089881
 20
-128.8761989695171
 10
96.43132321807967
 20
-128.9499240129014
 10
96.33210446810448
 20
-128.9544026370322
 10
96.24735511916734
 20
-128.9585367516145
 10
96.24735511916734
 20
-128.9585367516145
 10
96.24735511916734
 20
-128.7383951501071
 10
96.24735511916734
 20
-128.7383951501071
 10
96.3214246721002
 20
-128.7363280928159
 10
96.55603567464571
 20
-128.7259928063602
 10
96.55603567464571
 20
-128.4424614479241
 10
96.55603567464571
 20
-128.3050021380626
 10
96.48644474584367
 20
-128.1523844080661
 10
96.2580349151716
 20
-128.1523844080661
 10
96.14159068777016
 20
-128.1523844080661
 10
96.09301484142814
 20
-128.1906249679523
 10
96.06131996296384
 20
-128.2223198464166
 10
95.98725041003097
 20
-128.2963893993495
 10
95.97450355673554
 20
-128.412833626751
 10
95.97450355673554
 20
-128.4676106449664
 10
95.97450355673554
 20
-128.4869031796838
 10
95.9765706140267
 20
-128.5227321727304
 10
95.980704728609
 20
-128.5502929366124
 10
95.980704728609
 20
-128.5502929366124
 10
95.78605683369238
 20
-128.5502929366124
 10
95.78605683369238
 20
-128.5502929366124
 10
95.79260251511435
 20
-128.5120523767262
 10
95.79466957240551
 20
-128.4700222118061
 10
95.79466957240551
 20
-128.4634765303841
 10
95.79466957240551
 20
-128.3980197161644
 10
95.77330998039696
 20
-128.1992377066655
 10
95.5366319205603
 20
-128.1992377066655
 10
95.3588649935214
 20
-128.1992377066655
 10
95.3037434657574
 20
-128.330151335105
 10
95.3037434657574
 20
-128.440394390633
 10
95.3037434657574
 20
-128.7046332143516
 10
95.5366319205603
 20
-128.7132459530648
 10
95.60828990665348
 20
-128.717380067647
 10
95.60828990665348
 20
-128.717380067647
 10
95.60828990665348
 20
-128.9206407012768
 10
95.60828990665348
 20
-128.9206407012768
 10
95.48357745008744
 20
-128.9120279625637
 10
95.10702851354964
 20
-128.8844671986817
 10
95.10702851354964
 20
-128.4276475373375
 10
95.10702851354964
 20
-128.2033718212478
 10
95.23415253695535
 20
-127.9622151372803
 10
95.53008623913831
 20
-127.9622151372803
 10
95.71646590489033
 20
-127.9622151372803
 10
95.79880368698781
 20
-128.0572997726732
 10
95.86012638662525
 20
-128.1568630321969
 10
95.88768715050725
 20
-128.0955403325595
 10
95.96795787531357
 20
-127.9136392909383
 10
96.24528806187618
 20
-127.9136392909383
 10
96.58359643852772
 20
-127.9136392909383
 10
96.75068356956233
 20
-128.1609971467792
 10
96.75068356956233
 20
-128.4379828237933
 97
        0
 97
        0
 75
     2
 76
     1
 98
        0
  0
ENDBLK
  5
CB
330
C8
100
AcDbEntity
  8
0
100
AcDbBlockEnd
  0
BLOCK
  5
DA
330
D8
100
AcDbEntity
  8
0
100
AcDbBlockBegin
  2
block 7
 70
     0
 10
0.0
 20
0.0
 30
0.0
  3
block 7
  1

  0
SPLINE
  5
DC
330
D8
100
AcDbEntity
  8
_U+30EC_U+30A4_U+30E4_U+30FC 1
370
     0
100
AcDbSpline
210
0.0
220
0.0
230
1.0
 70
    11
 71
     3
 72
    44
 73
    40
 74
     0
 42
0.0000000001
 43
0.0000000001
 12
1.0
 22
0.0
 32
0.0
 13
1.0
 23
0.0
 33
0.0
 40
0.0
 40
0.0
 40
0.0
 40
0.0
 40
1.0
 40
1.0
 40
1.0
 40
2.0
 40
2.0
 40
2.0
 40
3.0
 40
3.0
 40
3.0
 40
4.0
 40
4.0
 40
4.0
 40
5.0
 40
5.0
 40
5.0
 40
6.0
 40
6.0
 40
6.0
 40
7.0
 40
7.0
 40
7.0
 40
8.0
 40
8.0
 40
8.0
 40
9.0
 40
9.0
 40
9.0
 40
10.0
 40
10.0
 40
10.0
 40
11.0
 40
11.0
 40
11.0
 40
12.0
 40
12.0
 40
12.0
 40
13.0
 40
13.0
 40
13.0
 40
13.0
 10
96.11713050982489
 20
-136.6266302826836
 30
0.0
 10
96.27594941169491
 20
-136.8443603173514
 30
0.0
 10
96.35001896462778
 20
-136.9373778954532
 30
0.0
 10
96.49367944636269
 20
-136.9862982513437
 30
0.0
 10
96.49367944636269
 20
-136.9862982513437
 30
0.0
 10
96.49367944636269
 20
-136.2077066716772
 30
0.0
 10
96.49367944636269
 20
-136.2077066716772
 30
0.0
 10
96.49367944636269
 20
-136.2077066716772
 30
0.0
 10
96.69900713728359
 20
-136.2077066716772
 30
0.0
 10
96.69900713728359
 20
-136.2077066716772
 30
0.0
 10
96.69900713728359
 20
-136.2077066716772
 30
0.0
 10
96.69900713728359
 20
-137.2357231644758
 30
0.0
 10
96.69900713728359
 20
-137.2357231644758
 30
0.0
 10
96.34140622591465
 20
-137.2040282860115
 30
0.0
 10
96.26320255839948
 20
-137.1385714717917
 30
0.0
 10
95.96485728937685
 20
-136.7534097965408
 30
0.0
 10
95.76607527987792
 20
-136.4974392019868
 30
0.0
 10
95.69820689881851
 20
-136.431982387767
 30
0.0
 10
95.56074758895704
 20
-136.431982387767
 30
0.0
 10
95.44223630426444
 20
-136.431982387767
 30
0.0
 10
95.31132267582495
 20
-136.5039848834087
 30
0.0
 10
95.31132267582495
 20
-136.7006998356165
 30
0.0
 10
95.31132267582495
 20
-136.9608045447528
 30
0.0
 10
95.54179956378816
 20
-136.969417283466
 30
0.0
 10
95.6582437911896
 20
-136.9735513980483
 30
0.0
 10
95.6582437911896
 20
-136.9735513980483
 30
0.0
 10
95.6582437911896
 20
-137.1978271141381
 30
0.0
 10
95.6582437911896
 20
-137.1978271141381
 30
0.0
 10
95.53111976778389
 20
-137.1892143754249
 30
0.0
 10
95.41915416451327
 20
-137.1785345794206
 30
0.0
 10
95.30064287982067
 20
-137.0982638546143
 30
0.0
 10
95.13975692065951
 20
-136.9883653086349
 30
0.0
 10
95.10599498490406
 20
-136.8019856428828
 30
0.0
 10
95.10599498490406
 20
-136.6858859250299
 30
0.0
 10
95.10599498490406
 20
-136.4085557384673
 30
0.0
 10
95.2899630838164
 20
-136.2011609902553
 30
0.0
 10
95.56281464624819
 20
-136.2011609902553
 30
0.0
 10
95.79156898646877
 20
-136.2011609902553
 30
0.0
 10
95.89078773644397
 20
-136.3176052176567
 30
0.0
 10
96.11713050982489
 20
-136.6266302826836
 30
0.0
  0
HATCH
  5
DD
330
D8
100
AcDbEntity
  8
_U+30EC_U+30A4_U+30E4_U+30FC 1
 62
     7
420
 16777215
100
AcDbHatch
 10
0.0
 20
0.0
 30
0.0
210
0.0
220
0.0
230
1.0
  2
SOLID
 70
     1
 71
     0
 91
        1
 92
        1
 93
        1
 72
     4
 94
        3
 73
     0
 74
     1
 95
       44
 96
       40
 40
0.0
 40
0.0
 40
0.0
 40
0.0
 40
1.0
 40
1.0
 40
1.0
 40
2.0
 40
2.0
 40
2.0
 40
3.0
 40
3.0
 40
3.0
 40
4.0
 40
4.0
 40
4.0
 40
5.0
 40
5.0
 40
5.0
 40
6.0
 40
6.0
 40
6.0
 40
7.0
 40
7.0
 40
7.0
 40
8.0
 40
8.0
 40
8.0
 40
9.0
 40
9.0
 40
9.0
 40
10.0
 40
10.0
 40
10.0
 40
11.0
 40
11.0
 40
11.0
 40
12.0
 40
12.0
 40
12.0
 40
13.0
 40
13.0
 40
13.0
 40
13.0
 10
96.11713050982489
 20
-136.6266302826836
 10
96.27594941169491
 20
-136.8443603173514
 10
96.35001896462778
 20
-136.9373778954532
 10
96.49367944636269
 20
-136.9862982513437
 10
96.49367944636269
 20
-136.9862982513437
 10
96.49367944636269
 20
-136.2077066716772
 10
96.49367944636269
 20
-136.2077066716772
 10
96.49367944636269
 20
-136.2077066716772
 10
96.69900713728359
 20
-136.2077066716772
 10
96.69900713728359
 20
-136.2077066716772
 10
96.69900713728359
 20
-136.2077066716772
 10
96.69900713728359
 20
-137.2357231644758
 10
96.69900713728359
 20
-137.2357231644758
 10
96.34140622591465
 20
-137.2040282860115
 10
96.26320255839948
 20
-137.1385714717917
 10
95.96485728937685
 20
-136.7534097965408
 10
95.76607527987792
 20
-136.4974392019868
 10
95.69820689881851
 20
-136.431982387767
 10
95.56074758895704
 20
-136.431982387767
 10
95.44223630426444
 20
-136.431982387767
 10
95.31132267582495
 20
-136.5039848834087
 10
95.31132267582495
 20
-136.7006998356165
 10
95.31132267582495
 20
-136.9608045447528
 10
95.54179956378816
 20
-136.969417283466
 10
95.6582437911896
 20
-136.9735513980483
 10
95.6582437911896
 20
-136.9735513980483
 10
95.6582437911896
 20
-137.1978271141381
 10
95.6582437911896
 20
-137.1978271141381
 10
95.53111976778389
 20
-137.1892143754249
 10
95.41915416451327
 20
-137.1785345794206
 10
95.30064287982067
 20
-137.0982638546143
 10
95.13975692065951
 20
-136.9883653086349
 10
95.10599498490406
 20
-136.8019856428828
 10
95.10599498490406
 20
-136.6858859250299
 10
95.10599498490406
 20
-136.4085557384673
 10
95.2899630838164
 20
-136.2011609902553
 10
95.56281464624819
 20
-136.2011609902553
 10
95.79156898646877
 20
-136.2011609902553
 10
95.89078773644397
 20
-136.3176052176567
 10
96.11713050982489
 20
-136.6266302826836
 97
        0
 97
        0
 75
     2
 76
     1
 98
        0
  0
ENDBLK
  5
DB
330
D8
100
AcDbEntity
  8
0
100
AcDbBlockEnd
  0
ENDSEC
  0
SECTION
  2
ENTITIES
  0
INSERT
  5
42
330
1F
100
AcDbEntity
  8
_U+30EC_U+30A4_U+30E4_U+30FC 1
100
AcDbBlockReference
  2
block 2
 10
0.0
 20
0.0
 30
0.0
  0
ENDSEC
  0
SECTION
  2
OBJECTS
  0
DICTIONARY
  5
C
330
0
100
AcDbDictionary
281
     1
  3
ACAD_GROUP
350
D
  3
ACAD_LAYOUT
350
1A
  3
ACAD_MATERIAL
350
3B
  3
ACAD_MLEADERSTYLE
350
DF
  3
ACAD_MLINESTYLE
350
17
  3
ACAD_PLOTSETTINGS
350
19
  3
ACAD_PLOTSTYLENAME
350
E
  3
ACAD_TABLESTYLE
350
DE
  3
ACAD_VISUALSTYLE
350
2A
  0
SUN
  5
3F
330
29
100
AcDbSun
 90
        1
290
     0
 63
     7
421
 16777215
 40
1.0
291
     1
 91
  2455826
 92
 54000000
292
     0
 70
     2
 71
   256
280
     1
  0
DICTIONARY
  5
D
102
{ACAD_REACTORS
330
C
102
}
330
C
100
AcDbDictionary
281
     1
  0
DICTIONARY
  5
1A
102
{ACAD_REACTORS
330
C
102
}
330
C
100
AcDbDictionary
281
     1
  3
Layout1
350
1E
  3
Layout2
350
26
  3
Model
350
22
  0
DICTIONARY
  5
3B
102
{ACAD_REACTORS
330
C
102
}
330
C
100
AcDbDictionary
281
     1
  3
ByBlock
350
3D
  3
ByLayer
350
3C
  3
Global
350
3E
  0
DICTIONARY
  5
DF
102
{ACAD_REACTORS
330
C
102
}
330
C
100
AcDbDictionary
281
     1
  0
DICTIONARY
  5
17
102
{ACAD_REACTORS
330
C
102
}
330
C
100
AcDbDictionary
281
     1
  3
Standard
350
18
  0
DICTIONARY
  5
19
102
{ACAD_REACTORS
330
C
102
}
330
C
100
AcDbDictionary
281
     1
  0
ACDBDICTIONARYWDFLT
  5
E
102
{ACAD_REACTORS
330
C
102
}
330
C
100
AcDbDictionary
281
     1
  3
Normal
350
F
100
AcDbDictionaryWithDefault
340
F
  0
DICTIONARY
  5
DE
102
{ACAD_REACTORS
330
C
102
}
330
C
100
AcDbDictionary
281
     1
  0
DICTIONARY
  5
2A
102
{ACAD_REACTORS
330
C
102
}
330
C
100
AcDbDictionary
281
     1
  3
2dWireframe
350
2F
  3
3D Hidden
350
31
  3
3dWireframe
350
30
  3
Basic
350
32
  3
Brighten
350
36
  3
ColorChange
350
3A
  3
Conceptual
350
34
  3
Dim
350
35
  3
Facepattern
350
39
  3
Flat
350
2B
  3
FlatWithEdges
350
2C
  3
Gouraud
350
2D
  3
GouraudWithEdges
350
2E
  3
Linepattern
350
38
  3
Realistic
350
33
  3
Thicken
350
37
  0
LAYOUT
  5
1E
102
{ACAD_REACTORS
330
1A
102
}
330
1A
100
AcDbPlotSettings
  1

  2
none_device
  4

  6

 40
0.0
 41
0.0
 42
0.0
 43
0.0
 44
0.0
 45
0.0
 46
0.0
 47
0.0
 48
0.0
 49
0.0
140
0.0
141
0.0
142
1.0
143
1.0
 70
   688
 72
     0
 73
     0
 74
     5
  7

 75
    16
 76
     0
 77
     2
 78
   300
147
1.0
148
0.0
149
0.0
100
AcDbLayout
  1
Layout1
 70
     1
 71
     1
 10
0.0
 20
0.0
 11
12.0
 21
9.0
 12
0.0
 22
0.0
 32
0.0
 14
1.000000000000000E+20
 24
1.000000000000000E+20
 34
1.000000000000000E+20
 15
-1.000000000000000E+20
 25
-1.000000000000000E+20
 35
-1.000000000000000E+20
146
0.0
 13
0.0
 23
0.0
 33
0.0
 16
1.0
 26
0.0
 36
0.0
 17
0.0
 27
1.0
 37
0.0
 76
     0
330
1B
  0
LAYOUT
  5
26
102
{ACAD_REACTORS
330
1A
102
}
330
1A
100
AcDbPlotSettings
  1

  2
none_device
  4

  6

 40
0.0
 41
0.0
 42
0.0
 43
0.0
 44
0.0
 45
0.0
 46
0.0
 47
0.0
 48
0.0
 49
0.0
140
0.0
141
0.0
142
1.0
143
1.0
 70
   688
 72
     0
 73
     0
 74
     5
  7

 75
    16
 76
     0
 77
     2
 78
   300
147
1.0
148
0.0
149
0.0
100
AcDbLayout
  1
Layout2
 70
     1
 71
     2
 10
0.0
 20
0.0
 11
0.0
 21
0.0
 12
0.0
 22
0.0
 32
0.0
 14
0.0
 24
0.0
 34
0.0
 15
0.0
 25
0.0
 35
0.0
146
0.0
 13
0.0
 23
0.0
 33
0.0
 16
1.0
 26
0.0
 36
0.0
 17
0.0
 27
1.0
 37
0.0
 76
     0
330
23
  0
LAYOUT
  5
22
102
{ACAD_REACTORS
330
1A
102
}
330
1A
100
AcDbPlotSettings
  1

  2
none_device
  4

  6

 40
0.0
 41
0.0
 42
0.0
 43
0.0
 44
0.0
 45
0.0
 46
0.0
 47
0.0
 48
0.0
 49
0.0
140
0.0
141
0.0
142
1.0
143
1.0
 70
  1712
 72
     0
 73
     0
 74
     0
  7

 75
     0
 76
     0
 77
     2
 78
   300
147
1.0
148
0.0
149
0.0
100
AcDbLayout
  1
Model
 70
     1
 71
     0
 10
0.0
 20
0.0
 11
12.0
 21
9.0
 12
0.0
 22
0.0
 32
0.0
 14
1.000000000000000E+20
 24
1.000000000000000E+20
 34
1.000000000000000E+20
 15
-1.000000000000000E+20
 25
-1.000000000000000E+20
 35
-1.000000000000000E+20
146
0.0
 13
0.0
 23
0.0
 33
0.0
 16
1.0
 26
0.0
 36
0.0
 17
0.0
 27
1.0
 37
0.0
 76
     0
330
1F
331
29
  0
MATERIAL
  5
3D
102
{ACAD_REACTORS
330
3B
102
}
330
3B
100
AcDbMaterial
  1
ByBlock
 72
     1
 94
      127
  0
MATERIAL
  5
3C
102
{ACAD_REACTORS
330
3B
102
}
330
3B
100
AcDbMaterial
  1
ByLayer
 72
     1
 94
      127
  0
MATERIAL
  5
3E
102
{ACAD_REACTORS
330
3B
102
}
330
3B
100
AcDbMaterial
  1
Global
 72
     1
 94
      127
  0
MLINESTYLE
  5
18
102
{ACAD_REACTORS
330
17
102
}
330
17
100
AcDbMlineStyle
  2
Standard
 70
     0
  3

 62
   256
 51
90.0
 52
90.0
 71
     2
 49
0.5
 62
   256
  6
BYLAYER
 49
-0.5
 62
   256
  6
BYLAYER
  0
ACDBPLACEHOLDER
  5
F
102
{ACAD_REACTORS
330
E
102
}
330
E
  0
VISUALSTYLE
  5
2F
102
{ACAD_REACTORS
330
2A
102
}
330
2A
100
AcDbVisualStyle
  2
2dWireframe
 70
     4
177
     2
291
     0
 71
     0
176
     1
 72
     2
176
     1
 73
     0
176
     1
 90
        0
176
     1
 40
-0.6
176
     1
 41
-30.0
176
     1
 62
     5
 63
     7
421
 16777215
176
     1
 74
     1
176
     1
 91
        4
176
     1
 64
     7
176
     1
 65
   257
176
     1
 75
     1
176
     1
175
     1
176
     1
 42
1.0
176
     1
 92
        0
176
     1
 66
   257
176
     1
 43
1.0
176
     1
 76
     1
176
     1
 77
     6
176
     1
 78
     2
176
     1
 67
     7
176
     1
 79
     5
176
     1
170
     0
176
     1
171
     0
176
     1
290
     0
176
     1
 93
        1
176
     1
 44
0.0
176
     1
173
     0
176
     1
  0
VISUALSTYLE
  5
31
102
{ACAD_REACTORS
330
2A
102
}
330
2A
100
AcDbVisualStyle
  2
3D Hidden
 70
     6
177
     2
291
     0
 71
     1
176
     1
 72
     2
176
     1
 73
     2
176
     1
 90
        0
176
     1
 40
-0.6
176
     1
 41
-30.0
176
     1
 62
     5
 63
     7
421
 16777215
176
     1
 74
     2
176
     1
 91
        2
176
     1
 64
     7
176
     1
 65
   257
176
     1
 75
     2
176
     1
175
     1
176
     1
 42
40.0
176
     1
 92
        0
176
     1
 66
   257
176
     1
 43
1.0
176
     1
 76
     1
176
     1
 77
     6
176
     1
 78
     2
176
     1
 67
     7
176
     1
 79
     3
176
     1
170
     0
176
     1
171
     0
176
     1
290
     0
176
     1
 93
        1
176
     1
 44
0.0
176
     1
173
     0
176
     1
  0
VISUALSTYLE
  5
30
102
{ACAD_REACTORS
330
2A
102
}
330
2A
100
AcDbVisualStyle
  2
3dWireframe
 70
     5
177
     2
291
     0
 71
     0
176
     1
 72
     2
176
     1
 73
     0
176
     1
 90
        0
176
     1
 40
-0.6
176
     1
 41
-30.0
176
     1
 62
     5
 63
     7
421
 16777215
176
     1
 74
     1
176
     1
 91
        4
176
     1
 64
     7
176
     1
 65
   257
176
     1
 75
     1
176
     1
175
     1
176
     1
 42
1.0
176
     1
 92
        0
176
     1
 66
   257
176
     1
 43
1.0
176
     1
 76
     1
176
     1
 77
     6
176
     1
 78
     2
176
     1
 67
     7
176
     1
 79
     5
176
     1
170
     0
176
     1
171
     0
176
     1
290
     0
176
     1
 93
        1
176
     1
 44
0.0
176
     1
173
     0
176
     1
  0
VISUALSTYLE
  5
32
102
{ACAD_REACTORS
330
2A
102
}
330
2A
100
AcDbVisualStyle
  2
Basic
 70
     7
177
     2
291
     1
 71
     1
176
     1
 72
     0
176
     1
 73
     1
176
     1
 90
        0
176
     1
 40
-0.6
176
     1
 41
-30.0
176
     1
 62
     5
 63
     7
421
 16777215
176
     1
 74
     0
176
     1
 91
        4
176
     1
 64
     7
176
     1
 65
   257
176
     1
 75
     1
176
     1
175
     1
176
     1
 42
1.0
176
     1
 92
        8
176
     1
 66
     7
176
     1
 43
1.0
176
     1
 76
     1
176
     1
 77
     6
176
     1
 78
     2
176
     1
 67
     7
176
     1
 79
     5
176
     1
170
     0
176
     1
171
     0
176
     1
290
     0
176
     1
 93
        1
176
     1
 44
0.0
176
     1
173
     0
176
     1
  0
VISUALSTYLE
  5
36
102
{ACAD_REACTORS
330
2A
102
}
330
2A
100
AcDbVisualStyle
  2
Brighten
 70
    12
177
     2
291
     1
 71
     2
176
     1
 72
     2
176
     1
 73
     0
176
     1
 90
        0
176
     1
 40
-0.6
176
     1
 41
-30.0
176
     1
 62
     5
 63
     7
421
 16777215
176
     1
 74
     1
176
     1
 91
        4
176
     1
 64
     7
176
     1
 65
   257
176
     1
 75
     1
176
     1
175
     1
176
     1
 42
1.0
176
     1
 92
        8
176
     1
 66
     7
176
     1
 43
1.0
176
     1
 76
     1
176
     1
 77
     6
176
     1
 78
     2
176
     1
 67
     7
176
     1
 79
     5
176
     1
170
     0
176
     1
171
     0
176
     1
290
     0
176
     1
 93
        1
176
     1
 44
50.0
176
     1
173
     0
176
     1
  0
VISUALSTYLE
  5
3A
102
{ACAD_REACTORS
330
2A
102
}
330
2A
100
AcDbVisualStyle
  2
ColorChange
 70
    16
177
     2
291
     1
 71
     2
176
     1
 72
     2
176
     1
 73
     3
176
     1
 90
        0
176
     1
 40
-0.6
176
     1
 41
-30.0
176
     1
 62
     5
 63
     8
421
  8421504
176
     1
 74
     1
176
     1
 91
        4
176
     1
 64
     7
176
     1
 65
   257
176
     1
 75
     1
176
     1
175
     1
176
     1
 42
1.0
176
     1
 92
        8
176
     1
 66
     8
424
  8421504
176
     1
 43
1.0
176
     1
 76
     1
176
     1
 77
     6
176
     1
 78
     2
176
     1
 67
     7
176
     1
 79
     5
176
     1
170
     0
176
     1
171
     0
176
     1
290
     0
176
     1
 93
        1
176
     1
 44
0.0
176
     1
173
     0
176
     1
  0
VISUALSTYLE
  5
34
102
{ACAD_REACTORS
330
2A
102
}
330
2A
100
AcDbVisualStyle
  2
Conceptual
 70
     9
177
     2
291
     0
 71
     3
176
     1
 72
     2
176
     1
 73
     0
176
     1
 90
        0
176
     1
 40
-0.6
176
     1
 41
-30.0
176
     1
 62
     5
 63
     7
421
 16777215
176
     1
 74
     2
176
     1
 91
        2
176
     1
 64
     7
176
     1
 65
   257
176
     1
 75
     1
176
     1
175
     1
176
     1
 42
40.0
176
     1
 92
        8
176
     1
 66
     7
176
     1
 43
1.0
176
     1
 76
     1
176
     1
 77
     6
176
     1
 78
     2
176
     1
 67
     7
176
     1
 79
     3
176
     1
170
     0
176
     1
171
     0
176
     1
290
     0
176
     1
 93
        1
176
     1
 44
0.0
176
     1
173
     0
176
     1
  0
VISUALSTYLE
  5
35
102
{ACAD_REACTORS
330
2A
102
}
330
2A
100
AcDbVisualStyle
  2
Dim
 70
    11
177
     2
291
     1
 71
     2
176
     1
 72
     2
176
     1
 73
     0
176
     1
 90
        0
176
     1
 40
-0.6
176
     1
 41
-30.0
176
     1
 62
     5
 63
     7
421
 16777215
176
     1
 74
     1
176
     1
 91
        4
176
     1
 64
     7
176
     1
 65
   257
176
     1
 75
     1
176
     1
175
     1
176
     1
 42
1.0
176
     1
 92
        8
176
     1
 66
     7
176
     1
 43
1.0
176
     1
 76
     1
176
     1
 77
     6
176
     1
 78
     2
176
     1
 67
     7
176
     1
 79
     5
176
     1
170
     0
176
     1
171
     0
176
     1
290
     0
176
     1
 93
        1
176
     1
 44
-50.0
176
     1
173
     0
176
     1
  0
VISUALSTYLE
  5
39
102
{ACAD_REACTORS
330
2A
102
}
330
2A
100
AcDbVisualStyle
  2
Facepattern
 70
    15
177
     2
291
     1
 71
     2
176
     1
 72
     2
176
     1
 73
     0
176
     1
 90
        0
176
     1
 40
-0.6
176
     1
 41
-30.0
176
     1
 62
     5
 63
     7
421
 16777215
176
     1
 74
     1
176
     1
 91
        4
176
     1
 64
     7
176
     1
 65
   257
176
     1
 75
     1
176
     1
175
     1
176
     1
 42
1.0
176
     1
 92
        8
176
     1
 66
     7
176
     1
 43
1.0
176
     1
 76
     1
176
     1
 77
     6
176
     1
 78
     2
176
     1
 67
     7
176
     1
 79
     5
176
     1
170
     0
176
     1
171
     0
176
     1
290
     0
176
     1
 93
        1
176
     1
 44
0.0
176
     1
173
     0
176
     1
  0
VISUALSTYLE
  5
2B
102
{ACAD_REACTORS
330
2A
102
}
330
2A
100
AcDbVisualStyle
  2
Flat
 70
     0
177
     2
291
     1
 71
     2
176
     1
 72
     1
176
     1
 73
     1
176
     1
 90
        2
176
     1
 40
-0.6
176
     1
 41
30.0
176
     1
 62
     5
 63
     7
421
 16777215
176
     1
 74
     0
176
     1
 91
        4
176
     1
 64
     7
176
     1
 65
   257
176
     1
 75
     1
176
     1
175
     1
176
     1
 42
1.0
176
     1
 92
        8
176
     1
 66
     7
176
     1
 43
1.0
176
     1
 76
     1
176
     1
 77
     6
176
     1
 78
     2
176
     1
 67
     7
176
     1
 79
     5
176
     1
170
     0
176
     1
171
     0
176
     1
290
     0
176
     1
 93
       13
176
     1
 44
0.0
176
     1
173
     0
176
     1
  0
VISUALSTYLE
  5
2C
102
{ACAD_REACTORS
330
2A
102
}
330
2A
100
AcDbVisualStyle
  2
FlatWithEdges
 70
     1
177
     2
291
     1
 71
     2
176
     1
 72
     1
176
     1
 73
     1
176
     1
 90
        2
176
     1
 40
-0.6
176
     1
 41
30.0
176
     1
 62
     5
 63
     7
421
 16777215
176
     1
 74
     1
176
     1
 91
        4
176
     1
 64
     7
176
     1
 65
   257
176
     1
 75
     1
176
     1
175
     1
176
     1
 42
1.0
176
     1
 92
        0
176
     1
 66
   257
176
     1
 43
1.0
176
     1
 76
     1
176
     1
 77
     6
176
     1
 78
     2
176
     1
 67
     7
176
     1
 79
     5
176
     1
170
     0
176
     1
171
     0
176
     1
290
     0
176
     1
 93
       13
176
     1
 44
0.0
176
     1
173
     0
176
     1
  0
VISUALSTYLE
  5
2D
102
{ACAD_REACTORS
330
2A
102
}
330
2A
100
AcDbVisualStyle
  2
Gouraud
 70
     2
177
     2
291
     1
 71
     2
176
     1
 72
     2
176
     1
 73
     1
176
     1
 90
        2
176
     1
 40
-0.6
176
     1
 41
30.0
176
     1
 62
     5
 63
     7
421
 16777215
176
     1
 74
     0
176
     1
 91
        4
176
     1
 64
     7
176
     1
 65
   257
176
     1
 75
     1
176
     1
175
     1
176
     1
 42
1.0
176
     1
 92
        0
176
     1
 66
     7
176
     1
 43
1.0
176
     1
 76
     1
176
     1
 77
     6
176
     1
 78
     2
176
     1
 67
     7
176
     1
 79
     5
176
     1
170
     0
176
     1
171
     0
176
     1
290
     0
176
     1
 93
       13
176
     1
 44
0.0
176
     1
173
     0
176
     1
  0
VISUALSTYLE
  5
2E
102
{ACAD_REACTORS
330
2A
102
}
330
2A
100
AcDbVisualStyle
  2
GouraudWithEdges
 70
     3
177
     2
291
     1
 71
     2
176
     1
 72
     2
176
     1
 73
     1
176
     1
 90
        2
176
     1
 40
-0.6
176
     1
 41
30.0
176
     1
 62
     5
 63
     7
421
 16777215
176
     1
 74
     1
176
     1
 91
        4
176
     1
 64
     7
176
     1
 65
   257
176
     1
 75
     1
176
     1
175
     1
176
     1
 42
1.0
176
     1
 92
        0
176
     1
 66
   257
176
     1
 43
1.0
176
     1
 76
     1
176
     1
 77
     6
176
     1
 78
     2
176
     1
 67
     7
176
     1
 79
     5
176
     1
170
     0
176
     1
171
     0
176
     1
290
     0
176
     1
 93
       13
176
     1
 44
0.0
176
     1
173
     0
176
     1
  0
VISUALSTYLE
  5
38
102
{ACAD_REACTORS
330
2A
102
}
330
2A
100
AcDbVisualStyle
  2
Linepattern
 70
    14
177
     2
291
     1
 71
     2
176
     1
 72
     2
176
     1
 73
     0
176
     1
 90
        0
176
     1
 40
-0.6
176
     1
 41
-30.0
176
     1
 62
     5
 63
     7
421
 16777215
176
     1
 74
     1
176
     1
 91
        4
176
     1
 64
     7
176
     1
 65
   257
176
     1
 75
     7
176
     1
175
     7
176
     1
 42
1.0
176
     1
 92
        8
176
     1
 66
     7
176
     1
 43
1.0
176
     1
 76
     1
176
     1
 77
     6
176
     1
 78
     2
176
     1
 67
     7
176
     1
 79
     5
176
     1
170
     0
176
     1
171
     0
176
     1
290
     0
176
     1
 93
        1
176
     1
 44
0.0
176
     1
173
     0
176
     1
  0
VISUALSTYLE
  5
33
102
{ACAD_REACTORS
330
2A
102
}
330
2A
100
AcDbVisualStyle
  2
Realistic
 70
     8
177
     2
291
     0
 71
     2
176
     1
 72
     2
176
     1
 73
     0
176
     1
 90
        0
176
     1
 40
-0.6
176
     1
 41
-30.0
176
     1
 62
     5
 63
     7
421
 16777215
176
     1
 74
     1
176
     1
 91
        0
176
     1
 64
     7
176
     1
 65
   257
176
     1
 75
     1
176
     1
175
     1
176
     1
 42
1.0
176
     1
 92
        8
176
     1
 66
     8
424
  7895160
176
     1
 43
1.0
176
     1
 76
     1
176
     1
 77
     6
176
     1
 78
     2
176
     1
 67
     7
176
     1
 79
     5
176
     1
170
     0
176
     1
171
     0
176
     1
290
     0
176
     1
 93
       13
176
     1
 44
0.0
176
     1
173
     0
176
     1
  0
VISUALSTYLE
  5
37
102
{ACAD_REACTORS
330
2A
102
}
330
2A
100
AcDbVisualStyle
  2
Thicken
 70
    13
177
     2
291
     1
 71
     2
176
     1
 72
     2
176
     1
 73
     0
176
     1
 90
        0
176
     1
 40
-0.6
176
     1
 41
-30.0
176
     1
 62
     5
 63
     7
421
 16777215
176
     1
 74
     1
176
     1
 91
        4
176
     1
 64
     7
176
     1
 65
   257
176
     1
 75
     1
176
     1
175
     1
176
     1
 42
1.0
176
     1
 92
       12
176
     1
 66
     7
176
     1
 43
1.0
176
     1
 76
     1
176
     1
 77
     6
176
     1
 78
     2
176
     1
 67
     7
176
     1
 79
     5
176
     1
170
     0
176
     1
171
     0
176
     1
290
     0
176
     1
 93
        1
176
     1
 44
0.0
176
     1
173
     0
176
     1
  0
ENDSEC
  0
EOF
