  0
SECTION
  2
HEADER
  9
$ACADVER
  1
AC1024
  9
$ACADMAINTVER
 70
     6
  9
$DWGCODEPAGE
  3
UNDEFINED
  9
$INSBASE
 10
0.0
 20
0.0
 30
0.0
  9
$EXTMIN
 10
1.000000000000000E+20
 20
1.000000000000000E+20
 30
1.000000000000000E+20
  9
$EXTMAX
 10
-1.000000000000000E+20
 20
-1.000000000000000E+20
 30
-1.000000000000000E+20
  9
$LIMMIN
 10
0.0
 20
0.0
  9
$LIMMAX
 10
12.0
 20
9.0
  9
$ORTHOMODE
 70
     0
  9
$REGENMODE
 70
     1
  9
$FILLMODE
 70
     1
  9
$QTEXTMODE
 70
     0
  9
$MIRRTEXT
 70
     1
  9
$LTSCALE
 40
1.0
  9
$ATTMODE
 70
     1
  9
$TEXTSIZE
 40
0.2
  9
$TRACEWID
 40
0.05
  9
$TEXTSTYLE
  7
Standard
  9
$CLAYER
  8
0
  9
$CELTYPE
  6
ByLayer
  9
$CECOLOR
 62
   256
  9
$CELTSCALE
 40
1.0
  9
$DISPSILH
 70
     0
  9
$DIMSCALE
 40
1.0
  9
$DIMASZ
 40
0.18
  9
$DIMEXO
 40
0.0625
  9
$DIMDLI
 40
0.38
  9
$DIMRND
 40
0.0
  9
$DIMDLE
 40
0.0
  9
$DIMEXE
 40
0.18
  9
$DIMTP
 40
0.0
  9
$DIMTM
 40
0.0
  9
$DIMTXT
 40
0.18
  9
$DIMCEN
 40
0.09
  9
$DIMTSZ
 40
0.0
  9
$DIMTOL
 70
     0
  9
$DIMLIM
 70
     0
  9
$DIMTIH
 70
     1
  9
$DIMTOH
 70
     1
  9
$DIMSE1
 70
     0
  9
$DIMSE2
 70
     0
  9
$DIMTAD
 70
     0
  9
$DIMZIN
 70
     0
  9
$DIMBLK
  1

  9
$DIMASO
 70
     1
  9
$DIMSHO
 70
     1
  9
$DIMPOST
  1

  9
$DIMAPOST
  1

  9
$DIMALT
 70
     0
  9
$DIMALTD
 70
     2
  9
$DIMALTF
 40
25.4
  9
$DIMLFAC
 40
1.0
  9
$DIMTOFL
 70
     0
  9
$DIMTVP
 40
0.0
  9
$DIMTIX
 70
     0
  9
$DIMSOXD
 70
     0
  9
$DIMSAH
 70
     0
  9
$DIMBLK1
  1

  9
$DIMBLK2
  1

  9
$DIMSTYLE
  2
Standard
  9
$DIMCLRD
 70
     0
  9
$DIMCLRE
 70
     0
  9
$DIMCLRT
 70
     0
  9
$DIMTFAC
 40
1.0
  9
$DIMGAP
 40
0.09
  9
$DIMJUST
 70
     0
  9
$DIMSD1
 70
     0
  9
$DIMSD2
 70
     0
  9
$DIMTOLJ
 70
     1
  9
$DIMTZIN
 70
     0
  9
$DIMALTZ
 70
     0
  9
$DIMALTTZ
 70
     0
  9
$DIMUPT
 70
     0
  9
$DIMDEC
 70
     4
  9
$DIMTDEC
 70
     4
  9
$DIMALTU
 70
     2
  9
$DIMALTTD
 70
     2
  9
$DIMTXSTY
  7
Standard
  9
$DIMAUNIT
 70
     0
  9
$DIMADEC
 70
     0
  9
$DIMALTRND
 40
0.0
  9
$DIMAZIN
 70
     0
  9
$DIMDSEP
 70
    46
  9
$DIMATFIT
 70
     3
  9
$DIMFRAC
 70
     0
  9
$DIMLDRBLK
  1

  9
$DIMLUNIT
 70
     2
  9
$DIMLWD
 70
    -2
  9
$DIMLWE
 70
    -2
  9
$DIMTMOVE
 70
     0
  9
$DIMFXL
 40
1.0
  9
$DIMFXLON
 70
     0
  9
$DIMJOGANG
 40
0.7853981633974483
  9
$DIMTFILL
 70
     0
  9
$DIMTFILLCLR
 70
     0
  9
$DIMARCSYM
 70
     0
  9
$DIMLTYPE
  6

  9
$DIMLTEX1
  6

  9
$DIMLTEX2
  6

  9
$DIMTXTDIRECTION
 70
     0
  9
$LUNITS
 70
     2
  9
$LUPREC
 70
     4
  9
$SKETCHINC
 40
0.1
  9
$FILLETRAD
 40
0.5
  9
$AUNITS
 70
     0
  9
$AUPREC
 70
     0
  9
$MENU
  1
.
  9
$ELEVATION
 40
0.0
  9
$PELEVATION
 40
0.0
  9
$THICKNESS
 40
0.0
  9
$LIMCHECK
 70
     0
  9
$CHAMFERA
 40
0.5
  9
$CHAMFERB
 40
0.5
  9
$CHAMFERC
 40
1.0
  9
$CHAMFERD
 40
0.0
  9
$SKPOLY
 70
     0
  9
$TDCREATE
 40
2457917.616018507
  9
$TDUCREATE
 40
2457917.241018518
  9
$TDUPDATE
 40
2457917.616018507
  9
$TDUUPDATE
 40
2457917.241018518
  9
$TDINDWG
 40
0.0000000116
  9
$TDUSRTIMER
 40
0.0000000116
  9
$USRTIMER
 70
     1
  9
$ANGBASE
 50
0.0
  9
$ANGDIR
 70
     0
  9
$PDMODE
 70
     0
  9
$PDSIZE
 40
0.0
  9
$PLINEWID
 40
0.0
  9
$SPLFRAME
 70
     0
  9
$SPLINETYPE
 70
     6
  9
$SPLINESEGS
 70
     8
  9
$HANDSEED
  5
E2
  9
$SURFTAB1
 70
     6
  9
$SURFTAB2
 70
     6
  9
$SURFTYPE
 70
     6
  9
$SURFU
 70
     6
  9
$SURFV
 70
     6
  9
$UCSBASE
  2

  9
$UCSNAME
  2

  9
$UCSORG
 10
0.0
 20
0.0
 30
0.0
  9
$UCSXDIR
 10
1.0
 20
0.0
 30
0.0
  9
$UCSYDIR
 10
0.0
 20
1.0
 30
0.0
  9
$UCSORTHOREF
  2

  9
$UCSORTHOVIEW
 70
     0
  9
$UCSORGTOP
 10
0.0
 20
0.0
 30
0.0
  9
$UCSORGBOTTOM
 10
0.0
 20
0.0
 30
0.0
  9
$UCSORGLEFT
 10
0.0
 20
0.0
 30
0.0
  9
$UCSORGRIGHT
 10
0.0
 20
0.0
 30
0.0
  9
$UCSORGFRONT
 10
0.0
 20
0.0
 30
0.0
  9
$UCSORGBACK
 10
0.0
 20
0.0
 30
0.0
  9
$PUCSBASE
  2

  9
$PUCSNAME
  2

  9
$PUCSORG
 10
0.0
 20
0.0
 30
0.0
  9
$PUCSXDIR
 10
1.0
 20
0.0
 30
0.0
  9
$PUCSYDIR
 10
0.0
 20
1.0
 30
0.0
  9
$PUCSORTHOREF
  2

  9
$PUCSORTHOVIEW
 70
     0
  9
$PUCSORGTOP
 10
0.0
 20
0.0
 30
0.0
  9
$PUCSORGBOTTOM
 10
0.0
 20
0.0
 30
0.0
  9
$PUCSORGLEFT
 10
0.0
 20
0.0
 30
0.0
  9
$PUCSORGRIGHT
 10
0.0
 20
0.0
 30
0.0
  9
$PUCSORGFRONT
 10
0.0
 20
0.0
 30
0.0
  9
$PUCSORGBACK
 10
0.0
 20
0.0
 30
0.0
  9
$USERI1
 70
     0
  9
$USERI2
 70
     0
  9
$USERI3
 70
     0
  9
$USERI4
 70
     0
  9
$USERI5
 70
     0
  9
$USERR1
 40
0.0
  9
$USERR2
 40
0.0
  9
$USERR3
 40
0.0
  9
$USERR4
 40
0.0
  9
$USERR5
 40
0.0
  9
$WORLDVIEW
 70
     1
  9
$SHADEDGE
 70
     3
  9
$SHADEDIF
 70
    70
  9
$TILEMODE
 70
     1
  9
$MAXACTVP
 70
    64
  9
$PINSBASE
 10
0.0
 20
0.0
 30
0.0
  9
$PLIMCHECK
 70
     0
  9
$PEXTMIN
 10
1.000000000000000E+20
 20
1.000000000000000E+20
 30
1.000000000000000E+20
  9
$PEXTMAX
 10
-1.000000000000000E+20
 20
-1.000000000000000E+20
 30
-1.000000000000000E+20
  9
$PLIMMIN
 10
0.0
 20
0.0
  9
$PLIMMAX
 10
12.0
 20
9.0
  9
$UNITMODE
 70
     0
  9
$VISRETAIN
 70
     1
  9
$PLINEGEN
 70
     0
  9
$PSLTSCALE
 70
     1
  9
$TREEDEPTH
 70
  3020
  9
$CMLSTYLE
  2
Standard
  9
$CMLJUST
 70
     0
  9
$CMLSCALE
 40
1.0
  9
$PROXYGRAPHICS
 70
     1
  9
$MEASUREMENT
 70
     0
  9
$CELWEIGHT
370
    -1
  9
$ENDCAPS
280
     0
  9
$JOINSTYLE
280
     0
  9
$LWDISPLAY
290
     1
  9
$INSUNITS
 70
     1
  9
$HYPERLINKBASE
  1

  9
$STYLESHEET
  1

  9
$XEDIT
290
     1
  9
$CEPSNTYPE
380
     0
  9
$PSTYLEMODE
290
     1
  9
$FINGERPRINTGUID
  2
{2B947137-0B7D-7181-0086-D637B7890CE1}
  9
$VERSIONGUID
  2
{FAEB1C32-E019-11D5-929B-00C0DF256EC4}
  9
$EXTNAMES
290
     1
  9
$PSVPSCALE
 40
0.0
  9
$OLESTARTUP
290
     0
  9
$SORTENTS
280
   127
  9
$INDEXCTL
280
     0
  9
$HIDETEXT
280
     1
  9
$XCLIPFRAME
280
     2
  9
$HALOGAP
280
     0
  9
$OBSCOLOR
 70
   257
  9
$OBSLTYPE
280
     0
  9
$INTERSECTIONDISPLAY
280
     0
  9
$INTERSECTIONCOLOR
 70
   257
  9
$DIMASSOC
280
     2
  9
$PROJECTNAME
  1

  9
$CAMERADISPLAY
290
     0
  9
$LENSLENGTH
 40
50.0
  9
$CAMERAHEIGHT
 40
0.0
  9
$STEPSPERSEC
 40
2.0
  9
$STEPSIZE
 40
6.0
  9
$3DDWFPREC
 40
2.0
  9
$PSOLWIDTH
 40
0.25
  9
$PSOLHEIGHT
 40
4.0
  9
$LOFTANG1
 40
1.570796326794897
  9
$LOFTANG2
 40
1.570796326794897
  9
$LOFTMAG1
 40
0.0
  9
$LOFTMAG2
 40
0.0
  9
$LOFTPARAM
 70
     7
  9
$LOFTNORMALS
280
     1
  9
$LATITUDE
 40
37.795
  9
$LONGITUDE
 40
-122.394
  9
$NORTHDIRECTION
 40
0.0
  9
$TIMEZONE
 70
 -8000
  9
$LIGHTGLYPHDISPLAY
280
     1
  9
$TILEMODELIGHTSYNCH
280
     1
  9
$CMATERIAL
347
3C
  9
$SOLIDHIST
280
     1
  9
$SHOWHIST
280
     1
  9
$DWFFRAME
280
     2
  9
$DGNFRAME
280
     2
  9
$REALWORLDSCALE
290
     1
  9
$INTERFERECOLOR
 62
   256
  9
$CSHADOW
280
     0
  9
$SHADOWPLANELOCATION
 40
0.0
  0
ENDSEC
  0
SECTION
  2
CLASSES
  0
CLASS
  1
ACDBDICTIONARYWDFLT
  2
AcDbDictionaryWithDefault
  3
ObjectDBX Classes
 90
        0
 91
        4
280
     0
281
     0
  0
CLASS
  1
VISUALSTYLE
  2
AcDbVisualStyle
  3
ObjectDBX Classes
 90
     4095
 91
        4
280
     0
281
     0
  0
CLASS
  1
MATERIAL
  2
AcDbMaterial
  3
ObjectDBX Classes
 90
     1153
 91
        4
280
     0
281
     0
  0
CLASS
  1
SUN
  2
AcDbSun
  3
SCENEOE
 90
     1024
 91
        4
280
     0
281
     0
  0
ENDSEC
  0
SECTION
  2
TABLES
  0
TABLE
  2
VPORT
  5
8
330
0
100
AcDbSymbolTable
 70
     1
  0
VPORT
  5
29
330
8
100
AcDbSymbolTableRecord
100
AcDbViewportTableRecord
  2
*Active
 70
     0
 10
0.0
 20
0.0
 11
1.0
 21
1.0
 12
0.0
 22
0.0
 13
0.0
 23
0.0
 14
0.5
 24
0.5
 15
0.5
 25
0.5
 16
0.0
 26
0.0
 36
1.0
 17
91.00082462281999
 27
-128.4993055234307
 37
0.0
 40
256.9986110468615
 41
0.7081814508812795
 42
50.0
 43
0.0
 44
0.0
 50
0.0
 51
0.0
 71
     0
 72
   100
 73
     1
 74
     3
 75
     0
 76
     0
 77
     0
 78
     0
281
     0
 65
     1
110
0.0
120
0.0
130
0.0
111
1.0
121
0.0
131
0.0
112
0.0
122
1.0
132
0.0
 79
     0
146
0.0
 60
     3
 61
     5
292
     1
282
     1
141
0.0
142
0.0
 63
   250
361
3F
  0
ENDTAB
  0
TABLE
  2
LTYPE
  5
5
330
0
100
AcDbSymbolTable
 70
     1
  0
LTYPE
  5
14
330
5
100
AcDbSymbolTableRecord
100
AcDbLinetypeTableRecord
  2
ByBlock
 70
     0
  3

 72
    65
 73
     0
 40
0.0
  0
LTYPE
  5
15
330
5
100
AcDbSymbolTableRecord
100
AcDbLinetypeTableRecord
  2
ByLayer
 70
     0
  3

 72
    65
 73
     0
 40
0.0
  0
LTYPE
  5
16
330
5
100
AcDbSymbolTableRecord
100
AcDbLinetypeTableRecord
  2
Continuous
 70
     0
  3
Solid line
 72
    65
 73
     0
 40
0.0
  0
ENDTAB
  0
TABLE
  2
LAYER
  5
2
330
0
100
AcDbSymbolTable
 70
     2
  0
LAYER
  5
10
330
2
100
AcDbSymbolTableRecord
100
AcDbLayerTableRecord
  2
0
 70
     0
 62
     7
  6
Continuous
370
    -3
390
F
347
3E
  0
LAYER
  5
40
330
2
100
AcDbSymbolTableRecord
100
AcDbLayerTableRecord
  2
_U+30EC_U+30A4_U+30E4_U+30FC 1
 70
     0
 62
     7
  6
Continuous
370
    -3
390
F
347
3E
  0
ENDTAB
  0
TABLE
  2
STYLE
  5
3
330
0
100
AcDbSymbolTable
 70
     1
  0
STYLE
  5
11
330
3
100
AcDbSymbolTableRecord
100
AcDbTextStyleTableRecord
  2
Standard
 70
     0
 40
0.0
 41
1.0
 50
0.0
 71
     0
 42
0.2
  3
txt
  4

  0
ENDTAB
  0
TABLE
  2
VIEW
  5
6
330
0
100
AcDbSymbolTable
 70
     0
  0
ENDTAB
  0
TABLE
  2
UCS
  5
7
330
0
100
AcDbSymbolTable
 70
     0
  0
ENDTAB
  0
TABLE
  2
APPID
  5
9
330
0
100
AcDbSymbolTable
 70
     1
  0
APPID
  5
12
330
9
100
AcDbSymbolTableRecord
100
AcDbRegAppTableRecord
  2
ACAD
 70
     0
  0
ENDTAB
  0
TABLE
  2
DIMSTYLE
  5
A
330
0
100
AcDbSymbolTable
 70
     1
100
AcDbDimStyleTable
  0
DIMSTYLE
105
27
330
A
100
AcDbSymbolTableRecord
100
AcDbDimStyleTableRecord
  2
Standard
 70
     0
178
     0
340
11
  0
ENDTAB
  0
TABLE
  2
BLOCK_RECORD
  5
1
330
0
100
AcDbSymbolTable
 70
     7
  0
BLOCK_RECORD
  5
1F
330
1
100
AcDbSymbolTableRecord
100
AcDbBlockTableRecord
  2
*Model_Space
340
22
 70
     0
280
     1
281
     0
  0
BLOCK_RECORD
  5
1B
330
1
100
AcDbSymbolTableRecord
100
AcDbBlockTableRecord
  2
*Paper_Space
340
1E
 70
     0
280
     1
281
     0
  0
BLOCK_RECORD
  5
23
330
1
100
AcDbSymbolTableRecord
100
AcDbBlockTableRecord
  2
*Paper_Space0
340
26
 70
     0
280
     1
281
     0
  0
BLOCK_RECORD
  5
41
330
1
100
AcDbSymbolTableRecord
100
AcDbBlockTableRecord
  2
block 2
340
0
102
{BLKREFS
331
42
102
}
 70
     0
280
     1
281
     0
  0
BLOCK_RECORD
  5
93
330
1
100
AcDbSymbolTableRecord
100
AcDbBlockTableRecord
  2
block 3
340
0
102
{BLKREFS
331
94
102
}
 70
     0
280
     1
281
     0
  0
BLOCK_RECORD
  5
A1
330
1
100
AcDbSymbolTableRecord
100
AcDbBlockTableRecord
  2
block 4
340
0
102
{BLKREFS
331
A2
102
}
 70
     0
280
     1
281
     0
  0
BLOCK_RECORD
  5
B3
330
1
100
AcDbSymbolTableRecord
100
AcDbBlockTableRecord
  2
block 5
340
0
102
{BLKREFS
331
B4
102
}
 70
     0
280
     1
281
     0
  0
BLOCK_RECORD
  5
C8
330
1
100
AcDbSymbolTableRecord
100
AcDbBlockTableRecord
  2
block 6
340
0
102
{BLKREFS
331
C9
102
}
 70
     0
280
     1
281
     0
  0
BLOCK_RECORD
  5
D8
330
1
100
AcDbSymbolTableRecord
100
AcDbBlockTableRecord
  2
block 7
340
0
102
{BLKREFS
331
D9
102
}
 70
     0
280
     1
281
     0
  0
ENDTAB
  0
ENDSEC
  0
SECTION
  2
BLOCKS
  0
BLOCK
  5
20
330
1F
100
AcDbEntity
  8
0
100
AcDbBlockBegin
  2
*Model_Space
 70
     0
 10
0.0
 20
0.0
 30
0.0
  3
*Model_Space
  1

  0
ENDBLK
  5
21
330
1F
100
AcDbEntity
  8
0
100
AcDbBlockEnd
  0
BLOCK
  5
1C
330
1B
100
AcDbEntity
 67
     1
  8
0
100
AcDbBlockBegin
  2
*Paper_Space
 70
     0
 10
0.0
 20
0.0
 30
0.0
  3
*Paper_Space
  1

  0
ENDBLK
  5
1D
330
1B
100
AcDbEntity
 67
     1
  8
0
100
AcDbBlockEnd
  0
BLOCK
  5
24
330
23
100
AcDbEntity
  8
0
100
AcDbBlockBegin
  2
*Paper_Space0
 70
     0
 10
0.0
 20
0.0
 30
0.0
  3
*Paper_Space0
  1

  0
ENDBLK
  5
25
330
23
100
AcDbEntity
  8
0
100
AcDbBlockEnd
  0
BLOCK
  5
43
330
41
100
AcDbEntity
  8
0
100
AcDbBlockBegin
  2
block 2
 70
     0
 10
0.0
 20
0.0
 30
0.0
  3
block 2
  1

  0
POLYLINE
  5
45
330
41
100
AcDbEntity
  8
_U+30EC_U+30A4_U+30E4_U+30FC 1
370
     0
100
AcDb2dPolyline
 66
     1
 10
0.0
 20
0.0
 30
0.0
  0
VERTEX
  5
46
330
45
100
AcDbEntity
  8
_U+30EC_U+30A4_U+30E4_U+30FC 1
370
     0
100
AcDbVertex
100
AcDb2dVertex
 10
73.24548609279974
 20
-116.1384660820765
 30
0.0
  0
VERTEX
  5
47
330
45
100
AcDbEntity
  8
_U+30EC_U+30A4_U+30E4_U+30FC 1
370
     0
100
AcDbVertex
100
AcDb2dVertex
 10
73.24548609279974
 20
-142.3065691310899
 30
0.0
  0
VERTEX
  5
48
330
45
100
AcDbEntity
  8
_U+30EC_U+30A4_U+30E4_U+30FC 1
370
     0
100
AcDbVertex
100
AcDb2dVertex
 10
83.40781231653388
 20
-142.3065691310899
 30
0.0
  0
VERTEX
  5
49
330
45
100
AcDbEntity
  8
_U+30EC_U+30A4_U+30E4_U+30FC 1
370
     0
100
AcDbVertex
100
AcDb2dVertex
 10
83.40781231653388
 20
-139.3554771873834
 30
0.0
  0
VERTEX
  5
4A
330
45
100
AcDbEntity
  8
_U+30EC_U+30A4_U+30E4_U+30FC 1
370
     0
100
AcDbVertex
100
AcDb2dVertex
 10
82.2902476228231
 20
-139.3554771873834
 30
0.0
  0
VERTEX
  5
4B
330
45
100
AcDbEntity
  8
_U+30EC_U+30A4_U+30E4_U+30FC 1
370
     0
100
AcDbVertex
100
AcDb2dVertex
 10
82.2902476228231
 20
-141.2957549646761
 30
0.0
  0
VERTEX
  5
4C
330
45
100
AcDbEntity
  8
_U+30EC_U+30A4_U+30E4_U+30FC 1
370
     0
100
AcDbVertex
100
AcDb2dVertex
 10
74.2941867157085
 20
-141.2957549646761
 30
0.0
  0
VERTEX
  5
4D
330
45
100
AcDbEntity
  8
_U+30EC_U+30A4_U+30E4_U+30FC 1
370
     0
100
AcDbVertex
100
AcDb2dVertex
 10
74.2941867157085
 20
-117.1279019151624
 30
0.0
  0
VERTEX
  5
4E
330
45
100
AcDbEntity
  8
_U+30EC_U+30A4_U+30E4_U+30FC 1
370
     0
100
AcDbVertex
100
AcDb2dVertex
 10
98.34163610220696
 20
-117.1279019151624
 30
0.0
  0
VERTEX
  5
4F
330
45
100
AcDbEntity
  8
_U+30EC_U+30A4_U+30E4_U+30FC 1
370
     0
100
AcDbVertex
100
AcDb2dVertex
 10
98.34163610220696
 20
-116.1866908042867
 30
0.0
  0
VERTEX
  5
50
330
45
100
AcDbEntity
  8
_U+30EC_U+30A4_U+30E4_U+30FC 1
370
     0
100
AcDbVertex
100
AcDb2dVertex
 10
73.24548609279974
 20
-116.1384660820765
 30
0.0
  0
SEQEND
  5
52
330
45
100
AcDbEntity
  8
_U+30EC_U+30A4_U+30E4_U+30FC 1
370
     0
  0
HATCH
  5
51
330
41
100
AcDbEntity
  8
_U+30EC_U+30A4_U+30E4_U+30FC 1
 62
   253
420
 11711154
100
AcDbHatch
 10
0.0
 20
0.0
 30
0.0
210
0.0
220
0.0
230
1.0
  2
SOLID
 70
     1
 71
     0
 91
        1
 92
        1
 93
       10
 72
     1
 10
73.24548609279974
 20
-116.1384660820765
 11
73.24548609279974
 21
-142.3065691310899
 72
     1
 10
73.24548609279974
 20
-142.3065691310899
 11
83.40781231653388
 21
-142.3065691310899
 72
     1
 10
83.40781231653388
 20
-142.3065691310899
 11
83.40781231653388
 21
-139.3554771873834
 72
     1
 10
83.40781231653388
 20
-139.3554771873834
 11
82.2902476228231
 21
-139.3554771873834
 72
     1
 10
82.2902476228231
 20
-139.3554771873834
 11
82.2902476228231
 21
-141.2957549646761
 72
     1
 10
82.2902476228231
 20
-141.2957549646761
 11
74.2941867157085
 21
-141.2957549646761
 72
     1
 10
74.2941867157085
 20
-141.2957549646761
 11
74.2941867157085
 21
-117.1279019151624
 72
     1
 10
74.2941867157085
 20
-117.1279019151624
 11
98.34163610220696
 21
-117.1279019151624
 72
     1
 10
98.34163610220696
 20
-117.1279019151624
 11
98.34163610220696
 21
-116.1866908042867
 72
     1
 10
98.34163610220696
 20
-116.1866908042867
 11
73.24548609279974
 21
-116.1384660820765
 97
        0
 75
     2
 76
     1
 98
        0
  0
POLYLINE
  5
53
330
41
100
AcDbEntity
  8
_U+30EC_U+30A4_U+30E4_U+30FC 1
 62
     7
420
 16777215
370
    25
100
AcDb2dPolyline
 66
     1
 10
0.0
 20
0.0
 30
0.0
  0
VERTEX
  5
54
330
53
100
AcDbEntity
  8
_U+30EC_U+30A4_U+30E4_U+30FC 1
 62
     7
420
 16777215
370
    25
100
AcDbVertex
100
AcDb2dVertex
 10
73.30266951878198
 20
-116.1536355265171
 30
0.0
  0
VERTEX
  5
55
330
53
100
AcDbEntity
  8
_U+30EC_U+30A4_U+30E4_U+30FC 1
 62
     7
420
 16777215
370
    25
100
AcDbVertex
100
AcDb2dVertex
 10
98.3026894365339
 20
-116.1536355265171
 30
0.0
  0
SEQEND
  5
56
330
53
100
AcDbEntity
  8
_U+30EC_U+30A4_U+30E4_U+30FC 1
 62
     7
420
 16777215
370
    25
  0
POLYLINE
  5
57
330
41
100
AcDbEntity
  8
_U+30EC_U+30A4_U+30E4_U+30FC 1
 62
     7
420
 16777215
370
    25
100
AcDb2dPolyline
 66
     1
 10
0.0
 20
0.0
 30
0.0
  0
VERTEX
  5
58
330
57
100
AcDbEntity
  8
_U+30EC_U+30A4_U+30E4_U+30FC 1
 62
     7
420
 16777215
370
    25
100
AcDbVertex
100
AcDb2dVertex
 10
73.30266951878198
 20
-116.1536355265171
 30
0.0
  0
VERTEX
  5
59
330
57
100
AcDbEntity
  8
_U+30EC_U+30A4_U+30E4_U+30FC 1
 62
     7
420
 16777215
370
    25
100
AcDbVertex
100
AcDb2dVertex
 10
73.30266951878198
 20
-142.4168121866178
 30
0.0
  0
SEQEND
  5
5A
330
57
100
AcDbEntity
  8
_U+30EC_U+30A4_U+30E4_U+30FC 1
 62
     7
420
 16777215
370
    25
  0
POLYLINE
  5
5B
330
41
100
AcDbEntity
  8
_U+30EC_U+30A4_U+30E4_U+30FC 1
 62
     7
420
 16777215
370
    25
100
AcDb2dPolyline
 66
     1
 10
0.0
 20
0.0
 30
0.0
  0
VERTEX
  5
5C
330
5B
100
AcDbEntity
  8
_U+30EC_U+30A4_U+30E4_U+30FC 1
 62
     7
420
 16777215
370
    25
100
AcDbVertex
100
AcDb2dVertex
 10
98.3026894365339
 20
-116.1536355265171
 30
0.0
  0
VERTEX
  5
5D
330
5B
100
AcDbEntity
  8
_U+30EC_U+30A4_U+30E4_U+30FC 1
 62
     7
420
 16777215
370
    25
100
AcDbVertex
100
AcDb2dVertex
 10
98.3026894365339
 20
-117.1534077484893
 30
0.0
  0
SEQEND
  5
5E
330
5B
100
AcDbEntity
  8
_U+30EC_U+30A4_U+30E4_U+30FC 1
 62
     7
420
 16777215
370
    25
  0
POLYLINE
  5
5F
330
41
100
AcDbEntity
  8
_U+30EC_U+30A4_U+30E4_U+30FC 1
 62
     7
420
 16777215
370
    25
100
AcDb2dPolyline
 66
     1
 10
0.0
 20
0.0
 30
0.0
  0
VERTEX
  5
60
330
5F
100
AcDbEntity
  8
_U+30EC_U+30A4_U+30E4_U+30FC 1
 62
     7
420
 16777215
370
    25
100
AcDbVertex
100
AcDb2dVertex
 10
74.30244171549789
 20
-117.1534077484893
 30
0.0
  0
VERTEX
  5
61
330
5F
100
AcDbEntity
  8
_U+30EC_U+30A4_U+30E4_U+30FC 1
 62
     7
420
 16777215
370
    25
100
AcDbVertex
100
AcDb2dVertex
 10
98.3026894365339
 20
-117.1534077484893
 30
0.0
  0
SEQEND
  5
62
330
5F
100
AcDbEntity
  8
_U+30EC_U+30A4_U+30E4_U+30FC 1
 62
     7
420
 16777215
370
    25
  0
POLYLINE
  5
63
330
41
100
AcDbEntity
  8
_U+30EC_U+30A4_U+30E4_U+30FC 1
 62
     7
420
 16777215
370
    25
100
AcDb2dPolyline
 66
     1
 10
0.0
 20
0.0
 30
0.0
  0
VERTEX
  5
64
330
63
100
AcDbEntity
  8
_U+30EC_U+30A4_U+30E4_U+30FC 1
 62
     7
420
 16777215
370
    25
100
AcDbVertex
100
AcDb2dVertex
 10
83.3024023192231
 20
-139.3286307985011
 30
0.0
  0
VERTEX
  5
65
330
63
100
AcDbEntity
  8
_U+30EC_U+30A4_U+30E4_U+30FC 1
 62
     7
420
 16777215
370
    25
100
AcDbVertex
100
AcDb2dVertex
 10
83.3024023192231
 20
-142.3286177421955
 30
0.0
  0
SEQEND
  5
66
330
63
100
AcDbEntity
  8
_U+30EC_U+30A4_U+30E4_U+30FC 1
 62
     7
420
 16777215
370
    25
  0
POLYLINE
  5
67
330
41
100
AcDbEntity
  8
_U+30EC_U+30A4_U+30E4_U+30FC 1
 62
     7
420
 16777215
370
    25
100
AcDb2dPolyline
 66
     1
 10
0.0
 20
0.0
 30
0.0
  0
VERTEX
  5
68
330
67
100
AcDbEntity
  8
_U+30EC_U+30A4_U+30E4_U+30FC 1
 62
     7
420
 16777215
370
    25
100
AcDbVertex
100
AcDb2dVertex
 10
82.3026301225072
 20
-139.3286307985011
 30
0.0
  0
VERTEX
  5
69
330
67
100
AcDbEntity
  8
_U+30EC_U+30A4_U+30E4_U+30FC 1
 62
     7
420
 16777215
370
    25
100
AcDbVertex
100
AcDb2dVertex
 10
82.3026301225072
 20
-141.328139964668
 30
0.0
  0
SEQEND
  5
6A
330
67
100
AcDbEntity
  8
_U+30EC_U+30A4_U+30E4_U+30FC 1
 62
     7
420
 16777215
370
    25
  0
POLYLINE
  5
6B
330
41
100
AcDbEntity
  8
_U+30EC_U+30A4_U+30E4_U+30FC 1
 62
     7
420
 16777215
370
    25
100
AcDb2dPolyline
 66
     1
 10
0.0
 20
0.0
 30
0.0
  0
VERTEX
  5
6C
330
6B
100
AcDbEntity
  8
_U+30EC_U+30A4_U+30E4_U+30FC 1
 62
     7
420
 16777215
370
    25
100
AcDbVertex
100
AcDb2dVertex
 10
74.30244171549789
 20
-117.1534077484893
 30
0.0
  0
VERTEX
  5
6D
330
6B
100
AcDbEntity
  8
_U+30EC_U+30A4_U+30E4_U+30FC 1
 62
     7
420
 16777215
370
    25
100
AcDbVertex
100
AcDb2dVertex
 10
74.30244171549789
 20
-141.328139964668
 30
0.0
  0
SEQEND
  5
6E
330
6B
100
AcDbEntity
  8
_U+30EC_U+30A4_U+30E4_U+30FC 1
 62
     7
420
 16777215
370
    25
  0
POLYLINE
  5
6F
330
41
100
AcDbEntity
  8
_U+30EC_U+30A4_U+30E4_U+30FC 1
 62
     7
420
 16777215
370
    25
100
AcDb2dPolyline
 66
     1
 10
0.0
 20
0.0
 30
0.0
  0
VERTEX
  5
70
330
6F
100
AcDbEntity
  8
_U+30EC_U+30A4_U+30E4_U+30FC 1
 62
     7
420
 16777215
370
    25
100
AcDbVertex
100
AcDb2dVertex
 10
82.3026301225072
 20
-139.3286307985011
 30
0.0
  0
VERTEX
  5
71
330
6F
100
AcDbEntity
  8
_U+30EC_U+30A4_U+30E4_U+30FC 1
 62
     7
420
 16777215
370
    25
100
AcDbVertex
100
AcDb2dVertex
 10
83.3024023192231
 20
-139.3286307985011
 30
0.0
  0
SEQEND
  5
72
330
6F
100
AcDbEntity
  8
_U+30EC_U+30A4_U+30E4_U+30FC 1
 62
     7
420
 16777215
370
    25
  0
POLYLINE
  5
73
330
41
100
AcDbEntity
  8
_U+30EC_U+30A4_U+30E4_U+30FC 1
 62
     7
420
 16777215
370
    25
100
AcDb2dPolyline
 66
     1
 10
0.0
 20
0.0
 30
0.0
  0
VERTEX
  5
74
330
73
100
AcDbEntity
  8
_U+30EC_U+30A4_U+30E4_U+30FC 1
 62
     7
420
 16777215
370
    25
100
AcDbVertex
100
AcDb2dVertex
 10
73.30266951878198
 20
-142.4168121866178
 30
0.0
  0
VERTEX
  5
75
330
73
100
AcDbEntity
  8
_U+30EC_U+30A4_U+30E4_U+30FC 1
 62
     7
420
 16777215
370
    25
100
AcDbVertex
100
AcDb2dVertex
 10
83.3024023192231
 20
-142.4168121866178
 30
0.0
  0
SEQEND
  5
76
330
73
100
AcDbEntity
  8
_U+30EC_U+30A4_U+30E4_U+30FC 1
 62
     7
420
 16777215
370
    25
  0
POLYLINE
  5
77
330
41
100
AcDbEntity
  8
_U+30EC_U+30A4_U+30E4_U+30FC 1
 62
     7
420
 16777215
370
    25
100
AcDb2dPolyline
 66
     1
 10
0.0
 20
0.0
 30
0.0
  0
VERTEX
  5
78
330
77
100
AcDbEntity
  8
_U+30EC_U+30A4_U+30E4_U+30FC 1
 62
     7
420
 16777215
370
    25
100
AcDbVertex
100
AcDb2dVertex
 10
74.30244171549789
 20
-141.328139964668
 30
0.0
  0
VERTEX
  5
79
330
77
100
AcDbEntity
  8
_U+30EC_U+30A4_U+30E4_U+30FC 1
 62
     7
420
 16777215
370
    25
100
AcDbVertex
100
AcDb2dVertex
 10
82.3026301225072
 20
-141.328139964668
 30
0.0
  0
SEQEND
  5
7A
330
77
100
AcDbEntity
  8
_U+30EC_U+30A4_U+30E4_U+30FC 1
 62
     7
420
 16777215
370
    25
  0
SPLINE
  5
7B
330
41
100
AcDbEntity
  8
_U+30EC_U+30A4_U+30E4_U+30FC 1
 62
     7
420
 16777215
370
     9
100
AcDbSpline
210
0.0
220
0.0
230
1.0
 70
    11
 71
     3
 72
    17
 73
    13
 74
     0
 42
0.0000000001
 43
0.0000000001
 12
1.0
 22
0.0
 32
0.0
 13
1.0
 23
0.0
 33
0.0
 40
0.0
 40
0.0
 40
0.0
 40
0.0
 40
1.0
 40
1.0
 40
1.0
 40
2.0
 40
2.0
 40
2.0
 40
3.0
 40
3.0
 40
3.0
 40
4.0
 40
4.0
 40
4.0
 40
4.0
 10
73.40257618289982
 20
-112.1538763608505
 30
0.0
 10
73.40257618289982
 20
-112.0987724719753
 30
0.0
 10
73.35780868404194
 20
-112.0539696942089
 30
0.0
 10
73.30266951878198
 20
-112.0539696942089
 30
0.0
 10
73.24756563129891
 20
-112.0539696942089
 30
0.0
 10
73.20276285466416
 20
-112.0987724719753
 30
0.0
 10
73.20276285466416
 20
-112.1538763608505
 30
0.0
 10
73.20276285466416
 20
-112.2090155275033
 30
0.0
 10
73.24756563129891
 20
-112.2537830274922
 30
0.0
 10
73.30266951878198
 20
-112.2537830274922
 30
0.0
 10
73.35780868404194
 20
-112.2537830274922
 30
0.0
 10
73.40257618289982
 20
-112.2090155275033
 30
0.0
 10
73.40257618289982
 20
-112.1538763608505
 30
0.0
  0
SPLINE
  5
7C
330
41
100
AcDbEntity
  8
_U+30EC_U+30A4_U+30E4_U+30FC 1
 62
     7
420
 16777215
370
     9
100
AcDbSpline
210
0.0
220
0.0
230
1.0
 70
    11
 71
     3
 72
    17
 73
    13
 74
     0
 42
0.0000000001
 43
0.0000000001
 12
1.0
 22
0.0
 32
0.0
 13
1.0
 23
0.0
 33
0.0
 40
0.0
 40
0.0
 40
0.0
 40
0.0
 40
1.0
 40
1.0
 40
1.0
 40
2.0
 40
2.0
 40
2.0
 40
3.0
 40
3.0
 40
3.0
 40
4.0
 40
4.0
 40
4.0
 40
4.0
 10
98.40259610065173
 20
-112.1538763608505
 30
0.0
 10
98.40259610065173
 20
-112.0987724719753
 30
0.0
 10
98.35782860179386
 20
-112.0539696942089
 30
0.0
 10
98.3026894365339
 20
-112.0539696942089
 30
0.0
 10
98.24723277128206
 20
-112.0539696942089
 30
0.0
 10
98.20242999464729
 20
-112.0987724719753
 30
0.0
 10
98.20242999464729
 20
-112.1538763608505
 30
0.0
 10
98.20242999464729
 20
-112.2090155275033
 30
0.0
 10
98.24723277128206
 20
-112.2537830274922
 30
0.0
 10
98.3026894365339
 20
-112.2537830274922
 30
0.0
 10
98.35782860179386
 20
-112.2537830274922
 30
0.0
 10
98.40259610065173
 20
-112.2090155275033
 30
0.0
 10
98.40259610065173
 20
-112.1538763608505
 30
0.0
  0
SPLINE
  5
7D
330
41
100
AcDbEntity
  8
_U+30EC_U+30A4_U+30E4_U+30FC 1
 62
     7
420
 16777215
370
     9
100
AcDbSpline
210
0.0
220
0.0
230
1.0
 70
    11
 71
     3
 72
    17
 73
    13
 74
     0
 42
0.0000000001
 43
0.0000000001
 12
1.0
 22
0.0
 32
0.0
 13
1.0
 23
0.0
 33
0.0
 40
0.0
 40
0.0
 40
0.0
 40
0.0
 40
1.0
 40
1.0
 40
1.0
 40
2.0
 40
2.0
 40
2.0
 40
3.0
 40
3.0
 40
3.0
 40
4.0
 40
4.0
 40
4.0
 40
4.0
 10
102.4027079430448
 20
-116.1536355265171
 30
0.0
 10
102.4027079430448
 20
-116.0984963598643
 30
0.0
 10
102.3579051664101
 20
-116.0537288598754
 30
0.0
 10
102.3024485011582
 20
-116.0537288598754
 30
0.0
 10
102.2473471966601
 20
-116.0537288598754
 30
0.0
 10
102.202544418894
 20
-116.0984963598643
 30
0.0
 10
102.202544418894
 20
-116.1536355265171
 30
0.0
 10
102.202544418894
 20
-116.2087394153923
 30
0.0
 10
102.2473471966601
 20
-116.2535421931587
 30
0.0
 10
102.3024485011582
 20
-116.2535421931587
 30
0.0
 10
102.3579051664101
 20
-116.2535421931587
 30
0.0
 10
102.4027079430448
 20
-116.2087394153923
 30
0.0
 10
102.4027079430448
 20
-116.1536355265171
 30
0.0
  0
SPLINE
  5
7E
330
41
100
AcDbEntity
  8
_U+30EC_U+30A4_U+30E4_U+30FC 1
 62
     7
420
 16777215
370
     9
100
AcDbSpline
210
0.0
220
0.0
230
1.0
 70
    11
 71
     3
 72
    17
 73
    13
 74
     0
 42
0.0000000001
 43
0.0000000001
 12
1.0
 22
0.0
 32
0.0
 13
1.0
 23
0.0
 33
0.0
 40
0.0
 40
0.0
 40
0.0
 40
0.0
 40
1.0
 40
1.0
 40
1.0
 40
2.0
 40
2.0
 40
2.0
 40
3.0
 40
3.0
 40
3.0
 40
4.0
 40
4.0
 40
4.0
 40
4.0
 10
102.4027079430448
 20
-117.1534077484893
 30
0.0
 10
102.4027079430448
 20
-117.0982685818365
 30
0.0
 10
102.3579051664101
 20
-117.0535010818477
 30
0.0
 10
102.3024485011582
 20
-117.0535010818477
 30
0.0
 10
102.2473471966601
 20
-117.0535010818477
 30
0.0
 10
102.202544418894
 20
-117.0982685818365
 30
0.0
 10
102.202544418894
 20
-117.1534077484893
 30
0.0
 10
102.202544418894
 20
-117.2085116373645
 30
0.0
 10
102.2473471966601
 20
-117.2533144151313
 30
0.0
 10
102.3024485011582
 20
-117.2533144151313
 30
0.0
 10
102.3579051664101
 20
-117.2533144151313
 30
0.0
 10
102.4027079430448
 20
-117.2085116373645
 30
0.0
 10
102.4027079430448
 20
-117.1534077484893
 30
0.0
  0
SPLINE
  5
7F
330
41
100
AcDbEntity
  8
_U+30EC_U+30A4_U+30E4_U+30FC 1
 62
     7
420
 16777215
370
     9
100
AcDbSpline
210
0.0
220
0.0
230
1.0
 70
    11
 71
     3
 72
    17
 73
    13
 74
     0
 42
0.0000000001
 43
0.0000000001
 12
1.0
 22
0.0
 32
0.0
 13
1.0
 23
0.0
 33
0.0
 40
0.0
 40
0.0
 40
0.0
 40
0.0
 40
1.0
 40
1.0
 40
1.0
 40
2.0
 40
2.0
 40
2.0
 40
3.0
 40
3.0
 40
3.0
 40
4.0
 40
4.0
 40
4.0
 40
4.0
 10
102.4027079430448
 20
-139.2404363540787
 30
0.0
 10
102.4027079430448
 20
-139.1852971874256
 30
0.0
 10
102.3579051664101
 20
-139.1405296874371
 30
0.0
 10
102.3024485011582
 20
-139.1405296874371
 30
0.0
 10
102.2473471966601
 20
-139.1405296874371
 30
0.0
 10
102.202544418894
 20
-139.1852971874256
 30
0.0
 10
102.202544418894
 20
-139.2404363540787
 30
0.0
 10
102.202544418894
 20
-139.2955402429536
 30
0.0
 10
102.2473471966601
 20
-139.3403430207204
 30
0.0
 10
102.3024485011582
 20
-139.3403430207204
 30
0.0
 10
102.3579051664101
 20
-139.3403430207204
 30
0.0
 10
102.4027079430448
 20
-139.2955402429536
 30
0.0
 10
102.4027079430448
 20
-139.2404363540787
 30
0.0
  0
SPLINE
  5
80
330
41
100
AcDbEntity
  8
_U+30EC_U+30A4_U+30E4_U+30FC 1
 62
     7
420
 16777215
370
     9
100
AcDbSpline
210
0.0
220
0.0
230
1.0
 70
    11
 71
     3
 72
    17
 73
    13
 74
     0
 42
0.0000000001
 43
0.0000000001
 12
1.0
 22
0.0
 32
0.0
 13
1.0
 23
0.0
 33
0.0
 40
0.0
 40
0.0
 40
0.0
 40
0.0
 40
1.0
 40
1.0
 40
1.0
 40
2.0
 40
2.0
 40
2.0
 40
3.0
 40
3.0
 40
3.0
 40
4.0
 40
4.0
 40
4.0
 40
4.0
 10
102.4027079430448
 20
-142.2404232977731
 30
0.0
 10
102.4027079430448
 20
-142.1852841311206
 30
0.0
 10
102.3579051664101
 20
-142.1405166311314
 30
0.0
 10
102.3024485011582
 20
-142.1405166311314
 30
0.0
 10
102.2473471966601
 20
-142.1405166311314
 30
0.0
 10
102.202544418894
 20
-142.1852841311206
 30
0.0
 10
102.202544418894
 20
-142.2404232977731
 30
0.0
 10
102.202544418894
 20
-142.2955271866486
 30
0.0
 10
102.2473471966601
 20
-142.3403299644147
 30
0.0
 10
102.3024485011582
 20
-142.3403299644147
 30
0.0
 10
102.3579051664101
 20
-142.3403299644147
 30
0.0
 10
102.4027079430448
 20
-142.2955271866486
 30
0.0
 10
102.4027079430448
 20
-142.2404232977731
 30
0.0
  0
SPLINE
  5
81
330
41
100
AcDbEntity
  8
_U+30EC_U+30A4_U+30E4_U+30FC 1
 62
     7
420
 16777215
370
     9
100
AcDbSpline
210
0.0
220
0.0
230
1.0
 70
    11
 71
     3
 72
    17
 73
    13
 74
     0
 42
0.0000000001
 43
0.0000000001
 12
1.0
 22
0.0
 32
0.0
 13
1.0
 23
0.0
 33
0.0
 40
0.0
 40
0.0
 40
0.0
 40
0.0
 40
1.0
 40
1.0
 40
1.0
 40
2.0
 40
2.0
 40
2.0
 40
3.0
 40
3.0
 40
3.0
 40
4.0
 40
4.0
 40
4.0
 40
4.0
 10
83.4023110902606
 20
-147.3867102409311
 30
0.0
 10
83.4023110902606
 20
-147.3309007965007
 30
0.0
 10
83.35754148448305
 20
-147.2860980187339
 30
0.0
 10
83.3024023192231
 20
-147.2860980187339
 30
0.0
 10
83.24729843174003
 20
-147.2860980187339
 30
0.0
 10
83.20249565510527
 20
-147.3309007965007
 30
0.0
 10
83.20249565510527
 20
-147.3867102409311
 30
0.0
 10
83.20249565510527
 20
-147.441814129806
 30
0.0
 10
83.24729843174003
 20
-147.4866169075727
 30
0.0
 10
83.3024023192231
 20
-147.4866169075727
 30
0.0
 10
83.35754148448305
 20
-147.4866169075727
 30
0.0
 10
83.4023110902606
 20
-147.441814129806
 30
0.0
 10
83.4023110902606
 20
-147.3867102409311
 30
0.0
  0
SPLINE
  5
82
330
41
100
AcDbEntity
  8
_U+30EC_U+30A4_U+30E4_U+30FC 1
 62
     7
420
 16777215
370
     9
100
AcDbSpline
210
0.0
220
0.0
230
1.0
 70
    11
 71
     3
 72
    17
 73
    13
 74
     0
 42
0.0000000001
 43
0.0000000001
 12
1.0
 22
0.0
 32
0.0
 13
1.0
 23
0.0
 33
0.0
 40
0.0
 40
0.0
 40
0.0
 40
0.0
 40
1.0
 40
1.0
 40
1.0
 40
2.0
 40
2.0
 40
2.0
 40
3.0
 40
3.0
 40
3.0
 40
4.0
 40
4.0
 40
4.0
 40
4.0
 10
73.40257618289982
 20
-147.3867102409311
 30
0.0
 10
73.40257618289982
 20
-147.3309007965007
 30
0.0
 10
73.35780868404194
 20
-147.2860980187339
 30
0.0
 10
73.30266951878198
 20
-147.2860980187339
 30
0.0
 10
73.24756563129891
 20
-147.2860980187339
 30
0.0
 10
73.20276285466416
 20
-147.3309007965007
 30
0.0
 10
73.20276285466416
 20
-147.3867102409311
 30
0.0
 10
73.20276285466416
 20
-147.441814129806
 30
0.0
 10
73.24756563129891
 20
-147.4866169075727
 30
0.0
 10
73.30266951878198
 20
-147.4866169075727
 30
0.0
 10
73.35780868404194
 20
-147.4866169075727
 30
0.0
 10
73.40257618289982
 20
-147.441814129806
 30
0.0
 10
73.40257618289982
 20
-147.3867102409311
 30
0.0
  0
POLYLINE
  5
83
330
41
100
AcDbEntity
  8
_U+30EC_U+30A4_U+30E4_U+30FC 1
 62
     7
420
 16777215
370
     9
100
AcDb2dPolyline
 66
     1
 10
0.0
 20
0.0
 30
0.0
  0
VERTEX
  5
84
330
83
100
AcDbEntity
  8
_U+30EC_U+30A4_U+30E4_U+30FC 1
 62
     7
420
 16777215
370
     9
100
AcDbVertex
100
AcDb2dVertex
 10
102.3024485011582
 20
-116.1536355265171
 30
0.0
  0
VERTEX
  5
85
330
83
100
AcDbEntity
  8
_U+30EC_U+30A4_U+30E4_U+30FC 1
 62
     7
420
 16777215
370
     9
100
AcDbVertex
100
AcDb2dVertex
 10
102.3024485011582
 20
-112.3833230274597
 30
0.0
  0
SEQEND
  5
86
330
83
100
AcDbEntity
  8
_U+30EC_U+30A4_U+30E4_U+30FC 1
 62
     7
420
 16777215
370
     9
  0
POLYLINE
  5
87
330
41
100
AcDbEntity
  8
_U+30EC_U+30A4_U+30E4_U+30FC 1
 62
     7
420
 16777215
370
     9
100
AcDb2dPolyline
 66
     1
 10
0.0
 20
0.0
 30
0.0
  0
VERTEX
  5
88
330
87
100
AcDbEntity
  8
_U+30EC_U+30A4_U+30E4_U+30FC 1
 62
     7
420
 16777215
370
     9
100
AcDbVertex
100
AcDb2dVertex
 10
102.3024485011582
 20
-116.1536355265171
 30
0.0
  0
VERTEX
  5
89
330
87
100
AcDbEntity
  8
_U+30EC_U+30A4_U+30E4_U+30FC 1
 62
     7
420
 16777215
370
     9
100
AcDbVertex
100
AcDb2dVertex
 10
102.3024485011582
 20
-117.1534077484893
 30
0.0
  0
SEQEND
  5
8A
330
87
100
AcDbEntity
  8
_U+30EC_U+30A4_U+30E4_U+30FC 1
 62
     7
420
 16777215
370
     9
  0
POLYLINE
  5
8B
330
41
100
AcDbEntity
  8
_U+30EC_U+30A4_U+30E4_U+30FC 1
 62
     7
420
 16777215
370
     9
100
AcDb2dPolyline
 66
     1
 10
0.0
 20
0.0
 30
0.0
  0
VERTEX
  5
8C
330
8B
100
AcDbEntity
  8
_U+30EC_U+30A4_U+30E4_U+30FC 1
 62
     7
420
 16777215
370
     9
100
AcDbVertex
100
AcDb2dVertex
 10
100.8424071495181
 20
-116.1536355265171
 30
0.0
  0
VERTEX
  5
8D
330
8B
100
AcDbEntity
  8
_U+30EC_U+30A4_U+30E4_U+30FC 1
 62
     7
420
 16777215
370
     9
100
AcDbVertex
100
AcDb2dVertex
 10
103.3025734756429
 20
-116.1536355265171
 30
0.0
  0
SEQEND
  5
8E
330
8B
100
AcDbEntity
  8
_U+30EC_U+30A4_U+30E4_U+30FC 1
 62
     7
420
 16777215
370
     9
  0
POLYLINE
  5
8F
330
41
100
AcDbEntity
  8
_U+30EC_U+30A4_U+30E4_U+30FC 1
 62
     7
420
 16777215
370
     9
100
AcDb2dPolyline
 66
     1
 10
0.0
 20
0.0
 30
0.0
  0
VERTEX
  5
90
330
8F
100
AcDbEntity
  8
_U+30EC_U+30A4_U+30E4_U+30FC 1
 62
     7
420
 16777215
370
     9
100
AcDbVertex
100
AcDb2dVertex
 10
100.8424071495181
 20
-117.1534077484893
 30
0.0
  0
VERTEX
  5
91
330
8F
100
AcDbEntity
  8
_U+30EC_U+30A4_U+30E4_U+30FC 1
 62
     7
420
 16777215
370
     9
100
AcDbVertex
100
AcDb2dVertex
 10
103.3025734756429
 20
-117.1534077484893
 30
0.0
  0
SEQEND
  5
92
330
8F
100
AcDbEntity
  8
_U+30EC_U+30A4_U+30E4_U+30FC 1
 62
     7
420
 16777215
370
     9
  0
INSERT
  5
94
330
41
100
AcDbEntity
  8
_U+30EC_U+30A4_U+30E4_U+30FC 1
100
AcDbBlockReference
  2
block 3
 10
0.0
 20
0.0
 30
0.0
  0
POLYLINE
  5
99
330
41
100
AcDbEntity
  8
_U+30EC_U+30A4_U+30E4_U+30FC 1
 62
     7
420
 16777215
370
     9
100
AcDb2dPolyline
 66
     1
 10
0.0
 20
0.0
 30
0.0
  0
VERTEX
  5
9A
330
99
100
AcDbEntity
  8
_U+30EC_U+30A4_U+30E4_U+30FC 1
 62
     7
420
 16777215
370
     9
100
AcDbVertex
100
AcDb2dVertex
 10
102.3024485011582
 20
-139.2404363540787
 30
0.0
  0
VERTEX
  5
9B
330
99
100
AcDbEntity
  8
_U+30EC_U+30A4_U+30E4_U+30FC 1
 62
     7
420
 16777215
370
     9
100
AcDbVertex
100
AcDb2dVertex
 10
102.3024485011582
 20
-142.2404232977731
 30
0.0
  0
SEQEND
  5
9C
330
99
100
AcDbEntity
  8
_U+30EC_U+30A4_U+30E4_U+30FC 1
 62
     7
420
 16777215
370
     9
  0
POLYLINE
  5
9D
330
41
100
AcDbEntity
  8
_U+30EC_U+30A4_U+30E4_U+30FC 1
 62
     7
420
 16777215
370
     9
100
AcDb2dPolyline
 66
     1
 10
0.0
 20
0.0
 30
0.0
  0
VERTEX
  5
9E
330
9D
100
AcDbEntity
  8
_U+30EC_U+30A4_U+30E4_U+30FC 1
 62
     7
420
 16777215
370
     9
100
AcDbVertex
100
AcDb2dVertex
 10
85.84247497853926
 20
-142.2404232977731
 30
0.0
  0
VERTEX
  5
9F
330
9D
100
AcDbEntity
  8
_U+30EC_U+30A4_U+30E4_U+30FC 1
 62
     7
420
 16777215
370
     9
100
AcDbVertex
100
AcDb2dVertex
 10
103.3025734756429
 20
-142.2404232977731
 30
0.0
  0
SEQEND
  5
A0
330
9D
100
AcDbEntity
  8
_U+30EC_U+30A4_U+30E4_U+30FC 1
 62
     7
420
 16777215
370
     9
  0
INSERT
  5
A2
330
41
100
AcDbEntity
  8
_U+30EC_U+30A4_U+30E4_U+30FC 1
100
AcDbBlockReference
  2
block 4
 10
0.0
 20
0.0
 30
0.0
  0
POLYLINE
  5
A7
330
41
100
AcDbEntity
  8
_U+30EC_U+30A4_U+30E4_U+30FC 1
 62
     7
420
 16777215
370
     9
100
AcDb2dPolyline
 66
     1
 10
0.0
 20
0.0
 30
0.0
  0
VERTEX
  5
A8
330
A7
100
AcDbEntity
  8
_U+30EC_U+30A4_U+30E4_U+30FC 1
 62
     7
420
 16777215
370
     9
100
AcDbVertex
100
AcDb2dVertex
 10
73.30266951878198
 20
-147.3867102409311
 30
0.0
  0
VERTEX
  5
A9
330
A7
100
AcDbEntity
  8
_U+30EC_U+30A4_U+30E4_U+30FC 1
 62
     7
420
 16777215
370
     9
100
AcDbVertex
100
AcDb2dVertex
 10
83.3024023192231
 20
-147.3867102409311
 30
0.0
  0
SEQEND
  5
AA
330
A7
100
AcDbEntity
  8
_U+30EC_U+30A4_U+30E4_U+30FC 1
 62
     7
420
 16777215
370
     9
  0
POLYLINE
  5
AB
330
41
100
AcDbEntity
  8
_U+30EC_U+30A4_U+30E4_U+30FC 1
 62
     7
420
 16777215
370
     9
100
AcDb2dPolyline
 66
     1
 10
0.0
 20
0.0
 30
0.0
  0
VERTEX
  5
AC
330
AB
100
AcDbEntity
  8
_U+30EC_U+30A4_U+30E4_U+30FC 1
 62
     7
420
 16777215
370
     9
100
AcDbVertex
100
AcDb2dVertex
 10
73.30266951878198
 20
-145.9266688524074
 30
0.0
  0
VERTEX
  5
AD
330
AB
100
AcDbEntity
  8
_U+30EC_U+30A4_U+30E4_U+30FC 1
 62
     7
420
 16777215
370
     9
100
AcDbVertex
100
AcDb2dVertex
 10
73.30266951878198
 20
-148.3864471851255
 30
0.0
  0
SEQEND
  5
AE
330
AB
100
AcDbEntity
  8
_U+30EC_U+30A4_U+30E4_U+30FC 1
 62
     7
420
 16777215
370
     9
  0
POLYLINE
  5
AF
330
41
100
AcDbEntity
  8
_U+30EC_U+30A4_U+30E4_U+30FC 1
 62
     7
420
 16777215
370
     9
100
AcDb2dPolyline
 66
     1
 10
0.0
 20
0.0
 30
0.0
  0
VERTEX
  5
B0
330
AF
100
AcDbEntity
  8
_U+30EC_U+30A4_U+30E4_U+30FC 1
 62
     7
420
 16777215
370
     9
100
AcDbVertex
100
AcDb2dVertex
 10
83.3024023192231
 20
-145.9266688524074
 30
0.0
  0
VERTEX
  5
B1
330
AF
100
AcDbEntity
  8
_U+30EC_U+30A4_U+30E4_U+30FC 1
 62
     7
420
 16777215
370
     9
100
AcDbVertex
100
AcDb2dVertex
 10
83.3024023192231
 20
-148.3864471851255
 30
0.0
  0
SEQEND
  5
B2
330
AF
100
AcDbEntity
  8
_U+30EC_U+30A4_U+30E4_U+30FC 1
 62
     7
420
 16777215
370
     9
  0
INSERT
  5
B4
330
41
100
AcDbEntity
  8
_U+30EC_U+30A4_U+30E4_U+30FC 1
100
AcDbBlockReference
  2
block 5
 10
0.0
 20
0.0
 30
0.0
  0
POLYLINE
  5
BC
330
41
100
AcDbEntity
  8
_U+30EC_U+30A4_U+30E4_U+30FC 1
 62
     7
420
 16777215
370
     9
100
AcDb2dPolyline
 66
     1
 10
0.0
 20
0.0
 30
0.0
  0
VERTEX
  5
BD
330
BC
100
AcDbEntity
  8
_U+30EC_U+30A4_U+30E4_U+30FC 1
 62
     7
420
 16777215
370
     9
100
AcDbVertex
100
AcDb2dVertex
 10
73.30266951878198
 20
-112.1538763608505
 30
0.0
  0
VERTEX
  5
BE
330
BC
100
AcDbEntity
  8
_U+30EC_U+30A4_U+30E4_U+30FC 1
 62
     7
420
 16777215
370
     9
100
AcDbVertex
100
AcDb2dVertex
 10
98.3026894365339
 20
-112.1538763608505
 30
0.0
  0
SEQEND
  5
BF
330
BC
100
AcDbEntity
  8
_U+30EC_U+30A4_U+30E4_U+30FC 1
 62
     7
420
 16777215
370
     9
  0
POLYLINE
  5
C0
330
41
100
AcDbEntity
  8
_U+30EC_U+30A4_U+30E4_U+30FC 1
 62
     7
420
 16777215
370
     9
100
AcDb2dPolyline
 66
     1
 10
0.0
 20
0.0
 30
0.0
  0
VERTEX
  5
C1
330
C0
100
AcDbEntity
  8
_U+30EC_U+30A4_U+30E4_U+30FC 1
 62
     7
420
 16777215
370
     9
100
AcDbVertex
100
AcDb2dVertex
 10
73.30266951878198
 20
-113.613212193819
 30
0.0
  0
VERTEX
  5
C2
330
C0
100
AcDbEntity
  8
_U+30EC_U+30A4_U+30E4_U+30FC 1
 62
     7
420
 16777215
370
     9
100
AcDbVertex
100
AcDb2dVertex
 10
73.30266951878198
 20
-111.1534338611006
 30
0.0
  0
SEQEND
  5
C3
330
C0
100
AcDbEntity
  8
_U+30EC_U+30A4_U+30E4_U+30FC 1
 62
     7
420
 16777215
370
     9
  0
POLYLINE
  5
C4
330
41
100
AcDbEntity
  8
_U+30EC_U+30A4_U+30E4_U+30FC 1
 62
     7
420
 16777215
370
     9
100
AcDb2dPolyline
 66
     1
 10
0.0
 20
0.0
 30
0.0
  0
VERTEX
  5
C5
330
C4
100
AcDbEntity
  8
_U+30EC_U+30A4_U+30E4_U+30FC 1
 62
     7
420
 16777215
370
     9
100
AcDbVertex
100
AcDb2dVertex
 10
98.3026894365339
 20
-113.613212193819
 30
0.0
  0
VERTEX
  5
C6
330
C4
100
AcDbEntity
  8
_U+30EC_U+30A4_U+30E4_U+30FC 1
 62
     7
420
 16777215
370
     9
100
AcDbVertex
100
AcDb2dVertex
 10
98.3026894365339
 20
-111.1534338611006
 30
0.0
  0
SEQEND
  5
C7
330
C4
100
AcDbEntity
  8
_U+30EC_U+30A4_U+30E4_U+30FC 1
 62
     7
420
 16777215
370
     9
  0
INSERT
  5
C9
330
41
100
AcDbEntity
  8
_U+30EC_U+30A4_U+30E4_U+30FC 1
100
AcDbBlockReference
  2
block 6
 10
0.0
 20
0.0
 30
0.0
  0
POLYLINE
  5
D0
330
41
100
AcDbEntity
  8
_U+30EC_U+30A4_U+30E4_U+30FC 1
 62
     7
420
 16777215
370
     9
100
AcDb2dPolyline
 66
     1
 10
0.0
 20
0.0
 30
0.0
  0
VERTEX
  5
D1
330
D0
100
AcDbEntity
  8
_U+30EC_U+30A4_U+30E4_U+30FC 1
 62
     7
420
 16777215
370
     9
100
AcDbVertex
100
AcDb2dVertex
 10
102.3024485011582
 20
-139.1825455207599
 30
0.0
  0
VERTEX
  5
D2
330
D0
100
AcDbEntity
  8
_U+30EC_U+30A4_U+30E4_U+30FC 1
 62
     7
420
 16777215
370
     9
100
AcDbVertex
100
AcDb2dVertex
 10
102.3024485011582
 20
-117.1534077484893
 30
0.0
  0
SEQEND
  5
D3
330
D0
100
AcDbEntity
  8
_U+30EC_U+30A4_U+30E4_U+30FC 1
 62
     7
420
 16777215
370
     9
  0
POLYLINE
  5
D4
330
41
100
AcDbEntity
  8
_U+30EC_U+30A4_U+30E4_U+30FC 1
 62
     7
420
 16777215
370
     9
100
AcDb2dPolyline
 66
     1
 10
0.0
 20
0.0
 30
0.0
  0
VERTEX
  5
D5
330
D4
100
AcDbEntity
  8
_U+30EC_U+30A4_U+30E4_U+30FC 1
 62
     7
420
 16777215
370
     9
100
AcDbVertex
100
AcDb2dVertex
 10
85.84247497853926
 20
-139.2404363540787
 30
0.0
  0
VERTEX
  5
D6
330
D4
100
AcDbEntity
  8
_U+30EC_U+30A4_U+30E4_U+30FC 1
 62
     7
420
 16777215
370
     9
100
AcDbVertex
100
AcDb2dVertex
 10
103.3025734756429
 20
-139.2404363540787
 30
0.0
  0
SEQEND
  5
D7
330
D4
100
AcDbEntity
  8
_U+30EC_U+30A4_U+30E4_U+30FC 1
 62
     7
420
 16777215
370
     9
  0
INSERT
  5
D9
330
41
100
AcDbEntity
  8
_U+30EC_U+30A4_U+30E4_U+30FC 1
100
AcDbBlockReference
  2
block 7
 10
0.0
 20
0.0
 30
0.0
  0
ENDBLK
  5
44
330
41
100
AcDbEntity
  8
0
100
AcDbBlockEnd
  0
BLOCK
  5
95
330
93
100
AcDbEntity
  8
0
100
AcDbBlockBegin
  2
block 3
 70
     0
 10
0.0
 20
0.0
 30
0.0
  3
block 3
  1

  0
SPLINE
  5
97
330
93
100
AcDbEntity
  8
_U+30EC_U+30A4_U+30E4_U+30FC 1
370
     0
100
AcDbSpline
210
0.0
220
0.0
230
1.0
 70
    11
 71
     3
 72
    26
 73
    22
 74
     0
 42
0.0000000001
 43
0.0000000001
 12
1.0
 22
0.0
 32
0.0
 13
1.0
 23
0.0
 33
0.0
 40
0.0
 40
0.0
 40
0.0
 40
0.0
 40
1.0
 40
1.0
 40
1.0
 40
2.0
 40
2.0
 40
2.0
 40
3.0
 40
3.0
 40
3.0
 40
4.0
 40
4.0
 40
4.0
 40
5.0
 40
5.0
 40
5.0
 40
6.0
 40
6.0
 40
6.0
 40
7.0
 40
7.0
 40
7.0
 40
7.0
 10
106.5946994091152
 20
-116.7315483649143
 30
0.0
 10
106.5946994091152
 20
-116.7315483649143
 30
0.0
 10
105.4905463060926
 20
-116.7315483649143
 30
0.0
 10
105.4905463060926
 20
-116.7315483649143
 30
0.0
 10
105.4905463060926
 20
-116.7315483649143
 30
0.0
 10
105.4905463060926
 20
-117.0615885124013
 30
0.0
 10
105.4905463060926
 20
-117.0615885124013
 30
0.0
 10
105.4905463060926
 20
-117.0615885124013
 30
0.0
 10
105.3424072002269
 20
-117.0615885124013
 30
0.0
 10
105.3424072002269
 20
-117.0615885124013
 30
0.0
 10
105.3275932896403
 20
-116.7294813076232
 30
0.0
 10
105.164640273188
 20
-116.6829725185723
 30
0.0
 10
105.0502631030777
 20
-116.6533446973992
 30
0.0
 10
105.0502631030777
 20
-116.6533446973992
 30
0.0
 10
105.0502631030777
 20
-116.5072726488246
 30
0.0
 10
105.0502631030777
 20
-116.5072726488246
 30
0.0
 10
105.0502631030777
 20
-116.5072726488246
 30
0.0
 10
106.5946994091152
 20
-116.5072726488246
 30
0.0
 10
106.5946994091152
 20
-116.5072726488246
 30
0.0
 10
106.5946994091152
 20
-116.5072726488246
 30
0.0
 10
106.5946994091152
 20
-116.7315483649143
 30
0.0
 10
106.5946994091152
 20
-116.7315483649143
 30
0.0
  0
HATCH
  5
98
330
93
100
AcDbEntity
  8
_U+30EC_U+30A4_U+30E4_U+30FC 1
 62
     7
420
 16777215
100
AcDbHatch
 10
0.0
 20
0.0
 30
0.0
210
0.0
220
0.0
230
1.0
  2
SOLID
 70
     1
 71
     0
 91
        1
 92
        1
 93
        1
 72
     4
 94
        3
 73
     0
 74
     1
 95
       26
 96
       22
 40
0.0
 40
0.0
 40
0.0
 40
0.0
 40
1.0
 40
1.0
 40
1.0
 40
2.0
 40
2.0
 40
2.0
 40
3.0
 40
3.0
 40
3.0
 40
4.0
 40
4.0
 40
4.0
 40
5.0
 40
5.0
 40
5.0
 40
6.0
 40
6.0
 40
6.0
 40
7.0
 40
7.0
 40
7.0
 40
7.0
 10
106.5946994091152
 20
-116.7315483649143
 10
106.5946994091152
 20
-116.7315483649143
 10
105.4905463060926
 20
-116.7315483649143
 10
105.4905463060926
 20
-116.7315483649143
 10
105.4905463060926
 20
-116.7315483649143
 10
105.4905463060926
 20
-117.0615885124013
 10
105.4905463060926
 20
-117.0615885124013
 10
105.4905463060926
 20
-117.0615885124013
 10
105.3424072002269
 20
-117.0615885124013
 10
105.3424072002269
 20
-117.0615885124013
 10
105.3275932896403
 20
-116.7294813076232
 10
105.164640273188
 20
-116.6829725185723
 10
105.0502631030777
 20
-116.6533446973992
 10
105.0502631030777
 20
-116.6533446973992
 10
105.0502631030777
 20
-116.5072726488246
 10
105.0502631030777
 20
-116.5072726488246
 10
105.0502631030777
 20
-116.5072726488246
 10
106.5946994091152
 20
-116.5072726488246
 10
106.5946994091152
 20
-116.5072726488246
 10
106.5946994091152
 20
-116.5072726488246
 10
106.5946994091152
 20
-116.7315483649143
 10
106.5946994091152
 20
-116.7315483649143
 97
        0
 97
        0
 75
     2
 76
     1
 98
        0
  0
ENDBLK
  5
96
330
93
100
AcDbEntity
  8
0
100
AcDbBlockEnd
  0
BLOCK
  5
A3
330
A1
100
AcDbEntity
  8
0
100
AcDbBlockBegin
  2
block 4
 70
     0
 10
0.0
 20
0.0
 30
0.0
  3
block 4
  1

  0
SPLINE
  5
A5
330
A1
100
AcDbEntity
  8
_U+30EC_U+30A4_U+30E4_U+30FC 1
370
     0
100
AcDbSpline
210
0.0
220
0.0
230
1.0
 70
    11
 71
     3
 72
    62
 73
    58
 74
     0
 42
0.0000000001
 43
0.0000000001
 12
1.0
 22
0.0
 32
0.0
 13
1.0
 23
0.0
 33
0.0
 40
0.0
 40
0.0
 40
0.0
 40
0.0
 40
1.0
 40
1.0
 40
1.0
 40
2.0
 40
2.0
 40
2.0
 40
3.0
 40
3.0
 40
3.0
 40
4.0
 40
4.0
 40
4.0
 40
5.0
 40
5.0
 40
5.0
 40
6.0
 40
6.0
 40
6.0
 40
7.0
 40
7.0
 40
7.0
 40
8.0
 40
8.0
 40
8.0
 40
9.0
 40
9.0
 40
9.0
 40
10.0
 40
10.0
 40
10.0
 40
11.0
 40
11.0
 40
11.0
 40
12.0
 40
12.0
 40
12.0
 40
13.0
 40
13.0
 40
13.0
 40
14.0
 40
14.0
 40
14.0
 40
15.0
 40
15.0
 40
15.0
 40
16.0
 40
16.0
 40
16.0
 40
17.0
 40
17.0
 40
17.0
 40
18.0
 40
18.0
 40
18.0
 40
19.0
 40
19.0
 40
19.0
 40
19.0
 10
101.7064534250942
 20
-140.7504095785277
 30
0.0
 10
101.7064534250942
 20
-140.8458387234691
 30
0.0
 10
101.6854383426342
 20
-141.0635687581369
 30
0.0
 10
101.4994031864307
 20
-141.1886257242515
 30
0.0
 10
101.3870930736116
 20
-141.2626952771843
 30
0.0
 10
101.2878743236364
 20
-141.2668293917666
 30
0.0
 10
101.2031249746992
 20
-141.2709635063489
 30
0.0
 10
101.2031249746992
 20
-141.2709635063489
 30
0.0
 10
101.2031249746992
 20
-141.0508219048415
 30
0.0
 10
101.2031249746992
 20
-141.0508219048415
 30
0.0
 10
101.2771945276321
 20
-141.0487548475503
 30
0.0
 10
101.5118055301776
 20
-141.0384195610946
 30
0.0
 10
101.5118055301776
 20
-140.7548882026585
 30
0.0
 10
101.5118055301776
 20
-140.6174288927971
 30
0.0
 10
101.4422146013756
 20
-140.4648111628005
 30
0.0
 10
101.2138047707035
 20
-140.4648111628005
 30
0.0
 10
101.0973605433021
 20
-140.4648111628005
 30
0.0
 10
101.04878469696
 20
-140.5030517226867
 30
0.0
 10
101.0170898184957
 20
-140.534746601151
 30
0.0
 10
100.9430202655629
 20
-140.6088161540839
 30
0.0
 10
100.9302734122674
 20
-140.7252603814854
 30
0.0
 10
100.9302734122674
 20
-140.7800373997008
 30
0.0
 10
100.9302734122674
 20
-140.7993299344182
 30
0.0
 10
100.9323404695586
 20
-140.8351589274648
 30
0.0
 10
100.9364745841409
 20
-140.8627196913468
 30
0.0
 10
100.9364745841409
 20
-140.8627196913468
 30
0.0
 10
100.7418266892243
 20
-140.8627196913468
 30
0.0
 10
100.7418266892243
 20
-140.8627196913468
 30
0.0
 10
100.7483723706463
 20
-140.8244791314605
 30
0.0
 10
100.7504394279374
 20
-140.7824489665405
 30
0.0
 10
100.7504394279374
 20
-140.7759032851185
 30
0.0
 10
100.7504394279374
 20
-140.7104464708988
 30
0.0
 10
100.7290798359288
 20
-140.5116644613999
 30
0.0
 10
100.4924017760922
 20
-140.5116644613999
 30
0.0
 10
100.3146348490533
 20
-140.5116644613999
 30
0.0
 10
100.2595133212893
 20
-140.6425780898394
 30
0.0
 10
100.2595133212893
 20
-140.7528211453674
 30
0.0
 10
100.2595133212893
 20
-141.017059969086
 30
0.0
 10
100.4924017760922
 20
-141.0256727077991
 30
0.0
 10
100.5640597621854
 20
-141.0298068223814
 30
0.0
 10
100.5640597621854
 20
-141.0298068223814
 30
0.0
 10
100.5640597621854
 20
-141.2330674560112
 30
0.0
 10
100.5640597621854
 20
-141.2330674560112
 30
0.0
 10
100.4393473056193
 20
-141.2244547172981
 30
0.0
 10
100.0627983690815
 20
-141.1968939534161
 30
0.0
 10
100.0627983690815
 20
-140.7400742920719
 30
0.0
 10
100.0627983690815
 20
-140.5157985759822
 30
0.0
 10
100.1899223924872
 20
-140.2746418920147
 30
0.0
 10
100.4858560946702
 20
-140.2746418920147
 30
0.0
 10
100.6722357604222
 20
-140.2746418920147
 30
0.0
 10
100.7545735425197
 20
-140.3697265274076
 30
0.0
 10
100.8158962421571
 20
-140.4692897869313
 30
0.0
 10
100.8434570060391
 20
-140.4079670872939
 30
0.0
 10
100.9237277308455
 20
-140.2260660456727
 30
0.0
 10
101.2010579174081
 20
-140.2260660456727
 30
0.0
 10
101.5393662940596
 20
-140.2260660456727
 30
0.0
 10
101.7064534250942
 20
-140.4734239015136
 30
0.0
 10
101.7064534250942
 20
-140.7504095785277
 30
0.0
  0
HATCH
  5
A6
330
A1
100
AcDbEntity
  8
_U+30EC_U+30A4_U+30E4_U+30FC 1
 62
     7
420
 16777215
100
AcDbHatch
 10
0.0
 20
0.0
 30
0.0
210
0.0
220
0.0
230
1.0
  2
SOLID
 70
     1
 71
     0
 91
        1
 92
        1
 93
        1
 72
     4
 94
        3
 73
     0
 74
     1
 95
       62
 96
       58
 40
0.0
 40
0.0
 40
0.0
 40
0.0
 40
1.0
 40
1.0
 40
1.0
 40
2.0
 40
2.0
 40
2.0
 40
3.0
 40
3.0
 40
3.0
 40
4.0
 40
4.0
 40
4.0
 40
5.0
 40
5.0
 40
5.0
 40
6.0
 40
6.0
 40
6.0
 40
7.0
 40
7.0
 40
7.0
 40
8.0
 40
8.0
 40
8.0
 40
9.0
 40
9.0
 40
9.0
 40
10.0
 40
10.0
 40
10.0
 40
11.0
 40
11.0
 40
11.0
 40
12.0
 40
12.0
 40
12.0
 40
13.0
 40
13.0
 40
13.0
 40
14.0
 40
14.0
 40
14.0
 40
15.0
 40
15.0
 40
15.0
 40
16.0
 40
16.0
 40
16.0
 40
17.0
 40
17.0
 40
17.0
 40
18.0
 40
18.0
 40
18.0
 40
19.0
 40
19.0
 40
19.0
 40
19.0
 10
101.7064534250942
 20
-140.7504095785277
 10
101.7064534250942
 20
-140.8458387234691
 10
101.6854383426342
 20
-141.0635687581369
 10
101.4994031864307
 20
-141.1886257242515
 10
101.3870930736116
 20
-141.2626952771843
 10
101.2878743236364
 20
-141.2668293917666
 10
101.2031249746992
 20
-141.2709635063489
 10
101.2031249746992
 20
-141.2709635063489
 10
101.2031249746992
 20
-141.0508219048415
 10
101.2031249746992
 20
-141.0508219048415
 10
101.2771945276321
 20
-141.0487548475503
 10
101.5118055301776
 20
-141.0384195610946
 10
101.5118055301776
 20
-140.7548882026585
 10
101.5118055301776
 20
-140.6174288927971
 10
101.4422146013756
 20
-140.4648111628005
 10
101.2138047707035
 20
-140.4648111628005
 10
101.0973605433021
 20
-140.4648111628005
 10
101.04878469696
 20
-140.5030517226867
 10
101.0170898184957
 20
-140.534746601151
 10
100.9430202655629
 20
-140.6088161540839
 10
100.9302734122674
 20
-140.7252603814854
 10
100.9302734122674
 20
-140.7800373997008
 10
100.9302734122674
 20
-140.7993299344182
 10
100.9323404695586
 20
-140.8351589274648
 10
100.9364745841409
 20
-140.8627196913468
 10
100.9364745841409
 20
-140.8627196913468
 10
100.7418266892243
 20
-140.8627196913468
 10
100.7418266892243
 20
-140.8627196913468
 10
100.7483723706463
 20
-140.8244791314605
 10
100.7504394279374
 20
-140.7824489665405
 10
100.7504394279374
 20
-140.7759032851185
 10
100.7504394279374
 20
-140.7104464708988
 10
100.7290798359288
 20
-140.5116644613999
 10
100.4924017760922
 20
-140.5116644613999
 10
100.3146348490533
 20
-140.5116644613999
 10
100.2595133212893
 20
-140.6425780898394
 10
100.2595133212893
 20
-140.7528211453674
 10
100.2595133212893
 20
-141.017059969086
 10
100.4924017760922
 20
-141.0256727077991
 10
100.5640597621854
 20
-141.0298068223814
 10
100.5640597621854
 20
-141.0298068223814
 10
100.5640597621854
 20
-141.2330674560112
 10
100.5640597621854
 20
-141.2330674560112
 10
100.4393473056193
 20
-141.2244547172981
 10
100.0627983690815
 20
-141.1968939534161
 10
100.0627983690815
 20
-140.7400742920719
 10
100.0627983690815
 20
-140.5157985759822
 10
100.1899223924872
 20
-140.2746418920147
 10
100.4858560946702
 20
-140.2746418920147
 10
100.6722357604222
 20
-140.2746418920147
 10
100.7545735425197
 20
-140.3697265274076
 10
100.8158962421571
 20
-140.4692897869313
 10
100.8434570060391
 20
-140.4079670872939
 10
100.9237277308455
 20
-140.2260660456727
 10
101.2010579174081
 20
-140.2260660456727
 10
101.5393662940596
 20
-140.2260660456727
 10
101.7064534250942
 20
-140.4734239015136
 10
101.7064534250942
 20
-140.7504095785277
 97
        0
 97
        0
 75
     2
 76
     1
 98
        0
  0
ENDBLK
  5
A4
330
A1
100
AcDbEntity
  8
0
100
AcDbBlockEnd
  0
BLOCK
  5
B5
330
B3
100
AcDbEntity
  8
0
100
AcDbBlockBegin
  2
block 5
 70
     0
 10
0.0
 20
0.0
 30
0.0
  3
block 5
  1

  0
SPLINE
  5
B7
330
B3
100
AcDbEntity
  8
_U+30EC_U+30A4_U+30E4_U+30FC 1
370
     0
100
AcDbSpline
210
0.0
220
0.0
230
1.0
 70
    11
 71
     3
 72
    26
 73
    22
 74
     0
 42
0.0000000001
 43
0.0000000001
 12
1.0
 22
0.0
 32
0.0
 13
1.0
 23
0.0
 33
0.0
 40
0.0
 40
0.0
 40
0.0
 40
0.0
 40
1.0
 40
1.0
 40
1.0
 40
2.0
 40
2.0
 40
2.0
 40
3.0
 40
3.0
 40
3.0
 40
4.0
 40
4.0
 40
4.0
 40
5.0
 40
5.0
 40
5.0
 40
6.0
 40
6.0
 40
6.0
 40
7.0
 40
7.0
 40
7.0
 40
7.0
 10
77.66468232650398
 20
-146.7407416082801
 30
0.0
 10
77.66468232650398
 20
-146.7407416082801
 30
0.0
 10
77.66468232650398
 20
-145.6365885052575
 30
0.0
 10
77.66468232650398
 20
-145.6365885052575
 30
0.0
 10
77.66468232650398
 20
-145.6365885052575
 30
0.0
 10
77.33464217901704
 20
-145.6365885052575
 30
0.0
 10
77.33464217901704
 20
-145.6365885052575
 30
0.0
 10
77.33464217901704
 20
-145.6365885052575
 30
0.0
 10
77.33464217901704
 20
-145.4884493993918
 30
0.0
 10
77.33464217901704
 20
-145.4884493993918
 30
0.0
 10
77.66674938379512
 20
-145.4736354888052
 30
0.0
 10
77.713258172846
 20
-145.3106824723529
 30
0.0
 10
77.74288599401915
 20
-145.1963053022426
 30
0.0
 10
77.74288599401915
 20
-145.1963053022426
 30
0.0
 10
77.88895804259374
 20
-145.1963053022426
 30
0.0
 10
77.88895804259374
 20
-145.1963053022426
 30
0.0
 10
77.88895804259374
 20
-145.1963053022426
 30
0.0
 10
77.88895804259374
 20
-146.7407416082801
 30
0.0
 10
77.88895804259374
 20
-146.7407416082801
 30
0.0
 10
77.88895804259374
 20
-146.7407416082801
 30
0.0
 10
77.66468232650398
 20
-146.7407416082801
 30
0.0
 10
77.66468232650398
 20
-146.7407416082801
 30
0.0
  0
HATCH
  5
B8
330
B3
100
AcDbEntity
  8
_U+30EC_U+30A4_U+30E4_U+30FC 1
 62
     7
420
 16777215
100
AcDbHatch
 10
0.0
 20
0.0
 30
0.0
210
0.0
220
0.0
230
1.0
  2
SOLID
 70
     1
 71
     0
 91
        1
 92
        1
 93
        1
 72
     4
 94
        3
 73
     0
 74
     1
 95
       26
 96
       22
 40
0.0
 40
0.0
 40
0.0
 40
0.0
 40
1.0
 40
1.0
 40
1.0
 40
2.0
 40
2.0
 40
2.0
 40
3.0
 40
3.0
 40
3.0
 40
4.0
 40
4.0
 40
4.0
 40
5.0
 40
5.0
 40
5.0
 40
6.0
 40
6.0
 40
6.0
 40
7.0
 40
7.0
 40
7.0
 40
7.0
 10
77.66468232650398
 20
-146.7407416082801
 10
77.66468232650398
 20
-146.7407416082801
 10
77.66468232650398
 20
-145.6365885052575
 10
77.66468232650398
 20
-145.6365885052575
 10
77.66468232650398
 20
-145.6365885052575
 10
77.33464217901704
 20
-145.6365885052575
 10
77.33464217901704
 20
-145.6365885052575
 10
77.33464217901704
 20
-145.6365885052575
 10
77.33464217901704
 20
-145.4884493993918
 10
77.33464217901704
 20
-145.4884493993918
 10
77.66674938379512
 20
-145.4736354888052
 10
77.713258172846
 20
-145.3106824723529
 10
77.74288599401915
 20
-145.1963053022426
 10
77.74288599401915
 20
-145.1963053022426
 10
77.88895804259374
 20
-145.1963053022426
 10
77.88895804259374
 20
-145.1963053022426
 10
77.88895804259374
 20
-145.1963053022426
 10
77.88895804259374
 20
-146.7407416082801
 10
77.88895804259374
 20
-146.7407416082801
 10
77.88895804259374
 20
-146.7407416082801
 10
77.66468232650398
 20
-146.7407416082801
 10
77.66468232650398
 20
-146.7407416082801
 97
        0
 97
        0
 75
     2
 76
     1
 98
        0
  0
SPLINE
  5
B9
330
B3
100
AcDbEntity
  8
_U+30EC_U+30A4_U+30E4_U+30FC 1
370
     0
100
AcDbSpline
210
0.0
220
0.0
230
1.0
 70
    11
 71
     3
 72
    29
 73
    25
 74
     0
 42
0.0000000001
 43
0.0000000001
 12
1.0
 22
0.0
 32
0.0
 13
1.0
 23
0.0
 33
0.0
 40
0.0
 40
0.0
 40
0.0
 40
0.0
 40
1.0
 40
1.0
 40
1.0
 40
2.0
 40
2.0
 40
2.0
 40
3.0
 40
3.0
 40
3.0
 40
4.0
 40
4.0
 40
4.0
 40
5.0
 40
5.0
 40
5.0
 40
6.0
 40
6.0
 40
6.0
 40
7.0
 40
7.0
 40
7.0
 40
8.0
 40
8.0
 40
8.0
 40
8.0
 10
79.28783906437943
 20
-146.5629746812412
 30
0.0
 10
79.1800075756911
 20
-146.7724364867444
 30
0.0
 10
79.00654701800879
 20
-146.7913845119133
 30
0.0
 10
78.89010279060734
 20
-146.7913845119133
 30
0.0
 10
78.72938908622044
 20
-146.7913845119133
 30
0.0
 10
78.5876234070024
 20
-146.7448757228624
 30
0.0
 10
78.49236651683525
 20
-146.5629746812412
 30
0.0
 10
78.38884139750348
 20
-146.3683267863246
 30
0.0
 10
78.36972111756035
 20
-146.1316487264879
 30
0.0
 10
78.36972111756035
 20
-145.9686957100356
 30
0.0
 10
78.36972111756035
 20
-145.8246907187522
 30
0.0
 10
78.38660208543807
 20
-145.5728542387804
 30
0.0
 10
78.49236651683525
 20
-145.3740722292815
 30
0.0
 10
78.60037026029782
 20
-145.1711561052003
 30
0.0
 10
78.76108396468473
 20
-145.1477294559006
 30
0.0
 10
78.89010279060734
 20
-145.1477294559006
 30
0.0
 10
79.0487494377031
 20
-145.1477294559006
 30
0.0
 10
79.19258217421228
 20
-145.1921711876603
 30
0.0
 10
79.28783906437943
 20
-145.3740722292815
 30
0.0
 10
79.38723006912889
 20
-145.566653066907
 30
0.0
 10
79.41048446365433
 20
-145.795062897579
 30
0.0
 10
79.41048446365433
 20
-145.9686957100356
 30
0.0
 10
79.41048446365433
 20
-146.1399169556525
 30
0.0
 10
79.3894693811943
 20
-146.3703938436157
 30
0.0
 10
79.28783906437943
 20
-146.5629746812412
 30
0.0
  0
SPLINE
  5
BA
330
B3
100
AcDbEntity
  8
_U+30EC_U+30A4_U+30E4_U+30FC 1
370
     0
100
AcDbSpline
210
0.0
220
0.0
230
1.0
 70
    11
 71
     3
 72
    17
 73
    13
 74
     0
 42
0.0000000001
 43
0.0000000001
 12
1.0
 22
0.0
 32
0.0
 13
1.0
 23
0.0
 33
0.0
 40
0.0
 40
0.0
 40
0.0
 40
0.0
 40
1.0
 40
1.0
 40
1.0
 40
2.0
 40
2.0
 40
2.0
 40
3.0
 40
3.0
 40
3.0
 40
4.0
 40
4.0
 40
4.0
 40
4.0
 10
78.89010279060734
 20
-145.340310293526
 30
0.0
 10
78.64050562270099
 20
-145.340310293526
 30
0.0
 10
78.59399683365011
 20
-145.6238416519621
 30
0.0
 10
78.59399683365011
 20
-145.9686957100356
 30
0.0
 10
78.59399683365011
 20
-146.2880560615183
 30
0.0
 10
78.62999808147097
 20
-146.5967366169967
 30
0.0
 10
78.89010279060734
 20
-146.5967366169967
 30
0.0
 10
79.13763290122255
 20
-146.5967366169967
 30
0.0
 10
79.18638100233882
 20
-146.3156168254003
 30
0.0
 10
79.18638100233882
 20
-145.9686957100356
 30
0.0
 10
79.18638100233882
 20
-145.6489908490044
 30
0.0
 10
79.14814044245256
 20
-145.340310293526
 30
0.0
 10
78.89010279060734
 20
-145.340310293526
 30
0.0
  0
HATCH
  5
BB
330
B3
100
AcDbEntity
  8
_U+30EC_U+30A4_U+30E4_U+30FC 1
 62
     7
420
 16777215
100
AcDbHatch
 10
0.0
 20
0.0
 30
0.0
210
0.0
220
0.0
230
1.0
  2
SOLID
 70
     1
 71
     0
 91
        2
 92
        1
 93
        1
 72
     4
 94
        3
 73
     0
 74
     1
 95
       29
 96
       25
 40
0.0
 40
0.0
 40
0.0
 40
0.0
 40
1.0
 40
1.0
 40
1.0
 40
2.0
 40
2.0
 40
2.0
 40
3.0
 40
3.0
 40
3.0
 40
4.0
 40
4.0
 40
4.0
 40
5.0
 40
5.0
 40
5.0
 40
6.0
 40
6.0
 40
6.0
 40
7.0
 40
7.0
 40
7.0
 40
8.0
 40
8.0
 40
8.0
 40
8.0
 10
79.28783906437943
 20
-146.5629746812412
 10
79.1800075756911
 20
-146.7724364867444
 10
79.00654701800879
 20
-146.7913845119133
 10
78.89010279060734
 20
-146.7913845119133
 10
78.72938908622044
 20
-146.7913845119133
 10
78.5876234070024
 20
-146.7448757228624
 10
78.49236651683525
 20
-146.5629746812412
 10
78.38884139750348
 20
-146.3683267863246
 10
78.36972111756035
 20
-146.1316487264879
 10
78.36972111756035
 20
-145.9686957100356
 10
78.36972111756035
 20
-145.8246907187522
 10
78.38660208543807
 20
-145.5728542387804
 10
78.49236651683525
 20
-145.3740722292815
 10
78.60037026029782
 20
-145.1711561052003
 10
78.76108396468473
 20
-145.1477294559006
 10
78.89010279060734
 20
-145.1477294559006
 10
79.0487494377031
 20
-145.1477294559006
 10
79.19258217421228
 20
-145.1921711876603
 10
79.28783906437943
 20
-145.3740722292815
 10
79.38723006912889
 20
-145.566653066907
 10
79.41048446365433
 20
-145.795062897579
 10
79.41048446365433
 20
-145.9686957100356
 10
79.41048446365433
 20
-146.1399169556525
 10
79.3894693811943
 20
-146.3703938436157
 10
79.28783906437943
 20
-146.5629746812412
 97
        0
 97
        0
 92
        1
 93
        1
 72
     4
 94
        3
 73
     0
 74
     1
 95
       17
 96
       13
 40
0.0
 40
0.0
 40
0.0
 40
0.0
 40
1.0
 40
1.0
 40
1.0
 40
2.0
 40
2.0
 40
2.0
 40
3.0
 40
3.0
 40
3.0
 40
4.0
 40
4.0
 40
4.0
 40
4.0
 10
78.89010279060734
 20
-145.340310293526
 10
78.64050562270099
 20
-145.340310293526
 10
78.59399683365011
 20
-145.6238416519621
 10
78.59399683365011
 20
-145.9686957100356
 10
78.59399683365011
 20
-146.2880560615183
 10
78.62999808147097
 20
-146.5967366169967
 10
78.89010279060734
 20
-146.5967366169967
 10
79.13763290122255
 20
-146.5967366169967
 10
79.18638100233882
 20
-146.3156168254003
 10
79.18638100233882
 20
-145.9686957100356
 10
79.18638100233882
 20
-145.6489908490044
 10
79.14814044245256
 20
-145.340310293526
 10
78.89010279060734
 20
-145.340310293526
 97
        0
 97
        0
 75
     2
 76
     1
 98
        0
  0
ENDBLK
  5
B6
330
B3
100
AcDbEntity
  8
0
100
AcDbBlockEnd
  0
BLOCK
  5
CA
330
C8
100
AcDbEntity
  8
0
100
AcDbBlockBegin
  2
block 6
 70
     0
 10
0.0
 20
0.0
 30
0.0
  3
block 6
  1

  0
SPLINE
  5
CC
330
C8
100
AcDbEntity
  8
_U+30EC_U+30A4_U+30E4_U+30FC 1
370
     0
100
AcDbSpline
210
0.0
220
0.0
230
1.0
 70
    11
 71
     3
 72
    44
 73
    40
 74
     0
 42
0.0000000001
 43
0.0000000001
 12
1.0
 22
0.0
 32
0.0
 13
1.0
 23
0.0
 33
0.0
 40
0.0
 40
0.0
 40
0.0
 40
0.0
 40
1.0
 40
1.0
 40
1.0
 40
2.0
 40
2.0
 40
2.0
 40
3.0
 40
3.0
 40
3.0
 40
4.0
 40
4.0
 40
4.0
 40
5.0
 40
5.0
 40
5.0
 40
6.0
 40
6.0
 40
6.0
 40
7.0
 40
7.0
 40
7.0
 40
8.0
 40
8.0
 40
8.0
 40
9.0
 40
9.0
 40
9.0
 40
10.0
 40
10.0
 40
10.0
 40
11.0
 40
11.0
 40
11.0
 40
12.0
 40
12.0
 40
12.0
 40
13.0
 40
13.0
 40
13.0
 40
13.0
 10
85.3064208771109
 20
-110.9263902174941
 30
0.0
 10
85.08851858766884
 20
-111.0850368645899
 30
0.0
 10
84.99532875479284
 20
-111.1591064175227
 30
0.0
 10
84.94675290845082
 20
-111.3029391540319
 30
0.0
 10
84.94675290845082
 20
-111.3029391540319
 30
0.0
 10
85.72517223334302
 20
-111.3029391540319
 30
0.0
 10
85.72517223334302
 20
-111.3029391540319
 30
0.0
 10
85.72517223334302
 20
-111.3029391540319
 30
0.0
 10
85.72517223334302
 20
-111.5080945901785
 30
0.0
 10
85.72517223334302
 20
-111.5080945901785
 30
0.0
 10
85.72517223334302
 20
-111.5080945901785
 30
0.0
 10
84.69715574054446
 20
-111.5080945901785
 30
0.0
 10
84.69715574054446
 20
-111.5080945901785
 30
0.0
 10
84.72885061900877
 20
-111.1504936788096
 30
0.0
 10
84.79430743322851
 20
-111.0722900112944
 30
0.0
 10
85.17946910847944
 20
-110.7739447422718
 30
0.0
 10
85.43543970303351
 20
-110.5751627327729
 30
0.0
 10
85.50089651725325
 20
-110.5074666064877
 30
0.0
 10
85.50089651725325
 20
-110.3700072966263
 30
0.0
 10
85.50089651725325
 20
-110.2514960119337
 30
0.0
 10
85.4290662763858
 20
-110.1204101287199
 30
0.0
 10
85.23235132417803
 20
-110.1204101287199
 30
0.0
 10
84.9720743602674
 20
-110.1204101287199
 30
0.0
 10
84.96363387632854
 20
-110.3508870166831
 30
0.0
 10
84.95932750697197
 20
-110.4673312440846
 30
0.0
 10
84.95932750697197
 20
-110.4673312440846
 30
0.0
 10
84.73522404565648
 20
-110.4673312440846
 30
0.0
 10
84.73522404565648
 20
-110.4673312440846
 30
0.0
 10
84.74366452959534
 20
-110.3403794754531
 30
0.0
 10
84.75417207082535
 20
-110.2282416174082
 30
0.0
 10
84.83461505040593
 20
-110.1097303327156
 30
0.0
 10
84.9445135963854
 20
-109.9490166283287
 30
0.0
 10
85.13072100736316
 20
-109.915082437799
 30
0.0
 10
85.24716523476461
 20
-109.915082437799
 30
0.0
 10
85.52432316655295
 20
-109.915082437799
 30
0.0
 10
85.73154565999073
 20
-110.0992227914856
 30
0.0
 10
85.73154565999073
 20
-110.3720743539174
 30
0.0
 10
85.73154565999073
 20
-110.6004841845895
 30
0.0
 10
85.61527368736354
 20
-110.7000474441132
 30
0.0
 10
85.3064208771109
 20
-110.9263902174941
 30
0.0
  0
HATCH
  5
CD
330
C8
100
AcDbEntity
  8
_U+30EC_U+30A4_U+30E4_U+30FC 1
 62
     7
420
 16777215
100
AcDbHatch
 10
0.0
 20
0.0
 30
0.0
210
0.0
220
0.0
230
1.0
  2
SOLID
 70
     1
 71
     0
 91
        1
 92
        1
 93
        1
 72
     4
 94
        3
 73
     0
 74
     1
 95
       44
 96
       40
 40
0.0
 40
0.0
 40
0.0
 40
0.0
 40
1.0
 40
1.0
 40
1.0
 40
2.0
 40
2.0
 40
2.0
 40
3.0
 40
3.0
 40
3.0
 40
4.0
 40
4.0
 40
4.0
 40
5.0
 40
5.0
 40
5.0
 40
6.0
 40
6.0
 40
6.0
 40
7.0
 40
7.0
 40
7.0
 40
8.0
 40
8.0
 40
8.0
 40
9.0
 40
9.0
 40
9.0
 40
10.0
 40
10.0
 40
10.0
 40
11.0
 40
11.0
 40
11.0
 40
12.0
 40
12.0
 40
12.0
 40
13.0
 40
13.0
 40
13.0
 40
13.0
 10
85.3064208771109
 20
-110.9263902174941
 10
85.08851858766884
 20
-111.0850368645899
 10
84.99532875479284
 20
-111.1591064175227
 10
84.94675290845082
 20
-111.3029391540319
 10
84.94675290845082
 20
-111.3029391540319
 10
85.72517223334302
 20
-111.3029391540319
 10
85.72517223334302
 20
-111.3029391540319
 10
85.72517223334302
 20
-111.3029391540319
 10
85.72517223334302
 20
-111.5080945901785
 10
85.72517223334302
 20
-111.5080945901785
 10
85.72517223334302
 20
-111.5080945901785
 10
84.69715574054446
 20
-111.5080945901785
 10
84.69715574054446
 20
-111.5080945901785
 10
84.72885061900877
 20
-111.1504936788096
 10
84.79430743322851
 20
-111.0722900112944
 10
85.17946910847944
 20
-110.7739447422718
 10
85.43543970303351
 20
-110.5751627327729
 10
85.50089651725325
 20
-110.5074666064877
 10
85.50089651725325
 20
-110.3700072966263
 10
85.50089651725325
 20
-110.2514960119337
 10
85.4290662763858
 20
-110.1204101287199
 10
85.23235132417803
 20
-110.1204101287199
 10
84.9720743602674
 20
-110.1204101287199
 10
84.96363387632854
 20
-110.3508870166831
 10
84.95932750697197
 20
-110.4673312440846
 10
84.95932750697197
 20
-110.4673312440846
 10
84.73522404565648
 20
-110.4673312440846
 10
84.73522404565648
 20
-110.4673312440846
 10
84.74366452959534
 20
-110.3403794754531
 10
84.75417207082535
 20
-110.2282416174082
 10
84.83461505040593
 20
-110.1097303327156
 10
84.9445135963854
 20
-109.9490166283287
 10
85.13072100736316
 20
-109.915082437799
 10
85.24716523476461
 20
-109.915082437799
 10
85.52432316655295
 20
-109.915082437799
 10
85.73154565999073
 20
-110.0992227914856
 10
85.73154565999073
 20
-110.3720743539174
 10
85.73154565999073
 20
-110.6004841845895
 10
85.61527368736354
 20
-110.7000474441132
 10
85.3064208771109
 20
-110.9263902174941
 97
        0
 97
        0
 75
     2
 76
     1
 98
        0
  0
SPLINE
  5
CE
330
C8
100
AcDbEntity
  8
_U+30EC_U+30A4_U+30E4_U+30FC 1
370
     0
100
AcDbSpline
210
0.0
220
0.0
230
1.0
 70
    11
 71
     3
 72
    53
 73
    49
 74
     0
 42
0.0000000001
 43
0.0000000001
 12
1.0
 22
0.0
 32
0.0
 13
1.0
 23
0.0
 33
0.0
 40
0.0
 40
0.0
 40
0.0
 40
0.0
 40
1.0
 40
1.0
 40
1.0
 40
2.0
 40
2.0
 40
2.0
 40
3.0
 40
3.0
 40
3.0
 40
4.0
 40
4.0
 40
4.0
 40
5.0
 40
5.0
 40
5.0
 40
6.0
 40
6.0
 40
6.0
 40
7.0
 40
7.0
 40
7.0
 40
8.0
 40
8.0
 40
8.0
 40
9.0
 40
9.0
 40
9.0
 40
10.0
 40
10.0
 40
10.0
 40
11.0
 40
11.0
 40
11.0
 40
12.0
 40
12.0
 40
12.0
 40
13.0
 40
13.0
 40
13.0
 40
14.0
 40
14.0
 40
14.0
 40
15.0
 40
15.0
 40
15.0
 40
16.0
 40
16.0
 40
16.0
 40
16.0
 10
86.37112763682737
 20
-111.558909748586
 30
0.0
 10
86.29292396931218
 20
-111.558909748586
 30
0.0
 10
86.19129365249732
 20
-111.541856525934
 30
0.0
 10
86.08966333568245
 20
-111.4784667690054
 30
0.0
 10
85.91637503277438
 20
-111.3683959682517
 30
0.0
 10
85.89501544076583
 20
-111.2373100850379
 30
0.0
 10
85.87606741559696
 20
-111.1294785963496
 30
0.0
 10
85.87606741559696
 20
-111.1294785963496
 30
0.0
 10
86.09827607439557
 20
-111.1294785963496
 30
0.0
 10
86.09827607439557
 20
-111.1294785963496
 30
0.0
 10
86.15305309261105
 20
-111.3282606058485
 30
0.0
 10
86.28017711601676
 20
-111.3578884270216
 30
0.0
 10
86.37319469411851
 20
-111.3578884270216
 30
0.0
 10
86.51272106127112
 20
-111.3578884270216
 30
0.0
 10
86.66499428171917
 20
-111.2584974222722
 30
0.0
 10
86.66499428171917
 20
-111.0257812222436
 30
0.0
 10
86.66499428171917
 20
-110.7698106276895
 30
0.0
 10
86.48516029738913
 20
-110.7000474441132
 30
0.0
 10
86.36458195540538
 20
-110.7000474441132
 30
0.0
 10
86.33288707694109
 20
-110.7000474441132
 30
0.0
 10
86.19129365249732
 20
-110.7000474441132
 30
0.0
 10
86.10241018897787
 20
-110.8290662700358
 30
0.0
 10
86.10241018897787
 20
-110.8290662700358
 30
0.0
 10
85.92671031923012
 20
-110.8099459900927
 30
0.0
 10
85.92671031923012
 20
-110.8099459900927
 30
0.0
 10
85.92671031923012
 20
-110.8099459900927
 30
0.0
 10
86.04728866121387
 20
-109.9638305389153
 30
0.0
 10
86.04728866121387
 20
-109.9638305389153
 30
0.0
 10
86.04728866121387
 20
-109.9638305389153
 30
0.0
 10
86.82588024088034
 20
-109.9638305389153
 30
0.0
 10
86.82588024088034
 20
-109.9638305389153
 30
0.0
 10
86.82588024088034
 20
-109.9638305389153
 30
0.0
 10
86.82588024088034
 20
-110.1584784338319
 30
0.0
 10
86.82588024088034
 20
-110.1584784338319
 30
0.0
 10
86.82588024088034
 20
-110.1584784338319
 30
0.0
 10
86.21024167766619
 20
-110.1584784338319
 30
0.0
 10
86.21024167766619
 20
-110.1584784338319
 30
0.0
 10
86.21024167766619
 20
-110.1584784338319
 30
0.0
 10
86.14478486344645
 20
-110.5815361594206
 30
0.0
 10
86.14478486344645
 20
-110.5815361594206
 30
0.0
 10
86.20610756308389
 20
-110.5476019688909
 30
0.0
 10
86.28844534518136
 20
-110.5074666064877
 30
0.0
 10
86.40695662987396
 20
-110.5074666064877
 30
0.0
 10
86.66086016713687
 20
-110.5074666064877
 30
0.0
 10
86.89788273652206
 20
-110.6936740174655
 30
0.0
 10
86.89788273652206
 20
-111.0066609423004
 30
0.0
 10
86.89788273652206
 20
-111.3241264912662
 30
0.0
 10
86.6736070204323
 20
-111.558909748586
 30
0.0
 10
86.37112763682737
 20
-111.558909748586
 30
0.0
  0
HATCH
  5
CF
330
C8
100
AcDbEntity
  8
_U+30EC_U+30A4_U+30E4_U+30FC 1
 62
     7
420
 16777215
100
AcDbHatch
 10
0.0
 20
0.0
 30
0.0
210
0.0
220
0.0
230
1.0
  2
SOLID
 70
     1
 71
     0
 91
        1
 92
        1
 93
        1
 72
     4
 94
        3
 73
     0
 74
     1
 95
       53
 96
       49
 40
0.0
 40
0.0
 40
0.0
 40
0.0
 40
1.0
 40
1.0
 40
1.0
 40
2.0
 40
2.0
 40
2.0
 40
3.0
 40
3.0
 40
3.0
 40
4.0
 40
4.0
 40
4.0
 40
5.0
 40
5.0
 40
5.0
 40
6.0
 40
6.0
 40
6.0
 40
7.0
 40
7.0
 40
7.0
 40
8.0
 40
8.0
 40
8.0
 40
9.0
 40
9.0
 40
9.0
 40
10.0
 40
10.0
 40
10.0
 40
11.0
 40
11.0
 40
11.0
 40
12.0
 40
12.0
 40
12.0
 40
13.0
 40
13.0
 40
13.0
 40
14.0
 40
14.0
 40
14.0
 40
15.0
 40
15.0
 40
15.0
 40
16.0
 40
16.0
 40
16.0
 40
16.0
 10
86.37112763682737
 20
-111.558909748586
 10
86.29292396931218
 20
-111.558909748586
 10
86.19129365249732
 20
-111.541856525934
 10
86.08966333568245
 20
-111.4784667690054
 10
85.91637503277438
 20
-111.3683959682517
 10
85.89501544076583
 20
-111.2373100850379
 10
85.87606741559696
 20
-111.1294785963496
 10
85.87606741559696
 20
-111.1294785963496
 10
86.09827607439557
 20
-111.1294785963496
 10
86.09827607439557
 20
-111.1294785963496
 10
86.15305309261105
 20
-111.3282606058485
 10
86.28017711601676
 20
-111.3578884270216
 10
86.37319469411851
 20
-111.3578884270216
 10
86.51272106127112
 20
-111.3578884270216
 10
86.66499428171917
 20
-111.2584974222722
 10
86.66499428171917
 20
-111.0257812222436
 10
86.66499428171917
 20
-110.7698106276895
 10
86.48516029738913
 20
-110.7000474441132
 10
86.36458195540538
 20
-110.7000474441132
 10
86.33288707694109
 20
-110.7000474441132
 10
86.19129365249732
 20
-110.7000474441132
 10
86.10241018897787
 20
-110.8290662700358
 10
86.10241018897787
 20
-110.8290662700358
 10
85.92671031923012
 20
-110.8099459900927
 10
85.92671031923012
 20
-110.8099459900927
 10
85.92671031923012
 20
-110.8099459900927
 10
86.04728866121387
 20
-109.9638305389153
 10
86.04728866121387
 20
-109.9638305389153
 10
86.04728866121387
 20
-109.9638305389153
 10
86.82588024088034
 20
-109.9638305389153
 10
86.82588024088034
 20
-109.9638305389153
 10
86.82588024088034
 20
-109.9638305389153
 10
86.82588024088034
 20
-110.1584784338319
 10
86.82588024088034
 20
-110.1584784338319
 10
86.82588024088034
 20
-110.1584784338319
 10
86.21024167766619
 20
-110.1584784338319
 10
86.21024167766619
 20
-110.1584784338319
 10
86.21024167766619
 20
-110.1584784338319
 10
86.14478486344645
 20
-110.5815361594206
 10
86.14478486344645
 20
-110.5815361594206
 10
86.20610756308389
 20
-110.5476019688909
 10
86.28844534518136
 20
-110.5074666064877
 10
86.40695662987396
 20
-110.5074666064877
 10
86.66086016713687
 20
-110.5074666064877
 10
86.89788273652206
 20
-110.6936740174655
 10
86.89788273652206
 20
-111.0066609423004
 10
86.89788273652206
 20
-111.3241264912662
 10
86.6736070204323
 20
-111.558909748586
 10
86.37112763682737
 20
-111.558909748586
 97
        0
 97
        0
 75
     2
 76
     1
 98
        0
  0
ENDBLK
  5
CB
330
C8
100
AcDbEntity
  8
0
100
AcDbBlockEnd
  0
BLOCK
  5
DA
330
D8
100
AcDbEntity
  8
0
100
AcDbBlockBegin
  2
block 7
 70
     0
 10
0.0
 20
0.0
 30
0.0
  3
block 7
  1

  0
SPLINE
  5
DC
330
D8
100
AcDbEntity
  8
_U+30EC_U+30A4_U+30E4_U+30FC 1
370
     0
100
AcDbSpline
210
0.0
220
0.0
230
1.0
 70
    11
 71
     3
 72
    44
 73
    40
 74
     0
 42
0.0000000001
 43
0.0000000001
 12
1.0
 22
0.0
 32
0.0
 13
1.0
 23
0.0
 33
0.0
 40
0.0
 40
0.0
 40
0.0
 40
0.0
 40
1.0
 40
1.0
 40
1.0
 40
2.0
 40
2.0
 40
2.0
 40
3.0
 40
3.0
 40
3.0
 40
4.0
 40
4.0
 40
4.0
 40
5.0
 40
5.0
 40
5.0
 40
6.0
 40
6.0
 40
6.0
 40
7.0
 40
7.0
 40
7.0
 40
8.0
 40
8.0
 40
8.0
 40
9.0
 40
9.0
 40
9.0
 40
10.0
 40
10.0
 40
10.0
 40
11.0
 40
11.0
 40
11.0
 40
12.0
 40
12.0
 40
12.0
 40
13.0
 40
13.0
 40
13.0
 40
13.0
 10
101.0735893844538
 20
-128.6942979278959
 30
0.0
 10
101.2324082863238
 20
-128.9120279625637
 30
0.0
 10
101.3064778392567
 20
-129.0050455406654
 30
0.0
 10
101.4501383209916
 20
-129.053965896556
 30
0.0
 10
101.4501383209916
 20
-129.053965896556
 30
0.0
 10
101.4501383209916
 20
-128.2753743168895
 30
0.0
 10
101.4501383209916
 20
-128.2753743168895
 30
0.0
 10
101.4501383209916
 20
-128.2753743168895
 30
0.0
 10
101.6554660119125
 20
-128.2753743168895
 30
0.0
 10
101.6554660119125
 20
-128.2753743168895
 30
0.0
 10
101.6554660119125
 20
-128.2753743168895
 30
0.0
 10
101.6554660119125
 20
-129.303390809688
 30
0.0
 10
101.6554660119125
 20
-129.303390809688
 30
0.0
 10
101.2978651005436
 20
-129.2716959312237
 30
0.0
 10
101.2196614330284
 20
-129.206239117004
 30
0.0
 10
100.9213161640058
 20
-128.8210774417531
 30
0.0
 10
100.7225341545069
 20
-128.565106847199
 30
0.0
 10
100.6546657734474
 20
-128.4996500329792
 30
0.0
 10
100.517206463586
 20
-128.4996500329792
 30
0.0
 10
100.3986951788934
 20
-128.4996500329792
 30
0.0
 10
100.2677815504539
 20
-128.571652528621
 30
0.0
 10
100.2677815504539
 20
-128.7683674808287
 30
0.0
 10
100.2677815504539
 20
-129.0284721899651
 30
0.0
 10
100.4982584384171
 20
-129.0367404191297
 30
0.0
 10
100.6147026658186
 20
-129.0412190432605
 30
0.0
 10
100.6147026658186
 20
-129.0412190432605
 30
0.0
 10
100.6147026658186
 20
-129.2654947593503
 30
0.0
 10
100.6147026658186
 20
-129.2654947593503
 30
0.0
 10
100.4875786424128
 20
-129.2568820206372
 30
0.0
 10
100.3756130391422
 20
-129.2462022246329
 30
0.0
 10
100.2571017544496
 20
-129.1659314998266
 30
0.0
 10
100.0962157952884
 20
-129.0560329538471
 30
0.0
 10
100.062453859533
 20
-128.8696532880951
 30
0.0
 10
100.062453859533
 20
-128.7535535702422
 30
0.0
 10
100.062453859533
 20
-128.4762233836796
 30
0.0
 10
100.2464219584453
 20
-128.2688286354675
 30
0.0
 10
100.5192735208771
 20
-128.2688286354675
 30
0.0
 10
100.7480278610977
 20
-128.2688286354675
 30
0.0
 10
100.8472466110729
 20
-128.385272862869
 30
0.0
 10
101.0735893844538
 20
-128.6942979278959
 30
0.0
  0
HATCH
  5
DD
330
D8
100
AcDbEntity
  8
_U+30EC_U+30A4_U+30E4_U+30FC 1
 62
     7
420
 16777215
100
AcDbHatch
 10
0.0
 20
0.0
 30
0.0
210
0.0
220
0.0
230
1.0
  2
SOLID
 70
     1
 71
     0
 91
        1
 92
        1
 93
        1
 72
     4
 94
        3
 73
     0
 74
     1
 95
       44
 96
       40
 40
0.0
 40
0.0
 40
0.0
 40
0.0
 40
1.0
 40
1.0
 40
1.0
 40
2.0
 40
2.0
 40
2.0
 40
3.0
 40
3.0
 40
3.0
 40
4.0
 40
4.0
 40
4.0
 40
5.0
 40
5.0
 40
5.0
 40
6.0
 40
6.0
 40
6.0
 40
7.0
 40
7.0
 40
7.0
 40
8.0
 40
8.0
 40
8.0
 40
9.0
 40
9.0
 40
9.0
 40
10.0
 40
10.0
 40
10.0
 40
11.0
 40
11.0
 40
11.0
 40
12.0
 40
12.0
 40
12.0
 40
13.0
 40
13.0
 40
13.0
 40
13.0
 10
101.0735893844538
 20
-128.6942979278959
 10
101.2324082863238
 20
-128.9120279625637
 10
101.3064778392567
 20
-129.0050455406654
 10
101.4501383209916
 20
-129.053965896556
 10
101.4501383209916
 20
-129.053965896556
 10
101.4501383209916
 20
-128.2753743168895
 10
101.4501383209916
 20
-128.2753743168895
 10
101.4501383209916
 20
-128.2753743168895
 10
101.6554660119125
 20
-128.2753743168895
 10
101.6554660119125
 20
-128.2753743168895
 10
101.6554660119125
 20
-128.2753743168895
 10
101.6554660119125
 20
-129.303390809688
 10
101.6554660119125
 20
-129.303390809688
 10
101.2978651005436
 20
-129.2716959312237
 10
101.2196614330284
 20
-129.206239117004
 10
100.9213161640058
 20
-128.8210774417531
 10
100.7225341545069
 20
-128.565106847199
 10
100.6546657734474
 20
-128.4996500329792
 10
100.517206463586
 20
-128.4996500329792
 10
100.3986951788934
 20
-128.4996500329792
 10
100.2677815504539
 20
-128.571652528621
 10
100.2677815504539
 20
-128.7683674808287
 10
100.2677815504539
 20
-129.0284721899651
 10
100.4982584384171
 20
-129.0367404191297
 10
100.6147026658186
 20
-129.0412190432605
 10
100.6147026658186
 20
-129.0412190432605
 10
100.6147026658186
 20
-129.2654947593503
 10
100.6147026658186
 20
-129.2654947593503
 10
100.4875786424128
 20
-129.2568820206372
 10
100.3756130391422
 20
-129.2462022246329
 10
100.2571017544496
 20
-129.1659314998266
 10
100.0962157952884
 20
-129.0560329538471
 10
100.062453859533
 20
-128.8696532880951
 10
100.062453859533
 20
-128.7535535702422
 10
100.062453859533
 20
-128.4762233836796
 10
100.2464219584453
 20
-128.2688286354675
 10
100.5192735208771
 20
-128.2688286354675
 10
100.7480278610977
 20
-128.2688286354675
 10
100.8472466110729
 20
-128.385272862869
 10
101.0735893844538
 20
-128.6942979278959
 97
        0
 97
        0
 75
     2
 76
     1
 98
        0
  0
SPLINE
  5
DE
330
D8
100
AcDbEntity
  8
_U+30EC_U+30A4_U+30E4_U+30FC 1
370
     0
100
AcDbSpline
210
0.0
220
0.0
230
1.0
 70
    11
 71
     3
 72
    44
 73
    40
 74
     0
 42
0.0000000001
 43
0.0000000001
 12
1.0
 22
0.0
 32
0.0
 13
1.0
 23
0.0
 33
0.0
 40
0.0
 40
0.0
 40
0.0
 40
0.0
 40
1.0
 40
1.0
 40
1.0
 40
2.0
 40
2.0
 40
2.0
 40
3.0
 40
3.0
 40
3.0
 40
4.0
 40
4.0
 40
4.0
 40
5.0
 40
5.0
 40
5.0
 40
6.0
 40
6.0
 40
6.0
 40
7.0
 40
7.0
 40
7.0
 40
8.0
 40
8.0
 40
8.0
 40
9.0
 40
9.0
 40
9.0
 40
10.0
 40
10.0
 40
10.0
 40
11.0
 40
11.0
 40
11.0
 40
12.0
 40
12.0
 40
12.0
 40
13.0
 40
13.0
 40
13.0
 40
13.0
 10
101.0735893844538
 20
-127.5174533101345
 30
0.0
 10
101.2324082863238
 20
-127.7351833448023
 30
0.0
 10
101.3064778392567
 20
-127.8282009229041
 30
0.0
 10
101.4501383209916
 20
-127.8771212787946
 30
0.0
 10
101.4501383209916
 20
-127.8771212787946
 30
0.0
 10
101.4501383209916
 20
-127.0985296991282
 30
0.0
 10
101.4501383209916
 20
-127.0985296991282
 30
0.0
 10
101.4501383209916
 20
-127.0985296991282
 30
0.0
 10
101.6554660119125
 20
-127.0985296991282
 30
0.0
 10
101.6554660119125
 20
-127.0985296991282
 30
0.0
 10
101.6554660119125
 20
-127.0985296991282
 30
0.0
 10
101.6554660119125
 20
-128.1265461919267
 30
0.0
 10
101.6554660119125
 20
-128.1265461919267
 30
0.0
 10
101.2978651005436
 20
-128.0948513134624
 30
0.0
 10
101.2196614330284
 20
-128.0293944992427
 30
0.0
 10
100.9213161640058
 20
-127.6442328239917
 30
0.0
 10
100.7225341545069
 20
-127.3882622294377
 30
0.0
 10
100.6546657734474
 20
-127.3228054152179
 30
0.0
 10
100.517206463586
 20
-127.3228054152179
 30
0.0
 10
100.3986951788934
 20
-127.3228054152179
 30
0.0
 10
100.2677815504539
 20
-127.3948079108596
 30
0.0
 10
100.2677815504539
 20
-127.5915228630674
 30
0.0
 10
100.2677815504539
 20
-127.8516275722038
 30
0.0
 10
100.4982584384171
 20
-127.8598958013684
 30
0.0
 10
100.6147026658186
 20
-127.8643744254992
 30
0.0
 10
100.6147026658186
 20
-127.8643744254992
 30
0.0
 10
100.6147026658186
 20
-128.0886501415889
 30
0.0
 10
100.6147026658186
 20
-128.0886501415889
 30
0.0
 10
100.4875786424128
 20
-128.0800374028758
 30
0.0
 10
100.3756130391422
 20
-128.0693576068716
 30
0.0
 10
100.2571017544496
 20
-127.9890868820652
 30
0.0
 10
100.0962157952884
 20
-127.8791883360858
 30
0.0
 10
100.062453859533
 20
-127.6928086703337
 30
0.0
 10
100.062453859533
 20
-127.5767089524808
 30
0.0
 10
100.062453859533
 20
-127.2993787659182
 30
0.0
 10
100.2464219584453
 20
-127.0919840177062
 30
0.0
 10
100.5192735208771
 20
-127.0919840177062
 30
0.0
 10
100.7480278610977
 20
-127.0919840177062
 30
0.0
 10
100.8472466110729
 20
-127.2084282451076
 30
0.0
 10
101.0735893844538
 20
-127.5174533101345
 30
0.0
  0
HATCH
  5
DF
330
D8
100
AcDbEntity
  8
_U+30EC_U+30A4_U+30E4_U+30FC 1
 62
     7
420
 16777215
100
AcDbHatch
 10
0.0
 20
0.0
 30
0.0
210
0.0
220
0.0
230
1.0
  2
SOLID
 70
     1
 71
     0
 91
        1
 92
        1
 93
        1
 72
     4
 94
        3
 73
     0
 74
     1
 95
       44
 96
       40
 40
0.0
 40
0.0
 40
0.0
 40
0.0
 40
1.0
 40
1.0
 40
1.0
 40
2.0
 40
2.0
 40
2.0
 40
3.0
 40
3.0
 40
3.0
 40
4.0
 40
4.0
 40
4.0
 40
5.0
 40
5.0
 40
5.0
 40
6.0
 40
6.0
 40
6.0
 40
7.0
 40
7.0
 40
7.0
 40
8.0
 40
8.0
 40
8.0
 40
9.0
 40
9.0
 40
9.0
 40
10.0
 40
10.0
 40
10.0
 40
11.0
 40
11.0
 40
11.0
 40
12.0
 40
12.0
 40
12.0
 40
13.0
 40
13.0
 40
13.0
 40
13.0
 10
101.0735893844538
 20
-127.5174533101345
 10
101.2324082863238
 20
-127.7351833448023
 10
101.3064778392567
 20
-127.8282009229041
 10
101.4501383209916
 20
-127.8771212787946
 10
101.4501383209916
 20
-127.8771212787946
 10
101.4501383209916
 20
-127.0985296991282
 10
101.4501383209916
 20
-127.0985296991282
 10
101.4501383209916
 20
-127.0985296991282
 10
101.6554660119125
 20
-127.0985296991282
 10
101.6554660119125
 20
-127.0985296991282
 10
101.6554660119125
 20
-127.0985296991282
 10
101.6554660119125
 20
-128.1265461919267
 10
101.6554660119125
 20
-128.1265461919267
 10
101.2978651005436
 20
-128.0948513134624
 10
101.2196614330284
 20
-128.0293944992427
 10
100.9213161640058
 20
-127.6442328239917
 10
100.7225341545069
 20
-127.3882622294377
 10
100.6546657734474
 20
-127.3228054152179
 10
100.517206463586
 20
-127.3228054152179
 10
100.3986951788934
 20
-127.3228054152179
 10
100.2677815504539
 20
-127.3948079108596
 10
100.2677815504539
 20
-127.5915228630674
 10
100.2677815504539
 20
-127.8516275722038
 10
100.4982584384171
 20
-127.8598958013684
 10
100.6147026658186
 20
-127.8643744254992
 10
100.6147026658186
 20
-127.8643744254992
 10
100.6147026658186
 20
-128.0886501415889
 10
100.6147026658186
 20
-128.0886501415889
 10
100.4875786424128
 20
-128.0800374028758
 10
100.3756130391422
 20
-128.0693576068716
 10
100.2571017544496
 20
-127.9890868820652
 10
100.0962157952884
 20
-127.8791883360858
 10
100.062453859533
 20
-127.6928086703337
 10
100.062453859533
 20
-127.5767089524808
 10
100.062453859533
 20
-127.2993787659182
 10
100.2464219584453
 20
-127.0919840177062
 10
100.5192735208771
 20
-127.0919840177062
 10
100.7480278610977
 20
-127.0919840177062
 10
100.8472466110729
 20
-127.2084282451076
 10
101.0735893844538
 20
-127.5174533101345
 97
        0
 97
        0
 75
     2
 76
     1
 98
        0
  0
ENDBLK
  5
DB
330
D8
100
AcDbEntity
  8
0
100
AcDbBlockEnd
  0
ENDSEC
  0
SECTION
  2
ENTITIES
  0
INSERT
  5
42
330
1F
100
AcDbEntity
  8
_U+30EC_U+30A4_U+30E4_U+30FC 1
100
AcDbBlockReference
  2
block 2
 10
0.0
 20
0.0
 30
0.0
  0
ENDSEC
  0
SECTION
  2
OBJECTS
  0
DICTIONARY
  5
C
330
0
100
AcDbDictionary
281
     1
  3
ACAD_GROUP
350
D
  3
ACAD_LAYOUT
350
1A
  3
ACAD_MATERIAL
350
3B
  3
ACAD_MLEADERSTYLE
350
E1
  3
ACAD_MLINESTYLE
350
17
  3
ACAD_PLOTSETTINGS
350
19
  3
ACAD_PLOTSTYLENAME
350
E
  3
ACAD_TABLESTYLE
350
E0
  3
ACAD_VISUALSTYLE
350
2A
  0
SUN
  5
3F
330
29
100
AcDbSun
 90
        1
290
     0
 63
     7
421
 16777215
 40
1.0
291
     1
 91
  2455826
 92
 54000000
292
     0
 70
     2
 71
   256
280
     1
  0
DICTIONARY
  5
D
102
{ACAD_REACTORS
330
C
102
}
330
C
100
AcDbDictionary
281
     1
  0
DICTIONARY
  5
1A
102
{ACAD_REACTORS
330
C
102
}
330
C
100
AcDbDictionary
281
     1
  3
Layout1
350
1E
  3
Layout2
350
26
  3
Model
350
22
  0
DICTIONARY
  5
3B
102
{ACAD_REACTORS
330
C
102
}
330
C
100
AcDbDictionary
281
     1
  3
ByBlock
350
3D
  3
ByLayer
350
3C
  3
Global
350
3E
  0
DICTIONARY
  5
E1
102
{ACAD_REACTORS
330
C
102
}
330
C
100
AcDbDictionary
281
     1
  0
DICTIONARY
  5
17
102
{ACAD_REACTORS
330
C
102
}
330
C
100
AcDbDictionary
281
     1
  3
Standard
350
18
  0
DICTIONARY
  5
19
102
{ACAD_REACTORS
330
C
102
}
330
C
100
AcDbDictionary
281
     1
  0
ACDBDICTIONARYWDFLT
  5
E
102
{ACAD_REACTORS
330
C
102
}
330
C
100
AcDbDictionary
281
     1
  3
Normal
350
F
100
AcDbDictionaryWithDefault
340
F
  0
DICTIONARY
  5
E0
102
{ACAD_REACTORS
330
C
102
}
330
C
100
AcDbDictionary
281
     1
  0
DICTIONARY
  5
2A
102
{ACAD_REACTORS
330
C
102
}
330
C
100
AcDbDictionary
281
     1
  3
2dWireframe
350
2F
  3
3D Hidden
350
31
  3
3dWireframe
350
30
  3
Basic
350
32
  3
Brighten
350
36
  3
ColorChange
350
3A
  3
Conceptual
350
34
  3
Dim
350
35
  3
Facepattern
350
39
  3
Flat
350
2B
  3
FlatWithEdges
350
2C
  3
Gouraud
350
2D
  3
GouraudWithEdges
350
2E
  3
Linepattern
350
38
  3
Realistic
350
33
  3
Thicken
350
37
  0
LAYOUT
  5
1E
102
{ACAD_REACTORS
330
1A
102
}
330
1A
100
AcDbPlotSettings
  1

  2
none_device
  4

  6

 40
0.0
 41
0.0
 42
0.0
 43
0.0
 44
0.0
 45
0.0
 46
0.0
 47
0.0
 48
0.0
 49
0.0
140
0.0
141
0.0
142
1.0
143
1.0
 70
   688
 72
     0
 73
     0
 74
     5
  7

 75
    16
 76
     0
 77
     2
 78
   300
147
1.0
148
0.0
149
0.0
100
AcDbLayout
  1
Layout1
 70
     1
 71
     1
 10
0.0
 20
0.0
 11
12.0
 21
9.0
 12
0.0
 22
0.0
 32
0.0
 14
1.000000000000000E+20
 24
1.000000000000000E+20
 34
1.000000000000000E+20
 15
-1.000000000000000E+20
 25
-1.000000000000000E+20
 35
-1.000000000000000E+20
146
0.0
 13
0.0
 23
0.0
 33
0.0
 16
1.0
 26
0.0
 36
0.0
 17
0.0
 27
1.0
 37
0.0
 76
     0
330
1B
  0
LAYOUT
  5
26
102
{ACAD_REACTORS
330
1A
102
}
330
1A
100
AcDbPlotSettings
  1

  2
none_device
  4

  6

 40
0.0
 41
0.0
 42
0.0
 43
0.0
 44
0.0
 45
0.0
 46
0.0
 47
0.0
 48
0.0
 49
0.0
140
0.0
141
0.0
142
1.0
143
1.0
 70
   688
 72
     0
 73
     0
 74
     5
  7

 75
    16
 76
     0
 77
     2
 78
   300
147
1.0
148
0.0
149
0.0
100
AcDbLayout
  1
Layout2
 70
     1
 71
     2
 10
0.0
 20
0.0
 11
0.0
 21
0.0
 12
0.0
 22
0.0
 32
0.0
 14
0.0
 24
0.0
 34
0.0
 15
0.0
 25
0.0
 35
0.0
146
0.0
 13
0.0
 23
0.0
 33
0.0
 16
1.0
 26
0.0
 36
0.0
 17
0.0
 27
1.0
 37
0.0
 76
     0
330
23
  0
LAYOUT
  5
22
102
{ACAD_REACTORS
330
1A
102
}
330
1A
100
AcDbPlotSettings
  1

  2
none_device
  4

  6

 40
0.0
 41
0.0
 42
0.0
 43
0.0
 44
0.0
 45
0.0
 46
0.0
 47
0.0
 48
0.0
 49
0.0
140
0.0
141
0.0
142
1.0
143
1.0
 70
  1712
 72
     0
 73
     0
 74
     0
  7

 75
     0
 76
     0
 77
     2
 78
   300
147
1.0
148
0.0
149
0.0
100
AcDbLayout
  1
Model
 70
     1
 71
     0
 10
0.0
 20
0.0
 11
12.0
 21
9.0
 12
0.0
 22
0.0
 32
0.0
 14
1.000000000000000E+20
 24
1.000000000000000E+20
 34
1.000000000000000E+20
 15
-1.000000000000000E+20
 25
-1.000000000000000E+20
 35
-1.000000000000000E+20
146
0.0
 13
0.0
 23
0.0
 33
0.0
 16
1.0
 26
0.0
 36
0.0
 17
0.0
 27
1.0
 37
0.0
 76
     0
330
1F
331
29
  0
MATERIAL
  5
3D
102
{ACAD_REACTORS
330
3B
102
}
330
3B
100
AcDbMaterial
  1
ByBlock
 72
     1
 94
      127
  0
MATERIAL
  5
3C
102
{ACAD_REACTORS
330
3B
102
}
330
3B
100
AcDbMaterial
  1
ByLayer
 72
     1
 94
      127
  0
MATERIAL
  5
3E
102
{ACAD_REACTORS
330
3B
102
}
330
3B
100
AcDbMaterial
  1
Global
 72
     1
 94
      127
  0
MLINESTYLE
  5
18
102
{ACAD_REACTORS
330
17
102
}
330
17
100
AcDbMlineStyle
  2
Standard
 70
     0
  3

 62
   256
 51
90.0
 52
90.0
 71
     2
 49
0.5
 62
   256
  6
BYLAYER
 49
-0.5
 62
   256
  6
BYLAYER
  0
ACDBPLACEHOLDER
  5
F
102
{ACAD_REACTORS
330
E
102
}
330
E
  0
VISUALSTYLE
  5
2F
102
{ACAD_REACTORS
330
2A
102
}
330
2A
100
AcDbVisualStyle
  2
2dWireframe
 70
     4
177
     2
291
     0
 71
     0
176
     1
 72
     2
176
     1
 73
     0
176
     1
 90
        0
176
     1
 40
-0.6
176
     1
 41
-30.0
176
     1
 62
     5
 63
     7
421
 16777215
176
     1
 74
     1
176
     1
 91
        4
176
     1
 64
     7
176
     1
 65
   257
176
     1
 75
     1
176
     1
175
     1
176
     1
 42
1.0
176
     1
 92
        0
176
     1
 66
   257
176
     1
 43
1.0
176
     1
 76
     1
176
     1
 77
     6
176
     1
 78
     2
176
     1
 67
     7
176
     1
 79
     5
176
     1
170
     0
176
     1
171
     0
176
     1
290
     0
176
     1
 93
        1
176
     1
 44
0.0
176
     1
173
     0
176
     1
  0
VISUALSTYLE
  5
31
102
{ACAD_REACTORS
330
2A
102
}
330
2A
100
AcDbVisualStyle
  2
3D Hidden
 70
     6
177
     2
291
     0
 71
     1
176
     1
 72
     2
176
     1
 73
     2
176
     1
 90
        0
176
     1
 40
-0.6
176
     1
 41
-30.0
176
     1
 62
     5
 63
     7
421
 16777215
176
     1
 74
     2
176
     1
 91
        2
176
     1
 64
     7
176
     1
 65
   257
176
     1
 75
     2
176
     1
175
     1
176
     1
 42
40.0
176
     1
 92
        0
176
     1
 66
   257
176
     1
 43
1.0
176
     1
 76
     1
176
     1
 77
     6
176
     1
 78
     2
176
     1
 67
     7
176
     1
 79
     3
176
     1
170
     0
176
     1
171
     0
176
     1
290
     0
176
     1
 93
        1
176
     1
 44
0.0
176
     1
173
     0
176
     1
  0
VISUALSTYLE
  5
30
102
{ACAD_REACTORS
330
2A
102
}
330
2A
100
AcDbVisualStyle
  2
3dWireframe
 70
     5
177
     2
291
     0
 71
     0
176
     1
 72
     2
176
     1
 73
     0
176
     1
 90
        0
176
     1
 40
-0.6
176
     1
 41
-30.0
176
     1
 62
     5
 63
     7
421
 16777215
176
     1
 74
     1
176
     1
 91
        4
176
     1
 64
     7
176
     1
 65
   257
176
     1
 75
     1
176
     1
175
     1
176
     1
 42
1.0
176
     1
 92
        0
176
     1
 66
   257
176
     1
 43
1.0
176
     1
 76
     1
176
     1
 77
     6
176
     1
 78
     2
176
     1
 67
     7
176
     1
 79
     5
176
     1
170
     0
176
     1
171
     0
176
     1
290
     0
176
     1
 93
        1
176
     1
 44
0.0
176
     1
173
     0
176
     1
  0
VISUALSTYLE
  5
32
102
{ACAD_REACTORS
330
2A
102
}
330
2A
100
AcDbVisualStyle
  2
Basic
 70
     7
177
     2
291
     1
 71
     1
176
     1
 72
     0
176
     1
 73
     1
176
     1
 90
        0
176
     1
 40
-0.6
176
     1
 41
-30.0
176
     1
 62
     5
 63
     7
421
 16777215
176
     1
 74
     0
176
     1
 91
        4
176
     1
 64
     7
176
     1
 65
   257
176
     1
 75
     1
176
     1
175
     1
176
     1
 42
1.0
176
     1
 92
        8
176
     1
 66
     7
176
     1
 43
1.0
176
     1
 76
     1
176
     1
 77
     6
176
     1
 78
     2
176
     1
 67
     7
176
     1
 79
     5
176
     1
170
     0
176
     1
171
     0
176
     1
290
     0
176
     1
 93
        1
176
     1
 44
0.0
176
     1
173
     0
176
     1
  0
VISUALSTYLE
  5
36
102
{ACAD_REACTORS
330
2A
102
}
330
2A
100
AcDbVisualStyle
  2
Brighten
 70
    12
177
     2
291
     1
 71
     2
176
     1
 72
     2
176
     1
 73
     0
176
     1
 90
        0
176
     1
 40
-0.6
176
     1
 41
-30.0
176
     1
 62
     5
 63
     7
421
 16777215
176
     1
 74
     1
176
     1
 91
        4
176
     1
 64
     7
176
     1
 65
   257
176
     1
 75
     1
176
     1
175
     1
176
     1
 42
1.0
176
     1
 92
        8
176
     1
 66
     7
176
     1
 43
1.0
176
     1
 76
     1
176
     1
 77
     6
176
     1
 78
     2
176
     1
 67
     7
176
     1
 79
     5
176
     1
170
     0
176
     1
171
     0
176
     1
290
     0
176
     1
 93
        1
176
     1
 44
50.0
176
     1
173
     0
176
     1
  0
VISUALSTYLE
  5
3A
102
{ACAD_REACTORS
330
2A
102
}
330
2A
100
AcDbVisualStyle
  2
ColorChange
 70
    16
177
     2
291
     1
 71
     2
176
     1
 72
     2
176
     1
 73
     3
176
     1
 90
        0
176
     1
 40
-0.6
176
     1
 41
-30.0
176
     1
 62
     5
 63
     8
421
  8421504
176
     1
 74
     1
176
     1
 91
        4
176
     1
 64
     7
176
     1
 65
   257
176
     1
 75
     1
176
     1
175
     1
176
     1
 42
1.0
176
     1
 92
        8
176
     1
 66
     8
424
  8421504
176
     1
 43
1.0
176
     1
 76
     1
176
     1
 77
     6
176
     1
 78
     2
176
     1
 67
     7
176
     1
 79
     5
176
     1
170
     0
176
     1
171
     0
176
     1
290
     0
176
     1
 93
        1
176
     1
 44
0.0
176
     1
173
     0
176
     1
  0
VISUALSTYLE
  5
34
102
{ACAD_REACTORS
330
2A
102
}
330
2A
100
AcDbVisualStyle
  2
Conceptual
 70
     9
177
     2
291
     0
 71
     3
176
     1
 72
     2
176
     1
 73
     0
176
     1
 90
        0
176
     1
 40
-0.6
176
     1
 41
-30.0
176
     1
 62
     5
 63
     7
421
 16777215
176
     1
 74
     2
176
     1
 91
        2
176
     1
 64
     7
176
     1
 65
   257
176
     1
 75
     1
176
     1
175
     1
176
     1
 42
40.0
176
     1
 92
        8
176
     1
 66
     7
176
     1
 43
1.0
176
     1
 76
     1
176
     1
 77
     6
176
     1
 78
     2
176
     1
 67
     7
176
     1
 79
     3
176
     1
170
     0
176
     1
171
     0
176
     1
290
     0
176
     1
 93
        1
176
     1
 44
0.0
176
     1
173
     0
176
     1
  0
VISUALSTYLE
  5
35
102
{ACAD_REACTORS
330
2A
102
}
330
2A
100
AcDbVisualStyle
  2
Dim
 70
    11
177
     2
291
     1
 71
     2
176
     1
 72
     2
176
     1
 73
     0
176
     1
 90
        0
176
     1
 40
-0.6
176
     1
 41
-30.0
176
     1
 62
     5
 63
     7
421
 16777215
176
     1
 74
     1
176
     1
 91
        4
176
     1
 64
     7
176
     1
 65
   257
176
     1
 75
     1
176
     1
175
     1
176
     1
 42
1.0
176
     1
 92
        8
176
     1
 66
     7
176
     1
 43
1.0
176
     1
 76
     1
176
     1
 77
     6
176
     1
 78
     2
176
     1
 67
     7
176
     1
 79
     5
176
     1
170
     0
176
     1
171
     0
176
     1
290
     0
176
     1
 93
        1
176
     1
 44
-50.0
176
     1
173
     0
176
     1
  0
VISUALSTYLE
  5
39
102
{ACAD_REACTORS
330
2A
102
}
330
2A
100
AcDbVisualStyle
  2
Facepattern
 70
    15
177
     2
291
     1
 71
     2
176
     1
 72
     2
176
     1
 73
     0
176
     1
 90
        0
176
     1
 40
-0.6
176
     1
 41
-30.0
176
     1
 62
     5
 63
     7
421
 16777215
176
     1
 74
     1
176
     1
 91
        4
176
     1
 64
     7
176
     1
 65
   257
176
     1
 75
     1
176
     1
175
     1
176
     1
 42
1.0
176
     1
 92
        8
176
     1
 66
     7
176
     1
 43
1.0
176
     1
 76
     1
176
     1
 77
     6
176
     1
 78
     2
176
     1
 67
     7
176
     1
 79
     5
176
     1
170
     0
176
     1
171
     0
176
     1
290
     0
176
     1
 93
        1
176
     1
 44
0.0
176
     1
173
     0
176
     1
  0
VISUALSTYLE
  5
2B
102
{ACAD_REACTORS
330
2A
102
}
330
2A
100
AcDbVisualStyle
  2
Flat
 70
     0
177
     2
291
     1
 71
     2
176
     1
 72
     1
176
     1
 73
     1
176
     1
 90
        2
176
     1
 40
-0.6
176
     1
 41
30.0
176
     1
 62
     5
 63
     7
421
 16777215
176
     1
 74
     0
176
     1
 91
        4
176
     1
 64
     7
176
     1
 65
   257
176
     1
 75
     1
176
     1
175
     1
176
     1
 42
1.0
176
     1
 92
        8
176
     1
 66
     7
176
     1
 43
1.0
176
     1
 76
     1
176
     1
 77
     6
176
     1
 78
     2
176
     1
 67
     7
176
     1
 79
     5
176
     1
170
     0
176
     1
171
     0
176
     1
290
     0
176
     1
 93
       13
176
     1
 44
0.0
176
     1
173
     0
176
     1
  0
VISUALSTYLE
  5
2C
102
{ACAD_REACTORS
330
2A
102
}
330
2A
100
AcDbVisualStyle
  2
FlatWithEdges
 70
     1
177
     2
291
     1
 71
     2
176
     1
 72
     1
176
     1
 73
     1
176
     1
 90
        2
176
     1
 40
-0.6
176
     1
 41
30.0
176
     1
 62
     5
 63
     7
421
 16777215
176
     1
 74
     1
176
     1
 91
        4
176
     1
 64
     7
176
     1
 65
   257
176
     1
 75
     1
176
     1
175
     1
176
     1
 42
1.0
176
     1
 92
        0
176
     1
 66
   257
176
     1
 43
1.0
176
     1
 76
     1
176
     1
 77
     6
176
     1
 78
     2
176
     1
 67
     7
176
     1
 79
     5
176
     1
170
     0
176
     1
171
     0
176
     1
290
     0
176
     1
 93
       13
176
     1
 44
0.0
176
     1
173
     0
176
     1
  0
VISUALSTYLE
  5
2D
102
{ACAD_REACTORS
330
2A
102
}
330
2A
100
AcDbVisualStyle
  2
Gouraud
 70
     2
177
     2
291
     1
 71
     2
176
     1
 72
     2
176
     1
 73
     1
176
     1
 90
        2
176
     1
 40
-0.6
176
     1
 41
30.0
176
     1
 62
     5
 63
     7
421
 16777215
176
     1
 74
     0
176
     1
 91
        4
176
     1
 64
     7
176
     1
 65
   257
176
     1
 75
     1
176
     1
175
     1
176
     1
 42
1.0
176
     1
 92
        0
176
     1
 66
     7
176
     1
 43
1.0
176
     1
 76
     1
176
     1
 77
     6
176
     1
 78
     2
176
     1
 67
     7
176
     1
 79
     5
176
     1
170
     0
176
     1
171
     0
176
     1
290
     0
176
     1
 93
       13
176
     1
 44
0.0
176
     1
173
     0
176
     1
  0
VISUALSTYLE
  5
2E
102
{ACAD_REACTORS
330
2A
102
}
330
2A
100
AcDbVisualStyle
  2
GouraudWithEdges
 70
     3
177
     2
291
     1
 71
     2
176
     1
 72
     2
176
     1
 73
     1
176
     1
 90
        2
176
     1
 40
-0.6
176
     1
 41
30.0
176
     1
 62
     5
 63
     7
421
 16777215
176
     1
 74
     1
176
     1
 91
        4
176
     1
 64
     7
176
     1
 65
   257
176
     1
 75
     1
176
     1
175
     1
176
     1
 42
1.0
176
     1
 92
        0
176
     1
 66
   257
176
     1
 43
1.0
176
     1
 76
     1
176
     1
 77
     6
176
     1
 78
     2
176
     1
 67
     7
176
     1
 79
     5
176
     1
170
     0
176
     1
171
     0
176
     1
290
     0
176
     1
 93
       13
176
     1
 44
0.0
176
     1
173
     0
176
     1
  0
VISUALSTYLE
  5
38
102
{ACAD_REACTORS
330
2A
102
}
330
2A
100
AcDbVisualStyle
  2
Linepattern
 70
    14
177
     2
291
     1
 71
     2
176
     1
 72
     2
176
     1
 73
     0
176
     1
 90
        0
176
     1
 40
-0.6
176
     1
 41
-30.0
176
     1
 62
     5
 63
     7
421
 16777215
176
     1
 74
     1
176
     1
 91
        4
176
     1
 64
     7
176
     1
 65
   257
176
     1
 75
     7
176
     1
175
     7
176
     1
 42
1.0
176
     1
 92
        8
176
     1
 66
     7
176
     1
 43
1.0
176
     1
 76
     1
176
     1
 77
     6
176
     1
 78
     2
176
     1
 67
     7
176
     1
 79
     5
176
     1
170
     0
176
     1
171
     0
176
     1
290
     0
176
     1
 93
        1
176
     1
 44
0.0
176
     1
173
     0
176
     1
  0
VISUALSTYLE
  5
33
102
{ACAD_REACTORS
330
2A
102
}
330
2A
100
AcDbVisualStyle
  2
Realistic
 70
     8
177
     2
291
     0
 71
     2
176
     1
 72
     2
176
     1
 73
     0
176
     1
 90
        0
176
     1
 40
-0.6
176
     1
 41
-30.0
176
     1
 62
     5
 63
     7
421
 16777215
176
     1
 74
     1
176
     1
 91
        0
176
     1
 64
     7
176
     1
 65
   257
176
     1
 75
     1
176
     1
175
     1
176
     1
 42
1.0
176
     1
 92
        8
176
     1
 66
     8
424
  7895160
176
     1
 43
1.0
176
     1
 76
     1
176
     1
 77
     6
176
     1
 78
     2
176
     1
 67
     7
176
     1
 79
     5
176
     1
170
     0
176
     1
171
     0
176
     1
290
     0
176
     1
 93
       13
176
     1
 44
0.0
176
     1
173
     0
176
     1
  0
VISUALSTYLE
  5
37
102
{ACAD_REACTORS
330
2A
102
}
330
2A
100
AcDbVisualStyle
  2
Thicken
 70
    13
177
     2
291
     1
 71
     2
176
     1
 72
     2
176
     1
 73
     0
176
     1
 90
        0
176
     1
 40
-0.6
176
     1
 41
-30.0
176
     1
 62
     5
 63
     7
421
 16777215
176
     1
 74
     1
176
     1
 91
        4
176
     1
 64
     7
176
     1
 65
   257
176
     1
 75
     1
176
     1
175
     1
176
     1
 42
1.0
176
     1
 92
       12
176
     1
 66
     7
176
     1
 43
1.0
176
     1
 76
     1
176
     1
 77
     6
176
     1
 78
     2
176
     1
 67
     7
176
     1
 79
     5
176
     1
170
     0
176
     1
171
     0
176
     1
290
     0
176
     1
 93
        1
176
     1
 44
0.0
176
     1
173
     0
176
     1
  0
ENDSEC
  0
EOF
