  0
SECTION
  2
HEADER
  9
$ACADVER
  1
AC1024
  9
$ACADMAINTVER
 70
     6
  9
$DWGCODEPAGE
  3
UNDEFINED
  9
$INSBASE
 10
0.0
 20
0.0
 30
0.0
  9
$EXTMIN
 10
1.000000000000000E+20
 20
1.000000000000000E+20
 30
1.000000000000000E+20
  9
$EXTMAX
 10
-1.000000000000000E+20
 20
-1.000000000000000E+20
 30
-1.000000000000000E+20
  9
$LIMMIN
 10
0.0
 20
0.0
  9
$LIMMAX
 10
12.0
 20
9.0
  9
$ORTHOMODE
 70
     0
  9
$REGENMODE
 70
     1
  9
$FILLMODE
 70
     1
  9
$QTEXTMODE
 70
     0
  9
$MIRRTEXT
 70
     1
  9
$LTSCALE
 40
1.0
  9
$ATTMODE
 70
     1
  9
$TEXTSIZE
 40
0.2
  9
$TRACEWID
 40
0.05
  9
$TEXTSTYLE
  7
Standard
  9
$CLAYER
  8
0
  9
$CELTYPE
  6
ByLayer
  9
$CECOLOR
 62
   256
  9
$CELTSCALE
 40
1.0
  9
$DISPSILH
 70
     0
  9
$DIMSCALE
 40
1.0
  9
$DIMASZ
 40
0.18
  9
$DIMEXO
 40
0.0625
  9
$DIMDLI
 40
0.38
  9
$DIMRND
 40
0.0
  9
$DIMDLE
 40
0.0
  9
$DIMEXE
 40
0.18
  9
$DIMTP
 40
0.0
  9
$DIMTM
 40
0.0
  9
$DIMTXT
 40
0.18
  9
$DIMCEN
 40
0.09
  9
$DIMTSZ
 40
0.0
  9
$DIMTOL
 70
     0
  9
$DIMLIM
 70
     0
  9
$DIMTIH
 70
     1
  9
$DIMTOH
 70
     1
  9
$DIMSE1
 70
     0
  9
$DIMSE2
 70
     0
  9
$DIMTAD
 70
     0
  9
$DIMZIN
 70
     0
  9
$DIMBLK
  1

  9
$DIMASO
 70
     1
  9
$DIMSHO
 70
     1
  9
$DIMPOST
  1

  9
$DIMAPOST
  1

  9
$DIMALT
 70
     0
  9
$DIMALTD
 70
     2
  9
$DIMALTF
 40
25.4
  9
$DIMLFAC
 40
1.0
  9
$DIMTOFL
 70
     0
  9
$DIMTVP
 40
0.0
  9
$DIMTIX
 70
     0
  9
$DIMSOXD
 70
     0
  9
$DIMSAH
 70
     0
  9
$DIMBLK1
  1

  9
$DIMBLK2
  1

  9
$DIMSTYLE
  2
Standard
  9
$DIMCLRD
 70
     0
  9
$DIMCLRE
 70
     0
  9
$DIMCLRT
 70
     0
  9
$DIMTFAC
 40
1.0
  9
$DIMGAP
 40
0.09
  9
$DIMJUST
 70
     0
  9
$DIMSD1
 70
     0
  9
$DIMSD2
 70
     0
  9
$DIMTOLJ
 70
     1
  9
$DIMTZIN
 70
     0
  9
$DIMALTZ
 70
     0
  9
$DIMALTTZ
 70
     0
  9
$DIMUPT
 70
     0
  9
$DIMDEC
 70
     4
  9
$DIMTDEC
 70
     4
  9
$DIMALTU
 70
     2
  9
$DIMALTTD
 70
     2
  9
$DIMTXSTY
  7
Standard
  9
$DIMAUNIT
 70
     0
  9
$DIMADEC
 70
     0
  9
$DIMALTRND
 40
0.0
  9
$DIMAZIN
 70
     0
  9
$DIMDSEP
 70
    46
  9
$DIMATFIT
 70
     3
  9
$DIMFRAC
 70
     0
  9
$DIMLDRBLK
  1

  9
$DIMLUNIT
 70
     2
  9
$DIMLWD
 70
    -2
  9
$DIMLWE
 70
    -2
  9
$DIMTMOVE
 70
     0
  9
$DIMFXL
 40
1.0
  9
$DIMFXLON
 70
     0
  9
$DIMJOGANG
 40
0.7853981633974483
  9
$DIMTFILL
 70
     0
  9
$DIMTFILLCLR
 70
     0
  9
$DIMARCSYM
 70
     0
  9
$DIMLTYPE
  6

  9
$DIMLTEX1
  6

  9
$DIMLTEX2
  6

  9
$DIMTXTDIRECTION
 70
     0
  9
$LUNITS
 70
     2
  9
$LUPREC
 70
     4
  9
$SKETCHINC
 40
0.1
  9
$FILLETRAD
 40
0.5
  9
$AUNITS
 70
     0
  9
$AUPREC
 70
     0
  9
$MENU
  1
.
  9
$ELEVATION
 40
0.0
  9
$PELEVATION
 40
0.0
  9
$THICKNESS
 40
0.0
  9
$LIMCHECK
 70
     0
  9
$CHAMFERA
 40
0.5
  9
$CHAMFERB
 40
0.5
  9
$CHAMFERC
 40
1.0
  9
$CHAMFERD
 40
0.0
  9
$SKPOLY
 70
     0
  9
$TDCREATE
 40
2457917.615960648
  9
$TDUCREATE
 40
2457917.240960648
  9
$TDUPDATE
 40
2457917.615960648
  9
$TDUUPDATE
 40
2457917.240960648
  9
$TDINDWG
 40
0.0000000116
  9
$TDUSRTIMER
 40
0.0000000116
  9
$USRTIMER
 70
     1
  9
$ANGBASE
 50
0.0
  9
$ANGDIR
 70
     0
  9
$PDMODE
 70
     0
  9
$PDSIZE
 40
0.0
  9
$PLINEWID
 40
0.0
  9
$SPLFRAME
 70
     0
  9
$SPLINETYPE
 70
     6
  9
$SPLINESEGS
 70
     8
  9
$HANDSEED
  5
BD
  9
$SURFTAB1
 70
     6
  9
$SURFTAB2
 70
     6
  9
$SURFTYPE
 70
     6
  9
$SURFU
 70
     6
  9
$SURFV
 70
     6
  9
$UCSBASE
  2

  9
$UCSNAME
  2

  9
$UCSORG
 10
0.0
 20
0.0
 30
0.0
  9
$UCSXDIR
 10
1.0
 20
0.0
 30
0.0
  9
$UCSYDIR
 10
0.0
 20
1.0
 30
0.0
  9
$UCSORTHOREF
  2

  9
$UCSORTHOVIEW
 70
     0
  9
$UCSORGTOP
 10
0.0
 20
0.0
 30
0.0
  9
$UCSORGBOTTOM
 10
0.0
 20
0.0
 30
0.0
  9
$UCSORGLEFT
 10
0.0
 20
0.0
 30
0.0
  9
$UCSORGRIGHT
 10
0.0
 20
0.0
 30
0.0
  9
$UCSORGFRONT
 10
0.0
 20
0.0
 30
0.0
  9
$UCSORGBACK
 10
0.0
 20
0.0
 30
0.0
  9
$PUCSBASE
  2

  9
$PUCSNAME
  2

  9
$PUCSORG
 10
0.0
 20
0.0
 30
0.0
  9
$PUCSXDIR
 10
1.0
 20
0.0
 30
0.0
  9
$PUCSYDIR
 10
0.0
 20
1.0
 30
0.0
  9
$PUCSORTHOREF
  2

  9
$PUCSORTHOVIEW
 70
     0
  9
$PUCSORGTOP
 10
0.0
 20
0.0
 30
0.0
  9
$PUCSORGBOTTOM
 10
0.0
 20
0.0
 30
0.0
  9
$PUCSORGLEFT
 10
0.0
 20
0.0
 30
0.0
  9
$PUCSORGRIGHT
 10
0.0
 20
0.0
 30
0.0
  9
$PUCSORGFRONT
 10
0.0
 20
0.0
 30
0.0
  9
$PUCSORGBACK
 10
0.0
 20
0.0
 30
0.0
  9
$USERI1
 70
     0
  9
$USERI2
 70
     0
  9
$USERI3
 70
     0
  9
$USERI4
 70
     0
  9
$USERI5
 70
     0
  9
$USERR1
 40
0.0
  9
$USERR2
 40
0.0
  9
$USERR3
 40
0.0
  9
$USERR4
 40
0.0
  9
$USERR5
 40
0.0
  9
$WORLDVIEW
 70
     1
  9
$SHADEDGE
 70
     3
  9
$SHADEDIF
 70
    70
  9
$TILEMODE
 70
     1
  9
$MAXACTVP
 70
    64
  9
$PINSBASE
 10
0.0
 20
0.0
 30
0.0
  9
$PLIMCHECK
 70
     0
  9
$PEXTMIN
 10
1.000000000000000E+20
 20
1.000000000000000E+20
 30
1.000000000000000E+20
  9
$PEXTMAX
 10
-1.000000000000000E+20
 20
-1.000000000000000E+20
 30
-1.000000000000000E+20
  9
$PLIMMIN
 10
0.0
 20
0.0
  9
$PLIMMAX
 10
12.0
 20
9.0
  9
$UNITMODE
 70
     0
  9
$VISRETAIN
 70
     1
  9
$PLINEGEN
 70
     0
  9
$PSLTSCALE
 70
     1
  9
$TREEDEPTH
 70
  3020
  9
$CMLSTYLE
  2
Standard
  9
$CMLJUST
 70
     0
  9
$CMLSCALE
 40
1.0
  9
$PROXYGRAPHICS
 70
     1
  9
$MEASUREMENT
 70
     0
  9
$CELWEIGHT
370
    -1
  9
$ENDCAPS
280
     0
  9
$JOINSTYLE
280
     0
  9
$LWDISPLAY
290
     1
  9
$INSUNITS
 70
     1
  9
$HYPERLINKBASE
  1

  9
$STYLESHEET
  1

  9
$XEDIT
290
     1
  9
$CEPSNTYPE
380
     0
  9
$PSTYLEMODE
290
     1
  9
$FINGERPRINTGUID
  2
{62E71061-B06D-DDB8-44EF-2E759F7ABE44}
  9
$VERSIONGUID
  2
{FAEB1C32-E019-11D5-929B-00C0DF256EC4}
  9
$EXTNAMES
290
     1
  9
$PSVPSCALE
 40
0.0
  9
$OLESTARTUP
290
     0
  9
$SORTENTS
280
   127
  9
$INDEXCTL
280
     0
  9
$HIDETEXT
280
     1
  9
$XCLIPFRAME
280
     2
  9
$HALOGAP
280
     0
  9
$OBSCOLOR
 70
   257
  9
$OBSLTYPE
280
     0
  9
$INTERSECTIONDISPLAY
280
     0
  9
$INTERSECTIONCOLOR
 70
   257
  9
$DIMASSOC
280
     2
  9
$PROJECTNAME
  1

  9
$CAMERADISPLAY
290
     0
  9
$LENSLENGTH
 40
50.0
  9
$CAMERAHEIGHT
 40
0.0
  9
$STEPSPERSEC
 40
2.0
  9
$STEPSIZE
 40
6.0
  9
$3DDWFPREC
 40
2.0
  9
$PSOLWIDTH
 40
0.25
  9
$PSOLHEIGHT
 40
4.0
  9
$LOFTANG1
 40
1.570796326794897
  9
$LOFTANG2
 40
1.570796326794897
  9
$LOFTMAG1
 40
0.0
  9
$LOFTMAG2
 40
0.0
  9
$LOFTPARAM
 70
     7
  9
$LOFTNORMALS
280
     1
  9
$LATITUDE
 40
37.795
  9
$LONGITUDE
 40
-122.394
  9
$NORTHDIRECTION
 40
0.0
  9
$TIMEZONE
 70
 -8000
  9
$LIGHTGLYPHDISPLAY
280
     1
  9
$TILEMODELIGHTSYNCH
280
     1
  9
$CMATERIAL
347
3C
  9
$SOLIDHIST
280
     1
  9
$SHOWHIST
280
     1
  9
$DWFFRAME
280
     2
  9
$DGNFRAME
280
     2
  9
$REALWORLDSCALE
290
     1
  9
$INTERFERECOLOR
 62
   256
  9
$CSHADOW
280
     0
  9
$SHADOWPLANELOCATION
 40
0.0
  0
ENDSEC
  0
SECTION
  2
CLASSES
  0
CLASS
  1
ACDBDICTIONARYWDFLT
  2
AcDbDictionaryWithDefault
  3
ObjectDBX Classes
 90
        0
 91
        4
280
     0
281
     0
  0
CLASS
  1
VISUALSTYLE
  2
AcDbVisualStyle
  3
ObjectDBX Classes
 90
     4095
 91
        4
280
     0
281
     0
  0
CLASS
  1
MATERIAL
  2
AcDbMaterial
  3
ObjectDBX Classes
 90
     1153
 91
        4
280
     0
281
     0
  0
CLASS
  1
SUN
  2
AcDbSun
  3
SCENEOE
 90
     1024
 91
        4
280
     0
281
     0
  0
ENDSEC
  0
SECTION
  2
TABLES
  0
TABLE
  2
VPORT
  5
8
330
0
100
AcDbSymbolTable
 70
     1
  0
VPORT
  5
29
330
8
100
AcDbSymbolTableRecord
100
AcDbViewportTableRecord
  2
*Active
 70
     0
 10
0.0
 20
0.0
 11
1.0
 21
1.0
 12
0.0
 22
0.0
 13
0.0
 23
0.0
 14
0.5
 24
0.5
 15
0.5
 25
0.5
 16
0.0
 26
0.0
 36
1.0
 17
91.00082462281999
 27
-128.4993055234307
 37
0.0
 40
256.9986110468615
 41
0.7081814508812795
 42
50.0
 43
0.0
 44
0.0
 50
0.0
 51
0.0
 71
     0
 72
   100
 73
     1
 74
     3
 75
     0
 76
     0
 77
     0
 78
     0
281
     0
 65
     1
110
0.0
120
0.0
130
0.0
111
1.0
121
0.0
131
0.0
112
0.0
122
1.0
132
0.0
 79
     0
146
0.0
 60
     3
 61
     5
292
     1
282
     1
141
0.0
142
0.0
 63
   250
361
3F
  0
ENDTAB
  0
TABLE
  2
LTYPE
  5
5
330
0
100
AcDbSymbolTable
 70
     1
  0
LTYPE
  5
14
330
5
100
AcDbSymbolTableRecord
100
AcDbLinetypeTableRecord
  2
ByBlock
 70
     0
  3

 72
    65
 73
     0
 40
0.0
  0
LTYPE
  5
15
330
5
100
AcDbSymbolTableRecord
100
AcDbLinetypeTableRecord
  2
ByLayer
 70
     0
  3

 72
    65
 73
     0
 40
0.0
  0
LTYPE
  5
16
330
5
100
AcDbSymbolTableRecord
100
AcDbLinetypeTableRecord
  2
Continuous
 70
     0
  3
Solid line
 72
    65
 73
     0
 40
0.0
  0
ENDTAB
  0
TABLE
  2
LAYER
  5
2
330
0
100
AcDbSymbolTable
 70
     2
  0
LAYER
  5
10
330
2
100
AcDbSymbolTableRecord
100
AcDbLayerTableRecord
  2
0
 70
     0
 62
     7
  6
Continuous
370
    -3
390
F
347
3E
  0
LAYER
  5
40
330
2
100
AcDbSymbolTableRecord
100
AcDbLayerTableRecord
  2
_U+30EC_U+30A4_U+30E4_U+30FC 1
 70
     0
 62
     7
  6
Continuous
370
    -3
390
F
347
3E
  0
ENDTAB
  0
TABLE
  2
STYLE
  5
3
330
0
100
AcDbSymbolTable
 70
     1
  0
STYLE
  5
11
330
3
100
AcDbSymbolTableRecord
100
AcDbTextStyleTableRecord
  2
Standard
 70
     0
 40
0.0
 41
1.0
 50
0.0
 71
     0
 42
0.2
  3
txt
  4

  0
ENDTAB
  0
TABLE
  2
VIEW
  5
6
330
0
100
AcDbSymbolTable
 70
     0
  0
ENDTAB
  0
TABLE
  2
UCS
  5
7
330
0
100
AcDbSymbolTable
 70
     0
  0
ENDTAB
  0
TABLE
  2
APPID
  5
9
330
0
100
AcDbSymbolTable
 70
     1
  0
APPID
  5
12
330
9
100
AcDbSymbolTableRecord
100
AcDbRegAppTableRecord
  2
ACAD
 70
     0
  0
ENDTAB
  0
TABLE
  2
DIMSTYLE
  5
A
330
0
100
AcDbSymbolTable
 70
     1
100
AcDbDimStyleTable
  0
DIMSTYLE
105
27
330
A
100
AcDbSymbolTableRecord
100
AcDbDimStyleTableRecord
  2
Standard
 70
     0
178
     0
340
11
  0
ENDTAB
  0
TABLE
  2
BLOCK_RECORD
  5
1
330
0
100
AcDbSymbolTable
 70
     6
  0
BLOCK_RECORD
  5
1F
330
1
100
AcDbSymbolTableRecord
100
AcDbBlockTableRecord
  2
*Model_Space
340
22
 70
     0
280
     1
281
     0
  0
BLOCK_RECORD
  5
1B
330
1
100
AcDbSymbolTableRecord
100
AcDbBlockTableRecord
  2
*Paper_Space
340
1E
 70
     0
280
     1
281
     0
  0
BLOCK_RECORD
  5
23
330
1
100
AcDbSymbolTableRecord
100
AcDbBlockTableRecord
  2
*Paper_Space0
340
26
 70
     0
280
     1
281
     0
  0
BLOCK_RECORD
  5
63
330
1
100
AcDbSymbolTableRecord
100
AcDbBlockTableRecord
  2
block 2
340
0
102
{BLKREFS
331
64
102
}
 70
     0
280
     1
281
     0
  0
BLOCK_RECORD
  5
77
330
1
100
AcDbSymbolTableRecord
100
AcDbBlockTableRecord
  2
block 3
340
0
102
{BLKREFS
331
78
102
}
 70
     0
280
     1
281
     0
  0
BLOCK_RECORD
  5
8D
330
1
100
AcDbSymbolTableRecord
100
AcDbBlockTableRecord
  2
block 4
340
0
102
{BLKREFS
331
8E
102
}
 70
     0
280
     1
281
     0
  0
BLOCK_RECORD
  5
9B
330
1
100
AcDbSymbolTableRecord
100
AcDbBlockTableRecord
  2
block 5
340
0
102
{BLKREFS
331
9C
102
}
 70
     0
280
     1
281
     0
  0
BLOCK_RECORD
  5
A9
330
1
100
AcDbSymbolTableRecord
100
AcDbBlockTableRecord
  2
block 6
340
0
102
{BLKREFS
331
AA
102
}
 70
     0
280
     1
281
     0
  0
ENDTAB
  0
ENDSEC
  0
SECTION
  2
BLOCKS
  0
BLOCK
  5
20
330
1F
100
AcDbEntity
  8
0
100
AcDbBlockBegin
  2
*Model_Space
 70
     0
 10
0.0
 20
0.0
 30
0.0
  3
*Model_Space
  1

  0
ENDBLK
  5
21
330
1F
100
AcDbEntity
  8
0
100
AcDbBlockEnd
  0
BLOCK
  5
1C
330
1B
100
AcDbEntity
 67
     1
  8
0
100
AcDbBlockBegin
  2
*Paper_Space
 70
     0
 10
0.0
 20
0.0
 30
0.0
  3
*Paper_Space
  1

  0
ENDBLK
  5
1D
330
1B
100
AcDbEntity
 67
     1
  8
0
100
AcDbBlockEnd
  0
BLOCK
  5
24
330
23
100
AcDbEntity
  8
0
100
AcDbBlockBegin
  2
*Paper_Space0
 70
     0
 10
0.0
 20
0.0
 30
0.0
  3
*Paper_Space0
  1

  0
ENDBLK
  5
25
330
23
100
AcDbEntity
  8
0
100
AcDbBlockEnd
  0
BLOCK
  5
65
330
63
100
AcDbEntity
  8
0
100
AcDbBlockBegin
  2
block 2
 70
     0
 10
0.0
 20
0.0
 30
0.0
  3
block 2
  1

  0
SPLINE
  5
67
330
63
100
AcDbEntity
  8
_U+30EC_U+30A4_U+30E4_U+30FC 1
370
     0
100
AcDbSpline
210
0.0
220
0.0
230
1.0
 70
    11
 71
     3
 72
    44
 73
    40
 74
     0
 42
0.0000000001
 43
0.0000000001
 12
1.0
 22
0.0
 32
0.0
 13
1.0
 23
0.0
 33
0.0
 40
0.0
 40
0.0
 40
0.0
 40
0.0
 40
1.0
 40
1.0
 40
1.0
 40
2.0
 40
2.0
 40
2.0
 40
3.0
 40
3.0
 40
3.0
 40
4.0
 40
4.0
 40
4.0
 40
5.0
 40
5.0
 40
5.0
 40
6.0
 40
6.0
 40
6.0
 40
7.0
 40
7.0
 40
7.0
 40
8.0
 40
8.0
 40
8.0
 40
9.0
 40
9.0
 40
9.0
 40
10.0
 40
10.0
 40
10.0
 40
11.0
 40
11.0
 40
11.0
 40
12.0
 40
12.0
 40
12.0
 40
13.0
 40
13.0
 40
13.0
 40
13.0
 10
85.22391084023917
 20
-118.4925089221998
 30
0.0
 10
85.00600855079712
 20
-118.6511555692956
 30
0.0
 10
84.9128187179211
 20
-118.7252251222284
 30
0.0
 10
84.86424287157908
 20
-118.8690578587376
 30
0.0
 10
84.86424287157908
 20
-118.8690578587376
 30
0.0
 10
85.64266219647128
 20
-118.8690578587376
 30
0.0
 10
85.64266219647128
 20
-118.8690578587376
 30
0.0
 10
85.64266219647128
 20
-118.8690578587376
 30
0.0
 10
85.64266219647128
 20
-119.0742132948842
 30
0.0
 10
85.64266219647128
 20
-119.0742132948842
 30
0.0
 10
85.64266219647128
 20
-119.0742132948842
 30
0.0
 10
84.61464570367274
 20
-119.0742132948842
 30
0.0
 10
84.61464570367274
 20
-119.0742132948842
 30
0.0
 10
84.64634058213703
 20
-118.7166123835153
 30
0.0
 10
84.71179739635677
 20
-118.6384087160001
 30
0.0
 10
85.09695907160771
 20
-118.3400634469775
 30
0.0
 10
85.35292966616177
 20
-118.1412814374786
 30
0.0
 10
85.41838648038151
 20
-118.0735853111934
 30
0.0
 10
85.41838648038151
 20
-117.9361260013319
 30
0.0
 10
85.41838648038151
 20
-117.8176147166394
 30
0.0
 10
85.34655623951406
 20
-117.6865288334256
 30
0.0
 10
85.14984128730629
 20
-117.6865288334256
 30
0.0
 10
84.88956432339567
 20
-117.6865288334256
 30
0.0
 10
84.8811238394568
 20
-117.9170057213888
 30
0.0
 10
84.87681747010025
 20
-118.0334499487902
 30
0.0
 10
84.87681747010025
 20
-118.0334499487902
 30
0.0
 10
84.65271400878474
 20
-118.0334499487902
 30
0.0
 10
84.65271400878474
 20
-118.0334499487902
 30
0.0
 10
84.66115449272361
 20
-117.9064981801588
 30
0.0
 10
84.67166203395361
 20
-117.7943603221139
 30
0.0
 10
84.7521050135342
 20
-117.6758490374213
 30
0.0
 10
84.86200355951367
 20
-117.5151353330344
 30
0.0
 10
85.04821097049143
 20
-117.4812011425047
 30
0.0
 10
85.16465519789287
 20
-117.4812011425047
 30
0.0
 10
85.44181312968122
 20
-117.4812011425047
 30
0.0
 10
85.64903562311899
 20
-117.6653414961913
 30
0.0
 10
85.64903562311899
 20
-117.9381930586231
 30
0.0
 10
85.64903562311899
 20
-118.1666028892952
 30
0.0
 10
85.53276365049182
 20
-118.2661661488189
 30
0.0
 10
85.22391084023917
 20
-118.4925089221998
 30
0.0
  0
HATCH
  5
68
330
63
100
AcDbEntity
  8
_U+30EC_U+30A4_U+30E4_U+30FC 1
 62
     7
420
 16777215
100
AcDbHatch
 10
0.0
 20
0.0
 30
0.0
210
0.0
220
0.0
230
1.0
  2
SOLID
 70
     1
 71
     0
 91
        1
 92
        1
 93
        1
 72
     4
 94
        3
 73
     0
 74
     1
 95
       44
 96
       40
 40
0.0
 40
0.0
 40
0.0
 40
0.0
 40
1.0
 40
1.0
 40
1.0
 40
2.0
 40
2.0
 40
2.0
 40
3.0
 40
3.0
 40
3.0
 40
4.0
 40
4.0
 40
4.0
 40
5.0
 40
5.0
 40
5.0
 40
6.0
 40
6.0
 40
6.0
 40
7.0
 40
7.0
 40
7.0
 40
8.0
 40
8.0
 40
8.0
 40
9.0
 40
9.0
 40
9.0
 40
10.0
 40
10.0
 40
10.0
 40
11.0
 40
11.0
 40
11.0
 40
12.0
 40
12.0
 40
12.0
 40
13.0
 40
13.0
 40
13.0
 40
13.0
 10
85.22391084023917
 20
-118.4925089221998
 10
85.00600855079712
 20
-118.6511555692956
 10
84.9128187179211
 20
-118.7252251222284
 10
84.86424287157908
 20
-118.8690578587376
 10
84.86424287157908
 20
-118.8690578587376
 10
85.64266219647128
 20
-118.8690578587376
 10
85.64266219647128
 20
-118.8690578587376
 10
85.64266219647128
 20
-118.8690578587376
 10
85.64266219647128
 20
-119.0742132948842
 10
85.64266219647128
 20
-119.0742132948842
 10
85.64266219647128
 20
-119.0742132948842
 10
84.61464570367274
 20
-119.0742132948842
 10
84.61464570367274
 20
-119.0742132948842
 10
84.64634058213703
 20
-118.7166123835153
 10
84.71179739635677
 20
-118.6384087160001
 10
85.09695907160771
 20
-118.3400634469775
 10
85.35292966616177
 20
-118.1412814374786
 10
85.41838648038151
 20
-118.0735853111934
 10
85.41838648038151
 20
-117.9361260013319
 10
85.41838648038151
 20
-117.8176147166394
 10
85.34655623951406
 20
-117.6865288334256
 10
85.14984128730629
 20
-117.6865288334256
 10
84.88956432339567
 20
-117.6865288334256
 10
84.8811238394568
 20
-117.9170057213888
 10
84.87681747010025
 20
-118.0334499487902
 10
84.87681747010025
 20
-118.0334499487902
 10
84.65271400878474
 20
-118.0334499487902
 10
84.65271400878474
 20
-118.0334499487902
 10
84.66115449272361
 20
-117.9064981801588
 10
84.67166203395361
 20
-117.7943603221139
 10
84.7521050135342
 20
-117.6758490374213
 10
84.86200355951367
 20
-117.5151353330344
 10
85.04821097049143
 20
-117.4812011425047
 10
85.16465519789287
 20
-117.4812011425047
 10
85.44181312968122
 20
-117.4812011425047
 10
85.64903562311899
 20
-117.6653414961913
 10
85.64903562311899
 20
-117.9381930586231
 10
85.64903562311899
 20
-118.1666028892952
 10
85.53276365049182
 20
-118.2661661488189
 10
85.22391084023917
 20
-118.4925089221998
 97
        0
 97
        0
 75
     2
 76
     1
 98
        0
  0
SPLINE
  5
69
330
63
100
AcDbEntity
  8
_U+30EC_U+30A4_U+30E4_U+30FC 1
370
     0
100
AcDbSpline
210
0.0
220
0.0
230
1.0
 70
    11
 71
     3
 72
    53
 73
    49
 74
     0
 42
0.0000000001
 43
0.0000000001
 12
1.0
 22
0.0
 32
0.0
 13
1.0
 23
0.0
 33
0.0
 40
0.0
 40
0.0
 40
0.0
 40
0.0
 40
1.0
 40
1.0
 40
1.0
 40
2.0
 40
2.0
 40
2.0
 40
3.0
 40
3.0
 40
3.0
 40
4.0
 40
4.0
 40
4.0
 40
5.0
 40
5.0
 40
5.0
 40
6.0
 40
6.0
 40
6.0
 40
7.0
 40
7.0
 40
7.0
 40
8.0
 40
8.0
 40
8.0
 40
9.0
 40
9.0
 40
9.0
 40
10.0
 40
10.0
 40
10.0
 40
11.0
 40
11.0
 40
11.0
 40
12.0
 40
12.0
 40
12.0
 40
13.0
 40
13.0
 40
13.0
 40
14.0
 40
14.0
 40
14.0
 40
15.0
 40
15.0
 40
15.0
 40
16.0
 40
16.0
 40
16.0
 40
16.0
 10
86.28861759995563
 20
-119.1250284532917
 30
0.0
 10
86.21041393244046
 20
-119.1250284532917
 30
0.0
 10
86.10878361562558
 20
-119.1079752306397
 30
0.0
 10
86.00715329881072
 20
-119.0445854737111
 30
0.0
 10
85.83369274112839
 20
-118.9345146729573
 30
0.0
 10
85.8125054038941
 20
-118.8034287897436
 30
0.0
 10
85.79355737872523
 20
-118.6955973010553
 30
0.0
 10
85.79355737872523
 20
-118.6955973010553
 30
0.0
 10
86.01576603752385
 20
-118.6955973010553
 30
0.0
 10
86.01576603752385
 20
-118.6955973010553
 30
0.0
 10
86.07054305573931
 20
-118.8943793105542
 30
0.0
 10
86.19766707914503
 20
-118.9240071317273
 30
0.0
 10
86.29068465724677
 20
-118.9240071317273
 30
0.0
 10
86.4302110243994
 20
-118.9240071317273
 30
0.0
 10
86.58248424484744
 20
-118.8246161269779
 30
0.0
 10
86.58248424484744
 20
-118.5918999269493
 30
0.0
 10
86.58248424484744
 20
-118.3359293323952
 30
0.0
 10
86.40265026051739
 20
-118.2661661488189
 30
0.0
 10
86.28207191853365
 20
-118.2661661488189
 30
0.0
 10
86.25037704006935
 20
-118.2661661488189
 30
0.0
 10
86.10878361562558
 20
-118.2661661488189
 30
0.0
 10
86.01990015210615
 20
-118.3951849747415
 30
0.0
 10
86.01990015210615
 20
-118.3951849747415
 30
0.0
 10
85.84437253713266
 20
-118.3760646947983
 30
0.0
 10
85.84437253713266
 20
-118.3760646947983
 30
0.0
 10
85.84437253713266
 20
-118.3760646947983
 30
0.0
 10
85.96477862434215
 20
-117.529949243621
 30
0.0
 10
85.96477862434215
 20
-117.529949243621
 30
0.0
 10
85.96477862434215
 20
-117.529949243621
 30
0.0
 10
86.7433702040086
 20
-117.529949243621
 30
0.0
 10
86.7433702040086
 20
-117.529949243621
 30
0.0
 10
86.7433702040086
 20
-117.529949243621
 30
0.0
 10
86.7433702040086
 20
-117.7245971385376
 30
0.0
 10
86.7433702040086
 20
-117.7245971385376
 30
0.0
 10
86.7433702040086
 20
-117.7245971385376
 30
0.0
 10
86.12773164079447
 20
-117.7245971385376
 30
0.0
 10
86.12773164079447
 20
-117.7245971385376
 30
0.0
 10
86.12773164079447
 20
-117.7245971385376
 30
0.0
 10
86.06227482657471
 20
-118.1476548641263
 30
0.0
 10
86.06227482657471
 20
-118.1476548641263
 30
0.0
 10
86.12359752621217
 20
-118.1137206735966
 30
0.0
 10
86.20593530830963
 20
-118.0735853111934
 30
0.0
 10
86.32444659300222
 20
-118.0735853111934
 30
0.0
 10
86.57835013026514
 20
-118.0735853111934
 30
0.0
 10
86.81537269965033
 20
-118.2597927221712
 30
0.0
 10
86.81537269965033
 20
-118.5727796470061
 30
0.0
 10
86.81537269965033
 20
-118.8902451959719
 30
0.0
 10
86.59109698356056
 20
-119.1250284532917
 30
0.0
 10
86.28861759995563
 20
-119.1250284532917
 30
0.0
  0
HATCH
  5
6A
330
63
100
AcDbEntity
  8
_U+30EC_U+30A4_U+30E4_U+30FC 1
 62
     7
420
 16777215
100
AcDbHatch
 10
0.0
 20
0.0
 30
0.0
210
0.0
220
0.0
230
1.0
  2
SOLID
 70
     1
 71
     0
 91
        1
 92
        1
 93
        1
 72
     4
 94
        3
 73
     0
 74
     1
 95
       53
 96
       49
 40
0.0
 40
0.0
 40
0.0
 40
0.0
 40
1.0
 40
1.0
 40
1.0
 40
2.0
 40
2.0
 40
2.0
 40
3.0
 40
3.0
 40
3.0
 40
4.0
 40
4.0
 40
4.0
 40
5.0
 40
5.0
 40
5.0
 40
6.0
 40
6.0
 40
6.0
 40
7.0
 40
7.0
 40
7.0
 40
8.0
 40
8.0
 40
8.0
 40
9.0
 40
9.0
 40
9.0
 40
10.0
 40
10.0
 40
10.0
 40
11.0
 40
11.0
 40
11.0
 40
12.0
 40
12.0
 40
12.0
 40
13.0
 40
13.0
 40
13.0
 40
14.0
 40
14.0
 40
14.0
 40
15.0
 40
15.0
 40
15.0
 40
16.0
 40
16.0
 40
16.0
 40
16.0
 10
86.28861759995563
 20
-119.1250284532917
 10
86.21041393244046
 20
-119.1250284532917
 10
86.10878361562558
 20
-119.1079752306397
 10
86.00715329881072
 20
-119.0445854737111
 10
85.83369274112839
 20
-118.9345146729573
 10
85.8125054038941
 20
-118.8034287897436
 10
85.79355737872523
 20
-118.6955973010553
 10
85.79355737872523
 20
-118.6955973010553
 10
86.01576603752385
 20
-118.6955973010553
 10
86.01576603752385
 20
-118.6955973010553
 10
86.07054305573931
 20
-118.8943793105542
 10
86.19766707914503
 20
-118.9240071317273
 10
86.29068465724677
 20
-118.9240071317273
 10
86.4302110243994
 20
-118.9240071317273
 10
86.58248424484744
 20
-118.8246161269779
 10
86.58248424484744
 20
-118.5918999269493
 10
86.58248424484744
 20
-118.3359293323952
 10
86.40265026051739
 20
-118.2661661488189
 10
86.28207191853365
 20
-118.2661661488189
 10
86.25037704006935
 20
-118.2661661488189
 10
86.10878361562558
 20
-118.2661661488189
 10
86.01990015210615
 20
-118.3951849747415
 10
86.01990015210615
 20
-118.3951849747415
 10
85.84437253713266
 20
-118.3760646947983
 10
85.84437253713266
 20
-118.3760646947983
 10
85.84437253713266
 20
-118.3760646947983
 10
85.96477862434215
 20
-117.529949243621
 10
85.96477862434215
 20
-117.529949243621
 10
85.96477862434215
 20
-117.529949243621
 10
86.7433702040086
 20
-117.529949243621
 10
86.7433702040086
 20
-117.529949243621
 10
86.7433702040086
 20
-117.529949243621
 10
86.7433702040086
 20
-117.7245971385376
 10
86.7433702040086
 20
-117.7245971385376
 10
86.7433702040086
 20
-117.7245971385376
 10
86.12773164079447
 20
-117.7245971385376
 10
86.12773164079447
 20
-117.7245971385376
 10
86.12773164079447
 20
-117.7245971385376
 10
86.06227482657471
 20
-118.1476548641263
 10
86.06227482657471
 20
-118.1476548641263
 10
86.12359752621217
 20
-118.1137206735966
 10
86.20593530830963
 20
-118.0735853111934
 10
86.32444659300222
 20
-118.0735853111934
 10
86.57835013026514
 20
-118.0735853111934
 10
86.81537269965033
 20
-118.2597927221712
 10
86.81537269965033
 20
-118.5727796470061
 10
86.81537269965033
 20
-118.8902451959719
 10
86.59109698356056
 20
-119.1250284532917
 10
86.28861759995563
 20
-119.1250284532917
 97
        0
 97
        0
 75
     2
 76
     1
 98
        0
  0
ENDBLK
  5
66
330
63
100
AcDbEntity
  8
0
100
AcDbBlockEnd
  0
BLOCK
  5
79
330
77
100
AcDbEntity
  8
0
100
AcDbBlockBegin
  2
block 3
 70
     0
 10
0.0
 20
0.0
 30
0.0
  3
block 3
  1

  0
SPLINE
  5
7B
330
77
100
AcDbEntity
  8
_U+30EC_U+30A4_U+30E4_U+30FC 1
370
     0
100
AcDbSpline
210
0.0
220
0.0
230
1.0
 70
    11
 71
     3
 72
    53
 73
    49
 74
     0
 42
0.0000000001
 43
0.0000000001
 12
1.0
 22
0.0
 32
0.0
 13
1.0
 23
0.0
 33
0.0
 40
0.0
 40
0.0
 40
0.0
 40
0.0
 40
1.0
 40
1.0
 40
1.0
 40
2.0
 40
2.0
 40
2.0
 40
3.0
 40
3.0
 40
3.0
 40
4.0
 40
4.0
 40
4.0
 40
5.0
 40
5.0
 40
5.0
 40
6.0
 40
6.0
 40
6.0
 40
7.0
 40
7.0
 40
7.0
 40
8.0
 40
8.0
 40
8.0
 40
9.0
 40
9.0
 40
9.0
 40
10.0
 40
10.0
 40
10.0
 40
11.0
 40
11.0
 40
11.0
 40
12.0
 40
12.0
 40
12.0
 40
13.0
 40
13.0
 40
13.0
 40
14.0
 40
14.0
 40
14.0
 40
15.0
 40
15.0
 40
15.0
 40
16.0
 40
16.0
 40
16.0
 40
16.0
 10
75.70011662604026
 20
-139.6348876604038
 30
0.0
 10
75.62174070375082
 20
-139.6348876604038
 30
0.0
 10
75.52028264171021
 20
-139.6180066925261
 30
0.0
 10
75.41865232489533
 20
-139.5546169355975
 30
0.0
 10
75.24519176721302
 20
-139.444718389618
 30
0.0
 10
75.22400442997872
 20
-139.31346025163
 30
0.0
 10
75.20505640480985
 20
-139.2056287629416
 30
0.0
 10
75.20505640480985
 20
-139.2056287629416
 30
0.0
 10
75.4270928088342
 20
-139.2056287629416
 30
0.0
 10
75.4270928088342
 20
-139.2056287629416
 30
0.0
 10
75.4822143365982
 20
-139.4044107724406
 30
0.0
 10
75.60916610522966
 20
-139.4340385936137
 30
0.0
 10
75.7021836833314
 20
-139.4340385936137
 30
0.0
 10
75.84171005048402
 20
-139.4340385936137
 30
0.0
 10
75.99415552570632
 20
-139.33447533409
 30
0.0
 10
75.99415552570632
 20
-139.1019313888356
 30
0.0
 10
75.99415552570632
 20
-138.8459607942816
 30
0.0
 10
75.81432154137629
 20
-138.776025355931
 30
0.0
 10
75.69374319939254
 20
-138.776025355931
 30
0.0
 10
75.66204832092824
 20
-138.776025355931
 30
0.0
 10
75.52028264171021
 20
-138.776025355931
 30
0.0
 10
75.43139917819076
 20
-138.9052164366279
 30
0.0
 10
75.43139917819076
 20
-138.9052164366279
 30
0.0
 10
75.25587156321728
 20
-138.886268411459
 30
0.0
 10
75.25587156321728
 20
-138.886268411459
 30
0.0
 10
75.25587156321728
 20
-138.886268411459
 30
0.0
 10
75.37644990520103
 20
-138.0398084507331
 30
0.0
 10
75.37644990520103
 20
-138.0398084507331
 30
0.0
 10
75.37644990520103
 20
-138.0398084507331
 30
0.0
 10
76.15486923009323
 20
-138.0398084507331
 30
0.0
 10
76.15486923009323
 20
-138.0398084507331
 30
0.0
 10
76.15486923009323
 20
-138.0398084507331
 30
0.0
 10
76.15486923009323
 20
-138.2344563456497
 30
0.0
 10
76.15486923009323
 20
-138.2344563456497
 30
0.0
 10
76.15486923009323
 20
-138.2344563456497
 30
0.0
 10
75.53923066687908
 20
-138.2344563456497
 30
0.0
 10
75.53923066687908
 20
-138.2344563456497
 30
0.0
 10
75.53923066687908
 20
-138.2344563456497
 30
0.0
 10
75.47377385265933
 20
-138.6575140712384
 30
0.0
 10
75.47377385265933
 20
-138.6575140712384
 30
0.0
 10
75.53509655229678
 20
-138.623752135483
 30
0.0
 10
75.61760658916852
 20
-138.5834445183055
 30
0.0
 10
75.73594561908685
 20
-138.5834445183055
 30
0.0
 10
75.98984915634976
 20
-138.5834445183055
 30
0.0
 10
76.22687172573495
 20
-138.7698241840575
 30
0.0
 10
76.22687172573495
 20
-139.0829833636668
 30
0.0
 10
76.22687172573495
 20
-139.4002766578583
 30
0.0
 10
76.00259600964519
 20
-139.6348876604038
 30
0.0
 10
75.70011662604026
 20
-139.6348876604038
 30
0.0
  0
HATCH
  5
7C
330
77
100
AcDbEntity
  8
_U+30EC_U+30A4_U+30E4_U+30FC 1
 62
     7
420
 16777215
100
AcDbHatch
 10
0.0
 20
0.0
 30
0.0
210
0.0
220
0.0
230
1.0
  2
SOLID
 70
     1
 71
     0
 91
        1
 92
        1
 93
        1
 72
     4
 94
        3
 73
     0
 74
     1
 95
       53
 96
       49
 40
0.0
 40
0.0
 40
0.0
 40
0.0
 40
1.0
 40
1.0
 40
1.0
 40
2.0
 40
2.0
 40
2.0
 40
3.0
 40
3.0
 40
3.0
 40
4.0
 40
4.0
 40
4.0
 40
5.0
 40
5.0
 40
5.0
 40
6.0
 40
6.0
 40
6.0
 40
7.0
 40
7.0
 40
7.0
 40
8.0
 40
8.0
 40
8.0
 40
9.0
 40
9.0
 40
9.0
 40
10.0
 40
10.0
 40
10.0
 40
11.0
 40
11.0
 40
11.0
 40
12.0
 40
12.0
 40
12.0
 40
13.0
 40
13.0
 40
13.0
 40
14.0
 40
14.0
 40
14.0
 40
15.0
 40
15.0
 40
15.0
 40
16.0
 40
16.0
 40
16.0
 40
16.0
 10
75.70011662604026
 20
-139.6348876604038
 10
75.62174070375082
 20
-139.6348876604038
 10
75.52028264171021
 20
-139.6180066925261
 10
75.41865232489533
 20
-139.5546169355975
 10
75.24519176721302
 20
-139.444718389618
 10
75.22400442997872
 20
-139.31346025163
 10
75.20505640480985
 20
-139.2056287629416
 10
75.20505640480985
 20
-139.2056287629416
 10
75.4270928088342
 20
-139.2056287629416
 10
75.4270928088342
 20
-139.2056287629416
 10
75.4822143365982
 20
-139.4044107724406
 10
75.60916610522966
 20
-139.4340385936137
 10
75.7021836833314
 20
-139.4340385936137
 10
75.84171005048402
 20
-139.4340385936137
 10
75.99415552570632
 20
-139.33447533409
 10
75.99415552570632
 20
-139.1019313888356
 10
75.99415552570632
 20
-138.8459607942816
 10
75.81432154137629
 20
-138.776025355931
 10
75.69374319939254
 20
-138.776025355931
 10
75.66204832092824
 20
-138.776025355931
 10
75.52028264171021
 20
-138.776025355931
 10
75.43139917819076
 20
-138.9052164366279
 10
75.43139917819076
 20
-138.9052164366279
 10
75.25587156321728
 20
-138.886268411459
 10
75.25587156321728
 20
-138.886268411459
 10
75.25587156321728
 20
-138.886268411459
 10
75.37644990520103
 20
-138.0398084507331
 10
75.37644990520103
 20
-138.0398084507331
 10
75.37644990520103
 20
-138.0398084507331
 10
76.15486923009323
 20
-138.0398084507331
 10
76.15486923009323
 20
-138.0398084507331
 10
76.15486923009323
 20
-138.0398084507331
 10
76.15486923009323
 20
-138.2344563456497
 10
76.15486923009323
 20
-138.2344563456497
 10
76.15486923009323
 20
-138.2344563456497
 10
75.53923066687908
 20
-138.2344563456497
 10
75.53923066687908
 20
-138.2344563456497
 10
75.53923066687908
 20
-138.2344563456497
 10
75.47377385265933
 20
-138.6575140712384
 10
75.47377385265933
 20
-138.6575140712384
 10
75.53509655229678
 20
-138.623752135483
 10
75.61760658916852
 20
-138.5834445183055
 10
75.73594561908685
 20
-138.5834445183055
 10
75.98984915634976
 20
-138.5834445183055
 10
76.22687172573495
 20
-138.7698241840575
 10
76.22687172573495
 20
-139.0829833636668
 10
76.22687172573495
 20
-139.4002766578583
 10
76.00259600964519
 20
-139.6348876604038
 10
75.70011662604026
 20
-139.6348876604038
 97
        0
 97
        0
 75
     2
 76
     1
 98
        0
  0
ENDBLK
  5
7A
330
77
100
AcDbEntity
  8
0
100
AcDbBlockEnd
  0
BLOCK
  5
8F
330
8D
100
AcDbEntity
  8
0
100
AcDbBlockBegin
  2
block 4
 70
     0
 10
0.0
 20
0.0
 30
0.0
  3
block 4
  1

  0
SPLINE
  5
91
330
8D
100
AcDbEntity
  8
_U+30EC_U+30A4_U+30E4_U+30FC 1
370
     0
100
AcDbSpline
210
0.0
220
0.0
230
1.0
 70
    11
 71
     3
 72
    26
 73
    22
 74
     0
 42
0.0000000001
 43
0.0000000001
 12
1.0
 22
0.0
 32
0.0
 13
1.0
 23
0.0
 33
0.0
 40
0.0
 40
0.0
 40
0.0
 40
0.0
 40
1.0
 40
1.0
 40
1.0
 40
2.0
 40
2.0
 40
2.0
 40
3.0
 40
3.0
 40
3.0
 40
4.0
 40
4.0
 40
4.0
 40
5.0
 40
5.0
 40
5.0
 40
6.0
 40
6.0
 40
6.0
 40
7.0
 40
7.0
 40
7.0
 40
7.0
 10
106.5120171174692
 20
-124.5329670912626
 30
0.0
 10
106.5120171174692
 20
-124.5329670912626
 30
0.0
 10
105.4078640144466
 20
-124.5329670912626
 30
0.0
 10
105.4078640144466
 20
-124.5329670912626
 30
0.0
 10
105.4078640144466
 20
-124.5329670912626
 30
0.0
 10
105.4078640144466
 20
-124.8630072387495
 30
0.0
 10
105.4078640144466
 20
-124.8630072387495
 30
0.0
 10
105.4078640144466
 20
-124.8630072387495
 30
0.0
 10
105.2597249085809
 20
-124.8630072387495
 30
0.0
 10
105.2597249085809
 20
-124.8630072387495
 30
0.0
 10
105.2449109979943
 20
-124.5309000339714
 30
0.0
 10
105.081957981542
 20
-124.4843912449206
 30
0.0
 10
104.9675808114317
 20
-124.4547634237474
 30
0.0
 10
104.9675808114317
 20
-124.4547634237474
 30
0.0
 10
104.9675808114317
 20
-124.3086913751728
 30
0.0
 10
104.9675808114317
 20
-124.3086913751728
 30
0.0
 10
104.9675808114317
 20
-124.3086913751728
 30
0.0
 10
106.5120171174692
 20
-124.3086913751728
 30
0.0
 10
106.5120171174692
 20
-124.3086913751728
 30
0.0
 10
106.5120171174692
 20
-124.3086913751728
 30
0.0
 10
106.5120171174692
 20
-124.5329670912626
 30
0.0
 10
106.5120171174692
 20
-124.5329670912626
 30
0.0
  0
HATCH
  5
92
330
8D
100
AcDbEntity
  8
_U+30EC_U+30A4_U+30E4_U+30FC 1
 62
     7
420
 16777215
100
AcDbHatch
 10
0.0
 20
0.0
 30
0.0
210
0.0
220
0.0
230
1.0
  2
SOLID
 70
     1
 71
     0
 91
        1
 92
        1
 93
        1
 72
     4
 94
        3
 73
     0
 74
     1
 95
       26
 96
       22
 40
0.0
 40
0.0
 40
0.0
 40
0.0
 40
1.0
 40
1.0
 40
1.0
 40
2.0
 40
2.0
 40
2.0
 40
3.0
 40
3.0
 40
3.0
 40
4.0
 40
4.0
 40
4.0
 40
5.0
 40
5.0
 40
5.0
 40
6.0
 40
6.0
 40
6.0
 40
7.0
 40
7.0
 40
7.0
 40
7.0
 10
106.5120171174692
 20
-124.5329670912626
 10
106.5120171174692
 20
-124.5329670912626
 10
105.4078640144466
 20
-124.5329670912626
 10
105.4078640144466
 20
-124.5329670912626
 10
105.4078640144466
 20
-124.5329670912626
 10
105.4078640144466
 20
-124.8630072387495
 10
105.4078640144466
 20
-124.8630072387495
 10
105.4078640144466
 20
-124.8630072387495
 10
105.2597249085809
 20
-124.8630072387495
 10
105.2597249085809
 20
-124.8630072387495
 10
105.2449109979943
 20
-124.5309000339714
 10
105.081957981542
 20
-124.4843912449206
 10
104.9675808114317
 20
-124.4547634237474
 10
104.9675808114317
 20
-124.4547634237474
 10
104.9675808114317
 20
-124.3086913751728
 10
104.9675808114317
 20
-124.3086913751728
 10
104.9675808114317
 20
-124.3086913751728
 10
106.5120171174692
 20
-124.3086913751728
 10
106.5120171174692
 20
-124.3086913751728
 10
106.5120171174692
 20
-124.3086913751728
 10
106.5120171174692
 20
-124.5329670912626
 10
106.5120171174692
 20
-124.5329670912626
 97
        0
 97
        0
 75
     2
 76
     1
 98
        0
  0
ENDBLK
  5
90
330
8D
100
AcDbEntity
  8
0
100
AcDbBlockEnd
  0
BLOCK
  5
9D
330
9B
100
AcDbEntity
  8
0
100
AcDbBlockBegin
  2
block 5
 70
     0
 10
0.0
 20
0.0
 30
0.0
  3
block 5
  1

  0
SPLINE
  5
9F
330
9B
100
AcDbEntity
  8
_U+30EC_U+30A4_U+30E4_U+30FC 1
370
     0
100
AcDbSpline
210
0.0
220
0.0
230
1.0
 70
    11
 71
     3
 72
    62
 73
    58
 74
     0
 42
0.0000000001
 43
0.0000000001
 12
1.0
 22
0.0
 32
0.0
 13
1.0
 23
0.0
 33
0.0
 40
0.0
 40
0.0
 40
0.0
 40
0.0
 40
1.0
 40
1.0
 40
1.0
 40
2.0
 40
2.0
 40
2.0
 40
3.0
 40
3.0
 40
3.0
 40
4.0
 40
4.0
 40
4.0
 40
5.0
 40
5.0
 40
5.0
 40
6.0
 40
6.0
 40
6.0
 40
7.0
 40
7.0
 40
7.0
 40
8.0
 40
8.0
 40
8.0
 40
9.0
 40
9.0
 40
9.0
 40
10.0
 40
10.0
 40
10.0
 40
11.0
 40
11.0
 40
11.0
 40
12.0
 40
12.0
 40
12.0
 40
13.0
 40
13.0
 40
13.0
 40
14.0
 40
14.0
 40
14.0
 40
15.0
 40
15.0
 40
15.0
 40
16.0
 40
16.0
 40
16.0
 40
17.0
 40
17.0
 40
17.0
 40
18.0
 40
18.0
 40
18.0
 40
19.0
 40
19.0
 40
19.0
 40
19.0
 10
101.6241156429968
 20
-134.7394069758638
 30
0.0
 10
101.6241156429968
 20
-134.8348361208052
 30
0.0
 10
101.6031005605367
 20
-135.052566155473
 30
0.0
 10
101.4170654043332
 20
-135.1776231215875
 30
0.0
 10
101.3047552915141
 20
-135.2516926745204
 30
0.0
 10
101.2055365415389
 20
-135.2558267891027
 30
0.0
 10
101.1207871926018
 20
-135.259960903685
 30
0.0
 10
101.1207871926018
 20
-135.259960903685
 30
0.0
 10
101.1207871926018
 20
-135.0398193021776
 30
0.0
 10
101.1207871926018
 20
-135.0398193021776
 30
0.0
 10
101.1948567455346
 20
-135.0377522448864
 30
0.0
 10
101.4294677480801
 20
-135.0274169584306
 30
0.0
 10
101.4294677480801
 20
-134.7438855999946
 30
0.0
 10
101.4294677480801
 20
-134.6064262901331
 30
0.0
 10
101.3598768192781
 20
-134.4538085601366
 30
0.0
 10
101.131466988606
 20
-134.4538085601366
 30
0.0
 10
101.0150227612046
 20
-134.4538085601366
 30
0.0
 10
100.9664469148626
 20
-134.4920491200228
 30
0.0
 10
100.9347520363983
 20
-134.5237439984871
 30
0.0
 10
100.8606824834654
 20
-134.59781355142
 30
0.0
 10
100.84793563017
 20
-134.7142577788214
 30
0.0
 10
100.84793563017
 20
-134.7690347970369
 30
0.0
 10
100.84793563017
 20
-134.7883273317543
 30
0.0
 10
100.8500026874611
 20
-134.8241563248009
 30
0.0
 10
100.8541368020434
 20
-134.8517170886829
 30
0.0
 10
100.8541368020434
 20
-134.8517170886829
 30
0.0
 10
100.6594889071268
 20
-134.8517170886829
 30
0.0
 10
100.6594889071268
 20
-134.8517170886829
 30
0.0
 10
100.6660345885488
 20
-134.8134765287966
 30
0.0
 10
100.6681016458399
 20
-134.7714463638766
 30
0.0
 10
100.6681016458399
 20
-134.7649006824546
 30
0.0
 10
100.6681016458399
 20
-134.6994438682349
 30
0.0
 10
100.6467420538314
 20
-134.500661858736
 30
0.0
 10
100.4100639939947
 20
-134.500661858736
 30
0.0
 10
100.2322970669558
 20
-134.500661858736
 30
0.0
 10
100.1771755391918
 20
-134.6315754871754
 30
0.0
 10
100.1771755391918
 20
-134.7418185427034
 30
0.0
 10
100.1771755391918
 20
-135.0060573664221
 30
0.0
 10
100.4100639939947
 20
-135.0146701051352
 30
0.0
 10
100.4817219800879
 20
-135.0188042197175
 30
0.0
 10
100.4817219800879
 20
-135.0188042197175
 30
0.0
 10
100.4817219800879
 20
-135.2220648533473
 30
0.0
 10
100.4817219800879
 20
-135.2220648533473
 30
0.0
 10
100.3570095235219
 20
-135.2134521146342
 30
0.0
 10
99.98046058698405
 20
-135.1858913507521
 30
0.0
 10
99.98046058698405
 20
-134.729071689408
 30
0.0
 10
99.98046058698405
 20
-134.5047959733182
 30
0.0
 10
100.1075846103898
 20
-134.2636392893507
 30
0.0
 10
100.4035183125727
 20
-134.2636392893507
 30
0.0
 10
100.5898979783248
 20
-134.2636392893507
 30
0.0
 10
100.6722357604222
 20
-134.3587239247437
 30
0.0
 10
100.7335584600597
 20
-134.4582871842674
 30
0.0
 10
100.7611192239417
 20
-134.3969644846299
 30
0.0
 10
100.841389948748
 20
-134.2150634430087
 30
0.0
 10
101.1187201353106
 20
-134.2150634430087
 30
0.0
 10
101.4570285119621
 20
-134.2150634430087
 30
0.0
 10
101.6241156429968
 20
-134.4624212988497
 30
0.0
 10
101.6241156429968
 20
-134.7394069758638
 30
0.0
  0
HATCH
  5
A0
330
9B
100
AcDbEntity
  8
_U+30EC_U+30A4_U+30E4_U+30FC 1
 62
     7
420
 16777215
100
AcDbHatch
 10
0.0
 20
0.0
 30
0.0
210
0.0
220
0.0
230
1.0
  2
SOLID
 70
     1
 71
     0
 91
        1
 92
        1
 93
        1
 72
     4
 94
        3
 73
     0
 74
     1
 95
       62
 96
       58
 40
0.0
 40
0.0
 40
0.0
 40
0.0
 40
1.0
 40
1.0
 40
1.0
 40
2.0
 40
2.0
 40
2.0
 40
3.0
 40
3.0
 40
3.0
 40
4.0
 40
4.0
 40
4.0
 40
5.0
 40
5.0
 40
5.0
 40
6.0
 40
6.0
 40
6.0
 40
7.0
 40
7.0
 40
7.0
 40
8.0
 40
8.0
 40
8.0
 40
9.0
 40
9.0
 40
9.0
 40
10.0
 40
10.0
 40
10.0
 40
11.0
 40
11.0
 40
11.0
 40
12.0
 40
12.0
 40
12.0
 40
13.0
 40
13.0
 40
13.0
 40
14.0
 40
14.0
 40
14.0
 40
15.0
 40
15.0
 40
15.0
 40
16.0
 40
16.0
 40
16.0
 40
17.0
 40
17.0
 40
17.0
 40
18.0
 40
18.0
 40
18.0
 40
19.0
 40
19.0
 40
19.0
 40
19.0
 10
101.6241156429968
 20
-134.7394069758638
 10
101.6241156429968
 20
-134.8348361208052
 10
101.6031005605367
 20
-135.052566155473
 10
101.4170654043332
 20
-135.1776231215875
 10
101.3047552915141
 20
-135.2516926745204
 10
101.2055365415389
 20
-135.2558267891027
 10
101.1207871926018
 20
-135.259960903685
 10
101.1207871926018
 20
-135.259960903685
 10
101.1207871926018
 20
-135.0398193021776
 10
101.1207871926018
 20
-135.0398193021776
 10
101.1948567455346
 20
-135.0377522448864
 10
101.4294677480801
 20
-135.0274169584306
 10
101.4294677480801
 20
-134.7438855999946
 10
101.4294677480801
 20
-134.6064262901331
 10
101.3598768192781
 20
-134.4538085601366
 10
101.131466988606
 20
-134.4538085601366
 10
101.0150227612046
 20
-134.4538085601366
 10
100.9664469148626
 20
-134.4920491200228
 10
100.9347520363983
 20
-134.5237439984871
 10
100.8606824834654
 20
-134.59781355142
 10
100.84793563017
 20
-134.7142577788214
 10
100.84793563017
 20
-134.7690347970369
 10
100.84793563017
 20
-134.7883273317543
 10
100.8500026874611
 20
-134.8241563248009
 10
100.8541368020434
 20
-134.8517170886829
 10
100.8541368020434
 20
-134.8517170886829
 10
100.6594889071268
 20
-134.8517170886829
 10
100.6594889071268
 20
-134.8517170886829
 10
100.6660345885488
 20
-134.8134765287966
 10
100.6681016458399
 20
-134.7714463638766
 10
100.6681016458399
 20
-134.7649006824546
 10
100.6681016458399
 20
-134.6994438682349
 10
100.6467420538314
 20
-134.500661858736
 10
100.4100639939947
 20
-134.500661858736
 10
100.2322970669558
 20
-134.500661858736
 10
100.1771755391918
 20
-134.6315754871754
 10
100.1771755391918
 20
-134.7418185427034
 10
100.1771755391918
 20
-135.0060573664221
 10
100.4100639939947
 20
-135.0146701051352
 10
100.4817219800879
 20
-135.0188042197175
 10
100.4817219800879
 20
-135.0188042197175
 10
100.4817219800879
 20
-135.2220648533473
 10
100.4817219800879
 20
-135.2220648533473
 10
100.3570095235219
 20
-135.2134521146342
 10
99.98046058698405
 20
-135.1858913507521
 10
99.98046058698405
 20
-134.729071689408
 10
99.98046058698405
 20
-134.5047959733182
 10
100.1075846103898
 20
-134.2636392893507
 10
100.4035183125727
 20
-134.2636392893507
 10
100.5898979783248
 20
-134.2636392893507
 10
100.6722357604222
 20
-134.3587239247437
 10
100.7335584600597
 20
-134.4582871842674
 10
100.7611192239417
 20
-134.3969644846299
 10
100.841389948748
 20
-134.2150634430087
 10
101.1187201353106
 20
-134.2150634430087
 10
101.4570285119621
 20
-134.2150634430087
 10
101.6241156429968
 20
-134.4624212988497
 10
101.6241156429968
 20
-134.7394069758638
 97
        0
 97
        0
 75
     2
 76
     1
 98
        0
  0
ENDBLK
  5
9E
330
9B
100
AcDbEntity
  8
0
100
AcDbBlockEnd
  0
BLOCK
  5
AB
330
A9
100
AcDbEntity
  8
0
100
AcDbBlockBegin
  2
block 6
 70
     0
 10
0.0
 20
0.0
 30
0.0
  3
block 6
  1

  0
SPLINE
  5
AD
330
A9
100
AcDbEntity
  8
_U+30EC_U+30A4_U+30E4_U+30FC 1
370
     0
100
AcDbSpline
210
0.0
220
0.0
230
1.0
 70
    11
 71
     3
 72
    29
 73
    25
 74
     0
 42
0.0000000001
 43
0.0000000001
 12
1.0
 22
0.0
 32
0.0
 13
1.0
 23
0.0
 33
0.0
 40
0.0
 40
0.0
 40
0.0
 40
0.0
 40
1.0
 40
1.0
 40
1.0
 40
2.0
 40
2.0
 40
2.0
 40
3.0
 40
3.0
 40
3.0
 40
4.0
 40
4.0
 40
4.0
 40
5.0
 40
5.0
 40
5.0
 40
6.0
 40
6.0
 40
6.0
 40
7.0
 40
7.0
 40
7.0
 40
8.0
 40
8.0
 40
8.0
 40
8.0
 10
101.6241156429968
 20
-129.8442708008723
 30
0.0
 10
101.6241156429968
 20
-130.1109211914306
 30
0.0
 10
101.4866563331353
 20
-130.364480219145
 30
0.0
 10
101.1376681604795
 20
-130.364480219145
 30
0.0
 10
100.8816975659254
 20
-130.364480219145
 30
0.0
 10
100.7866129305325
 20
-130.2228867947012
 30
0.0
 10
100.7252902308951
 20
-130.117122363304
 30
0.0
 10
100.6660345885488
 20
-130.2418348198701
 30
0.0
 10
100.5516574184385
 20
-130.3179714300941
 30
0.0
 10
100.3907714592773
 20
-130.3179714300941
 30
0.0
 10
100.1158528395544
 20
-130.3179714300941
 30
0.0
 10
99.98046058698405
 20
-130.1191894205952
 30
0.0
 10
99.98046058698405
 20
-129.8442708008723
 30
0.0
 10
99.98046058698405
 20
-129.5607394424362
 30
0.0
 10
100.1244655782675
 20
-129.3702256621019
 30
0.0
 10
100.3907714592773
 20
-129.3702256621019
 30
0.0
 10
100.5516574184385
 20
-129.3702256621019
 30
0.0
 10
100.6660345885488
 20
-129.4487738391656
 30
0.0
 10
100.7252902308951
 20
-129.5734862957316
 30
0.0
 10
100.7759331345282
 20
-129.4846028322122
 30
0.0
 10
100.8710177699211
 20
-129.3257839303422
 30
0.0
 10
101.1335340458972
 20
-129.3257839303422
 30
0.0
 10
101.5080159251438
 20
-129.3257839303422
 30
0.0
 10
101.6241156429968
 20
-129.6051811741959
 30
0.0
 10
101.6241156429968
 20
-129.8442708008723
 30
0.0
  0
SPLINE
  5
AE
330
A9
100
AcDbEntity
  8
_U+30EC_U+30A4_U+30E4_U+30FC 1
370
     0
100
AcDbSpline
210
0.0
220
0.0
230
1.0
 70
    11
 71
     3
 72
    17
 73
    13
 74
     0
 42
0.0000000001
 43
0.0000000001
 12
1.0
 22
0.0
 32
0.0
 13
1.0
 23
0.0
 33
0.0
 40
0.0
 40
0.0
 40
0.0
 40
0.0
 40
1.0
 40
1.0
 40
1.0
 40
2.0
 40
2.0
 40
2.0
 40
3.0
 40
3.0
 40
3.0
 40
4.0
 40
4.0
 40
4.0
 40
4.0
 10
100.1730414246095
 20
-129.8442708008723
 30
0.0
 10
100.1730414246095
 20
-130.0092908746157
 30
0.0
 10
100.2681260600024
 20
-130.0936957140044
 30
0.0
 10
100.4035183125727
 20
-130.0936957140044
 30
0.0
 10
100.5261637118476
 20
-130.0936957140044
 30
0.0
 10
100.6446749965402
 20
-130.0220377279112
 30
0.0
 10
100.6446749965402
 20
-129.8442708008723
 30
0.0
 10
100.6446749965402
 20
-129.6665038738334
 30
0.0
 10
100.5261637118476
 20
-129.5945013781917
 30
0.0
 10
100.4035183125727
 20
-129.5945013781917
 30
0.0
 10
100.2681260600024
 20
-129.5945013781917
 30
0.0
 10
100.1730414246095
 20
-129.6813177844199
 30
0.0
 10
100.1730414246095
 20
-129.8442708008723
 30
0.0
  0
SPLINE
  5
AF
330
A9
100
AcDbEntity
  8
_U+30EC_U+30A4_U+30E4_U+30FC 1
370
     0
100
AcDbSpline
210
0.0
220
0.0
230
1.0
 70
    11
 71
     3
 72
    17
 73
    13
 74
     0
 42
0.0000000001
 43
0.0000000001
 12
1.0
 22
0.0
 32
0.0
 13
1.0
 23
0.0
 33
0.0
 40
0.0
 40
0.0
 40
0.0
 40
0.0
 40
1.0
 40
1.0
 40
1.0
 40
2.0
 40
2.0
 40
2.0
 40
3.0
 40
3.0
 40
3.0
 40
4.0
 40
4.0
 40
4.0
 40
4.0
 10
100.8331217195834
 20
-129.8442708008723
 30
0.0
 10
100.8331217195834
 20
-129.9879312826072
 30
0.0
 10
100.9199381258117
 20
-130.1405490126038
 30
0.0
 10
101.1228542498929
 20
-130.1405490126038
 30
0.0
 10
101.3281819408138
 20
-130.1405490126038
 30
0.0
 10
101.4294677480801
 20
-130.013424989198
 30
0.0
 10
101.4294677480801
 20
-129.8442708008723
 30
0.0
 10
101.4294677480801
 20
-129.6582356446688
 30
0.0
 10
101.3068223488052
 20
-129.5479925891408
 30
0.0
 10
101.1290554217664
 20
-129.5479925891408
 30
0.0
 10
100.9071912725163
 20
-129.5479925891408
 30
0.0
 10
100.8331217195834
 20
-129.7109456055931
 30
0.0
 10
100.8331217195834
 20
-129.8442708008723
 30
0.0
  0
HATCH
  5
B0
330
A9
100
AcDbEntity
  8
_U+30EC_U+30A4_U+30E4_U+30FC 1
 62
     7
420
 16777215
100
AcDbHatch
 10
0.0
 20
0.0
 30
0.0
210
0.0
220
0.0
230
1.0
  2
SOLID
 70
     1
 71
     0
 91
        3
 92
        1
 93
        1
 72
     4
 94
        3
 73
     0
 74
     1
 95
       29
 96
       25
 40
0.0
 40
0.0
 40
0.0
 40
0.0
 40
1.0
 40
1.0
 40
1.0
 40
2.0
 40
2.0
 40
2.0
 40
3.0
 40
3.0
 40
3.0
 40
4.0
 40
4.0
 40
4.0
 40
5.0
 40
5.0
 40
5.0
 40
6.0
 40
6.0
 40
6.0
 40
7.0
 40
7.0
 40
7.0
 40
8.0
 40
8.0
 40
8.0
 40
8.0
 10
101.6241156429968
 20
-129.8442708008723
 10
101.6241156429968
 20
-130.1109211914306
 10
101.4866563331353
 20
-130.364480219145
 10
101.1376681604795
 20
-130.364480219145
 10
100.8816975659254
 20
-130.364480219145
 10
100.7866129305325
 20
-130.2228867947012
 10
100.7252902308951
 20
-130.117122363304
 10
100.6660345885488
 20
-130.2418348198701
 10
100.5516574184385
 20
-130.3179714300941
 10
100.3907714592773
 20
-130.3179714300941
 10
100.1158528395544
 20
-130.3179714300941
 10
99.98046058698405
 20
-130.1191894205952
 10
99.98046058698405
 20
-129.8442708008723
 10
99.98046058698405
 20
-129.5607394424362
 10
100.1244655782675
 20
-129.3702256621019
 10
100.3907714592773
 20
-129.3702256621019
 10
100.5516574184385
 20
-129.3702256621019
 10
100.6660345885488
 20
-129.4487738391656
 10
100.7252902308951
 20
-129.5734862957316
 10
100.7759331345282
 20
-129.4846028322122
 10
100.8710177699211
 20
-129.3257839303422
 10
101.1335340458972
 20
-129.3257839303422
 10
101.5080159251438
 20
-129.3257839303422
 10
101.6241156429968
 20
-129.6051811741959
 10
101.6241156429968
 20
-129.8442708008723
 97
        0
 97
        0
 92
        1
 93
        1
 72
     4
 94
        3
 73
     0
 74
     1
 95
       17
 96
       13
 40
0.0
 40
0.0
 40
0.0
 40
0.0
 40
1.0
 40
1.0
 40
1.0
 40
2.0
 40
2.0
 40
2.0
 40
3.0
 40
3.0
 40
3.0
 40
4.0
 40
4.0
 40
4.0
 40
4.0
 10
100.1730414246095
 20
-129.8442708008723
 10
100.1730414246095
 20
-130.0092908746157
 10
100.2681260600024
 20
-130.0936957140044
 10
100.4035183125727
 20
-130.0936957140044
 10
100.5261637118476
 20
-130.0936957140044
 10
100.6446749965402
 20
-130.0220377279112
 10
100.6446749965402
 20
-129.8442708008723
 10
100.6446749965402
 20
-129.6665038738334
 10
100.5261637118476
 20
-129.5945013781917
 10
100.4035183125727
 20
-129.5945013781917
 10
100.2681260600024
 20
-129.5945013781917
 10
100.1730414246095
 20
-129.6813177844199
 10
100.1730414246095
 20
-129.8442708008723
 97
        0
 97
        0
 92
        1
 93
        1
 72
     4
 94
        3
 73
     0
 74
     1
 95
       17
 96
       13
 40
0.0
 40
0.0
 40
0.0
 40
0.0
 40
1.0
 40
1.0
 40
1.0
 40
2.0
 40
2.0
 40
2.0
 40
3.0
 40
3.0
 40
3.0
 40
4.0
 40
4.0
 40
4.0
 40
4.0
 10
100.8331217195834
 20
-129.8442708008723
 10
100.8331217195834
 20
-129.9879312826072
 10
100.9199381258117
 20
-130.1405490126038
 10
101.1228542498929
 20
-130.1405490126038
 10
101.3281819408138
 20
-130.1405490126038
 10
101.4294677480801
 20
-130.013424989198
 10
101.4294677480801
 20
-129.8442708008723
 10
101.4294677480801
 20
-129.6582356446688
 10
101.3068223488052
 20
-129.5479925891408
 10
101.1290554217664
 20
-129.5479925891408
 10
100.9071912725163
 20
-129.5479925891408
 10
100.8331217195834
 20
-129.7109456055931
 10
100.8331217195834
 20
-129.8442708008723
 97
        0
 97
        0
 75
     2
 76
     1
 98
        0
  0
POLYLINE
  5
B1
330
A9
100
AcDbEntity
  8
_U+30EC_U+30A4_U+30E4_U+30FC 1
370
     0
100
AcDb2dPolyline
 66
     1
 10
0.0
 20
0.0
 30
0.0
  0
VERTEX
  5
B2
330
B1
100
AcDbEntity
  8
_U+30EC_U+30A4_U+30E4_U+30FC 1
370
     0
100
AcDbVertex
100
AcDb2dVertex
 10
101.5734727393636
 20
-129.1073648765773
 30
0.0
  0
VERTEX
  5
B3
330
B1
100
AcDbEntity
  8
_U+30EC_U+30A4_U+30E4_U+30FC 1
370
     0
100
AcDbVertex
100
AcDb2dVertex
 10
101.3216362593918
 20
-129.1073648765773
 30
0.0
  0
VERTEX
  5
B4
330
B1
100
AcDbEntity
  8
_U+30EC_U+30A4_U+30E4_U+30FC 1
370
     0
100
AcDbVertex
100
AcDb2dVertex
 10
101.3216362593918
 20
-128.8555283966056
 30
0.0
  0
VERTEX
  5
B5
330
B1
100
AcDbEntity
  8
_U+30EC_U+30A4_U+30E4_U+30FC 1
370
     0
100
AcDbVertex
100
AcDb2dVertex
 10
101.5734727393636
 20
-128.8555283966056
 30
0.0
  0
VERTEX
  5
B6
330
B1
100
AcDbEntity
  8
_U+30EC_U+30A4_U+30E4_U+30FC 1
370
     0
100
AcDbVertex
100
AcDb2dVertex
 10
101.5734727393636
 20
-129.1073648765773
 30
0.0
  0
SEQEND
  5
B7
330
B1
100
AcDbEntity
  8
_U+30EC_U+30A4_U+30E4_U+30FC 1
370
     0
  0
HATCH
  5
B8
330
A9
100
AcDbEntity
  8
_U+30EC_U+30A4_U+30E4_U+30FC 1
 62
     7
420
 16777215
100
AcDbHatch
 10
0.0
 20
0.0
 30
0.0
210
0.0
220
0.0
230
1.0
  2
SOLID
 70
     1
 71
     0
 91
        1
 92
        1
 93
        4
 72
     1
 10
101.5734727393636
 20
-129.1073648765773
 11
101.3216362593918
 21
-129.1073648765773
 72
     1
 10
101.3216362593918
 20
-129.1073648765773
 11
101.3216362593918
 21
-128.8555283966056
 72
     1
 10
101.3216362593918
 20
-128.8555283966056
 11
101.5734727393636
 21
-128.8555283966056
 72
     1
 10
101.5734727393636
 20
-128.8555283966056
 11
101.5734727393636
 21
-129.1073648765773
 97
        0
 75
     2
 76
     1
 98
        0
  0
SPLINE
  5
B9
330
A9
100
AcDbEntity
  8
_U+30EC_U+30A4_U+30E4_U+30FC 1
370
     0
100
AcDbSpline
210
0.0
220
0.0
230
1.0
 70
    11
 71
     3
 72
    53
 73
    49
 74
     0
 42
0.0000000001
 43
0.0000000001
 12
1.0
 22
0.0
 32
0.0
 13
1.0
 23
0.0
 33
0.0
 40
0.0
 40
0.0
 40
0.0
 40
0.0
 40
1.0
 40
1.0
 40
1.0
 40
2.0
 40
2.0
 40
2.0
 40
3.0
 40
3.0
 40
3.0
 40
4.0
 40
4.0
 40
4.0
 40
5.0
 40
5.0
 40
5.0
 40
6.0
 40
6.0
 40
6.0
 40
7.0
 40
7.0
 40
7.0
 40
8.0
 40
8.0
 40
8.0
 40
9.0
 40
9.0
 40
9.0
 40
10.0
 40
10.0
 40
10.0
 40
11.0
 40
11.0
 40
11.0
 40
12.0
 40
12.0
 40
12.0
 40
13.0
 40
13.0
 40
13.0
 40
14.0
 40
14.0
 40
14.0
 40
15.0
 40
15.0
 40
15.0
 40
16.0
 40
16.0
 40
16.0
 40
16.0
 10
101.6241156429968
 20
-128.1382595165765
 30
0.0
 10
101.6241156429968
 20
-128.2164631840917
 30
0.0
 10
101.607234675119
 20
-128.3180935009066
 30
0.0
 10
101.5438449181904
 20
-128.4197238177215
 30
0.0
 10
101.433946372211
 20
-128.5930121206295
 30
0.0
 10
101.3026882342229
 20
-128.6143717126381
 30
0.0
 10
101.1948567455346
 20
-128.6333197378069
 30
0.0
 10
101.1948567455346
 20
-128.6333197378069
 30
0.0
 10
101.1948567455346
 20
-128.4111110790084
 30
0.0
 10
101.1948567455346
 20
-128.4111110790084
 30
0.0
 10
101.3936387550335
 20
-128.3563340607929
 30
0.0
 10
101.4232665762067
 20
-128.2292100373872
 30
0.0
 10
101.4232665762067
 20
-128.1361924592854
 30
0.0
 10
101.4232665762067
 20
-127.9966660921328
 30
0.0
 10
101.323703316683
 20
-127.8443928716847
 30
0.0
 10
101.0911593714286
 20
-127.8443928716847
 30
0.0
 10
100.8351887768745
 20
-127.8443928716847
 30
0.0
 10
100.765253338524
 20
-128.0242268560148
 30
0.0
 10
100.765253338524
 20
-128.1448051979985
 30
0.0
 10
100.765253338524
 20
-128.1765000764628
 30
0.0
 10
100.765253338524
 20
-128.3180935009066
 30
0.0
 10
100.8944444192208
 20
-128.406976964426
 30
0.0
 10
100.8944444192208
 20
-128.406976964426
 30
0.0
 10
100.875496394052
 20
-128.5826768341738
 30
0.0
 10
100.875496394052
 20
-128.5826768341738
 30
0.0
 10
100.875496394052
 20
-128.5826768341738
 30
0.0
 10
100.0290364333261
 20
-128.46209849219
 30
0.0
 10
100.0290364333261
 20
-128.46209849219
 30
0.0
 10
100.0290364333261
 20
-128.46209849219
 30
0.0
 10
100.0290364333261
 20
-127.6835069125236
 30
0.0
 10
100.0290364333261
 20
-127.6835069125236
 30
0.0
 10
100.0290364333261
 20
-127.6835069125236
 30
0.0
 10
100.2236843282427
 20
-127.6835069125236
 30
0.0
 10
100.2236843282427
 20
-127.6835069125236
 30
0.0
 10
100.2236843282427
 20
-127.6835069125236
 30
0.0
 10
100.2236843282427
 20
-128.2991454757377
 30
0.0
 10
100.2236843282427
 20
-128.2991454757377
 30
0.0
 10
100.2236843282427
 20
-128.2991454757377
 30
0.0
 10
100.6467420538314
 20
-128.3646022899575
 30
0.0
 10
100.6467420538314
 20
-128.3646022899575
 30
0.0
 10
100.6129801180759
 20
-128.30327959032
 30
0.0
 10
100.5726725008985
 20
-128.2209418082225
 30
0.0
 10
100.5726725008985
 20
-128.10243052353
 30
0.0
 10
100.5726725008985
 20
-127.848526986267
 30
0.0
 10
100.7590521666505
 20
-127.6115044168819
 30
0.0
 10
101.0722113462597
 20
-127.6115044168819
 30
0.0
 10
101.3895046404512
 20
-127.6115044168819
 30
0.0
 10
101.6241156429968
 20
-127.8357801329716
 30
0.0
 10
101.6241156429968
 20
-128.1382595165765
 30
0.0
  0
HATCH
  5
BA
330
A9
100
AcDbEntity
  8
_U+30EC_U+30A4_U+30E4_U+30FC 1
 62
     7
420
 16777215
100
AcDbHatch
 10
0.0
 20
0.0
 30
0.0
210
0.0
220
0.0
230
1.0
  2
SOLID
 70
     1
 71
     0
 91
        1
 92
        1
 93
        1
 72
     4
 94
        3
 73
     0
 74
     1
 95
       53
 96
       49
 40
0.0
 40
0.0
 40
0.0
 40
0.0
 40
1.0
 40
1.0
 40
1.0
 40
2.0
 40
2.0
 40
2.0
 40
3.0
 40
3.0
 40
3.0
 40
4.0
 40
4.0
 40
4.0
 40
5.0
 40
5.0
 40
5.0
 40
6.0
 40
6.0
 40
6.0
 40
7.0
 40
7.0
 40
7.0
 40
8.0
 40
8.0
 40
8.0
 40
9.0
 40
9.0
 40
9.0
 40
10.0
 40
10.0
 40
10.0
 40
11.0
 40
11.0
 40
11.0
 40
12.0
 40
12.0
 40
12.0
 40
13.0
 40
13.0
 40
13.0
 40
14.0
 40
14.0
 40
14.0
 40
15.0
 40
15.0
 40
15.0
 40
16.0
 40
16.0
 40
16.0
 40
16.0
 10
101.6241156429968
 20
-128.1382595165765
 10
101.6241156429968
 20
-128.2164631840917
 10
101.607234675119
 20
-128.3180935009066
 10
101.5438449181904
 20
-128.4197238177215
 10
101.433946372211
 20
-128.5930121206295
 10
101.3026882342229
 20
-128.6143717126381
 10
101.1948567455346
 20
-128.6333197378069
 10
101.1948567455346
 20
-128.6333197378069
 10
101.1948567455346
 20
-128.4111110790084
 10
101.1948567455346
 20
-128.4111110790084
 10
101.3936387550335
 20
-128.3563340607929
 10
101.4232665762067
 20
-128.2292100373872
 10
101.4232665762067
 20
-128.1361924592854
 10
101.4232665762067
 20
-127.9966660921328
 10
101.323703316683
 20
-127.8443928716847
 10
101.0911593714286
 20
-127.8443928716847
 10
100.8351887768745
 20
-127.8443928716847
 10
100.765253338524
 20
-128.0242268560148
 10
100.765253338524
 20
-128.1448051979985
 10
100.765253338524
 20
-128.1765000764628
 10
100.765253338524
 20
-128.3180935009066
 10
100.8944444192208
 20
-128.406976964426
 10
100.8944444192208
 20
-128.406976964426
 10
100.875496394052
 20
-128.5826768341738
 10
100.875496394052
 20
-128.5826768341738
 10
100.875496394052
 20
-128.5826768341738
 10
100.0290364333261
 20
-128.46209849219
 10
100.0290364333261
 20
-128.46209849219
 10
100.0290364333261
 20
-128.46209849219
 10
100.0290364333261
 20
-127.6835069125236
 10
100.0290364333261
 20
-127.6835069125236
 10
100.0290364333261
 20
-127.6835069125236
 10
100.2236843282427
 20
-127.6835069125236
 10
100.2236843282427
 20
-127.6835069125236
 10
100.2236843282427
 20
-127.6835069125236
 10
100.2236843282427
 20
-128.2991454757377
 10
100.2236843282427
 20
-128.2991454757377
 10
100.2236843282427
 20
-128.2991454757377
 10
100.6467420538314
 20
-128.3646022899575
 10
100.6467420538314
 20
-128.3646022899575
 10
100.6129801180759
 20
-128.30327959032
 10
100.5726725008985
 20
-128.2209418082225
 10
100.5726725008985
 20
-128.10243052353
 10
100.5726725008985
 20
-127.848526986267
 10
100.7590521666505
 20
-127.6115044168819
 10
101.0722113462597
 20
-127.6115044168819
 10
101.3895046404512
 20
-127.6115044168819
 10
101.6241156429968
 20
-127.8357801329716
 10
101.6241156429968
 20
-128.1382595165765
 97
        0
 97
        0
 75
     2
 76
     1
 98
        0
  0
ENDBLK
  5
AC
330
A9
100
AcDbEntity
  8
0
100
AcDbBlockEnd
  0
ENDSEC
  0
SECTION
  2
ENTITIES
  0
POLYLINE
  5
41
330
1F
100
AcDbEntity
  8
_U+30EC_U+30A4_U+30E4_U+30FC 1
 62
     7
420
 16777215
370
    25
100
AcDb2dPolyline
 66
     1
 10
0.0
 20
0.0
 30
0.0
  0
VERTEX
  5
42
330
41
100
AcDbEntity
  8
_U+30EC_U+30A4_U+30E4_U+30FC 1
 62
     7
420
 16777215
370
    25
100
AcDbVertex
100
AcDb2dVertex
 10
73.21930813201983
 20
-136.2307832992754
 30
0.0
  0
VERTEX
  5
43
330
41
100
AcDbEntity
  8
_U+30EC_U+30A4_U+30E4_U+30FC 1
 62
     7
420
 16777215
370
    25
100
AcDbVertex
100
AcDb2dVertex
 10
73.21930813201983
 20
-123.7209658024031
 30
0.0
  0
VERTEX
  5
44
330
41
100
AcDbEntity
  8
_U+30EC_U+30A4_U+30E4_U+30FC 1
 62
     7
420
 16777215
370
    25
100
AcDbVertex
100
AcDb2dVertex
 10
98.2196833087783
 20
-123.7209658024031
 30
0.0
  0
VERTEX
  5
45
330
41
100
AcDbEntity
  8
_U+30EC_U+30A4_U+30E4_U+30FC 1
 62
     7
420
 16777215
370
    25
100
AcDbVertex
100
AcDb2dVertex
 10
98.2196833087783
 20
-124.7207380243754
 30
0.0
  0
VERTEX
  5
46
330
41
100
AcDbEntity
  8
_U+30EC_U+30A4_U+30E4_U+30FC 1
 62
     7
420
 16777215
370
    25
100
AcDbVertex
100
AcDb2dVertex
 10
74.21975060649642
 20
-124.7207380243754
 30
0.0
  0
VERTEX
  5
47
330
41
100
AcDbEntity
  8
_U+30EC_U+30A4_U+30E4_U+30FC 1
 62
     7
420
 16777215
370
    25
100
AcDbVertex
100
AcDb2dVertex
 10
74.21975060649642
 20
-135.2303407995255
 30
0.0
  0
VERTEX
  5
48
330
41
100
AcDbEntity
  8
_U+30EC_U+30A4_U+30E4_U+30FC 1
 62
     7
420
 16777215
370
    25
100
AcDbVertex
100
AcDb2dVertex
 10
77.21973747440481
 20
-135.2303407995255
 30
0.0
  0
VERTEX
  5
49
330
41
100
AcDbEntity
  8
_U+30EC_U+30A4_U+30E4_U+30FC 1
 62
     7
420
 16777215
370
    25
100
AcDbVertex
100
AcDb2dVertex
 10
77.21973747440481
 20
-133.230796355581
 30
0.0
  0
VERTEX
  5
4A
330
41
100
AcDbEntity
  8
_U+30EC_U+30A4_U+30E4_U+30FC 1
 62
     7
420
 16777215
370
    25
100
AcDbVertex
100
AcDb2dVertex
 10
78.21950967112072
 20
-133.230796355581
 30
0.0
  0
VERTEX
  5
4B
330
41
100
AcDbEntity
  8
_U+30EC_U+30A4_U+30E4_U+30FC 1
 62
     7
420
 16777215
370
    25
100
AcDbVertex
100
AcDb2dVertex
 10
78.21950967112072
 20
-136.2307832992754
 30
0.0
  0
VERTEX
  5
4C
330
41
100
AcDbEntity
  8
_U+30EC_U+30A4_U+30E4_U+30FC 1
 62
     7
420
 16777215
370
    25
100
AcDbVertex
100
AcDb2dVertex
 10
73.21930813201983
 20
-136.2307832992754
 30
0.0
  0
SEQEND
  5
4E
330
41
100
AcDbEntity
  8
_U+30EC_U+30A4_U+30E4_U+30FC 1
 62
     7
420
 16777215
370
    25
  0
HATCH
  5
4D
330
1F
100
AcDbEntity
  8
_U+30EC_U+30A4_U+30E4_U+30FC 1
 62
   253
420
 11711154
100
AcDbHatch
 10
0.0
 20
0.0
 30
0.0
210
0.0
220
0.0
230
1.0
  2
SOLID
 70
     1
 71
     0
 91
        1
 92
        1
 93
       10
 72
     1
 10
73.21930813201983
 20
-136.2307832992754
 11
73.21930813201983
 21
-123.7209658024031
 72
     1
 10
73.21930813201983
 20
-123.7209658024031
 11
98.2196833087783
 21
-123.7209658024031
 72
     1
 10
98.2196833087783
 20
-123.7209658024031
 11
98.2196833087783
 21
-124.7207380243754
 72
     1
 10
98.2196833087783
 20
-124.7207380243754
 11
74.21975060649642
 21
-124.7207380243754
 72
     1
 10
74.21975060649642
 20
-124.7207380243754
 11
74.21975060649642
 21
-135.2303407995255
 72
     1
 10
74.21975060649642
 20
-135.2303407995255
 11
77.21973747440482
 21
-135.2303407995255
 72
     1
 10
77.21973747440481
 20
-135.2303407995255
 11
77.21973747440481
 21
-133.230796355581
 72
     1
 10
77.21973747440481
 20
-133.230796355581
 11
78.21950967112072
 21
-133.230796355581
 72
     1
 10
78.21950967112072
 20
-133.230796355581
 11
78.21950967112072
 21
-136.2307832992754
 72
     1
 10
78.21950967112072
 20
-136.2307832992754
 11
73.21930813201982
 21
-136.2307832992754
 97
        0
 75
     2
 76
     1
 98
        0
  0
SPLINE
  5
4F
330
1F
100
AcDbEntity
  8
_U+30EC_U+30A4_U+30E4_U+30FC 1
 62
     7
420
 16777215
370
     9
100
AcDbSpline
210
0.0
220
0.0
230
1.0
 70
    11
 71
     3
 72
    17
 73
    13
 74
     0
 42
0.0000000001
 43
0.0000000001
 12
1.0
 22
0.0
 32
0.0
 13
1.0
 23
0.0
 33
0.0
 40
0.0
 40
0.0
 40
0.0
 40
0.0
 40
1.0
 40
1.0
 40
1.0
 40
2.0
 40
2.0
 40
2.0
 40
3.0
 40
3.0
 40
3.0
 40
4.0
 40
4.0
 40
4.0
 40
4.0
 10
73.31956942611457
 20
-140.2305424649423
 30
0.0
 10
73.31956942611457
 20
-140.1754385760673
 30
0.0
 10
73.27476664834785
 20
-140.1306357983006
 30
0.0
 10
73.21930813201983
 20
-140.1306357983006
 30
0.0
 10
73.16416896675987
 20
-140.1306357983006
 30
0.0
 10
73.119401467902
 20
-140.1754385760673
 30
0.0
 10
73.119401467902
 20
-140.2305424649423
 30
0.0
 10
73.119401467902
 20
-140.2856816315953
 30
0.0
 10
73.16416896675987
 20
-140.3304491315839
 30
0.0
 10
73.21930813201983
 20
-140.3304491315839
 30
0.0
 10
73.27476664834785
 20
-140.3304491315839
 30
0.0
 10
73.31956942611457
 20
-140.2856816315953
 30
0.0
 10
73.31956942611457
 20
-140.2305424649423
 30
0.0
  0
SPLINE
  5
50
330
1F
100
AcDbEntity
  8
_U+30EC_U+30A4_U+30E4_U+30FC 1
 62
     7
420
 16777215
370
     9
100
AcDbSpline
210
0.0
220
0.0
230
1.0
 70
    11
 71
     3
 72
    17
 73
    13
 74
     0
 42
0.0000000001
 43
0.0000000001
 12
1.0
 22
0.0
 32
0.0
 13
1.0
 23
0.0
 33
0.0
 40
0.0
 40
0.0
 40
0.0
 40
0.0
 40
1.0
 40
1.0
 40
1.0
 40
2.0
 40
2.0
 40
2.0
 40
3.0
 40
3.0
 40
3.0
 40
4.0
 40
4.0
 40
4.0
 40
4.0
 10
78.31941633523856
 20
-140.2305424649423
 30
0.0
 10
78.31941633523856
 20
-140.1754385760673
 30
0.0
 10
78.27464883638068
 20
-140.1306357983006
 30
0.0
 10
78.21950967112072
 20
-140.1306357983006
 30
0.0
 10
78.16440578363765
 20
-140.1306357983006
 30
0.0
 10
78.1196030070029
 20
-140.1754385760673
 30
0.0
 10
78.1196030070029
 20
-140.2305424649423
 30
0.0
 10
78.1196030070029
 20
-140.2856816315953
 30
0.0
 10
78.16440578363765
 20
-140.3304491315839
 30
0.0
 10
78.21950967112072
 20
-140.3304491315839
 30
0.0
 10
78.27464883638068
 20
-140.3304491315839
 30
0.0
 10
78.31941633523856
 20
-140.2856816315953
 30
0.0
 10
78.31941633523856
 20
-140.2305424649423
 30
0.0
  0
SPLINE
  5
51
330
1F
100
AcDbEntity
  8
_U+30EC_U+30A4_U+30E4_U+30FC 1
 62
     7
420
 16777215
370
     9
100
AcDbSpline
210
0.0
220
0.0
230
1.0
 70
    11
 71
     3
 72
    17
 73
    13
 74
     0
 42
0.0000000001
 43
0.0000000001
 12
1.0
 22
0.0
 32
0.0
 13
1.0
 23
0.0
 33
0.0
 40
0.0
 40
0.0
 40
0.0
 40
0.0
 40
1.0
 40
1.0
 40
1.0
 40
2.0
 40
2.0
 40
2.0
 40
3.0
 40
3.0
 40
3.0
 40
4.0
 40
4.0
 40
4.0
 40
4.0
 10
102.3196666410871
 20
-136.2307832992754
 30
0.0
 10
102.3196666410871
 20
-136.1756794104005
 30
0.0
 10
102.2748965574167
 20
-136.1308766326337
 30
0.0
 10
102.2194398921648
 20
-136.1308766326337
 30
0.0
 10
102.1643007269049
 20
-136.1308766326337
 30
0.0
 10
102.119533228047
 20
-136.1756794104005
 30
0.0
 10
102.119533228047
 20
-136.2307832992754
 30
0.0
 10
102.119533228047
 20
-136.2859224659285
 30
0.0
 10
102.1643007269049
 20
-136.330689965917
 30
0.0
 10
102.2194398921648
 20
-136.330689965917
 30
0.0
 10
102.2748965574167
 20
-136.330689965917
 30
0.0
 10
102.3196666410871
 20
-136.2859224659285
 30
0.0
 10
102.3196666410871
 20
-136.2307832992754
 30
0.0
  0
SPLINE
  5
52
330
1F
100
AcDbEntity
  8
_U+30EC_U+30A4_U+30E4_U+30FC 1
 62
     7
420
 16777215
370
     9
100
AcDbSpline
210
0.0
220
0.0
230
1.0
 70
    11
 71
     3
 72
    17
 73
    13
 74
     0
 42
0.0000000001
 43
0.0000000001
 12
1.0
 22
0.0
 32
0.0
 13
1.0
 23
0.0
 33
0.0
 40
0.0
 40
0.0
 40
0.0
 40
0.0
 40
1.0
 40
1.0
 40
1.0
 40
2.0
 40
2.0
 40
2.0
 40
3.0
 40
3.0
 40
3.0
 40
4.0
 40
4.0
 40
4.0
 40
4.0
 10
102.3196666410871
 20
-133.230796355581
 30
0.0
 10
102.3196666410871
 20
-133.1756924667061
 30
0.0
 10
102.2748965574167
 20
-133.1308896889394
 30
0.0
 10
102.2194398921648
 20
-133.1308896889394
 30
0.0
 10
102.1643007269049
 20
-133.1308896889394
 30
0.0
 10
102.119533228047
 20
-133.1756924667061
 30
0.0
 10
102.119533228047
 20
-133.230796355581
 30
0.0
 10
102.119533228047
 20
-133.2859355222341
 30
0.0
 10
102.1643007269049
 20
-133.3307030222227
 30
0.0
 10
102.2194398921648
 20
-133.3307030222227
 30
0.0
 10
102.2748965574167
 20
-133.3307030222227
 30
0.0
 10
102.3196666410871
 20
-133.2859355222341
 30
0.0
 10
102.3196666410871
 20
-133.230796355581
 30
0.0
  0
SPLINE
  5
53
330
1F
100
AcDbEntity
  8
_U+30EC_U+30A4_U+30E4_U+30FC 1
 62
     7
420
 16777215
370
     9
100
AcDbSpline
210
0.0
220
0.0
230
1.0
 70
    11
 71
     3
 72
    17
 73
    13
 74
     0
 42
0.0000000001
 43
0.0000000001
 12
1.0
 22
0.0
 32
0.0
 13
1.0
 23
0.0
 33
0.0
 40
0.0
 40
0.0
 40
0.0
 40
0.0
 40
1.0
 40
1.0
 40
1.0
 40
2.0
 40
2.0
 40
2.0
 40
3.0
 40
3.0
 40
3.0
 40
4.0
 40
4.0
 40
4.0
 40
4.0
 10
102.3196666410871
 20
-124.7207380243754
 30
0.0
 10
102.3196666410871
 20
-124.6655988577226
 30
0.0
 10
102.2748965574167
 20
-124.6208313577337
 30
0.0
 10
102.2194398921648
 20
-124.6208313577337
 30
0.0
 10
102.1643007269049
 20
-124.6208313577337
 30
0.0
 10
102.119533228047
 20
-124.6655988577226
 30
0.0
 10
102.119533228047
 20
-124.7207380243754
 30
0.0
 10
102.119533228047
 20
-124.7758419132506
 30
0.0
 10
102.1643007269049
 20
-124.820644691017
 30
0.0
 10
102.2194398921648
 20
-124.820644691017
 30
0.0
 10
102.2748965574167
 20
-124.820644691017
 30
0.0
 10
102.3196666410871
 20
-124.7758419132506
 30
0.0
 10
102.3196666410871
 20
-124.7207380243754
 30
0.0
  0
SPLINE
  5
54
330
1F
100
AcDbEntity
  8
_U+30EC_U+30A4_U+30E4_U+30FC 1
 62
     7
420
 16777215
370
     9
100
AcDbSpline
210
0.0
220
0.0
230
1.0
 70
    11
 71
     3
 72
    17
 73
    13
 74
     0
 42
0.0000000001
 43
0.0000000001
 12
1.0
 22
0.0
 32
0.0
 13
1.0
 23
0.0
 33
0.0
 40
0.0
 40
0.0
 40
0.0
 40
0.0
 40
1.0
 40
1.0
 40
1.0
 40
2.0
 40
2.0
 40
2.0
 40
3.0
 40
3.0
 40
3.0
 40
4.0
 40
4.0
 40
4.0
 40
4.0
 10
102.3196666410871
 20
-123.7209658024031
 30
0.0
 10
102.3196666410871
 20
-123.6655091357501
 30
0.0
 10
102.2748965574167
 20
-123.6207063579837
 30
0.0
 10
102.2194398921648
 20
-123.6207063579837
 30
0.0
 10
102.1643007269049
 20
-123.6207063579837
 30
0.0
 10
102.119533228047
 20
-123.6655091357501
 30
0.0
 10
102.119533228047
 20
-123.7209658024031
 30
0.0
 10
102.119533228047
 20
-123.7760696912784
 30
0.0
 10
102.1643007269049
 20
-123.8208724690448
 30
0.0
 10
102.2194398921648
 20
-123.8208724690448
 30
0.0
 10
102.2748965574167
 20
-123.8208724690448
 30
0.0
 10
102.3196666410871
 20
-123.7760696912784
 30
0.0
 10
102.3196666410871
 20
-123.7209658024031
 30
0.0
  0
SPLINE
  5
55
330
1F
100
AcDbEntity
  8
_U+30EC_U+30A4_U+30E4_U+30FC 1
 62
     7
420
 16777215
370
     9
100
AcDbSpline
210
0.0
220
0.0
230
1.0
 70
    11
 71
     3
 72
    17
 73
    13
 74
     0
 42
0.0000000001
 43
0.0000000001
 12
1.0
 22
0.0
 32
0.0
 13
1.0
 23
0.0
 33
0.0
 40
0.0
 40
0.0
 40
0.0
 40
0.0
 40
1.0
 40
1.0
 40
1.0
 40
2.0
 40
2.0
 40
2.0
 40
3.0
 40
3.0
 40
3.0
 40
4.0
 40
4.0
 40
4.0
 40
4.0
 10
98.31958749165835
 20
-119.7206774700699
 30
0.0
 10
98.31958749165835
 20
-119.6655735811947
 30
0.0
 10
98.27478471502359
 20
-119.6207708034283
 30
0.0
 10
98.2196833087783
 20
-119.6207708034283
 30
0.0
 10
98.16418888451179
 20
-119.6207708034283
 30
0.0
 10
98.11942138565391
 20
-119.6655735811947
 30
0.0
 10
98.11942138565391
 20
-119.7206774700699
 30
0.0
 10
98.11942138565391
 20
-119.7759930256116
 30
0.0
 10
98.16418888451179
 20
-119.8207605256005
 30
0.0
 10
98.2196833087783
 20
-119.8207605256005
 30
0.0
 10
98.27478471502359
 20
-119.8207605256005
 30
0.0
 10
98.31958749165835
 20
-119.7759930256116
 30
0.0
 10
98.31958749165835
 20
-119.7206774700699
 30
0.0
  0
SPLINE
  5
56
330
1F
100
AcDbEntity
  8
_U+30EC_U+30A4_U+30E4_U+30FC 1
 62
     7
420
 16777215
370
     9
100
AcDbSpline
210
0.0
220
0.0
230
1.0
 70
    11
 71
     3
 72
    17
 73
    13
 74
     0
 42
0.0000000001
 43
0.0000000001
 12
1.0
 22
0.0
 32
0.0
 13
1.0
 23
0.0
 33
0.0
 40
0.0
 40
0.0
 40
0.0
 40
0.0
 40
1.0
 40
1.0
 40
1.0
 40
2.0
 40
2.0
 40
2.0
 40
3.0
 40
3.0
 40
3.0
 40
4.0
 40
4.0
 40
4.0
 40
4.0
 10
73.31956942611457
 20
-119.7206774700699
 30
0.0
 10
73.31956942611457
 20
-119.6655735811947
 30
0.0
 10
73.27476664834785
 20
-119.6207708034283
 30
0.0
 10
73.21930813201983
 20
-119.6207708034283
 30
0.0
 10
73.16416896675987
 20
-119.6207708034283
 30
0.0
 10
73.119401467902
 20
-119.6655735811947
 30
0.0
 10
73.119401467902
 20
-119.7206774700699
 30
0.0
 10
73.119401467902
 20
-119.7759930256116
 30
0.0
 10
73.16416896675987
 20
-119.8207605256005
 30
0.0
 10
73.21930813201983
 20
-119.8207605256005
 30
0.0
 10
73.27476664834785
 20
-119.8207605256005
 30
0.0
 10
73.31956942611457
 20
-119.7759930256116
 30
0.0
 10
73.31956942611457
 20
-119.7206774700699
 30
0.0
  0
POLYLINE
  5
57
330
1F
100
AcDbEntity
  8
_U+30EC_U+30A4_U+30E4_U+30FC 1
 62
     7
420
 16777215
370
     9
100
AcDb2dPolyline
 66
     1
 10
0.0
 20
0.0
 30
0.0
  0
VERTEX
  5
58
330
57
100
AcDbEntity
  8
_U+30EC_U+30A4_U+30E4_U+30FC 1
 62
     7
420
 16777215
370
     9
100
AcDbVertex
100
AcDb2dVertex
 10
73.21930813201983
 20
-119.7206774700699
 30
0.0
  0
VERTEX
  5
59
330
57
100
AcDbEntity
  8
_U+30EC_U+30A4_U+30E4_U+30FC 1
 62
     7
420
 16777215
370
     9
100
AcDbVertex
100
AcDb2dVertex
 10
98.2196833087783
 20
-119.7206774700699
 30
0.0
  0
SEQEND
  5
5A
330
57
100
AcDbEntity
  8
_U+30EC_U+30A4_U+30E4_U+30FC 1
 62
     7
420
 16777215
370
     9
  0
POLYLINE
  5
5B
330
1F
100
AcDbEntity
  8
_U+30EC_U+30A4_U+30E4_U+30FC 1
 62
     7
420
 16777215
370
     9
100
AcDb2dPolyline
 66
     1
 10
0.0
 20
0.0
 30
0.0
  0
VERTEX
  5
5C
330
5B
100
AcDbEntity
  8
_U+30EC_U+30A4_U+30E4_U+30FC 1
 62
     7
420
 16777215
370
     9
100
AcDbVertex
100
AcDb2dVertex
 10
73.21930813201983
 20
-121.1805424697048
 30
0.0
  0
VERTEX
  5
5D
330
5B
100
AcDbEntity
  8
_U+30EC_U+30A4_U+30E4_U+30FC 1
 62
     7
420
 16777215
370
     9
100
AcDbVertex
100
AcDb2dVertex
 10
73.21930813201983
 20
-118.7207641369864
 30
0.0
  0
SEQEND
  5
5E
330
5B
100
AcDbEntity
  8
_U+30EC_U+30A4_U+30E4_U+30FC 1
 62
     7
420
 16777215
370
     9
  0
POLYLINE
  5
5F
330
1F
100
AcDbEntity
  8
_U+30EC_U+30A4_U+30E4_U+30FC 1
 62
     7
420
 16777215
370
     9
100
AcDb2dPolyline
 66
     1
 10
0.0
 20
0.0
 30
0.0
  0
VERTEX
  5
60
330
5F
100
AcDbEntity
  8
_U+30EC_U+30A4_U+30E4_U+30FC 1
 62
     7
420
 16777215
370
     9
100
AcDbVertex
100
AcDb2dVertex
 10
98.2196833087783
 20
-121.1805424697048
 30
0.0
  0
VERTEX
  5
61
330
5F
100
AcDbEntity
  8
_U+30EC_U+30A4_U+30E4_U+30FC 1
 62
     7
420
 16777215
370
     9
100
AcDbVertex
100
AcDb2dVertex
 10
98.2196833087783
 20
-118.7207641369864
 30
0.0
  0
SEQEND
  5
62
330
5F
100
AcDbEntity
  8
_U+30EC_U+30A4_U+30E4_U+30FC 1
 62
     7
420
 16777215
370
     9
  0
INSERT
  5
64
330
1F
100
AcDbEntity
  8
_U+30EC_U+30A4_U+30E4_U+30FC 1
100
AcDbBlockReference
  2
block 2
 10
0.0
 20
0.0
 30
0.0
  0
POLYLINE
  5
6B
330
1F
100
AcDbEntity
  8
_U+30EC_U+30A4_U+30E4_U+30FC 1
 62
     7
420
 16777215
370
     9
100
AcDb2dPolyline
 66
     1
 10
0.0
 20
0.0
 30
0.0
  0
VERTEX
  5
6C
330
6B
100
AcDbEntity
  8
_U+30EC_U+30A4_U+30E4_U+30FC 1
 62
     7
420
 16777215
370
     9
100
AcDbVertex
100
AcDb2dVertex
 10
73.21930813201983
 20
-140.2305424649423
 30
0.0
  0
VERTEX
  5
6D
330
6B
100
AcDbEntity
  8
_U+30EC_U+30A4_U+30E4_U+30FC 1
 62
     7
420
 16777215
370
     9
100
AcDbVertex
100
AcDb2dVertex
 10
78.21950967112072
 20
-140.2305424649423
 30
0.0
  0
SEQEND
  5
6E
330
6B
100
AcDbEntity
  8
_U+30EC_U+30A4_U+30E4_U+30FC 1
 62
     7
420
 16777215
370
     9
  0
POLYLINE
  5
6F
330
1F
100
AcDbEntity
  8
_U+30EC_U+30A4_U+30E4_U+30FC 1
 62
     7
420
 16777215
370
     9
100
AcDb2dPolyline
 66
     1
 10
0.0
 20
0.0
 30
0.0
  0
VERTEX
  5
70
330
6F
100
AcDbEntity
  8
_U+30EC_U+30A4_U+30E4_U+30FC 1
 62
     7
420
 16777215
370
     9
100
AcDbVertex
100
AcDb2dVertex
 10
73.21930813201983
 20
-138.7705010764186
 30
0.0
  0
VERTEX
  5
71
330
6F
100
AcDbEntity
  8
_U+30EC_U+30A4_U+30E4_U+30FC 1
 62
     7
420
 16777215
370
     9
100
AcDbVertex
100
AcDb2dVertex
 10
73.21930813201983
 20
-141.2303146869148
 30
0.0
  0
SEQEND
  5
72
330
6F
100
AcDbEntity
  8
_U+30EC_U+30A4_U+30E4_U+30FC 1
 62
     7
420
 16777215
370
     9
  0
POLYLINE
  5
73
330
1F
100
AcDbEntity
  8
_U+30EC_U+30A4_U+30E4_U+30FC 1
 62
     7
420
 16777215
370
     9
100
AcDb2dPolyline
 66
     1
 10
0.0
 20
0.0
 30
0.0
  0
VERTEX
  5
74
330
73
100
AcDbEntity
  8
_U+30EC_U+30A4_U+30E4_U+30FC 1
 62
     7
420
 16777215
370
     9
100
AcDbVertex
100
AcDb2dVertex
 10
78.21950967112072
 20
-138.7705010764186
 30
0.0
  0
VERTEX
  5
75
330
73
100
AcDbEntity
  8
_U+30EC_U+30A4_U+30E4_U+30FC 1
 62
     7
420
 16777215
370
     9
100
AcDbVertex
100
AcDb2dVertex
 10
78.21950967112072
 20
-141.2303146869148
 30
0.0
  0
SEQEND
  5
76
330
73
100
AcDbEntity
  8
_U+30EC_U+30A4_U+30E4_U+30FC 1
 62
     7
420
 16777215
370
     9
  0
INSERT
  5
78
330
1F
100
AcDbEntity
  8
_U+30EC_U+30A4_U+30E4_U+30FC 1
100
AcDbBlockReference
  2
block 3
 10
0.0
 20
0.0
 30
0.0
  0
POLYLINE
  5
7D
330
1F
100
AcDbEntity
  8
_U+30EC_U+30A4_U+30E4_U+30FC 1
 62
     7
420
 16777215
370
     9
100
AcDb2dPolyline
 66
     1
 10
0.0
 20
0.0
 30
0.0
  0
VERTEX
  5
7E
330
7D
100
AcDbEntity
  8
_U+30EC_U+30A4_U+30E4_U+30FC 1
 62
     7
420
 16777215
370
     9
100
AcDbVertex
100
AcDb2dVertex
 10
102.2194398921648
 20
-123.7209658024031
 30
0.0
  0
VERTEX
  5
7F
330
7D
100
AcDbEntity
  8
_U+30EC_U+30A4_U+30E4_U+30FC 1
 62
     7
420
 16777215
370
     9
100
AcDbVertex
100
AcDb2dVertex
 10
102.2194398921648
 20
-119.9504769144568
 30
0.0
  0
SEQEND
  5
80
330
7D
100
AcDbEntity
  8
_U+30EC_U+30A4_U+30E4_U+30FC 1
 62
     7
420
 16777215
370
     9
  0
POLYLINE
  5
81
330
1F
100
AcDbEntity
  8
_U+30EC_U+30A4_U+30E4_U+30FC 1
 62
     7
420
 16777215
370
     9
100
AcDb2dPolyline
 66
     1
 10
0.0
 20
0.0
 30
0.0
  0
VERTEX
  5
82
330
81
100
AcDbEntity
  8
_U+30EC_U+30A4_U+30E4_U+30FC 1
 62
     7
420
 16777215
370
     9
100
AcDbVertex
100
AcDb2dVertex
 10
102.2194398921648
 20
-123.7209658024031
 30
0.0
  0
VERTEX
  5
83
330
81
100
AcDbEntity
  8
_U+30EC_U+30A4_U+30E4_U+30FC 1
 62
     7
420
 16777215
370
     9
100
AcDbVertex
100
AcDb2dVertex
 10
102.2194398921648
 20
-124.7207380243754
 30
0.0
  0
SEQEND
  5
84
330
81
100
AcDbEntity
  8
_U+30EC_U+30A4_U+30E4_U+30FC 1
 62
     7
420
 16777215
370
     9
  0
POLYLINE
  5
85
330
1F
100
AcDbEntity
  8
_U+30EC_U+30A4_U+30E4_U+30FC 1
 62
     7
420
 16777215
370
     9
100
AcDb2dPolyline
 66
     1
 10
0.0
 20
0.0
 30
0.0
  0
VERTEX
  5
86
330
85
100
AcDbEntity
  8
_U+30EC_U+30A4_U+30E4_U+30FC 1
 62
     7
420
 16777215
370
     9
100
AcDbVertex
100
AcDb2dVertex
 10
100.7593985405247
 20
-123.7209658024031
 30
0.0
  0
VERTEX
  5
87
330
85
100
AcDbEntity
  8
_U+30EC_U+30A4_U+30E4_U+30FC 1
 62
     7
420
 16777215
370
     9
100
AcDbVertex
100
AcDb2dVertex
 10
103.2195295888726
 20
-123.7209658024031
 30
0.0
  0
SEQEND
  5
88
330
85
100
AcDbEntity
  8
_U+30EC_U+30A4_U+30E4_U+30FC 1
 62
     7
420
 16777215
370
     9
  0
POLYLINE
  5
89
330
1F
100
AcDbEntity
  8
_U+30EC_U+30A4_U+30E4_U+30FC 1
 62
     7
420
 16777215
370
     9
100
AcDb2dPolyline
 66
     1
 10
0.0
 20
0.0
 30
0.0
  0
VERTEX
  5
8A
330
89
100
AcDbEntity
  8
_U+30EC_U+30A4_U+30E4_U+30FC 1
 62
     7
420
 16777215
370
     9
100
AcDbVertex
100
AcDb2dVertex
 10
100.7593985405247
 20
-124.7207380243754
 30
0.0
  0
VERTEX
  5
8B
330
89
100
AcDbEntity
  8
_U+30EC_U+30A4_U+30E4_U+30FC 1
 62
     7
420
 16777215
370
     9
100
AcDbVertex
100
AcDb2dVertex
 10
103.2195295888726
 20
-124.7207380243754
 30
0.0
  0
SEQEND
  5
8C
330
89
100
AcDbEntity
  8
_U+30EC_U+30A4_U+30E4_U+30FC 1
 62
     7
420
 16777215
370
     9
  0
INSERT
  5
8E
330
1F
100
AcDbEntity
  8
_U+30EC_U+30A4_U+30E4_U+30FC 1
100
AcDbBlockReference
  2
block 4
 10
0.0
 20
0.0
 30
0.0
  0
POLYLINE
  5
93
330
1F
100
AcDbEntity
  8
_U+30EC_U+30A4_U+30E4_U+30FC 1
 62
     7
420
 16777215
370
     9
100
AcDb2dPolyline
 66
     1
 10
0.0
 20
0.0
 30
0.0
  0
VERTEX
  5
94
330
93
100
AcDbEntity
  8
_U+30EC_U+30A4_U+30E4_U+30FC 1
 62
     7
420
 16777215
370
     9
100
AcDbVertex
100
AcDb2dVertex
 10
102.2194398921648
 20
-136.2307832992754
 30
0.0
  0
VERTEX
  5
95
330
93
100
AcDbEntity
  8
_U+30EC_U+30A4_U+30E4_U+30FC 1
 62
     7
420
 16777215
370
     9
100
AcDbVertex
100
AcDb2dVertex
 10
102.2194398921648
 20
-133.230796355581
 30
0.0
  0
SEQEND
  5
96
330
93
100
AcDbEntity
  8
_U+30EC_U+30A4_U+30E4_U+30FC 1
 62
     7
420
 16777215
370
     9
  0
POLYLINE
  5
97
330
1F
100
AcDbEntity
  8
_U+30EC_U+30A4_U+30E4_U+30FC 1
 62
     7
420
 16777215
370
     9
100
AcDb2dPolyline
 66
     1
 10
0.0
 20
0.0
 30
0.0
  0
VERTEX
  5
98
330
97
100
AcDbEntity
  8
_U+30EC_U+30A4_U+30E4_U+30FC 1
 62
     7
420
 16777215
370
     9
100
AcDbVertex
100
AcDb2dVertex
 10
80.75958016187369
 20
-136.2307832992754
 30
0.0
  0
VERTEX
  5
99
330
97
100
AcDbEntity
  8
_U+30EC_U+30A4_U+30E4_U+30FC 1
 62
     7
420
 16777215
370
     9
100
AcDbVertex
100
AcDb2dVertex
 10
103.2195295888726
 20
-136.2307832992754
 30
0.0
  0
SEQEND
  5
9A
330
97
100
AcDbEntity
  8
_U+30EC_U+30A4_U+30E4_U+30FC 1
 62
     7
420
 16777215
370
     9
  0
INSERT
  5
9C
330
1F
100
AcDbEntity
  8
_U+30EC_U+30A4_U+30E4_U+30FC 1
100
AcDbBlockReference
  2
block 5
 10
0.0
 20
0.0
 30
0.0
  0
POLYLINE
  5
A1
330
1F
100
AcDbEntity
  8
_U+30EC_U+30A4_U+30E4_U+30FC 1
 62
     7
420
 16777215
370
     9
100
AcDb2dPolyline
 66
     1
 10
0.0
 20
0.0
 30
0.0
  0
VERTEX
  5
A2
330
A1
100
AcDbEntity
  8
_U+30EC_U+30A4_U+30E4_U+30FC 1
 62
     7
420
 16777215
370
     9
100
AcDbVertex
100
AcDb2dVertex
 10
102.2194398921648
 20
-133.230796355581
 30
0.0
  0
VERTEX
  5
A3
330
A1
100
AcDbEntity
  8
_U+30EC_U+30A4_U+30E4_U+30FC 1
 62
     7
420
 16777215
370
     9
100
AcDbVertex
100
AcDb2dVertex
 10
102.2194398921648
 20
-124.730721635484
 30
0.0
  0
SEQEND
  5
A4
330
A1
100
AcDbEntity
  8
_U+30EC_U+30A4_U+30E4_U+30FC 1
 62
     7
420
 16777215
370
     9
  0
POLYLINE
  5
A5
330
1F
100
AcDbEntity
  8
_U+30EC_U+30A4_U+30E4_U+30FC 1
 62
     7
420
 16777215
370
     9
100
AcDb2dPolyline
 66
     1
 10
0.0
 20
0.0
 30
0.0
  0
VERTEX
  5
A6
330
A5
100
AcDbEntity
  8
_U+30EC_U+30A4_U+30E4_U+30FC 1
 62
     7
420
 16777215
370
     9
100
AcDbVertex
100
AcDb2dVertex
 10
80.75958016187369
 20
-133.230796355581
 30
0.0
  0
VERTEX
  5
A7
330
A5
100
AcDbEntity
  8
_U+30EC_U+30A4_U+30E4_U+30FC 1
 62
     7
420
 16777215
370
     9
100
AcDbVertex
100
AcDb2dVertex
 10
103.2195295888726
 20
-133.230796355581
 30
0.0
  0
SEQEND
  5
A8
330
A5
100
AcDbEntity
  8
_U+30EC_U+30A4_U+30E4_U+30FC 1
 62
     7
420
 16777215
370
     9
  0
INSERT
  5
AA
330
1F
100
AcDbEntity
  8
_U+30EC_U+30A4_U+30E4_U+30FC 1
100
AcDbBlockReference
  2
block 6
 10
0.0
 20
0.0
 30
0.0
  0
ENDSEC
  0
SECTION
  2
OBJECTS
  0
DICTIONARY
  5
C
330
0
100
AcDbDictionary
281
     1
  3
ACAD_GROUP
350
D
  3
ACAD_LAYOUT
350
1A
  3
ACAD_MATERIAL
350
3B
  3
ACAD_MLEADERSTYLE
350
BC
  3
ACAD_MLINESTYLE
350
17
  3
ACAD_PLOTSETTINGS
350
19
  3
ACAD_PLOTSTYLENAME
350
E
  3
ACAD_TABLESTYLE
350
BB
  3
ACAD_VISUALSTYLE
350
2A
  0
SUN
  5
3F
330
29
100
AcDbSun
 90
        1
290
     0
 63
     7
421
 16777215
 40
1.0
291
     1
 91
  2455826
 92
 54000000
292
     0
 70
     2
 71
   256
280
     1
  0
DICTIONARY
  5
D
102
{ACAD_REACTORS
330
C
102
}
330
C
100
AcDbDictionary
281
     1
  0
DICTIONARY
  5
1A
102
{ACAD_REACTORS
330
C
102
}
330
C
100
AcDbDictionary
281
     1
  3
Layout1
350
1E
  3
Layout2
350
26
  3
Model
350
22
  0
DICTIONARY
  5
3B
102
{ACAD_REACTORS
330
C
102
}
330
C
100
AcDbDictionary
281
     1
  3
ByBlock
350
3D
  3
ByLayer
350
3C
  3
Global
350
3E
  0
DICTIONARY
  5
BC
102
{ACAD_REACTORS
330
C
102
}
330
C
100
AcDbDictionary
281
     1
  0
DICTIONARY
  5
17
102
{ACAD_REACTORS
330
C
102
}
330
C
100
AcDbDictionary
281
     1
  3
Standard
350
18
  0
DICTIONARY
  5
19
102
{ACAD_REACTORS
330
C
102
}
330
C
100
AcDbDictionary
281
     1
  0
ACDBDICTIONARYWDFLT
  5
E
102
{ACAD_REACTORS
330
C
102
}
330
C
100
AcDbDictionary
281
     1
  3
Normal
350
F
100
AcDbDictionaryWithDefault
340
F
  0
DICTIONARY
  5
BB
102
{ACAD_REACTORS
330
C
102
}
330
C
100
AcDbDictionary
281
     1
  0
DICTIONARY
  5
2A
102
{ACAD_REACTORS
330
C
102
}
330
C
100
AcDbDictionary
281
     1
  3
2dWireframe
350
2F
  3
3D Hidden
350
31
  3
3dWireframe
350
30
  3
Basic
350
32
  3
Brighten
350
36
  3
ColorChange
350
3A
  3
Conceptual
350
34
  3
Dim
350
35
  3
Facepattern
350
39
  3
Flat
350
2B
  3
FlatWithEdges
350
2C
  3
Gouraud
350
2D
  3
GouraudWithEdges
350
2E
  3
Linepattern
350
38
  3
Realistic
350
33
  3
Thicken
350
37
  0
LAYOUT
  5
1E
102
{ACAD_REACTORS
330
1A
102
}
330
1A
100
AcDbPlotSettings
  1

  2
none_device
  4

  6

 40
0.0
 41
0.0
 42
0.0
 43
0.0
 44
0.0
 45
0.0
 46
0.0
 47
0.0
 48
0.0
 49
0.0
140
0.0
141
0.0
142
1.0
143
1.0
 70
   688
 72
     0
 73
     0
 74
     5
  7

 75
    16
 76
     0
 77
     2
 78
   300
147
1.0
148
0.0
149
0.0
100
AcDbLayout
  1
Layout1
 70
     1
 71
     1
 10
0.0
 20
0.0
 11
12.0
 21
9.0
 12
0.0
 22
0.0
 32
0.0
 14
1.000000000000000E+20
 24
1.000000000000000E+20
 34
1.000000000000000E+20
 15
-1.000000000000000E+20
 25
-1.000000000000000E+20
 35
-1.000000000000000E+20
146
0.0
 13
0.0
 23
0.0
 33
0.0
 16
1.0
 26
0.0
 36
0.0
 17
0.0
 27
1.0
 37
0.0
 76
     0
330
1B
  0
LAYOUT
  5
26
102
{ACAD_REACTORS
330
1A
102
}
330
1A
100
AcDbPlotSettings
  1

  2
none_device
  4

  6

 40
0.0
 41
0.0
 42
0.0
 43
0.0
 44
0.0
 45
0.0
 46
0.0
 47
0.0
 48
0.0
 49
0.0
140
0.0
141
0.0
142
1.0
143
1.0
 70
   688
 72
     0
 73
     0
 74
     5
  7

 75
    16
 76
     0
 77
     2
 78
   300
147
1.0
148
0.0
149
0.0
100
AcDbLayout
  1
Layout2
 70
     1
 71
     2
 10
0.0
 20
0.0
 11
0.0
 21
0.0
 12
0.0
 22
0.0
 32
0.0
 14
0.0
 24
0.0
 34
0.0
 15
0.0
 25
0.0
 35
0.0
146
0.0
 13
0.0
 23
0.0
 33
0.0
 16
1.0
 26
0.0
 36
0.0
 17
0.0
 27
1.0
 37
0.0
 76
     0
330
23
  0
LAYOUT
  5
22
102
{ACAD_REACTORS
330
1A
102
}
330
1A
100
AcDbPlotSettings
  1

  2
none_device
  4

  6

 40
0.0
 41
0.0
 42
0.0
 43
0.0
 44
0.0
 45
0.0
 46
0.0
 47
0.0
 48
0.0
 49
0.0
140
0.0
141
0.0
142
1.0
143
1.0
 70
  1712
 72
     0
 73
     0
 74
     0
  7

 75
     0
 76
     0
 77
     2
 78
   300
147
1.0
148
0.0
149
0.0
100
AcDbLayout
  1
Model
 70
     1
 71
     0
 10
0.0
 20
0.0
 11
12.0
 21
9.0
 12
0.0
 22
0.0
 32
0.0
 14
1.000000000000000E+20
 24
1.000000000000000E+20
 34
1.000000000000000E+20
 15
-1.000000000000000E+20
 25
-1.000000000000000E+20
 35
-1.000000000000000E+20
146
0.0
 13
0.0
 23
0.0
 33
0.0
 16
1.0
 26
0.0
 36
0.0
 17
0.0
 27
1.0
 37
0.0
 76
     0
330
1F
331
29
  0
MATERIAL
  5
3D
102
{ACAD_REACTORS
330
3B
102
}
330
3B
100
AcDbMaterial
  1
ByBlock
 72
     1
 94
      127
  0
MATERIAL
  5
3C
102
{ACAD_REACTORS
330
3B
102
}
330
3B
100
AcDbMaterial
  1
ByLayer
 72
     1
 94
      127
  0
MATERIAL
  5
3E
102
{ACAD_REACTORS
330
3B
102
}
330
3B
100
AcDbMaterial
  1
Global
 72
     1
 94
      127
  0
MLINESTYLE
  5
18
102
{ACAD_REACTORS
330
17
102
}
330
17
100
AcDbMlineStyle
  2
Standard
 70
     0
  3

 62
   256
 51
90.0
 52
90.0
 71
     2
 49
0.5
 62
   256
  6
BYLAYER
 49
-0.5
 62
   256
  6
BYLAYER
  0
ACDBPLACEHOLDER
  5
F
102
{ACAD_REACTORS
330
E
102
}
330
E
  0
VISUALSTYLE
  5
2F
102
{ACAD_REACTORS
330
2A
102
}
330
2A
100
AcDbVisualStyle
  2
2dWireframe
 70
     4
177
     2
291
     0
 71
     0
176
     1
 72
     2
176
     1
 73
     0
176
     1
 90
        0
176
     1
 40
-0.6
176
     1
 41
-30.0
176
     1
 62
     5
 63
     7
421
 16777215
176
     1
 74
     1
176
     1
 91
        4
176
     1
 64
     7
176
     1
 65
   257
176
     1
 75
     1
176
     1
175
     1
176
     1
 42
1.0
176
     1
 92
        0
176
     1
 66
   257
176
     1
 43
1.0
176
     1
 76
     1
176
     1
 77
     6
176
     1
 78
     2
176
     1
 67
     7
176
     1
 79
     5
176
     1
170
     0
176
     1
171
     0
176
     1
290
     0
176
     1
 93
        1
176
     1
 44
0.0
176
     1
173
     0
176
     1
  0
VISUALSTYLE
  5
31
102
{ACAD_REACTORS
330
2A
102
}
330
2A
100
AcDbVisualStyle
  2
3D Hidden
 70
     6
177
     2
291
     0
 71
     1
176
     1
 72
     2
176
     1
 73
     2
176
     1
 90
        0
176
     1
 40
-0.6
176
     1
 41
-30.0
176
     1
 62
     5
 63
     7
421
 16777215
176
     1
 74
     2
176
     1
 91
        2
176
     1
 64
     7
176
     1
 65
   257
176
     1
 75
     2
176
     1
175
     1
176
     1
 42
40.0
176
     1
 92
        0
176
     1
 66
   257
176
     1
 43
1.0
176
     1
 76
     1
176
     1
 77
     6
176
     1
 78
     2
176
     1
 67
     7
176
     1
 79
     3
176
     1
170
     0
176
     1
171
     0
176
     1
290
     0
176
     1
 93
        1
176
     1
 44
0.0
176
     1
173
     0
176
     1
  0
VISUALSTYLE
  5
30
102
{ACAD_REACTORS
330
2A
102
}
330
2A
100
AcDbVisualStyle
  2
3dWireframe
 70
     5
177
     2
291
     0
 71
     0
176
     1
 72
     2
176
     1
 73
     0
176
     1
 90
        0
176
     1
 40
-0.6
176
     1
 41
-30.0
176
     1
 62
     5
 63
     7
421
 16777215
176
     1
 74
     1
176
     1
 91
        4
176
     1
 64
     7
176
     1
 65
   257
176
     1
 75
     1
176
     1
175
     1
176
     1
 42
1.0
176
     1
 92
        0
176
     1
 66
   257
176
     1
 43
1.0
176
     1
 76
     1
176
     1
 77
     6
176
     1
 78
     2
176
     1
 67
     7
176
     1
 79
     5
176
     1
170
     0
176
     1
171
     0
176
     1
290
     0
176
     1
 93
        1
176
     1
 44
0.0
176
     1
173
     0
176
     1
  0
VISUALSTYLE
  5
32
102
{ACAD_REACTORS
330
2A
102
}
330
2A
100
AcDbVisualStyle
  2
Basic
 70
     7
177
     2
291
     1
 71
     1
176
     1
 72
     0
176
     1
 73
     1
176
     1
 90
        0
176
     1
 40
-0.6
176
     1
 41
-30.0
176
     1
 62
     5
 63
     7
421
 16777215
176
     1
 74
     0
176
     1
 91
        4
176
     1
 64
     7
176
     1
 65
   257
176
     1
 75
     1
176
     1
175
     1
176
     1
 42
1.0
176
     1
 92
        8
176
     1
 66
     7
176
     1
 43
1.0
176
     1
 76
     1
176
     1
 77
     6
176
     1
 78
     2
176
     1
 67
     7
176
     1
 79
     5
176
     1
170
     0
176
     1
171
     0
176
     1
290
     0
176
     1
 93
        1
176
     1
 44
0.0
176
     1
173
     0
176
     1
  0
VISUALSTYLE
  5
36
102
{ACAD_REACTORS
330
2A
102
}
330
2A
100
AcDbVisualStyle
  2
Brighten
 70
    12
177
     2
291
     1
 71
     2
176
     1
 72
     2
176
     1
 73
     0
176
     1
 90
        0
176
     1
 40
-0.6
176
     1
 41
-30.0
176
     1
 62
     5
 63
     7
421
 16777215
176
     1
 74
     1
176
     1
 91
        4
176
     1
 64
     7
176
     1
 65
   257
176
     1
 75
     1
176
     1
175
     1
176
     1
 42
1.0
176
     1
 92
        8
176
     1
 66
     7
176
     1
 43
1.0
176
     1
 76
     1
176
     1
 77
     6
176
     1
 78
     2
176
     1
 67
     7
176
     1
 79
     5
176
     1
170
     0
176
     1
171
     0
176
     1
290
     0
176
     1
 93
        1
176
     1
 44
50.0
176
     1
173
     0
176
     1
  0
VISUALSTYLE
  5
3A
102
{ACAD_REACTORS
330
2A
102
}
330
2A
100
AcDbVisualStyle
  2
ColorChange
 70
    16
177
     2
291
     1
 71
     2
176
     1
 72
     2
176
     1
 73
     3
176
     1
 90
        0
176
     1
 40
-0.6
176
     1
 41
-30.0
176
     1
 62
     5
 63
     8
421
  8421504
176
     1
 74
     1
176
     1
 91
        4
176
     1
 64
     7
176
     1
 65
   257
176
     1
 75
     1
176
     1
175
     1
176
     1
 42
1.0
176
     1
 92
        8
176
     1
 66
     8
424
  8421504
176
     1
 43
1.0
176
     1
 76
     1
176
     1
 77
     6
176
     1
 78
     2
176
     1
 67
     7
176
     1
 79
     5
176
     1
170
     0
176
     1
171
     0
176
     1
290
     0
176
     1
 93
        1
176
     1
 44
0.0
176
     1
173
     0
176
     1
  0
VISUALSTYLE
  5
34
102
{ACAD_REACTORS
330
2A
102
}
330
2A
100
AcDbVisualStyle
  2
Conceptual
 70
     9
177
     2
291
     0
 71
     3
176
     1
 72
     2
176
     1
 73
     0
176
     1
 90
        0
176
     1
 40
-0.6
176
     1
 41
-30.0
176
     1
 62
     5
 63
     7
421
 16777215
176
     1
 74
     2
176
     1
 91
        2
176
     1
 64
     7
176
     1
 65
   257
176
     1
 75
     1
176
     1
175
     1
176
     1
 42
40.0
176
     1
 92
        8
176
     1
 66
     7
176
     1
 43
1.0
176
     1
 76
     1
176
     1
 77
     6
176
     1
 78
     2
176
     1
 67
     7
176
     1
 79
     3
176
     1
170
     0
176
     1
171
     0
176
     1
290
     0
176
     1
 93
        1
176
     1
 44
0.0
176
     1
173
     0
176
     1
  0
VISUALSTYLE
  5
35
102
{ACAD_REACTORS
330
2A
102
}
330
2A
100
AcDbVisualStyle
  2
Dim
 70
    11
177
     2
291
     1
 71
     2
176
     1
 72
     2
176
     1
 73
     0
176
     1
 90
        0
176
     1
 40
-0.6
176
     1
 41
-30.0
176
     1
 62
     5
 63
     7
421
 16777215
176
     1
 74
     1
176
     1
 91
        4
176
     1
 64
     7
176
     1
 65
   257
176
     1
 75
     1
176
     1
175
     1
176
     1
 42
1.0
176
     1
 92
        8
176
     1
 66
     7
176
     1
 43
1.0
176
     1
 76
     1
176
     1
 77
     6
176
     1
 78
     2
176
     1
 67
     7
176
     1
 79
     5
176
     1
170
     0
176
     1
171
     0
176
     1
290
     0
176
     1
 93
        1
176
     1
 44
-50.0
176
     1
173
     0
176
     1
  0
VISUALSTYLE
  5
39
102
{ACAD_REACTORS
330
2A
102
}
330
2A
100
AcDbVisualStyle
  2
Facepattern
 70
    15
177
     2
291
     1
 71
     2
176
     1
 72
     2
176
     1
 73
     0
176
     1
 90
        0
176
     1
 40
-0.6
176
     1
 41
-30.0
176
     1
 62
     5
 63
     7
421
 16777215
176
     1
 74
     1
176
     1
 91
        4
176
     1
 64
     7
176
     1
 65
   257
176
     1
 75
     1
176
     1
175
     1
176
     1
 42
1.0
176
     1
 92
        8
176
     1
 66
     7
176
     1
 43
1.0
176
     1
 76
     1
176
     1
 77
     6
176
     1
 78
     2
176
     1
 67
     7
176
     1
 79
     5
176
     1
170
     0
176
     1
171
     0
176
     1
290
     0
176
     1
 93
        1
176
     1
 44
0.0
176
     1
173
     0
176
     1
  0
VISUALSTYLE
  5
2B
102
{ACAD_REACTORS
330
2A
102
}
330
2A
100
AcDbVisualStyle
  2
Flat
 70
     0
177
     2
291
     1
 71
     2
176
     1
 72
     1
176
     1
 73
     1
176
     1
 90
        2
176
     1
 40
-0.6
176
     1
 41
30.0
176
     1
 62
     5
 63
     7
421
 16777215
176
     1
 74
     0
176
     1
 91
        4
176
     1
 64
     7
176
     1
 65
   257
176
     1
 75
     1
176
     1
175
     1
176
     1
 42
1.0
176
     1
 92
        8
176
     1
 66
     7
176
     1
 43
1.0
176
     1
 76
     1
176
     1
 77
     6
176
     1
 78
     2
176
     1
 67
     7
176
     1
 79
     5
176
     1
170
     0
176
     1
171
     0
176
     1
290
     0
176
     1
 93
       13
176
     1
 44
0.0
176
     1
173
     0
176
     1
  0
VISUALSTYLE
  5
2C
102
{ACAD_REACTORS
330
2A
102
}
330
2A
100
AcDbVisualStyle
  2
FlatWithEdges
 70
     1
177
     2
291
     1
 71
     2
176
     1
 72
     1
176
     1
 73
     1
176
     1
 90
        2
176
     1
 40
-0.6
176
     1
 41
30.0
176
     1
 62
     5
 63
     7
421
 16777215
176
     1
 74
     1
176
     1
 91
        4
176
     1
 64
     7
176
     1
 65
   257
176
     1
 75
     1
176
     1
175
     1
176
     1
 42
1.0
176
     1
 92
        0
176
     1
 66
   257
176
     1
 43
1.0
176
     1
 76
     1
176
     1
 77
     6
176
     1
 78
     2
176
     1
 67
     7
176
     1
 79
     5
176
     1
170
     0
176
     1
171
     0
176
     1
290
     0
176
     1
 93
       13
176
     1
 44
0.0
176
     1
173
     0
176
     1
  0
VISUALSTYLE
  5
2D
102
{ACAD_REACTORS
330
2A
102
}
330
2A
100
AcDbVisualStyle
  2
Gouraud
 70
     2
177
     2
291
     1
 71
     2
176
     1
 72
     2
176
     1
 73
     1
176
     1
 90
        2
176
     1
 40
-0.6
176
     1
 41
30.0
176
     1
 62
     5
 63
     7
421
 16777215
176
     1
 74
     0
176
     1
 91
        4
176
     1
 64
     7
176
     1
 65
   257
176
     1
 75
     1
176
     1
175
     1
176
     1
 42
1.0
176
     1
 92
        0
176
     1
 66
     7
176
     1
 43
1.0
176
     1
 76
     1
176
     1
 77
     6
176
     1
 78
     2
176
     1
 67
     7
176
     1
 79
     5
176
     1
170
     0
176
     1
171
     0
176
     1
290
     0
176
     1
 93
       13
176
     1
 44
0.0
176
     1
173
     0
176
     1
  0
VISUALSTYLE
  5
2E
102
{ACAD_REACTORS
330
2A
102
}
330
2A
100
AcDbVisualStyle
  2
GouraudWithEdges
 70
     3
177
     2
291
     1
 71
     2
176
     1
 72
     2
176
     1
 73
     1
176
     1
 90
        2
176
     1
 40
-0.6
176
     1
 41
30.0
176
     1
 62
     5
 63
     7
421
 16777215
176
     1
 74
     1
176
     1
 91
        4
176
     1
 64
     7
176
     1
 65
   257
176
     1
 75
     1
176
     1
175
     1
176
     1
 42
1.0
176
     1
 92
        0
176
     1
 66
   257
176
     1
 43
1.0
176
     1
 76
     1
176
     1
 77
     6
176
     1
 78
     2
176
     1
 67
     7
176
     1
 79
     5
176
     1
170
     0
176
     1
171
     0
176
     1
290
     0
176
     1
 93
       13
176
     1
 44
0.0
176
     1
173
     0
176
     1
  0
VISUALSTYLE
  5
38
102
{ACAD_REACTORS
330
2A
102
}
330
2A
100
AcDbVisualStyle
  2
Linepattern
 70
    14
177
     2
291
     1
 71
     2
176
     1
 72
     2
176
     1
 73
     0
176
     1
 90
        0
176
     1
 40
-0.6
176
     1
 41
-30.0
176
     1
 62
     5
 63
     7
421
 16777215
176
     1
 74
     1
176
     1
 91
        4
176
     1
 64
     7
176
     1
 65
   257
176
     1
 75
     7
176
     1
175
     7
176
     1
 42
1.0
176
     1
 92
        8
176
     1
 66
     7
176
     1
 43
1.0
176
     1
 76
     1
176
     1
 77
     6
176
     1
 78
     2
176
     1
 67
     7
176
     1
 79
     5
176
     1
170
     0
176
     1
171
     0
176
     1
290
     0
176
     1
 93
        1
176
     1
 44
0.0
176
     1
173
     0
176
     1
  0
VISUALSTYLE
  5
33
102
{ACAD_REACTORS
330
2A
102
}
330
2A
100
AcDbVisualStyle
  2
Realistic
 70
     8
177
     2
291
     0
 71
     2
176
     1
 72
     2
176
     1
 73
     0
176
     1
 90
        0
176
     1
 40
-0.6
176
     1
 41
-30.0
176
     1
 62
     5
 63
     7
421
 16777215
176
     1
 74
     1
176
     1
 91
        0
176
     1
 64
     7
176
     1
 65
   257
176
     1
 75
     1
176
     1
175
     1
176
     1
 42
1.0
176
     1
 92
        8
176
     1
 66
     8
424
  7895160
176
     1
 43
1.0
176
     1
 76
     1
176
     1
 77
     6
176
     1
 78
     2
176
     1
 67
     7
176
     1
 79
     5
176
     1
170
     0
176
     1
171
     0
176
     1
290
     0
176
     1
 93
       13
176
     1
 44
0.0
176
     1
173
     0
176
     1
  0
VISUALSTYLE
  5
37
102
{ACAD_REACTORS
330
2A
102
}
330
2A
100
AcDbVisualStyle
  2
Thicken
 70
    13
177
     2
291
     1
 71
     2
176
     1
 72
     2
176
     1
 73
     0
176
     1
 90
        0
176
     1
 40
-0.6
176
     1
 41
-30.0
176
     1
 62
     5
 63
     7
421
 16777215
176
     1
 74
     1
176
     1
 91
        4
176
     1
 64
     7
176
     1
 65
   257
176
     1
 75
     1
176
     1
175
     1
176
     1
 42
1.0
176
     1
 92
       12
176
     1
 66
     7
176
     1
 43
1.0
176
     1
 76
     1
176
     1
 77
     6
176
     1
 78
     2
176
     1
 67
     7
176
     1
 79
     5
176
     1
170
     0
176
     1
171
     0
176
     1
290
     0
176
     1
 93
        1
176
     1
 44
0.0
176
     1
173
     0
176
     1
  0
ENDSEC
  0
EOF
