  0
SECTION
  2
HEADER
  9
$ACADVER
  1
AC1024
  9
$ACADMAINTVER
 70
     6
  9
$DWGCODEPAGE
  3
UNDEFINED
  9
$INSBASE
 10
0.0
 20
0.0
 30
0.0
  9
$EXTMIN
 10
1.000000000000000E+20
 20
1.000000000000000E+20
 30
1.000000000000000E+20
  9
$EXTMAX
 10
-1.000000000000000E+20
 20
-1.000000000000000E+20
 30
-1.000000000000000E+20
  9
$LIMMIN
 10
0.0
 20
0.0
  9
$LIMMAX
 10
12.0
 20
9.0
  9
$ORTHOMODE
 70
     0
  9
$REGENMODE
 70
     1
  9
$FILLMODE
 70
     1
  9
$QTEXTMODE
 70
     0
  9
$MIRRTEXT
 70
     1
  9
$LTSCALE
 40
1.0
  9
$ATTMODE
 70
     1
  9
$TEXTSIZE
 40
0.2
  9
$TRACEWID
 40
0.05
  9
$TEXTSTYLE
  7
Standard
  9
$CLAYER
  8
0
  9
$CELTYPE
  6
ByLayer
  9
$CECOLOR
 62
   256
  9
$CELTSCALE
 40
1.0
  9
$DISPSILH
 70
     0
  9
$DIMSCALE
 40
1.0
  9
$DIMASZ
 40
0.18
  9
$DIMEXO
 40
0.0625
  9
$DIMDLI
 40
0.38
  9
$DIMRND
 40
0.0
  9
$DIMDLE
 40
0.0
  9
$DIMEXE
 40
0.18
  9
$DIMTP
 40
0.0
  9
$DIMTM
 40
0.0
  9
$DIMTXT
 40
0.18
  9
$DIMCEN
 40
0.09
  9
$DIMTSZ
 40
0.0
  9
$DIMTOL
 70
     0
  9
$DIMLIM
 70
     0
  9
$DIMTIH
 70
     1
  9
$DIMTOH
 70
     1
  9
$DIMSE1
 70
     0
  9
$DIMSE2
 70
     0
  9
$DIMTAD
 70
     0
  9
$DIMZIN
 70
     0
  9
$DIMBLK
  1

  9
$DIMASO
 70
     1
  9
$DIMSHO
 70
     1
  9
$DIMPOST
  1

  9
$DIMAPOST
  1

  9
$DIMALT
 70
     0
  9
$DIMALTD
 70
     2
  9
$DIMALTF
 40
25.4
  9
$DIMLFAC
 40
1.0
  9
$DIMTOFL
 70
     0
  9
$DIMTVP
 40
0.0
  9
$DIMTIX
 70
     0
  9
$DIMSOXD
 70
     0
  9
$DIMSAH
 70
     0
  9
$DIMBLK1
  1

  9
$DIMBLK2
  1

  9
$DIMSTYLE
  2
Standard
  9
$DIMCLRD
 70
     0
  9
$DIMCLRE
 70
     0
  9
$DIMCLRT
 70
     0
  9
$DIMTFAC
 40
1.0
  9
$DIMGAP
 40
0.09
  9
$DIMJUST
 70
     0
  9
$DIMSD1
 70
     0
  9
$DIMSD2
 70
     0
  9
$DIMTOLJ
 70
     1
  9
$DIMTZIN
 70
     0
  9
$DIMALTZ
 70
     0
  9
$DIMALTTZ
 70
     0
  9
$DIMUPT
 70
     0
  9
$DIMDEC
 70
     4
  9
$DIMTDEC
 70
     4
  9
$DIMALTU
 70
     2
  9
$DIMALTTD
 70
     2
  9
$DIMTXSTY
  7
Standard
  9
$DIMAUNIT
 70
     0
  9
$DIMADEC
 70
     0
  9
$DIMALTRND
 40
0.0
  9
$DIMAZIN
 70
     0
  9
$DIMDSEP
 70
    46
  9
$DIMATFIT
 70
     3
  9
$DIMFRAC
 70
     0
  9
$DIMLDRBLK
  1

  9
$DIMLUNIT
 70
     2
  9
$DIMLWD
 70
    -2
  9
$DIMLWE
 70
    -2
  9
$DIMTMOVE
 70
     0
  9
$DIMFXL
 40
1.0
  9
$DIMFXLON
 70
     0
  9
$DIMJOGANG
 40
0.7853981633974483
  9
$DIMTFILL
 70
     0
  9
$DIMTFILLCLR
 70
     0
  9
$DIMARCSYM
 70
     0
  9
$DIMLTYPE
  6

  9
$DIMLTEX1
  6

  9
$DIMLTEX2
  6

  9
$DIMTXTDIRECTION
 70
     0
  9
$LUNITS
 70
     2
  9
$LUPREC
 70
     4
  9
$SKETCHINC
 40
0.1
  9
$FILLETRAD
 40
0.5
  9
$AUNITS
 70
     0
  9
$AUPREC
 70
     0
  9
$MENU
  1
.
  9
$ELEVATION
 40
0.0
  9
$PELEVATION
 40
0.0
  9
$THICKNESS
 40
0.0
  9
$LIMCHECK
 70
     0
  9
$CHAMFERA
 40
0.5
  9
$CHAMFERB
 40
0.5
  9
$CHAMFERC
 40
1.0
  9
$CHAMFERD
 40
0.0
  9
$SKPOLY
 70
     0
  9
$TDCREATE
 40
2457917.615937489
  9
$TDUCREATE
 40
2457917.2409375
  9
$TDUPDATE
 40
2457917.615937489
  9
$TDUUPDATE
 40
2457917.2409375
  9
$TDINDWG
 40
0.0000000116
  9
$TDUSRTIMER
 40
0.0000000116
  9
$USRTIMER
 70
     1
  9
$ANGBASE
 50
0.0
  9
$ANGDIR
 70
     0
  9
$PDMODE
 70
     0
  9
$PDSIZE
 40
0.0
  9
$PLINEWID
 40
0.0
  9
$SPLFRAME
 70
     0
  9
$SPLINETYPE
 70
     6
  9
$SPLINESEGS
 70
     8
  9
$HANDSEED
  5
C0
  9
$SURFTAB1
 70
     6
  9
$SURFTAB2
 70
     6
  9
$SURFTYPE
 70
     6
  9
$SURFU
 70
     6
  9
$SURFV
 70
     6
  9
$UCSBASE
  2

  9
$UCSNAME
  2

  9
$UCSORG
 10
0.0
 20
0.0
 30
0.0
  9
$UCSXDIR
 10
1.0
 20
0.0
 30
0.0
  9
$UCSYDIR
 10
0.0
 20
1.0
 30
0.0
  9
$UCSORTHOREF
  2

  9
$UCSORTHOVIEW
 70
     0
  9
$UCSORGTOP
 10
0.0
 20
0.0
 30
0.0
  9
$UCSORGBOTTOM
 10
0.0
 20
0.0
 30
0.0
  9
$UCSORGLEFT
 10
0.0
 20
0.0
 30
0.0
  9
$UCSORGRIGHT
 10
0.0
 20
0.0
 30
0.0
  9
$UCSORGFRONT
 10
0.0
 20
0.0
 30
0.0
  9
$UCSORGBACK
 10
0.0
 20
0.0
 30
0.0
  9
$PUCSBASE
  2

  9
$PUCSNAME
  2

  9
$PUCSORG
 10
0.0
 20
0.0
 30
0.0
  9
$PUCSXDIR
 10
1.0
 20
0.0
 30
0.0
  9
$PUCSYDIR
 10
0.0
 20
1.0
 30
0.0
  9
$PUCSORTHOREF
  2

  9
$PUCSORTHOVIEW
 70
     0
  9
$PUCSORGTOP
 10
0.0
 20
0.0
 30
0.0
  9
$PUCSORGBOTTOM
 10
0.0
 20
0.0
 30
0.0
  9
$PUCSORGLEFT
 10
0.0
 20
0.0
 30
0.0
  9
$PUCSORGRIGHT
 10
0.0
 20
0.0
 30
0.0
  9
$PUCSORGFRONT
 10
0.0
 20
0.0
 30
0.0
  9
$PUCSORGBACK
 10
0.0
 20
0.0
 30
0.0
  9
$USERI1
 70
     0
  9
$USERI2
 70
     0
  9
$USERI3
 70
     0
  9
$USERI4
 70
     0
  9
$USERI5
 70
     0
  9
$USERR1
 40
0.0
  9
$USERR2
 40
0.0
  9
$USERR3
 40
0.0
  9
$USERR4
 40
0.0
  9
$USERR5
 40
0.0
  9
$WORLDVIEW
 70
     1
  9
$SHADEDGE
 70
     3
  9
$SHADEDIF
 70
    70
  9
$TILEMODE
 70
     1
  9
$MAXACTVP
 70
    64
  9
$PINSBASE
 10
0.0
 20
0.0
 30
0.0
  9
$PLIMCHECK
 70
     0
  9
$PEXTMIN
 10
1.000000000000000E+20
 20
1.000000000000000E+20
 30
1.000000000000000E+20
  9
$PEXTMAX
 10
-1.000000000000000E+20
 20
-1.000000000000000E+20
 30
-1.000000000000000E+20
  9
$PLIMMIN
 10
0.0
 20
0.0
  9
$PLIMMAX
 10
12.0
 20
9.0
  9
$UNITMODE
 70
     0
  9
$VISRETAIN
 70
     1
  9
$PLINEGEN
 70
     0
  9
$PSLTSCALE
 70
     1
  9
$TREEDEPTH
 70
  3020
  9
$CMLSTYLE
  2
Standard
  9
$CMLJUST
 70
     0
  9
$CMLSCALE
 40
1.0
  9
$PROXYGRAPHICS
 70
     1
  9
$MEASUREMENT
 70
     0
  9
$CELWEIGHT
370
    -1
  9
$ENDCAPS
280
     0
  9
$JOINSTYLE
280
     0
  9
$LWDISPLAY
290
     1
  9
$INSUNITS
 70
     1
  9
$HYPERLINKBASE
  1

  9
$STYLESHEET
  1

  9
$XEDIT
290
     1
  9
$CEPSNTYPE
380
     0
  9
$PSTYLEMODE
290
     1
  9
$FINGERPRINTGUID
  2
{D371322B-D0E3-91BF-973A-7C6B15B20023}
  9
$VERSIONGUID
  2
{FAEB1C32-E019-11D5-929B-00C0DF256EC4}
  9
$EXTNAMES
290
     1
  9
$PSVPSCALE
 40
0.0
  9
$OLESTARTUP
290
     0
  9
$SORTENTS
280
   127
  9
$INDEXCTL
280
     0
  9
$HIDETEXT
280
     1
  9
$XCLIPFRAME
280
     2
  9
$HALOGAP
280
     0
  9
$OBSCOLOR
 70
   257
  9
$OBSLTYPE
280
     0
  9
$INTERSECTIONDISPLAY
280
     0
  9
$INTERSECTIONCOLOR
 70
   257
  9
$DIMASSOC
280
     2
  9
$PROJECTNAME
  1

  9
$CAMERADISPLAY
290
     0
  9
$LENSLENGTH
 40
50.0
  9
$CAMERAHEIGHT
 40
0.0
  9
$STEPSPERSEC
 40
2.0
  9
$STEPSIZE
 40
6.0
  9
$3DDWFPREC
 40
2.0
  9
$PSOLWIDTH
 40
0.25
  9
$PSOLHEIGHT
 40
4.0
  9
$LOFTANG1
 40
1.570796326794897
  9
$LOFTANG2
 40
1.570796326794897
  9
$LOFTMAG1
 40
0.0
  9
$LOFTMAG2
 40
0.0
  9
$LOFTPARAM
 70
     7
  9
$LOFTNORMALS
280
     1
  9
$LATITUDE
 40
37.795
  9
$LONGITUDE
 40
-122.394
  9
$NORTHDIRECTION
 40
0.0
  9
$TIMEZONE
 70
 -8000
  9
$LIGHTGLYPHDISPLAY
280
     1
  9
$TILEMODELIGHTSYNCH
280
     1
  9
$CMATERIAL
347
3C
  9
$SOLIDHIST
280
     1
  9
$SHOWHIST
280
     1
  9
$DWFFRAME
280
     2
  9
$DGNFRAME
280
     2
  9
$REALWORLDSCALE
290
     1
  9
$INTERFERECOLOR
 62
   256
  9
$CSHADOW
280
     0
  9
$SHADOWPLANELOCATION
 40
0.0
  0
ENDSEC
  0
SECTION
  2
CLASSES
  0
CLASS
  1
ACDBDICTIONARYWDFLT
  2
AcDbDictionaryWithDefault
  3
ObjectDBX Classes
 90
        0
 91
        4
280
     0
281
     0
  0
CLASS
  1
VISUALSTYLE
  2
AcDbVisualStyle
  3
ObjectDBX Classes
 90
     4095
 91
        4
280
     0
281
     0
  0
CLASS
  1
MATERIAL
  2
AcDbMaterial
  3
ObjectDBX Classes
 90
     1153
 91
        4
280
     0
281
     0
  0
CLASS
  1
SUN
  2
AcDbSun
  3
SCENEOE
 90
     1024
 91
        4
280
     0
281
     0
  0
ENDSEC
  0
SECTION
  2
TABLES
  0
TABLE
  2
VPORT
  5
8
330
0
100
AcDbSymbolTable
 70
     1
  0
VPORT
  5
29
330
8
100
AcDbSymbolTableRecord
100
AcDbViewportTableRecord
  2
*Active
 70
     0
 10
0.0
 20
0.0
 11
1.0
 21
1.0
 12
0.0
 22
0.0
 13
0.0
 23
0.0
 14
0.5
 24
0.5
 15
0.5
 25
0.5
 16
0.0
 26
0.0
 36
1.0
 17
91.00082462281999
 27
-128.4993055234307
 37
0.0
 40
256.9986110468615
 41
0.7081814508812795
 42
50.0
 43
0.0
 44
0.0
 50
0.0
 51
0.0
 71
     0
 72
   100
 73
     1
 74
     3
 75
     0
 76
     0
 77
     0
 78
     0
281
     0
 65
     1
110
0.0
120
0.0
130
0.0
111
1.0
121
0.0
131
0.0
112
0.0
122
1.0
132
0.0
 79
     0
146
0.0
 60
     3
 61
     5
292
     1
282
     1
141
0.0
142
0.0
 63
   250
361
3F
  0
ENDTAB
  0
TABLE
  2
LTYPE
  5
5
330
0
100
AcDbSymbolTable
 70
     1
  0
LTYPE
  5
14
330
5
100
AcDbSymbolTableRecord
100
AcDbLinetypeTableRecord
  2
ByBlock
 70
     0
  3

 72
    65
 73
     0
 40
0.0
  0
LTYPE
  5
15
330
5
100
AcDbSymbolTableRecord
100
AcDbLinetypeTableRecord
  2
ByLayer
 70
     0
  3

 72
    65
 73
     0
 40
0.0
  0
LTYPE
  5
16
330
5
100
AcDbSymbolTableRecord
100
AcDbLinetypeTableRecord
  2
Continuous
 70
     0
  3
Solid line
 72
    65
 73
     0
 40
0.0
  0
ENDTAB
  0
TABLE
  2
LAYER
  5
2
330
0
100
AcDbSymbolTable
 70
     2
  0
LAYER
  5
10
330
2
100
AcDbSymbolTableRecord
100
AcDbLayerTableRecord
  2
0
 70
     0
 62
     7
  6
Continuous
370
    -3
390
F
347
3E
  0
LAYER
  5
40
330
2
100
AcDbSymbolTableRecord
100
AcDbLayerTableRecord
  2
_U+30EC_U+30A4_U+30E4_U+30FC 1
 70
     0
 62
     7
  6
Continuous
370
    -3
390
F
347
3E
  0
ENDTAB
  0
TABLE
  2
STYLE
  5
3
330
0
100
AcDbSymbolTable
 70
     1
  0
STYLE
  5
11
330
3
100
AcDbSymbolTableRecord
100
AcDbTextStyleTableRecord
  2
Standard
 70
     0
 40
0.0
 41
1.0
 50
0.0
 71
     0
 42
0.2
  3
txt
  4

  0
ENDTAB
  0
TABLE
  2
VIEW
  5
6
330
0
100
AcDbSymbolTable
 70
     0
  0
ENDTAB
  0
TABLE
  2
UCS
  5
7
330
0
100
AcDbSymbolTable
 70
     0
  0
ENDTAB
  0
TABLE
  2
APPID
  5
9
330
0
100
AcDbSymbolTable
 70
     1
  0
APPID
  5
12
330
9
100
AcDbSymbolTableRecord
100
AcDbRegAppTableRecord
  2
ACAD
 70
     0
  0
ENDTAB
  0
TABLE
  2
DIMSTYLE
  5
A
330
0
100
AcDbSymbolTable
 70
     1
100
AcDbDimStyleTable
  0
DIMSTYLE
105
27
330
A
100
AcDbSymbolTableRecord
100
AcDbDimStyleTableRecord
  2
Standard
 70
     0
178
     0
340
11
  0
ENDTAB
  0
TABLE
  2
BLOCK_RECORD
  5
1
330
0
100
AcDbSymbolTable
 70
     6
  0
BLOCK_RECORD
  5
1F
330
1
100
AcDbSymbolTableRecord
100
AcDbBlockTableRecord
  2
*Model_Space
340
22
 70
     0
280
     1
281
     0
  0
BLOCK_RECORD
  5
1B
330
1
100
AcDbSymbolTableRecord
100
AcDbBlockTableRecord
  2
*Paper_Space
340
1E
 70
     0
280
     1
281
     0
  0
BLOCK_RECORD
  5
23
330
1
100
AcDbSymbolTableRecord
100
AcDbBlockTableRecord
  2
*Paper_Space0
340
26
 70
     0
280
     1
281
     0
  0
BLOCK_RECORD
  5
66
330
1
100
AcDbSymbolTableRecord
100
AcDbBlockTableRecord
  2
block 2
340
0
102
{BLKREFS
331
67
102
}
 70
     0
280
     1
281
     0
  0
BLOCK_RECORD
  5
7A
330
1
100
AcDbSymbolTableRecord
100
AcDbBlockTableRecord
  2
block 3
340
0
102
{BLKREFS
331
7B
102
}
 70
     0
280
     1
281
     0
  0
BLOCK_RECORD
  5
90
330
1
100
AcDbSymbolTableRecord
100
AcDbBlockTableRecord
  2
block 4
340
0
102
{BLKREFS
331
91
102
}
 70
     0
280
     1
281
     0
  0
BLOCK_RECORD
  5
9E
330
1
100
AcDbSymbolTableRecord
100
AcDbBlockTableRecord
  2
block 5
340
0
102
{BLKREFS
331
9F
102
}
 70
     0
280
     1
281
     0
  0
BLOCK_RECORD
  5
AC
330
1
100
AcDbSymbolTableRecord
100
AcDbBlockTableRecord
  2
block 6
340
0
102
{BLKREFS
331
AD
102
}
 70
     0
280
     1
281
     0
  0
ENDTAB
  0
ENDSEC
  0
SECTION
  2
BLOCKS
  0
BLOCK
  5
20
330
1F
100
AcDbEntity
  8
0
100
AcDbBlockBegin
  2
*Model_Space
 70
     0
 10
0.0
 20
0.0
 30
0.0
  3
*Model_Space
  1

  0
ENDBLK
  5
21
330
1F
100
AcDbEntity
  8
0
100
AcDbBlockEnd
  0
BLOCK
  5
1C
330
1B
100
AcDbEntity
 67
     1
  8
0
100
AcDbBlockBegin
  2
*Paper_Space
 70
     0
 10
0.0
 20
0.0
 30
0.0
  3
*Paper_Space
  1

  0
ENDBLK
  5
1D
330
1B
100
AcDbEntity
 67
     1
  8
0
100
AcDbBlockEnd
  0
BLOCK
  5
24
330
23
100
AcDbEntity
  8
0
100
AcDbBlockBegin
  2
*Paper_Space0
 70
     0
 10
0.0
 20
0.0
 30
0.0
  3
*Paper_Space0
  1

  0
ENDBLK
  5
25
330
23
100
AcDbEntity
  8
0
100
AcDbBlockEnd
  0
BLOCK
  5
68
330
66
100
AcDbEntity
  8
0
100
AcDbBlockBegin
  2
block 2
 70
     0
 10
0.0
 20
0.0
 30
0.0
  3
block 2
  1

  0
SPLINE
  5
6A
330
66
100
AcDbEntity
  8
_U+30EC_U+30A4_U+30E4_U+30FC 1
370
     0
100
AcDbSpline
210
0.0
220
0.0
230
1.0
 70
    11
 71
     3
 72
    44
 73
    40
 74
     0
 42
0.0000000001
 43
0.0000000001
 12
1.0
 22
0.0
 32
0.0
 13
1.0
 23
0.0
 33
0.0
 40
0.0
 40
0.0
 40
0.0
 40
0.0
 40
1.0
 40
1.0
 40
1.0
 40
2.0
 40
2.0
 40
2.0
 40
3.0
 40
3.0
 40
3.0
 40
4.0
 40
4.0
 40
4.0
 40
5.0
 40
5.0
 40
5.0
 40
6.0
 40
6.0
 40
6.0
 40
7.0
 40
7.0
 40
7.0
 40
8.0
 40
8.0
 40
8.0
 40
9.0
 40
9.0
 40
9.0
 40
10.0
 40
10.0
 40
10.0
 40
11.0
 40
11.0
 40
11.0
 40
12.0
 40
12.0
 40
12.0
 40
13.0
 40
13.0
 40
13.0
 40
13.0
 10
85.1934217451947
 20
-116.1696532912701
 30
0.0
 10
84.97551945575265
 20
-116.3282999383658
 30
0.0
 10
84.88232962287664
 20
-116.4023694912987
 30
0.0
 10
84.83375377653462
 20
-116.5462022278079
 30
0.0
 10
84.83375377653462
 20
-116.5462022278079
 30
0.0
 10
85.61217310142682
 20
-116.5462022278079
 30
0.0
 10
85.61217310142682
 20
-116.5462022278079
 30
0.0
 10
85.61217310142682
 20
-116.5462022278079
 30
0.0
 10
85.61217310142682
 20
-116.7513576639545
 30
0.0
 10
85.61217310142682
 20
-116.7513576639545
 30
0.0
 10
85.61217310142682
 20
-116.7513576639545
 30
0.0
 10
84.58415660862828
 20
-116.7513576639545
 30
0.0
 10
84.58415660862828
 20
-116.7513576639545
 30
0.0
 10
84.61585148709257
 20
-116.3937567525856
 30
0.0
 10
84.68130830131231
 20
-116.3155530850704
 30
0.0
 10
85.06646997656324
 20
-116.0172078160478
 30
0.0
 10
85.32244057111731
 20
-115.8184258065489
 30
0.0
 10
85.38789738533706
 20
-115.7507296802637
 30
0.0
 10
85.38789738533706
 20
-115.6132703704022
 30
0.0
 10
85.38789738533706
 20
-115.4947590857096
 30
0.0
 10
85.3160671444696
 20
-115.3636732024959
 30
0.0
 10
85.11935219226183
 20
-115.3636732024959
 30
0.0
 10
84.8590752283512
 20
-115.3636732024959
 30
0.0
 10
84.85063474441235
 20
-115.5941500904591
 30
0.0
 10
84.84632837505578
 20
-115.7105943178606
 30
0.0
 10
84.84632837505578
 20
-115.7105943178606
 30
0.0
 10
84.62222491374028
 20
-115.7105943178606
 30
0.0
 10
84.62222491374028
 20
-115.7105943178606
 30
0.0
 10
84.63066539767914
 20
-115.5836425492291
 30
0.0
 10
84.64117293890915
 20
-115.4715046911842
 30
0.0
 10
84.72161591848973
 20
-115.3529934064916
 30
0.0
 10
84.83151446446921
 20
-115.1922797021047
 30
0.0
 10
85.01772187544697
 20
-115.158345511575
 30
0.0
 10
85.13416610284841
 20
-115.158345511575
 30
0.0
 10
85.41132403463676
 20
-115.158345511575
 30
0.0
 10
85.61854652807453
 20
-115.3424858652616
 30
0.0
 10
85.61854652807453
 20
-115.6153374276934
 30
0.0
 10
85.61854652807453
 20
-115.8437472583655
 30
0.0
 10
85.50227455544736
 20
-115.9433105178892
 30
0.0
 10
85.1934217451947
 20
-116.1696532912701
 30
0.0
  0
HATCH
  5
6B
330
66
100
AcDbEntity
  8
_U+30EC_U+30A4_U+30E4_U+30FC 1
 62
     7
420
 16777215
100
AcDbHatch
 10
0.0
 20
0.0
 30
0.0
210
0.0
220
0.0
230
1.0
  2
SOLID
 70
     1
 71
     0
 91
        1
 92
        1
 93
        1
 72
     4
 94
        3
 73
     0
 74
     1
 95
       44
 96
       40
 40
0.0
 40
0.0
 40
0.0
 40
0.0
 40
1.0
 40
1.0
 40
1.0
 40
2.0
 40
2.0
 40
2.0
 40
3.0
 40
3.0
 40
3.0
 40
4.0
 40
4.0
 40
4.0
 40
5.0
 40
5.0
 40
5.0
 40
6.0
 40
6.0
 40
6.0
 40
7.0
 40
7.0
 40
7.0
 40
8.0
 40
8.0
 40
8.0
 40
9.0
 40
9.0
 40
9.0
 40
10.0
 40
10.0
 40
10.0
 40
11.0
 40
11.0
 40
11.0
 40
12.0
 40
12.0
 40
12.0
 40
13.0
 40
13.0
 40
13.0
 40
13.0
 10
85.1934217451947
 20
-116.1696532912701
 10
84.97551945575265
 20
-116.3282999383658
 10
84.88232962287664
 20
-116.4023694912987
 10
84.83375377653462
 20
-116.5462022278079
 10
84.83375377653462
 20
-116.5462022278079
 10
85.61217310142682
 20
-116.5462022278079
 10
85.61217310142682
 20
-116.5462022278079
 10
85.61217310142682
 20
-116.5462022278079
 10
85.61217310142682
 20
-116.7513576639545
 10
85.61217310142682
 20
-116.7513576639545
 10
85.61217310142682
 20
-116.7513576639545
 10
84.58415660862828
 20
-116.7513576639545
 10
84.58415660862828
 20
-116.7513576639545
 10
84.61585148709257
 20
-116.3937567525856
 10
84.68130830131231
 20
-116.3155530850704
 10
85.06646997656324
 20
-116.0172078160478
 10
85.32244057111731
 20
-115.8184258065489
 10
85.38789738533706
 20
-115.7507296802637
 10
85.38789738533706
 20
-115.6132703704022
 10
85.38789738533706
 20
-115.4947590857096
 10
85.3160671444696
 20
-115.3636732024959
 10
85.11935219226183
 20
-115.3636732024959
 10
84.8590752283512
 20
-115.3636732024959
 10
84.85063474441235
 20
-115.5941500904591
 10
84.84632837505578
 20
-115.7105943178606
 10
84.84632837505578
 20
-115.7105943178606
 10
84.62222491374028
 20
-115.7105943178606
 10
84.62222491374028
 20
-115.7105943178606
 10
84.63066539767914
 20
-115.5836425492291
 10
84.64117293890915
 20
-115.4715046911842
 10
84.72161591848973
 20
-115.3529934064916
 10
84.83151446446921
 20
-115.1922797021047
 10
85.01772187544697
 20
-115.158345511575
 10
85.13416610284841
 20
-115.158345511575
 10
85.41132403463676
 20
-115.158345511575
 10
85.61854652807453
 20
-115.3424858652616
 10
85.61854652807453
 20
-115.6153374276934
 10
85.61854652807453
 20
-115.8437472583655
 10
85.50227455544736
 20
-115.9433105178892
 10
85.1934217451947
 20
-116.1696532912701
 97
        0
 97
        0
 75
     2
 76
     1
 98
        0
  0
SPLINE
  5
6C
330
66
100
AcDbEntity
  8
_U+30EC_U+30A4_U+30E4_U+30FC 1
370
     0
100
AcDbSpline
210
0.0
220
0.0
230
1.0
 70
    11
 71
     3
 72
    53
 73
    49
 74
     0
 42
0.0000000001
 43
0.0000000001
 12
1.0
 22
0.0
 32
0.0
 13
1.0
 23
0.0
 33
0.0
 40
0.0
 40
0.0
 40
0.0
 40
0.0
 40
1.0
 40
1.0
 40
1.0
 40
2.0
 40
2.0
 40
2.0
 40
3.0
 40
3.0
 40
3.0
 40
4.0
 40
4.0
 40
4.0
 40
5.0
 40
5.0
 40
5.0
 40
6.0
 40
6.0
 40
6.0
 40
7.0
 40
7.0
 40
7.0
 40
8.0
 40
8.0
 40
8.0
 40
9.0
 40
9.0
 40
9.0
 40
10.0
 40
10.0
 40
10.0
 40
11.0
 40
11.0
 40
11.0
 40
12.0
 40
12.0
 40
12.0
 40
13.0
 40
13.0
 40
13.0
 40
14.0
 40
14.0
 40
14.0
 40
15.0
 40
15.0
 40
15.0
 40
16.0
 40
16.0
 40
16.0
 40
16.0
 10
86.25812850491117
 20
-116.802172822362
 30
0.0
 10
86.179924837396
 20
-116.802172822362
 30
0.0
 10
86.07829452058112
 20
-116.78511959971
 30
0.0
 10
85.97666420376625
 20
-116.7217298427814
 30
0.0
 10
85.80320364608393
 20
-116.6116590420276
 30
0.0
 10
85.78201630884963
 20
-116.4805731588139
 30
0.0
 10
85.76306828368077
 20
-116.3727416701256
 30
0.0
 10
85.76306828368077
 20
-116.3727416701256
 30
0.0
 10
85.98527694247937
 20
-116.3727416701256
 30
0.0
 10
85.98527694247937
 20
-116.3727416701256
 30
0.0
 10
86.04005396069485
 20
-116.5715236796245
 30
0.0
 10
86.16717798410058
 20
-116.6011515007976
 30
0.0
 10
86.26019556220231
 20
-116.6011515007976
 30
0.0
 10
86.39972192935494
 20
-116.6011515007976
 30
0.0
 10
86.55199514980298
 20
-116.5017604960482
 30
0.0
 10
86.55199514980298
 20
-116.2690442960195
 30
0.0
 10
86.55199514980298
 20
-116.0130737014655
 30
0.0
 10
86.37216116547293
 20
-115.9433105178892
 30
0.0
 10
86.25158282348919
 20
-115.9433105178892
 30
0.0
 10
86.2198879450249
 20
-115.9433105178892
 30
0.0
 10
86.07829452058112
 20
-115.9433105178892
 30
0.0
 10
85.98941105706167
 20
-116.0723293438118
 30
0.0
 10
85.98941105706167
 20
-116.0723293438118
 30
0.0
 10
85.8138834420882
 20
-116.0532090638686
 30
0.0
 10
85.8138834420882
 20
-116.0532090638686
 30
0.0
 10
85.8138834420882
 20
-116.0532090638686
 30
0.0
 10
85.93428952929769
 20
-115.2070936126913
 30
0.0
 10
85.93428952929769
 20
-115.2070936126913
 30
0.0
 10
85.93428952929769
 20
-115.2070936126913
 30
0.0
 10
86.71288110896414
 20
-115.2070936126913
 30
0.0
 10
86.71288110896414
 20
-115.2070936126913
 30
0.0
 10
86.71288110896414
 20
-115.2070936126913
 30
0.0
 10
86.71288110896414
 20
-115.4017415076079
 30
0.0
 10
86.71288110896414
 20
-115.4017415076079
 30
0.0
 10
86.71288110896414
 20
-115.4017415076079
 30
0.0
 10
86.09724254574999
 20
-115.4017415076079
 30
0.0
 10
86.09724254574999
 20
-115.4017415076079
 30
0.0
 10
86.09724254574999
 20
-115.4017415076079
 30
0.0
 10
86.03178573153025
 20
-115.8247992331966
 30
0.0
 10
86.03178573153025
 20
-115.8247992331966
 30
0.0
 10
86.09310843116769
 20
-115.7908650426669
 30
0.0
 10
86.17544621326518
 20
-115.7507296802637
 30
0.0
 10
86.29395749795776
 20
-115.7507296802637
 30
0.0
 10
86.54786103522068
 20
-115.7507296802637
 30
0.0
 10
86.78488360460587
 20
-115.9369370912415
 30
0.0
 10
86.78488360460587
 20
-116.2499240160764
 30
0.0
 10
86.78488360460587
 20
-116.5673895650422
 30
0.0
 10
86.5606078885161
 20
-116.802172822362
 30
0.0
 10
86.25812850491117
 20
-116.802172822362
 30
0.0
  0
HATCH
  5
6D
330
66
100
AcDbEntity
  8
_U+30EC_U+30A4_U+30E4_U+30FC 1
 62
     7
420
 16777215
100
AcDbHatch
 10
0.0
 20
0.0
 30
0.0
210
0.0
220
0.0
230
1.0
  2
SOLID
 70
     1
 71
     0
 91
        1
 92
        1
 93
        1
 72
     4
 94
        3
 73
     0
 74
     1
 95
       53
 96
       49
 40
0.0
 40
0.0
 40
0.0
 40
0.0
 40
1.0
 40
1.0
 40
1.0
 40
2.0
 40
2.0
 40
2.0
 40
3.0
 40
3.0
 40
3.0
 40
4.0
 40
4.0
 40
4.0
 40
5.0
 40
5.0
 40
5.0
 40
6.0
 40
6.0
 40
6.0
 40
7.0
 40
7.0
 40
7.0
 40
8.0
 40
8.0
 40
8.0
 40
9.0
 40
9.0
 40
9.0
 40
10.0
 40
10.0
 40
10.0
 40
11.0
 40
11.0
 40
11.0
 40
12.0
 40
12.0
 40
12.0
 40
13.0
 40
13.0
 40
13.0
 40
14.0
 40
14.0
 40
14.0
 40
15.0
 40
15.0
 40
15.0
 40
16.0
 40
16.0
 40
16.0
 40
16.0
 10
86.25812850491117
 20
-116.802172822362
 10
86.179924837396
 20
-116.802172822362
 10
86.07829452058112
 20
-116.78511959971
 10
85.97666420376625
 20
-116.7217298427814
 10
85.80320364608393
 20
-116.6116590420276
 10
85.78201630884963
 20
-116.4805731588139
 10
85.76306828368077
 20
-116.3727416701256
 10
85.76306828368077
 20
-116.3727416701256
 10
85.98527694247937
 20
-116.3727416701256
 10
85.98527694247937
 20
-116.3727416701256
 10
86.04005396069485
 20
-116.5715236796245
 10
86.16717798410058
 20
-116.6011515007976
 10
86.26019556220231
 20
-116.6011515007976
 10
86.39972192935494
 20
-116.6011515007976
 10
86.55199514980298
 20
-116.5017604960482
 10
86.55199514980298
 20
-116.2690442960195
 10
86.55199514980298
 20
-116.0130737014655
 10
86.37216116547293
 20
-115.9433105178892
 10
86.25158282348919
 20
-115.9433105178892
 10
86.2198879450249
 20
-115.9433105178892
 10
86.07829452058112
 20
-115.9433105178892
 10
85.98941105706167
 20
-116.0723293438118
 10
85.98941105706167
 20
-116.0723293438118
 10
85.8138834420882
 20
-116.0532090638686
 10
85.8138834420882
 20
-116.0532090638686
 10
85.8138834420882
 20
-116.0532090638686
 10
85.93428952929769
 20
-115.2070936126913
 10
85.93428952929769
 20
-115.2070936126913
 10
85.93428952929769
 20
-115.2070936126913
 10
86.71288110896414
 20
-115.2070936126913
 10
86.71288110896414
 20
-115.2070936126913
 10
86.71288110896414
 20
-115.2070936126913
 10
86.71288110896414
 20
-115.4017415076079
 10
86.71288110896414
 20
-115.4017415076079
 10
86.71288110896414
 20
-115.4017415076079
 10
86.09724254574999
 20
-115.4017415076079
 10
86.09724254574999
 20
-115.4017415076079
 10
86.09724254574999
 20
-115.4017415076079
 10
86.03178573153025
 20
-115.8247992331966
 10
86.03178573153025
 20
-115.8247992331966
 10
86.09310843116769
 20
-115.7908650426669
 10
86.17544621326518
 20
-115.7507296802637
 10
86.29395749795776
 20
-115.7507296802637
 10
86.54786103522068
 20
-115.7507296802637
 10
86.78488360460587
 20
-115.9369370912415
 10
86.78488360460587
 20
-116.2499240160764
 10
86.78488360460587
 20
-116.5673895650422
 10
86.5606078885161
 20
-116.802172822362
 10
86.25812850491117
 20
-116.802172822362
 97
        0
 97
        0
 75
     2
 76
     1
 98
        0
  0
ENDBLK
  5
69
330
66
100
AcDbEntity
  8
0
100
AcDbBlockEnd
  0
BLOCK
  5
7C
330
7A
100
AcDbEntity
  8
0
100
AcDbBlockBegin
  2
block 3
 70
     0
 10
0.0
 20
0.0
 30
0.0
  3
block 3
  1

  0
SPLINE
  5
7E
330
7A
100
AcDbEntity
  8
_U+30EC_U+30A4_U+30E4_U+30FC 1
370
     0
100
AcDbSpline
210
0.0
220
0.0
230
1.0
 70
    11
 71
     3
 72
    53
 73
    49
 74
     0
 42
0.0000000001
 43
0.0000000001
 12
1.0
 22
0.0
 32
0.0
 13
1.0
 23
0.0
 33
0.0
 40
0.0
 40
0.0
 40
0.0
 40
0.0
 40
1.0
 40
1.0
 40
1.0
 40
2.0
 40
2.0
 40
2.0
 40
3.0
 40
3.0
 40
3.0
 40
4.0
 40
4.0
 40
4.0
 40
5.0
 40
5.0
 40
5.0
 40
6.0
 40
6.0
 40
6.0
 40
7.0
 40
7.0
 40
7.0
 40
8.0
 40
8.0
 40
8.0
 40
9.0
 40
9.0
 40
9.0
 40
10.0
 40
10.0
 40
10.0
 40
11.0
 40
11.0
 40
11.0
 40
12.0
 40
12.0
 40
12.0
 40
13.0
 40
13.0
 40
13.0
 40
14.0
 40
14.0
 40
14.0
 40
15.0
 40
15.0
 40
15.0
 40
16.0
 40
16.0
 40
16.0
 40
16.0
 10
75.6696275309958
 20
-141.3019693657162
 30
0.0
 10
75.59125160870636
 20
-141.3019693657162
 30
0.0
 10
75.48979354666575
 20
-141.2850883978385
 30
0.0
 10
75.38816322985087
 20
-141.2216986409099
 30
0.0
 10
75.21470267216856
 20
-141.1118000949304
 30
0.0
 10
75.19351533493426
 20
-140.9805419569424
 30
0.0
 10
75.1745673097654
 20
-140.872710468254
 30
0.0
 10
75.1745673097654
 20
-140.872710468254
 30
0.0
 10
75.39660371378974
 20
-140.872710468254
 30
0.0
 10
75.39660371378974
 20
-140.872710468254
 30
0.0
 10
75.45172524155375
 20
-141.071492477753
 30
0.0
 10
75.57867701018519
 20
-141.1011202989261
 30
0.0
 10
75.67169458828694
 20
-141.1011202989261
 30
0.0
 10
75.81122095543957
 20
-141.1011202989261
 30
0.0
 10
75.96366643066186
 20
-141.0015570394024
 30
0.0
 10
75.96366643066186
 20
-140.769013094148
 30
0.0
 10
75.96366643066186
 20
-140.513042499594
 30
0.0
 10
75.78383244633183
 20
-140.4431070612434
 30
0.0
 10
75.66325410434808
 20
-140.4431070612434
 30
0.0
 10
75.63155922588378
 20
-140.4431070612434
 30
0.0
 10
75.48979354666575
 20
-140.4431070612434
 30
0.0
 10
75.4009100831463
 20
-140.5722981419403
 30
0.0
 10
75.4009100831463
 20
-140.5722981419403
 30
0.0
 10
75.22538246817282
 20
-140.5533501167714
 30
0.0
 10
75.22538246817282
 20
-140.5533501167714
 30
0.0
 10
75.22538246817282
 20
-140.5533501167714
 30
0.0
 10
75.34596081015657
 20
-139.7068901560455
 30
0.0
 10
75.34596081015657
 20
-139.7068901560455
 30
0.0
 10
75.34596081015657
 20
-139.7068901560455
 30
0.0
 10
76.12438013504877
 20
-139.7068901560455
 30
0.0
 10
76.12438013504877
 20
-139.7068901560455
 30
0.0
 10
76.12438013504877
 20
-139.7068901560455
 30
0.0
 10
76.12438013504877
 20
-139.9015380509621
 30
0.0
 10
76.12438013504877
 20
-139.9015380509621
 30
0.0
 10
76.12438013504877
 20
-139.9015380509621
 30
0.0
 10
75.50874157183462
 20
-139.9015380509621
 30
0.0
 10
75.50874157183462
 20
-139.9015380509621
 30
0.0
 10
75.50874157183462
 20
-139.9015380509621
 30
0.0
 10
75.44328475761488
 20
-140.3245957765508
 30
0.0
 10
75.44328475761488
 20
-140.3245957765508
 30
0.0
 10
75.50460745725232
 20
-140.2908338407954
 30
0.0
 10
75.58711749412406
 20
-140.2505262236179
 30
0.0
 10
75.70545652404239
 20
-140.2505262236179
 30
0.0
 10
75.9593600613053
 20
-140.2505262236179
 30
0.0
 10
76.1963826306905
 20
-140.4369058893699
 30
0.0
 10
76.1963826306905
 20
-140.7500650689792
 30
0.0
 10
76.1963826306905
 20
-141.0673583631707
 30
0.0
 10
75.97210691460073
 20
-141.3019693657162
 30
0.0
 10
75.6696275309958
 20
-141.3019693657162
 30
0.0
  0
HATCH
  5
7F
330
7A
100
AcDbEntity
  8
_U+30EC_U+30A4_U+30E4_U+30FC 1
 62
     7
420
 16777215
100
AcDbHatch
 10
0.0
 20
0.0
 30
0.0
210
0.0
220
0.0
230
1.0
  2
SOLID
 70
     1
 71
     0
 91
        1
 92
        1
 93
        1
 72
     4
 94
        3
 73
     0
 74
     1
 95
       53
 96
       49
 40
0.0
 40
0.0
 40
0.0
 40
0.0
 40
1.0
 40
1.0
 40
1.0
 40
2.0
 40
2.0
 40
2.0
 40
3.0
 40
3.0
 40
3.0
 40
4.0
 40
4.0
 40
4.0
 40
5.0
 40
5.0
 40
5.0
 40
6.0
 40
6.0
 40
6.0
 40
7.0
 40
7.0
 40
7.0
 40
8.0
 40
8.0
 40
8.0
 40
9.0
 40
9.0
 40
9.0
 40
10.0
 40
10.0
 40
10.0
 40
11.0
 40
11.0
 40
11.0
 40
12.0
 40
12.0
 40
12.0
 40
13.0
 40
13.0
 40
13.0
 40
14.0
 40
14.0
 40
14.0
 40
15.0
 40
15.0
 40
15.0
 40
16.0
 40
16.0
 40
16.0
 40
16.0
 10
75.6696275309958
 20
-141.3019693657162
 10
75.59125160870636
 20
-141.3019693657162
 10
75.48979354666575
 20
-141.2850883978385
 10
75.38816322985087
 20
-141.2216986409099
 10
75.21470267216856
 20
-141.1118000949304
 10
75.19351533493426
 20
-140.9805419569424
 10
75.1745673097654
 20
-140.872710468254
 10
75.1745673097654
 20
-140.872710468254
 10
75.39660371378974
 20
-140.872710468254
 10
75.39660371378974
 20
-140.872710468254
 10
75.45172524155375
 20
-141.071492477753
 10
75.57867701018519
 20
-141.1011202989261
 10
75.67169458828694
 20
-141.1011202989261
 10
75.81122095543957
 20
-141.1011202989261
 10
75.96366643066186
 20
-141.0015570394024
 10
75.96366643066186
 20
-140.769013094148
 10
75.96366643066186
 20
-140.513042499594
 10
75.78383244633183
 20
-140.4431070612434
 10
75.66325410434808
 20
-140.4431070612434
 10
75.63155922588378
 20
-140.4431070612434
 10
75.48979354666575
 20
-140.4431070612434
 10
75.4009100831463
 20
-140.5722981419403
 10
75.4009100831463
 20
-140.5722981419403
 10
75.22538246817282
 20
-140.5533501167714
 10
75.22538246817282
 20
-140.5533501167714
 10
75.22538246817282
 20
-140.5533501167714
 10
75.34596081015657
 20
-139.7068901560455
 10
75.34596081015657
 20
-139.7068901560455
 10
75.34596081015657
 20
-139.7068901560455
 10
76.12438013504877
 20
-139.7068901560455
 10
76.12438013504877
 20
-139.7068901560455
 10
76.12438013504877
 20
-139.7068901560455
 10
76.12438013504877
 20
-139.9015380509621
 10
76.12438013504877
 20
-139.9015380509621
 10
76.12438013504877
 20
-139.9015380509621
 10
75.50874157183462
 20
-139.9015380509621
 10
75.50874157183462
 20
-139.9015380509621
 10
75.50874157183462
 20
-139.9015380509621
 10
75.44328475761488
 20
-140.3245957765508
 10
75.44328475761488
 20
-140.3245957765508
 10
75.50460745725232
 20
-140.2908338407954
 10
75.58711749412406
 20
-140.2505262236179
 10
75.70545652404239
 20
-140.2505262236179
 10
75.9593600613053
 20
-140.2505262236179
 10
76.1963826306905
 20
-140.4369058893699
 10
76.1963826306905
 20
-140.7500650689792
 10
76.1963826306905
 20
-141.0673583631707
 10
75.97210691460073
 20
-141.3019693657162
 10
75.6696275309958
 20
-141.3019693657162
 97
        0
 97
        0
 75
     2
 76
     1
 98
        0
  0
ENDBLK
  5
7D
330
7A
100
AcDbEntity
  8
0
100
AcDbBlockEnd
  0
BLOCK
  5
92
330
90
100
AcDbEntity
  8
0
100
AcDbBlockBegin
  2
block 4
 70
     0
 10
0.0
 20
0.0
 30
0.0
  3
block 4
  1

  0
SPLINE
  5
94
330
90
100
AcDbEntity
  8
_U+30EC_U+30A4_U+30E4_U+30FC 1
370
     0
100
AcDbSpline
210
0.0
220
0.0
230
1.0
 70
    11
 71
     3
 72
    26
 73
    22
 74
     0
 42
0.0000000001
 43
0.0000000001
 12
1.0
 22
0.0
 32
0.0
 13
1.0
 23
0.0
 33
0.0
 40
0.0
 40
0.0
 40
0.0
 40
0.0
 40
1.0
 40
1.0
 40
1.0
 40
2.0
 40
2.0
 40
2.0
 40
3.0
 40
3.0
 40
3.0
 40
4.0
 40
4.0
 40
4.0
 40
5.0
 40
5.0
 40
5.0
 40
6.0
 40
6.0
 40
6.0
 40
7.0
 40
7.0
 40
7.0
 40
7.0
 10
106.481700277199
 20
-122.208216657816
 30
0.0
 10
106.481700277199
 20
-122.208216657816
 30
0.0
 10
105.3775471741765
 20
-122.208216657816
 30
0.0
 10
105.3775471741765
 20
-122.208216657816
 30
0.0
 10
105.3775471741765
 20
-122.208216657816
 30
0.0
 10
105.3775471741765
 20
-122.5382568053029
 30
0.0
 10
105.3775471741765
 20
-122.5382568053029
 30
0.0
 10
105.3775471741765
 20
-122.5382568053029
 30
0.0
 10
105.2294080683107
 20
-122.5382568053029
 30
0.0
 10
105.2294080683107
 20
-122.5382568053029
 30
0.0
 10
105.2145941577241
 20
-122.2061496005249
 30
0.0
 10
105.0516411412718
 20
-122.159640811474
 30
0.0
 10
104.9372639711615
 20
-122.1300129903008
 30
0.0
 10
104.9372639711615
 20
-122.1300129903008
 30
0.0
 10
104.9372639711615
 20
-121.9839409417262
 30
0.0
 10
104.9372639711615
 20
-121.9839409417262
 30
0.0
 10
104.9372639711615
 20
-121.9839409417262
 30
0.0
 10
106.481700277199
 20
-121.9839409417262
 30
0.0
 10
106.481700277199
 20
-121.9839409417262
 30
0.0
 10
106.481700277199
 20
-121.9839409417262
 30
0.0
 10
106.481700277199
 20
-122.208216657816
 30
0.0
 10
106.481700277199
 20
-122.208216657816
 30
0.0
  0
HATCH
  5
95
330
90
100
AcDbEntity
  8
_U+30EC_U+30A4_U+30E4_U+30FC 1
 62
     7
420
 16777215
100
AcDbHatch
 10
0.0
 20
0.0
 30
0.0
210
0.0
220
0.0
230
1.0
  2
SOLID
 70
     1
 71
     0
 91
        1
 92
        1
 93
        1
 72
     4
 94
        3
 73
     0
 74
     1
 95
       26
 96
       22
 40
0.0
 40
0.0
 40
0.0
 40
0.0
 40
1.0
 40
1.0
 40
1.0
 40
2.0
 40
2.0
 40
2.0
 40
3.0
 40
3.0
 40
3.0
 40
4.0
 40
4.0
 40
4.0
 40
5.0
 40
5.0
 40
5.0
 40
6.0
 40
6.0
 40
6.0
 40
7.0
 40
7.0
 40
7.0
 40
7.0
 10
106.481700277199
 20
-122.208216657816
 10
106.481700277199
 20
-122.208216657816
 10
105.3775471741765
 20
-122.208216657816
 10
105.3775471741765
 20
-122.208216657816
 10
105.3775471741765
 20
-122.208216657816
 10
105.3775471741765
 20
-122.5382568053029
 10
105.3775471741765
 20
-122.5382568053029
 10
105.3775471741765
 20
-122.5382568053029
 10
105.2294080683107
 20
-122.5382568053029
 10
105.2294080683107
 20
-122.5382568053029
 10
105.2145941577241
 20
-122.2061496005249
 10
105.0516411412718
 20
-122.159640811474
 10
104.9372639711615
 20
-122.1300129903008
 10
104.9372639711615
 20
-122.1300129903008
 10
104.9372639711615
 20
-121.9839409417262
 10
104.9372639711615
 20
-121.9839409417262
 10
104.9372639711615
 20
-121.9839409417262
 10
106.481700277199
 20
-121.9839409417262
 10
106.481700277199
 20
-121.9839409417262
 10
106.481700277199
 20
-121.9839409417262
 10
106.481700277199
 20
-122.208216657816
 10
106.481700277199
 20
-122.208216657816
 97
        0
 97
        0
 75
     2
 76
     1
 98
        0
  0
ENDBLK
  5
93
330
90
100
AcDbEntity
  8
0
100
AcDbBlockEnd
  0
BLOCK
  5
A0
330
9E
100
AcDbEntity
  8
0
100
AcDbBlockBegin
  2
block 5
 70
     0
 10
0.0
 20
0.0
 30
0.0
  3
block 5
  1

  0
SPLINE
  5
A2
330
9E
100
AcDbEntity
  8
_U+30EC_U+30A4_U+30E4_U+30FC 1
370
     0
100
AcDbSpline
210
0.0
220
0.0
230
1.0
 70
    11
 71
     3
 72
    62
 73
    58
 74
     0
 42
0.0000000001
 43
0.0000000001
 12
1.0
 22
0.0
 32
0.0
 13
1.0
 23
0.0
 33
0.0
 40
0.0
 40
0.0
 40
0.0
 40
0.0
 40
1.0
 40
1.0
 40
1.0
 40
2.0
 40
2.0
 40
2.0
 40
3.0
 40
3.0
 40
3.0
 40
4.0
 40
4.0
 40
4.0
 40
5.0
 40
5.0
 40
5.0
 40
6.0
 40
6.0
 40
6.0
 40
7.0
 40
7.0
 40
7.0
 40
8.0
 40
8.0
 40
8.0
 40
9.0
 40
9.0
 40
9.0
 40
10.0
 40
10.0
 40
10.0
 40
11.0
 40
11.0
 40
11.0
 40
12.0
 40
12.0
 40
12.0
 40
13.0
 40
13.0
 40
13.0
 40
14.0
 40
14.0
 40
14.0
 40
15.0
 40
15.0
 40
15.0
 40
16.0
 40
16.0
 40
16.0
 40
17.0
 40
17.0
 40
17.0
 40
18.0
 40
18.0
 40
18.0
 40
19.0
 40
19.0
 40
19.0
 40
19.0
 10
101.5937988027266
 20
-136.4068331907247
 30
0.0
 10
101.5937988027266
 20
-136.5022623356661
 30
0.0
 10
101.5727837202665
 20
-136.7199923703339
 30
0.0
 10
101.386748564063
 20
-136.8450493364485
 30
0.0
 10
101.2744384512439
 20
-136.9191188893813
 30
0.0
 10
101.1752197012687
 20
-136.9232530039637
 30
0.0
 10
101.0904703523316
 20
-136.9273871185459
 30
0.0
 10
101.0904703523316
 20
-136.9273871185459
 30
0.0
 10
101.0904703523316
 20
-136.7072455170385
 30
0.0
 10
101.0904703523316
 20
-136.7072455170385
 30
0.0
 10
101.1645399052644
 20
-136.7051784597473
 30
0.0
 10
101.3991509078099
 20
-136.6948431732916
 30
0.0
 10
101.3991509078099
 20
-136.4113118148555
 30
0.0
 10
101.3991509078099
 20
-136.273852504994
 30
0.0
 10
101.3295599790079
 20
-136.1212347749975
 30
0.0
 10
101.1011501483358
 20
-136.1212347749975
 30
0.0
 10
100.9847059209344
 20
-136.1212347749975
 30
0.0
 10
100.9361300745924
 20
-136.1594753348838
 30
0.0
 10
100.9044351961281
 20
-136.191170213348
 30
0.0
 10
100.8303656431952
 20
-136.2652397662809
 30
0.0
 10
100.8176187898998
 20
-136.3816839936824
 30
0.0
 10
100.8176187898998
 20
-136.4364610118978
 30
0.0
 10
100.8176187898998
 20
-136.4557535466152
 30
0.0
 10
100.8196858471909
 20
-136.4915825396618
 30
0.0
 10
100.8238199617732
 20
-136.5191433035438
 30
0.0
 10
100.8238199617732
 20
-136.5191433035438
 30
0.0
 10
100.6291720668566
 20
-136.5191433035438
 30
0.0
 10
100.6291720668566
 20
-136.5191433035438
 30
0.0
 10
100.6357177482786
 20
-136.4809027436576
 30
0.0
 10
100.6377848055697
 20
-136.4388725787375
 30
0.0
 10
100.6377848055697
 20
-136.4323268973155
 30
0.0
 10
100.6377848055697
 20
-136.3668700830958
 30
0.0
 10
100.6164252135612
 20
-136.1680880735969
 30
0.0
 10
100.3797471537245
 20
-136.1680880735969
 30
0.0
 10
100.2019802266856
 20
-136.1680880735969
 30
0.0
 10
100.1468586989216
 20
-136.2990017020364
 30
0.0
 10
100.1468586989216
 20
-136.4092447575644
 30
0.0
 10
100.1468586989216
 20
-136.673483581283
 30
0.0
 10
100.3797471537245
 20
-136.6820963199962
 30
0.0
 10
100.4514051398177
 20
-136.6862304345784
 30
0.0
 10
100.4514051398177
 20
-136.6862304345784
 30
0.0
 10
100.4514051398177
 20
-136.8894910682082
 30
0.0
 10
100.4514051398177
 20
-136.8894910682082
 30
0.0
 10
100.3266926832517
 20
-136.8808783294951
 30
0.0
 10
99.95014374671386
 20
-136.8533175656131
 30
0.0
 10
99.95014374671386
 20
-136.3964979042689
 30
0.0
 10
99.95014374671386
 20
-136.1722221881792
 30
0.0
 10
100.0772677701196
 20
-135.9310655042117
 30
0.0
 10
100.3732014723025
 20
-135.9310655042117
 30
0.0
 10
100.5595811380546
 20
-135.9310655042117
 30
0.0
 10
100.641918920152
 20
-136.0261501396046
 30
0.0
 10
100.7032416197895
 20
-136.1257133991283
 30
0.0
 10
100.7308023836715
 20
-136.0643906994908
 30
0.0
 10
100.8110731084778
 20
-135.8824896578697
 30
0.0
 10
101.0884032950404
 20
-135.8824896578697
 30
0.0
 10
101.4267116716919
 20
-135.8824896578697
 30
0.0
 10
101.5937988027266
 20
-136.1298475137106
 30
0.0
 10
101.5937988027266
 20
-136.4068331907247
 30
0.0
  0
HATCH
  5
A3
330
9E
100
AcDbEntity
  8
_U+30EC_U+30A4_U+30E4_U+30FC 1
 62
     7
420
 16777215
100
AcDbHatch
 10
0.0
 20
0.0
 30
0.0
210
0.0
220
0.0
230
1.0
  2
SOLID
 70
     1
 71
     0
 91
        1
 92
        1
 93
        1
 72
     4
 94
        3
 73
     0
 74
     1
 95
       62
 96
       58
 40
0.0
 40
0.0
 40
0.0
 40
0.0
 40
1.0
 40
1.0
 40
1.0
 40
2.0
 40
2.0
 40
2.0
 40
3.0
 40
3.0
 40
3.0
 40
4.0
 40
4.0
 40
4.0
 40
5.0
 40
5.0
 40
5.0
 40
6.0
 40
6.0
 40
6.0
 40
7.0
 40
7.0
 40
7.0
 40
8.0
 40
8.0
 40
8.0
 40
9.0
 40
9.0
 40
9.0
 40
10.0
 40
10.0
 40
10.0
 40
11.0
 40
11.0
 40
11.0
 40
12.0
 40
12.0
 40
12.0
 40
13.0
 40
13.0
 40
13.0
 40
14.0
 40
14.0
 40
14.0
 40
15.0
 40
15.0
 40
15.0
 40
16.0
 40
16.0
 40
16.0
 40
17.0
 40
17.0
 40
17.0
 40
18.0
 40
18.0
 40
18.0
 40
19.0
 40
19.0
 40
19.0
 40
19.0
 10
101.5937988027266
 20
-136.4068331907247
 10
101.5937988027266
 20
-136.5022623356661
 10
101.5727837202665
 20
-136.7199923703339
 10
101.386748564063
 20
-136.8450493364485
 10
101.2744384512439
 20
-136.9191188893813
 10
101.1752197012687
 20
-136.9232530039637
 10
101.0904703523316
 20
-136.9273871185459
 10
101.0904703523316
 20
-136.9273871185459
 10
101.0904703523316
 20
-136.7072455170385
 10
101.0904703523316
 20
-136.7072455170385
 10
101.1645399052644
 20
-136.7051784597473
 10
101.3991509078099
 20
-136.6948431732916
 10
101.3991509078099
 20
-136.4113118148555
 10
101.3991509078099
 20
-136.273852504994
 10
101.3295599790079
 20
-136.1212347749975
 10
101.1011501483358
 20
-136.1212347749975
 10
100.9847059209344
 20
-136.1212347749975
 10
100.9361300745924
 20
-136.1594753348838
 10
100.9044351961281
 20
-136.191170213348
 10
100.8303656431952
 20
-136.2652397662809
 10
100.8176187898998
 20
-136.3816839936824
 10
100.8176187898998
 20
-136.4364610118978
 10
100.8176187898998
 20
-136.4557535466152
 10
100.8196858471909
 20
-136.4915825396618
 10
100.8238199617732
 20
-136.5191433035438
 10
100.8238199617732
 20
-136.5191433035438
 10
100.6291720668566
 20
-136.5191433035438
 10
100.6291720668566
 20
-136.5191433035438
 10
100.6357177482786
 20
-136.4809027436576
 10
100.6377848055697
 20
-136.4388725787375
 10
100.6377848055697
 20
-136.4323268973155
 10
100.6377848055697
 20
-136.3668700830958
 10
100.6164252135612
 20
-136.1680880735969
 10
100.3797471537245
 20
-136.1680880735969
 10
100.2019802266856
 20
-136.1680880735969
 10
100.1468586989216
 20
-136.2990017020364
 10
100.1468586989216
 20
-136.4092447575644
 10
100.1468586989216
 20
-136.673483581283
 10
100.3797471537245
 20
-136.6820963199962
 10
100.4514051398177
 20
-136.6862304345784
 10
100.4514051398177
 20
-136.6862304345784
 10
100.4514051398177
 20
-136.8894910682082
 10
100.4514051398177
 20
-136.8894910682082
 10
100.3266926832517
 20
-136.8808783294951
 10
99.95014374671386
 20
-136.8533175656131
 10
99.95014374671386
 20
-136.3964979042689
 10
99.95014374671386
 20
-136.1722221881792
 10
100.0772677701196
 20
-135.9310655042117
 10
100.3732014723025
 20
-135.9310655042117
 10
100.5595811380546
 20
-135.9310655042117
 10
100.641918920152
 20
-136.0261501396046
 10
100.7032416197895
 20
-136.1257133991283
 10
100.7308023836715
 20
-136.0643906994908
 10
100.8110731084778
 20
-135.8824896578697
 10
101.0884032950404
 20
-135.8824896578697
 10
101.4267116716919
 20
-135.8824896578697
 10
101.5937988027266
 20
-136.1298475137106
 10
101.5937988027266
 20
-136.4068331907247
 97
        0
 97
        0
 75
     2
 76
     1
 98
        0
  0
ENDBLK
  5
A1
330
9E
100
AcDbEntity
  8
0
100
AcDbBlockEnd
  0
BLOCK
  5
AE
330
AC
100
AcDbEntity
  8
0
100
AcDbBlockBegin
  2
block 6
 70
     0
 10
0.0
 20
0.0
 30
0.0
  3
block 6
  1

  0
SPLINE
  5
B0
330
AC
100
AcDbEntity
  8
_U+30EC_U+30A4_U+30E4_U+30FC 1
370
     0
100
AcDbSpline
210
0.0
220
0.0
230
1.0
 70
    11
 71
     3
 72
    26
 73
    22
 74
     0
 42
0.0000000001
 43
0.0000000001
 12
1.0
 22
0.0
 32
0.0
 13
1.0
 23
0.0
 33
0.0
 40
0.0
 40
0.0
 40
0.0
 40
0.0
 40
1.0
 40
1.0
 40
1.0
 40
2.0
 40
2.0
 40
2.0
 40
3.0
 40
3.0
 40
3.0
 40
4.0
 40
4.0
 40
4.0
 40
5.0
 40
5.0
 40
5.0
 40
6.0
 40
6.0
 40
6.0
 40
7.0
 40
7.0
 40
7.0
 40
7.0
 10
101.5431558990934
 20
-130.1491617513169
 30
0.0
 10
101.5431558990934
 20
-130.1491617513169
 30
0.0
 10
100.4390027960708
 20
-130.1491617513169
 30
0.0
 10
100.4390027960708
 20
-130.1491617513169
 30
0.0
 10
100.4390027960708
 20
-130.1491617513169
 30
0.0
 10
100.4390027960708
 20
-130.4792018988038
 30
0.0
 10
100.4390027960708
 20
-130.4792018988038
 30
0.0
 10
100.4390027960708
 20
-130.4792018988038
 30
0.0
 10
100.2908636902051
 20
-130.4792018988038
 30
0.0
 10
100.2908636902051
 20
-130.4792018988038
 30
0.0
 10
100.2760497796185
 20
-130.1470946940257
 30
0.0
 10
100.1130967631662
 20
-130.1005859049748
 30
0.0
 10
99.99871959305588
 20
-130.0709580838017
 30
0.0
 10
99.99871959305588
 20
-130.0709580838017
 30
0.0
 10
99.99871959305588
 20
-129.9248860352271
 30
0.0
 10
99.99871959305588
 20
-129.9248860352271
 30
0.0
 10
99.99871959305588
 20
-129.9248860352271
 30
0.0
 10
101.5431558990934
 20
-129.9248860352271
 30
0.0
 10
101.5431558990934
 20
-129.9248860352271
 30
0.0
 10
101.5431558990934
 20
-129.9248860352271
 30
0.0
 10
101.5431558990934
 20
-130.1491617513169
 30
0.0
 10
101.5431558990934
 20
-130.1491617513169
 30
0.0
  0
HATCH
  5
B1
330
AC
100
AcDbEntity
  8
_U+30EC_U+30A4_U+30E4_U+30FC 1
 62
     7
420
 16777215
100
AcDbHatch
 10
0.0
 20
0.0
 30
0.0
210
0.0
220
0.0
230
1.0
  2
SOLID
 70
     1
 71
     0
 91
        1
 92
        1
 93
        1
 72
     4
 94
        3
 73
     0
 74
     1
 95
       26
 96
       22
 40
0.0
 40
0.0
 40
0.0
 40
0.0
 40
1.0
 40
1.0
 40
1.0
 40
2.0
 40
2.0
 40
2.0
 40
3.0
 40
3.0
 40
3.0
 40
4.0
 40
4.0
 40
4.0
 40
5.0
 40
5.0
 40
5.0
 40
6.0
 40
6.0
 40
6.0
 40
7.0
 40
7.0
 40
7.0
 40
7.0
 10
101.5431558990934
 20
-130.1491617513169
 10
101.5431558990934
 20
-130.1491617513169
 10
100.4390027960708
 20
-130.1491617513169
 10
100.4390027960708
 20
-130.1491617513169
 10
100.4390027960708
 20
-130.1491617513169
 10
100.4390027960708
 20
-130.4792018988038
 10
100.4390027960708
 20
-130.4792018988038
 10
100.4390027960708
 20
-130.4792018988038
 10
100.2908636902051
 20
-130.4792018988038
 10
100.2908636902051
 20
-130.4792018988038
 10
100.2760497796185
 20
-130.1470946940257
 10
100.1130967631662
 20
-130.1005859049748
 10
99.99871959305588
 20
-130.0709580838017
 10
99.99871959305588
 20
-130.0709580838017
 10
99.99871959305588
 20
-129.9248860352271
 10
99.99871959305588
 20
-129.9248860352271
 10
99.99871959305588
 20
-129.9248860352271
 10
101.5431558990934
 20
-129.9248860352271
 10
101.5431558990934
 20
-129.9248860352271
 10
101.5431558990934
 20
-129.9248860352271
 10
101.5431558990934
 20
-130.1491617513169
 10
101.5431558990934
 20
-130.1491617513169
 97
        0
 97
        0
 75
     2
 76
     1
 98
        0
  0
SPLINE
  5
B2
330
AC
100
AcDbEntity
  8
_U+30EC_U+30A4_U+30E4_U+30FC 1
370
     0
100
AcDbSpline
210
0.0
220
0.0
230
1.0
 70
    11
 71
     3
 72
    44
 73
    40
 74
     0
 42
0.0000000001
 43
0.0000000001
 12
1.0
 22
0.0
 32
0.0
 13
1.0
 23
0.0
 33
0.0
 40
0.0
 40
0.0
 40
0.0
 40
0.0
 40
1.0
 40
1.0
 40
1.0
 40
2.0
 40
2.0
 40
2.0
 40
3.0
 40
3.0
 40
3.0
 40
4.0
 40
4.0
 40
4.0
 40
5.0
 40
5.0
 40
5.0
 40
6.0
 40
6.0
 40
6.0
 40
7.0
 40
7.0
 40
7.0
 40
8.0
 40
8.0
 40
8.0
 40
9.0
 40
9.0
 40
9.0
 40
10.0
 40
10.0
 40
10.0
 40
11.0
 40
11.0
 40
11.0
 40
12.0
 40
12.0
 40
12.0
 40
13.0
 40
13.0
 40
13.0
 40
13.0
 10
100.9612792716347
 20
-128.8307237091118
 30
0.0
 10
101.1200981735047
 20
-129.0484537437796
 30
0.0
 10
101.1941677264376
 20
-129.1414713218813
 30
0.0
 10
101.3378282081725
 20
-129.1903916777719
 30
0.0
 10
101.3378282081725
 20
-129.1903916777719
 30
0.0
 10
101.3378282081725
 20
-128.4118000981054
 30
0.0
 10
101.3378282081725
 20
-128.4118000981054
 30
0.0
 10
101.3378282081725
 20
-128.4118000981054
 30
0.0
 10
101.5431558990934
 20
-128.4118000981054
 30
0.0
 10
101.5431558990934
 20
-128.4118000981054
 30
0.0
 10
101.5431558990934
 20
-128.4118000981054
 30
0.0
 10
101.5431558990934
 20
-129.4398165909039
 30
0.0
 10
101.5431558990934
 20
-129.4398165909039
 30
0.0
 10
101.1855549877244
 20
-129.4081217124397
 30
0.0
 10
101.1073513202093
 20
-129.3426648982199
 30
0.0
 10
100.8090060511866
 20
-128.957503222969
 30
0.0
 10
100.6102240416877
 20
-128.7015326284149
 30
0.0
 10
100.5423556606283
 20
-128.6360758141952
 30
0.0
 10
100.4048963507668
 20
-128.6360758141952
 30
0.0
 10
100.2863850660742
 20
-128.6360758141952
 30
0.0
 10
100.1554714376347
 20
-128.7080783098369
 30
0.0
 10
100.1554714376347
 20
-128.9047932620446
 30
0.0
 10
100.1554714376347
 20
-129.164897971181
 30
0.0
 10
100.385948325598
 20
-129.1731662003456
 30
0.0
 10
100.5023925529994
 20
-129.1776448244764
 30
0.0
 10
100.5023925529994
 20
-129.1776448244764
 30
0.0
 10
100.5023925529994
 20
-129.4019205405662
 30
0.0
 10
100.5023925529994
 20
-129.4019205405662
 30
0.0
 10
100.3752685295937
 20
-129.3933078018531
 30
0.0
 10
100.2633029263231
 20
-129.3826280058488
 30
0.0
 10
100.1447916416305
 20
-129.3023572810425
 30
0.0
 10
99.9839056824693
 20
-129.192458735063
 30
0.0
 10
99.95014374671386
 20
-129.006079069311
 30
0.0
 10
99.95014374671386
 20
-128.8899793514581
 30
0.0
 10
99.95014374671386
 20
-128.6126491648955
 30
0.0
 10
100.1341118456262
 20
-128.4052544166834
 30
0.0
 10
100.406963408058
 20
-128.4052544166834
 30
0.0
 10
100.6357177482786
 20
-128.4052544166834
 30
0.0
 10
100.7349364982538
 20
-128.5216986440849
 30
0.0
 10
100.9612792716347
 20
-128.8307237091118
 30
0.0
  0
HATCH
  5
B3
330
AC
100
AcDbEntity
  8
_U+30EC_U+30A4_U+30E4_U+30FC 1
 62
     7
420
 16777215
100
AcDbHatch
 10
0.0
 20
0.0
 30
0.0
210
0.0
220
0.0
230
1.0
  2
SOLID
 70
     1
 71
     0
 91
        1
 92
        1
 93
        1
 72
     4
 94
        3
 73
     0
 74
     1
 95
       44
 96
       40
 40
0.0
 40
0.0
 40
0.0
 40
0.0
 40
1.0
 40
1.0
 40
1.0
 40
2.0
 40
2.0
 40
2.0
 40
3.0
 40
3.0
 40
3.0
 40
4.0
 40
4.0
 40
4.0
 40
5.0
 40
5.0
 40
5.0
 40
6.0
 40
6.0
 40
6.0
 40
7.0
 40
7.0
 40
7.0
 40
8.0
 40
8.0
 40
8.0
 40
9.0
 40
9.0
 40
9.0
 40
10.0
 40
10.0
 40
10.0
 40
11.0
 40
11.0
 40
11.0
 40
12.0
 40
12.0
 40
12.0
 40
13.0
 40
13.0
 40
13.0
 40
13.0
 10
100.9612792716347
 20
-128.8307237091118
 10
101.1200981735047
 20
-129.0484537437796
 10
101.1941677264376
 20
-129.1414713218813
 10
101.3378282081725
 20
-129.1903916777719
 10
101.3378282081725
 20
-129.1903916777719
 10
101.3378282081725
 20
-128.4118000981054
 10
101.3378282081725
 20
-128.4118000981054
 10
101.3378282081725
 20
-128.4118000981054
 10
101.5431558990934
 20
-128.4118000981054
 10
101.5431558990934
 20
-128.4118000981054
 10
101.5431558990934
 20
-128.4118000981054
 10
101.5431558990934
 20
-129.4398165909039
 10
101.5431558990934
 20
-129.4398165909039
 10
101.1855549877244
 20
-129.4081217124397
 10
101.1073513202093
 20
-129.3426648982199
 10
100.8090060511866
 20
-128.957503222969
 10
100.6102240416877
 20
-128.7015326284149
 10
100.5423556606283
 20
-128.6360758141952
 10
100.4048963507668
 20
-128.6360758141952
 10
100.2863850660742
 20
-128.6360758141952
 10
100.1554714376347
 20
-128.7080783098369
 10
100.1554714376347
 20
-128.9047932620446
 10
100.1554714376347
 20
-129.164897971181
 10
100.385948325598
 20
-129.1731662003456
 10
100.5023925529994
 20
-129.1776448244764
 10
100.5023925529994
 20
-129.1776448244764
 10
100.5023925529994
 20
-129.4019205405662
 10
100.5023925529994
 20
-129.4019205405662
 10
100.3752685295937
 20
-129.3933078018531
 10
100.2633029263231
 20
-129.3826280058488
 10
100.1447916416305
 20
-129.3023572810425
 10
99.9839056824693
 20
-129.192458735063
 10
99.95014374671386
 20
-129.006079069311
 10
99.95014374671386
 20
-128.8899793514581
 10
99.95014374671386
 20
-128.6126491648955
 10
100.1341118456262
 20
-128.4052544166834
 10
100.406963408058
 20
-128.4052544166834
 10
100.6357177482786
 20
-128.4052544166834
 10
100.7349364982538
 20
-128.5216986440849
 10
100.9612792716347
 20
-128.8307237091118
 97
        0
 97
        0
 75
     2
 76
     1
 98
        0
  0
POLYLINE
  5
B4
330
AC
100
AcDbEntity
  8
_U+30EC_U+30A4_U+30E4_U+30FC 1
370
     0
100
AcDb2dPolyline
 66
     1
 10
0.0
 20
0.0
 30
0.0
  0
VERTEX
  5
B5
330
B4
100
AcDbEntity
  8
_U+30EC_U+30A4_U+30E4_U+30FC 1
370
     0
100
AcDbVertex
100
AcDb2dVertex
 10
101.5431558990934
 20
-128.1868353629186
 30
0.0
  0
VERTEX
  5
B6
330
B4
100
AcDbEntity
  8
_U+30EC_U+30A4_U+30E4_U+30FC 1
370
     0
100
AcDbVertex
100
AcDb2dVertex
 10
101.2913194191216
 20
-128.1868353629186
 30
0.0
  0
VERTEX
  5
B7
330
B4
100
AcDbEntity
  8
_U+30EC_U+30A4_U+30E4_U+30FC 1
370
     0
100
AcDbVertex
100
AcDb2dVertex
 10
101.2913194191216
 20
-127.9349988829468
 30
0.0
  0
VERTEX
  5
B8
330
B4
100
AcDbEntity
  8
_U+30EC_U+30A4_U+30E4_U+30FC 1
370
     0
100
AcDbVertex
100
AcDb2dVertex
 10
101.5431558990934
 20
-127.9349988829468
 30
0.0
  0
VERTEX
  5
B9
330
B4
100
AcDbEntity
  8
_U+30EC_U+30A4_U+30E4_U+30FC 1
370
     0
100
AcDbVertex
100
AcDb2dVertex
 10
101.5431558990934
 20
-128.1868353629186
 30
0.0
  0
SEQEND
  5
BA
330
B4
100
AcDbEntity
  8
_U+30EC_U+30A4_U+30E4_U+30FC 1
370
     0
  0
HATCH
  5
BB
330
AC
100
AcDbEntity
  8
_U+30EC_U+30A4_U+30E4_U+30FC 1
 62
     7
420
 16777215
100
AcDbHatch
 10
0.0
 20
0.0
 30
0.0
210
0.0
220
0.0
230
1.0
  2
SOLID
 70
     1
 71
     0
 91
        1
 92
        1
 93
        4
 72
     1
 10
101.5431558990934
 20
-128.1868353629186
 11
101.2913194191216
 21
-128.1868353629186
 72
     1
 10
101.2913194191216
 20
-128.1868353629186
 11
101.2913194191216
 21
-127.9349988829468
 72
     1
 10
101.2913194191216
 20
-127.9349988829468
 11
101.5431558990934
 21
-127.9349988829468
 72
     1
 10
101.5431558990934
 20
-127.9349988829468
 11
101.5431558990934
 21
-128.1868353629186
 97
        0
 75
     2
 76
     1
 98
        0
  0
SPLINE
  5
BC
330
AC
100
AcDbEntity
  8
_U+30EC_U+30A4_U+30E4_U+30FC 1
370
     0
100
AcDbSpline
210
0.0
220
0.0
230
1.0
 70
    11
 71
     3
 72
    53
 73
    49
 74
     0
 42
0.0000000001
 43
0.0000000001
 12
1.0
 22
0.0
 32
0.0
 13
1.0
 23
0.0
 33
0.0
 40
0.0
 40
0.0
 40
0.0
 40
0.0
 40
1.0
 40
1.0
 40
1.0
 40
2.0
 40
2.0
 40
2.0
 40
3.0
 40
3.0
 40
3.0
 40
4.0
 40
4.0
 40
4.0
 40
5.0
 40
5.0
 40
5.0
 40
6.0
 40
6.0
 40
6.0
 40
7.0
 40
7.0
 40
7.0
 40
8.0
 40
8.0
 40
8.0
 40
9.0
 40
9.0
 40
9.0
 40
10.0
 40
10.0
 40
10.0
 40
11.0
 40
11.0
 40
11.0
 40
12.0
 40
12.0
 40
12.0
 40
13.0
 40
13.0
 40
13.0
 40
14.0
 40
14.0
 40
14.0
 40
15.0
 40
15.0
 40
15.0
 40
16.0
 40
16.0
 40
16.0
 40
16.0
 10
101.5937988027266
 20
-127.2177300029178
 30
0.0
 10
101.5937988027266
 20
-127.295933670433
 30
0.0
 10
101.5769178348488
 20
-127.3975639872478
 30
0.0
 10
101.5135280779202
 20
-127.4991943040627
 30
0.0
 10
101.4036295319408
 20
-127.6724826069708
 30
0.0
 10
101.2723713939527
 20
-127.6938421989793
 30
0.0
 10
101.1645399052644
 20
-127.7127902241482
 30
0.0
 10
101.1645399052644
 20
-127.7127902241482
 30
0.0
 10
101.1645399052644
 20
-127.4905815653496
 30
0.0
 10
101.1645399052644
 20
-127.4905815653496
 30
0.0
 10
101.3633219147633
 20
-127.4358045471341
 30
0.0
 10
101.3929497359365
 20
-127.3086805237284
 30
0.0
 10
101.3929497359365
 20
-127.2156629456266
 30
0.0
 10
101.3929497359365
 20
-127.076136578474
 30
0.0
 10
101.2933864764128
 20
-126.923863358026
 30
0.0
 10
101.0608425311584
 20
-126.923863358026
 30
0.0
 10
100.8048719366043
 20
-126.923863358026
 30
0.0
 10
100.7349364982538
 20
-127.103697342356
 30
0.0
 10
100.7349364982538
 20
-127.2242756843398
 30
0.0
 10
100.7349364982538
 20
-127.2559705628041
 30
0.0
 10
100.7349364982538
 20
-127.3975639872478
 30
0.0
 10
100.8641275789506
 20
-127.4864474507673
 30
0.0
 10
100.8641275789506
 20
-127.4864474507673
 30
0.0
 10
100.8451795537818
 20
-127.662147320515
 30
0.0
 10
100.8451795537818
 20
-127.662147320515
 30
0.0
 10
100.8451795537818
 20
-127.662147320515
 30
0.0
 10
99.99871959305588
 20
-127.5415689785313
 30
0.0
 10
99.99871959305588
 20
-127.5415689785313
 30
0.0
 10
99.99871959305588
 20
-127.5415689785313
 30
0.0
 10
99.99871959305588
 20
-126.7629773988648
 30
0.0
 10
99.99871959305588
 20
-126.7629773988648
 30
0.0
 10
99.99871959305588
 20
-126.7629773988648
 30
0.0
 10
100.1933674879725
 20
-126.7629773988648
 30
0.0
 10
100.1933674879725
 20
-126.7629773988648
 30
0.0
 10
100.1933674879725
 20
-126.7629773988648
 30
0.0
 10
100.1933674879725
 20
-127.378615962079
 30
0.0
 10
100.1933674879725
 20
-127.378615962079
 30
0.0
 10
100.1933674879725
 20
-127.378615962079
 30
0.0
 10
100.6164252135612
 20
-127.4440727762987
 30
0.0
 10
100.6164252135612
 20
-127.4440727762987
 30
0.0
 10
100.5826632778057
 20
-127.3827500766613
 30
0.0
 10
100.5423556606283
 20
-127.3004122945638
 30
0.0
 10
100.5423556606283
 20
-127.1819010098712
 30
0.0
 10
100.5423556606283
 20
-126.9279974726083
 30
0.0
 10
100.7287353263803
 20
-126.6909749032231
 30
0.0
 10
101.0418945059895
 20
-126.6909749032231
 30
0.0
 10
101.359187800181
 20
-126.6909749032231
 30
0.0
 10
101.5937988027266
 20
-126.9152506193129
 30
0.0
 10
101.5937988027266
 20
-127.2177300029178
 30
0.0
  0
HATCH
  5
BD
330
AC
100
AcDbEntity
  8
_U+30EC_U+30A4_U+30E4_U+30FC 1
 62
     7
420
 16777215
100
AcDbHatch
 10
0.0
 20
0.0
 30
0.0
210
0.0
220
0.0
230
1.0
  2
SOLID
 70
     1
 71
     0
 91
        1
 92
        1
 93
        1
 72
     4
 94
        3
 73
     0
 74
     1
 95
       53
 96
       49
 40
0.0
 40
0.0
 40
0.0
 40
0.0
 40
1.0
 40
1.0
 40
1.0
 40
2.0
 40
2.0
 40
2.0
 40
3.0
 40
3.0
 40
3.0
 40
4.0
 40
4.0
 40
4.0
 40
5.0
 40
5.0
 40
5.0
 40
6.0
 40
6.0
 40
6.0
 40
7.0
 40
7.0
 40
7.0
 40
8.0
 40
8.0
 40
8.0
 40
9.0
 40
9.0
 40
9.0
 40
10.0
 40
10.0
 40
10.0
 40
11.0
 40
11.0
 40
11.0
 40
12.0
 40
12.0
 40
12.0
 40
13.0
 40
13.0
 40
13.0
 40
14.0
 40
14.0
 40
14.0
 40
15.0
 40
15.0
 40
15.0
 40
16.0
 40
16.0
 40
16.0
 40
16.0
 10
101.5937988027266
 20
-127.2177300029178
 10
101.5937988027266
 20
-127.295933670433
 10
101.5769178348488
 20
-127.3975639872478
 10
101.5135280779202
 20
-127.4991943040627
 10
101.4036295319408
 20
-127.6724826069708
 10
101.2723713939527
 20
-127.6938421989793
 10
101.1645399052644
 20
-127.7127902241482
 10
101.1645399052644
 20
-127.7127902241482
 10
101.1645399052644
 20
-127.4905815653496
 10
101.1645399052644
 20
-127.4905815653496
 10
101.3633219147633
 20
-127.4358045471341
 10
101.3929497359365
 20
-127.3086805237284
 10
101.3929497359365
 20
-127.2156629456266
 10
101.3929497359365
 20
-127.076136578474
 10
101.2933864764128
 20
-126.923863358026
 10
101.0608425311584
 20
-126.923863358026
 10
100.8048719366043
 20
-126.923863358026
 10
100.7349364982538
 20
-127.103697342356
 10
100.7349364982538
 20
-127.2242756843398
 10
100.7349364982538
 20
-127.2559705628041
 10
100.7349364982538
 20
-127.3975639872478
 10
100.8641275789506
 20
-127.4864474507673
 10
100.8641275789506
 20
-127.4864474507673
 10
100.8451795537818
 20
-127.662147320515
 10
100.8451795537818
 20
-127.662147320515
 10
100.8451795537818
 20
-127.662147320515
 10
99.99871959305588
 20
-127.5415689785313
 10
99.99871959305588
 20
-127.5415689785313
 10
99.99871959305588
 20
-127.5415689785313
 10
99.99871959305588
 20
-126.7629773988648
 10
99.99871959305588
 20
-126.7629773988648
 10
99.99871959305588
 20
-126.7629773988648
 10
100.1933674879725
 20
-126.7629773988648
 10
100.1933674879725
 20
-126.7629773988648
 10
100.1933674879725
 20
-126.7629773988648
 10
100.1933674879725
 20
-127.378615962079
 10
100.1933674879725
 20
-127.378615962079
 10
100.1933674879725
 20
-127.378615962079
 10
100.6164252135612
 20
-127.4440727762987
 10
100.6164252135612
 20
-127.4440727762987
 10
100.5826632778057
 20
-127.3827500766613
 10
100.5423556606283
 20
-127.3004122945638
 10
100.5423556606283
 20
-127.1819010098712
 10
100.5423556606283
 20
-126.9279974726083
 10
100.7287353263803
 20
-126.6909749032231
 10
101.0418945059895
 20
-126.6909749032231
 10
101.359187800181
 20
-126.6909749032231
 10
101.5937988027266
 20
-126.9152506193129
 10
101.5937988027266
 20
-127.2177300029178
 97
        0
 97
        0
 75
     2
 76
     1
 98
        0
  0
ENDBLK
  5
AF
330
AC
100
AcDbEntity
  8
0
100
AcDbBlockEnd
  0
ENDSEC
  0
SECTION
  2
ENTITIES
  0
POLYLINE
  5
41
330
1F
100
AcDbEntity
  8
_U+30EC_U+30A4_U+30E4_U+30FC 1
 62
     7
420
 16777215
370
    25
100
AcDb2dPolyline
 66
     1
 10
0.0
 20
0.0
 30
0.0
  0
VERTEX
  5
42
330
41
100
AcDbEntity
  8
_U+30EC_U+30A4_U+30E4_U+30FC 1
 62
     7
420
 16777215
370
    25
100
AcDbVertex
100
AcDb2dVertex
 10
73.18865174391304
 20
-137.8975171877481
 30
0.0
  0
VERTEX
  5
43
330
41
100
AcDbEntity
  8
_U+30EC_U+30A4_U+30E4_U+30FC 1
 62
     7
420
 16777215
370
    25
100
AcDbVertex
100
AcDb2dVertex
 10
73.18865174391304
 20
-121.3981005252061
 30
0.0
  0
VERTEX
  5
44
330
41
100
AcDbEntity
  8
_U+30EC_U+30A4_U+30E4_U+30FC 1
 62
     7
420
 16777215
370
    25
100
AcDbVertex
100
AcDb2dVertex
 10
98.18902443943374
 20
-121.3981005252061
 30
0.0
  0
VERTEX
  5
45
330
41
100
AcDbEntity
  8
_U+30EC_U+30A4_U+30E4_U+30FC 1
 62
     7
420
 16777215
370
    25
100
AcDbVertex
100
AcDb2dVertex
 10
98.18902443943374
 20
-122.3978727471783
 30
0.0
  0
VERTEX
  5
46
330
41
100
AcDbEntity
  8
_U+30EC_U+30A4_U+30E4_U+30FC 1
 62
     7
420
 16777215
370
    25
100
AcDbVertex
100
AcDb2dVertex
 10
93.18914040032473
 20
-122.3978727471783
 30
0.0
  0
VERTEX
  5
47
330
41
100
AcDbEntity
  8
_U+30EC_U+30A4_U+30E4_U+30FC 1
 62
     7
420
 16777215
370
    25
100
AcDbVertex
100
AcDb2dVertex
 10
92.88906763020246
 20
-122.1930499694517
 30
0.0
  0
VERTEX
  5
48
330
41
100
AcDbEntity
  8
_U+30EC_U+30A4_U+30E4_U+30FC 1
 62
     7
420
 16777215
370
    25
100
AcDbVertex
100
AcDb2dVertex
 10
92.5889971990751
 20
-122.3978727471783
 30
0.0
  0
VERTEX
  5
49
330
41
100
AcDbEntity
  8
_U+30EC_U+30A4_U+30E4_U+30FC 1
 62
     7
420
 16777215
370
    25
100
AcDbVertex
100
AcDb2dVertex
 10
74.18909421838963
 20
-122.3978727471783
 30
0.0
  0
VERTEX
  5
4A
330
41
100
AcDbEntity
  8
_U+30EC_U+30A4_U+30E4_U+30FC 1
 62
     7
420
 16777215
370
    25
100
AcDbVertex
100
AcDb2dVertex
 10
74.18909421838963
 20
-136.8977449657755
 30
0.0
  0
VERTEX
  5
4B
330
41
100
AcDbEntity
  8
_U+30EC_U+30A4_U+30E4_U+30FC 1
 62
     7
420
 16777215
370
    25
100
AcDbVertex
100
AcDb2dVertex
 10
77.18908108629803
 20
-136.8977449657755
 30
0.0
  0
VERTEX
  5
4C
330
41
100
AcDbEntity
  8
_U+30EC_U+30A4_U+30E4_U+30FC 1
 62
     7
420
 16777215
370
    25
100
AcDbVertex
100
AcDb2dVertex
 10
77.18908108629803
 20
-134.8975302440531
 30
0.0
  0
VERTEX
  5
4D
330
41
100
AcDbEntity
  8
_U+30EC_U+30A4_U+30E4_U+30FC 1
 62
     7
420
 16777215
370
    25
100
AcDbVertex
100
AcDb2dVertex
 10
78.18885328301394
 20
-134.8975302440531
 30
0.0
  0
VERTEX
  5
4E
330
41
100
AcDbEntity
  8
_U+30EC_U+30A4_U+30E4_U+30FC 1
 62
     7
420
 16777215
370
    25
100
AcDbVertex
100
AcDb2dVertex
 10
78.18885328301394
 20
-137.8975171877481
 30
0.0
  0
VERTEX
  5
4F
330
41
100
AcDbEntity
  8
_U+30EC_U+30A4_U+30E4_U+30FC 1
 62
     7
420
 16777215
370
    25
100
AcDbVertex
100
AcDb2dVertex
 10
73.18865174391304
 20
-137.8975171877481
 30
0.0
  0
SEQEND
  5
51
330
41
100
AcDbEntity
  8
_U+30EC_U+30A4_U+30E4_U+30FC 1
 62
     7
420
 16777215
370
    25
  0
HATCH
  5
50
330
1F
100
AcDbEntity
  8
_U+30EC_U+30A4_U+30E4_U+30FC 1
 62
   253
420
 11711154
100
AcDbHatch
 10
0.0
 20
0.0
 30
0.0
210
0.0
220
0.0
230
1.0
  2
SOLID
 70
     1
 71
     0
 91
        1
 92
        1
 93
       13
 72
     1
 10
73.18865174391304
 20
-137.8975171877481
 11
73.18865174391304
 21
-121.3981005252061
 72
     1
 10
73.18865174391304
 20
-121.3981005252061
 11
98.18902443943372
 21
-121.3981005252061
 72
     1
 10
98.18902443943374
 20
-121.3981005252061
 11
98.18902443943374
 21
-122.3978727471783
 72
     1
 10
98.18902443943374
 20
-122.3978727471783
 11
93.18914040032475
 21
-122.3978727471783
 72
     1
 10
93.18914040032473
 20
-122.3978727471783
 11
92.88906763020245
 21
-122.1930499694517
 72
     1
 10
92.88906763020246
 20
-122.1930499694517
 11
92.5889971990751
 21
-122.3978727471783
 72
     1
 10
92.5889971990751
 20
-122.3978727471783
 11
74.18909421838964
 21
-122.3978727471783
 72
     1
 10
74.18909421838963
 20
-122.3978727471783
 11
74.18909421838963
 21
-136.8977449657755
 72
     1
 10
74.18909421838963
 20
-136.8977449657755
 11
77.18908108629803
 21
-136.8977449657755
 72
     1
 10
77.18908108629803
 20
-136.8977449657755
 11
77.18908108629803
 21
-134.8975302440531
 72
     1
 10
77.18908108629803
 20
-134.8975302440531
 11
78.18885328301394
 21
-134.8975302440531
 72
     1
 10
78.18885328301394
 20
-134.8975302440531
 11
78.18885328301394
 21
-137.8975171877481
 72
     1
 10
78.18885328301394
 20
-137.8975171877481
 11
73.18865174391304
 21
-137.8975171877481
 97
        0
 75
     2
 76
     1
 98
        0
  0
SPLINE
  5
52
330
1F
100
AcDbEntity
  8
_U+30EC_U+30A4_U+30E4_U+30FC 1
 62
     7
420
 16777215
370
     9
100
AcDbSpline
210
0.0
220
0.0
230
1.0
 70
    11
 71
     3
 72
    17
 73
    13
 74
     0
 42
0.0000000001
 43
0.0000000001
 12
1.0
 22
0.0
 32
0.0
 13
1.0
 23
0.0
 33
0.0
 40
0.0
 40
0.0
 40
0.0
 40
0.0
 40
1.0
 40
1.0
 40
1.0
 40
2.0
 40
2.0
 40
2.0
 40
3.0
 40
3.0
 40
3.0
 40
4.0
 40
4.0
 40
4.0
 40
4.0
 10
73.28887775945542
 20
-141.8979819089698
 30
0.0
 10
73.28887775945542
 20
-141.8421724645394
 30
0.0
 10
73.2441084091649
 20
-141.7973696867727
 30
0.0
 10
73.18865174391304
 20
-141.7973696867727
 30
0.0
 10
73.1335125786531
 20
-141.7973696867727
 30
0.0
 10
73.08874507979522
 20
-141.8421724645394
 30
0.0
 10
73.08874507979522
 20
-141.8979819089698
 30
0.0
 10
73.08874507979522
 20
-141.9530857978448
 30
0.0
 10
73.1335125786531
 20
-141.9978885756115
 30
0.0
 10
73.18865174391304
 20
-141.9978885756115
 30
0.0
 10
73.2441084091649
 20
-141.9978885756115
 30
0.0
 10
73.28887775945542
 20
-141.9530857978448
 30
0.0
 10
73.28887775945542
 20
-141.8979819089698
 30
0.0
  0
SPLINE
  5
53
330
1F
100
AcDbEntity
  8
_U+30EC_U+30A4_U+30E4_U+30FC 1
 62
     7
420
 16777215
370
     9
100
AcDbSpline
210
0.0
220
0.0
230
1.0
 70
    11
 71
     3
 72
    17
 73
    13
 74
     0
 42
0.0000000001
 43
0.0000000001
 12
1.0
 22
0.0
 32
0.0
 13
1.0
 23
0.0
 33
0.0
 40
0.0
 40
0.0
 40
0.0
 40
0.0
 40
1.0
 40
1.0
 40
1.0
 40
2.0
 40
2.0
 40
2.0
 40
3.0
 40
3.0
 40
3.0
 40
4.0
 40
4.0
 40
4.0
 40
4.0
 10
78.28875994713178
 20
-141.8979819089698
 30
0.0
 10
78.28875994713178
 20
-141.8421724645394
 30
0.0
 10
78.24395717049701
 20
-141.7973696867727
 30
0.0
 10
78.18885328301394
 20
-141.7973696867727
 30
0.0
 10
78.133714117754
 20
-141.7973696867727
 30
0.0
 10
78.08894661889612
 20
-141.8421724645394
 30
0.0
 10
78.08894661889612
 20
-141.8979819089698
 30
0.0
 10
78.08894661889612
 20
-141.9530857978448
 30
0.0
 10
78.133714117754
 20
-141.9978885756115
 30
0.0
 10
78.18885328301394
 20
-141.9978885756115
 30
0.0
 10
78.24395717049701
 20
-141.9978885756115
 30
0.0
 10
78.28875994713178
 20
-141.9530857978448
 30
0.0
 10
78.28875994713178
 20
-141.8979819089698
 30
0.0
  0
SPLINE
  5
54
330
1F
100
AcDbEntity
  8
_U+30EC_U+30A4_U+30E4_U+30FC 1
 62
     7
420
 16777215
370
     9
100
AcDbSpline
210
0.0
220
0.0
230
1.0
 70
    11
 71
     3
 72
    17
 73
    13
 74
     0
 42
0.0000000001
 43
0.0000000001
 12
1.0
 22
0.0
 32
0.0
 13
1.0
 23
0.0
 33
0.0
 40
0.0
 40
0.0
 40
0.0
 40
0.0
 40
1.0
 40
1.0
 40
1.0
 40
2.0
 40
2.0
 40
2.0
 40
3.0
 40
3.0
 40
3.0
 40
4.0
 40
4.0
 40
4.0
 40
4.0
 10
102.2890076681678
 20
-137.8975171877481
 30
0.0
 10
102.2890076681678
 20
-137.8424132988725
 30
0.0
 10
102.2442401693099
 20
-137.7976105211064
 30
0.0
 10
102.1887482262812
 20
-137.7976105211064
 30
0.0
 10
102.1336443387981
 20
-137.7976105211064
 30
0.0
 10
102.0888415621633
 20
-137.8424132988725
 30
0.0
 10
102.0888415621633
 20
-137.8975171877481
 30
0.0
 10
102.0888415621633
 20
-137.9526563544005
 30
0.0
 10
102.1336443387981
 20
-137.9974238543897
 30
0.0
 10
102.1887482262812
 20
-137.9974238543897
 30
0.0
 10
102.2442401693099
 20
-137.9974238543897
 30
0.0
 10
102.2890076681678
 20
-137.9526563544005
 30
0.0
 10
102.2890076681678
 20
-137.8975171877481
 30
0.0
  0
SPLINE
  5
55
330
1F
100
AcDbEntity
  8
_U+30EC_U+30A4_U+30E4_U+30FC 1
 62
     7
420
 16777215
370
     9
100
AcDbSpline
210
0.0
220
0.0
230
1.0
 70
    11
 71
     3
 72
    17
 73
    13
 74
     0
 42
0.0000000001
 43
0.0000000001
 12
1.0
 22
0.0
 32
0.0
 13
1.0
 23
0.0
 33
0.0
 40
0.0
 40
0.0
 40
0.0
 40
0.0
 40
1.0
 40
1.0
 40
1.0
 40
2.0
 40
2.0
 40
2.0
 40
3.0
 40
3.0
 40
3.0
 40
4.0
 40
4.0
 40
4.0
 40
4.0
 10
102.2890076681678
 20
-134.8975302440531
 30
0.0
 10
102.2890076681678
 20
-134.8424263551782
 30
0.0
 10
102.2442401693099
 20
-134.7976235774115
 30
0.0
 10
102.1887482262812
 20
-134.7976235774115
 30
0.0
 10
102.1336443387981
 20
-134.7976235774115
 30
0.0
 10
102.0888415621633
 20
-134.8424263551782
 30
0.0
 10
102.0888415621633
 20
-134.8975302440531
 30
0.0
 10
102.0888415621633
 20
-134.9526694107062
 30
0.0
 10
102.1336443387981
 20
-134.9974369106954
 30
0.0
 10
102.1887482262812
 20
-134.9974369106954
 30
0.0
 10
102.2442401693099
 20
-134.9974369106954
 30
0.0
 10
102.2890076681678
 20
-134.9526694107062
 30
0.0
 10
102.2890076681678
 20
-134.8975302440531
 30
0.0
  0
SPLINE
  5
56
330
1F
100
AcDbEntity
  8
_U+30EC_U+30A4_U+30E4_U+30FC 1
 62
     7
420
 16777215
370
     9
100
AcDbSpline
210
0.0
220
0.0
230
1.0
 70
    11
 71
     3
 72
    17
 73
    13
 74
     0
 42
0.0000000001
 43
0.0000000001
 12
1.0
 22
0.0
 32
0.0
 13
1.0
 23
0.0
 33
0.0
 40
0.0
 40
0.0
 40
0.0
 40
0.0
 40
1.0
 40
1.0
 40
1.0
 40
2.0
 40
2.0
 40
2.0
 40
3.0
 40
3.0
 40
3.0
 40
4.0
 40
4.0
 40
4.0
 40
4.0
 10
102.2890076681678
 20
-122.3978727471783
 30
0.0
 10
102.2890076681678
 20
-122.3427335805256
 30
0.0
 10
102.2442401693099
 20
-122.2979660805367
 30
0.0
 10
102.1887482262812
 20
-122.2979660805367
 30
0.0
 10
102.1336443387981
 20
-122.2979660805367
 30
0.0
 10
102.0888415621633
 20
-122.3427335805256
 30
0.0
 10
102.0888415621633
 20
-122.3978727471783
 30
0.0
 10
102.0888415621633
 20
-122.4529766360536
 30
0.0
 10
102.1336443387981
 20
-122.49777941382
 30
0.0
 10
102.1887482262812
 20
-122.49777941382
 30
0.0
 10
102.2442401693099
 20
-122.49777941382
 30
0.0
 10
102.2890076681678
 20
-122.4529766360536
 30
0.0
 10
102.2890076681678
 20
-122.3978727471783
 30
0.0
  0
SPLINE
  5
57
330
1F
100
AcDbEntity
  8
_U+30EC_U+30A4_U+30E4_U+30FC 1
 62
     7
420
 16777215
370
     9
100
AcDbSpline
210
0.0
220
0.0
230
1.0
 70
    11
 71
     3
 72
    17
 73
    13
 74
     0
 42
0.0000000001
 43
0.0000000001
 12
1.0
 22
0.0
 32
0.0
 13
1.0
 23
0.0
 33
0.0
 40
0.0
 40
0.0
 40
0.0
 40
0.0
 40
1.0
 40
1.0
 40
1.0
 40
2.0
 40
2.0
 40
2.0
 40
3.0
 40
3.0
 40
3.0
 40
4.0
 40
4.0
 40
4.0
 40
4.0
 10
102.2890076681678
 20
-121.3981005252061
 30
0.0
 10
102.2890076681678
 20
-121.3426438585531
 30
0.0
 10
102.2442401693099
 20
-121.2978410807867
 30
0.0
 10
102.1887482262812
 20
-121.2978410807867
 30
0.0
 10
102.1336443387981
 20
-121.2978410807867
 30
0.0
 10
102.0888415621633
 20
-121.3426438585531
 30
0.0
 10
102.0888415621633
 20
-121.3981005252061
 30
0.0
 10
102.0888415621633
 20
-121.4532396918589
 30
0.0
 10
102.1336443387981
 20
-121.4980071918477
 30
0.0
 10
102.1887482262812
 20
-121.4980071918477
 30
0.0
 10
102.2442401693099
 20
-121.4980071918477
 30
0.0
 10
102.2890076681678
 20
-121.4532396918589
 30
0.0
 10
102.2890076681678
 20
-121.3981005252061
 30
0.0
  0
SPLINE
  5
58
330
1F
100
AcDbEntity
  8
_U+30EC_U+30A4_U+30E4_U+30FC 1
 62
     7
420
 16777215
370
     9
100
AcDbSpline
210
0.0
220
0.0
230
1.0
 70
    11
 71
     3
 72
    17
 73
    13
 74
     0
 42
0.0000000001
 43
0.0000000001
 12
1.0
 22
0.0
 32
0.0
 13
1.0
 23
0.0
 33
0.0
 40
0.0
 40
0.0
 40
0.0
 40
0.0
 40
1.0
 40
1.0
 40
1.0
 40
2.0
 40
2.0
 40
2.0
 40
3.0
 40
3.0
 40
3.0
 40
4.0
 40
4.0
 40
4.0
 40
4.0
 10
98.28893110355158
 20
-117.3978474706504
 30
0.0
 10
98.28893110355158
 20
-117.3427083039977
 30
0.0
 10
98.24412832691681
 20
-117.2979055262309
 30
0.0
 10
98.18902443943374
 20
-117.2979055262309
 30
0.0
 10
98.13353249640501
 20
-117.2979055262309
 30
0.0
 10
98.08876499754713
 20
-117.3427083039977
 30
0.0
 10
98.08876499754713
 20
-117.3978474706504
 30
0.0
 10
98.08876499754713
 20
-117.4531277484145
 30
0.0
 10
98.13353249640501
 20
-117.4978952484034
 30
0.0
 10
98.18902443943374
 20
-117.4978952484034
 30
0.0
 10
98.24412832691681
 20
-117.4978952484034
 30
0.0
 10
98.28893110355158
 20
-117.4531277484145
 30
0.0
 10
98.28893110355158
 20
-117.3978474706504
 30
0.0
  0
SPLINE
  5
59
330
1F
100
AcDbEntity
  8
_U+30EC_U+30A4_U+30E4_U+30FC 1
 62
     7
420
 16777215
370
     9
100
AcDbSpline
210
0.0
220
0.0
230
1.0
 70
    11
 71
     3
 72
    17
 73
    13
 74
     0
 42
0.0000000001
 43
0.0000000001
 12
1.0
 22
0.0
 32
0.0
 13
1.0
 23
0.0
 33
0.0
 40
0.0
 40
0.0
 40
0.0
 40
0.0
 40
1.0
 40
1.0
 40
1.0
 40
2.0
 40
2.0
 40
2.0
 40
3.0
 40
3.0
 40
3.0
 40
4.0
 40
4.0
 40
4.0
 40
4.0
 10
73.28887775945542
 20
-117.3978474706504
 30
0.0
 10
73.28887775945542
 20
-117.3427083039977
 30
0.0
 10
73.2441084091649
 20
-117.2979055262309
 30
0.0
 10
73.18865174391304
 20
-117.2979055262309
 30
0.0
 10
73.1335125786531
 20
-117.2979055262309
 30
0.0
 10
73.08874507979522
 20
-117.3427083039977
 30
0.0
 10
73.08874507979522
 20
-117.3978474706504
 30
0.0
 10
73.08874507979522
 20
-117.4531277484145
 30
0.0
 10
73.1335125786531
 20
-117.4978952484034
 30
0.0
 10
73.18865174391304
 20
-117.4978952484034
 30
0.0
 10
73.2441084091649
 20
-117.4978952484034
 30
0.0
 10
73.28887775945542
 20
-117.4531277484145
 30
0.0
 10
73.28887775945542
 20
-117.3978474706504
 30
0.0
  0
POLYLINE
  5
5A
330
1F
100
AcDbEntity
  8
_U+30EC_U+30A4_U+30E4_U+30FC 1
 62
     7
420
 16777215
370
     9
100
AcDb2dPolyline
 66
     1
 10
0.0
 20
0.0
 30
0.0
  0
VERTEX
  5
5B
330
5A
100
AcDbEntity
  8
_U+30EC_U+30A4_U+30E4_U+30FC 1
 62
     7
420
 16777215
370
     9
100
AcDbVertex
100
AcDb2dVertex
 10
73.18865174391304
 20
-117.3978474706504
 30
0.0
  0
VERTEX
  5
5C
330
5A
100
AcDbEntity
  8
_U+30EC_U+30A4_U+30E4_U+30FC 1
 62
     7
420
 16777215
370
     9
100
AcDbVertex
100
AcDb2dVertex
 10
98.18902443943374
 20
-117.3978474706504
 30
0.0
  0
SEQEND
  5
5D
330
5A
100
AcDbEntity
  8
_U+30EC_U+30A4_U+30E4_U+30FC 1
 62
     7
420
 16777215
370
     9
  0
POLYLINE
  5
5E
330
1F
100
AcDbEntity
  8
_U+30EC_U+30A4_U+30E4_U+30FC 1
 62
     7
420
 16777215
370
     9
100
AcDb2dPolyline
 66
     1
 10
0.0
 20
0.0
 30
0.0
  0
VERTEX
  5
5F
330
5E
100
AcDbEntity
  8
_U+30EC_U+30A4_U+30E4_U+30FC 1
 62
     7
420
 16777215
370
     9
100
AcDbVertex
100
AcDb2dVertex
 10
73.18865174391304
 20
-118.8576771925077
 30
0.0
  0
VERTEX
  5
60
330
5E
100
AcDbEntity
  8
_U+30EC_U+30A4_U+30E4_U+30FC 1
 62
     7
420
 16777215
370
     9
100
AcDbVertex
100
AcDb2dVertex
 10
73.18865174391304
 20
-116.3978988597893
 30
0.0
  0
SEQEND
  5
61
330
5E
100
AcDbEntity
  8
_U+30EC_U+30A4_U+30E4_U+30FC 1
 62
     7
420
 16777215
370
     9
  0
POLYLINE
  5
62
330
1F
100
AcDbEntity
  8
_U+30EC_U+30A4_U+30E4_U+30FC 1
 62
     7
420
 16777215
370
     9
100
AcDb2dPolyline
 66
     1
 10
0.0
 20
0.0
 30
0.0
  0
VERTEX
  5
63
330
62
100
AcDbEntity
  8
_U+30EC_U+30A4_U+30E4_U+30FC 1
 62
     7
420
 16777215
370
     9
100
AcDbVertex
100
AcDb2dVertex
 10
98.18902443943374
 20
-118.8576771925077
 30
0.0
  0
VERTEX
  5
64
330
62
100
AcDbEntity
  8
_U+30EC_U+30A4_U+30E4_U+30FC 1
 62
     7
420
 16777215
370
     9
100
AcDbVertex
100
AcDb2dVertex
 10
98.18902443943374
 20
-116.3978988597893
 30
0.0
  0
SEQEND
  5
65
330
62
100
AcDbEntity
  8
_U+30EC_U+30A4_U+30E4_U+30FC 1
 62
     7
420
 16777215
370
     9
  0
INSERT
  5
67
330
1F
100
AcDbEntity
  8
_U+30EC_U+30A4_U+30E4_U+30FC 1
100
AcDbBlockReference
  2
block 2
 10
0.0
 20
0.0
 30
0.0
  0
POLYLINE
  5
6E
330
1F
100
AcDbEntity
  8
_U+30EC_U+30A4_U+30E4_U+30FC 1
 62
     7
420
 16777215
370
     9
100
AcDb2dPolyline
 66
     1
 10
0.0
 20
0.0
 30
0.0
  0
VERTEX
  5
6F
330
6E
100
AcDbEntity
  8
_U+30EC_U+30A4_U+30E4_U+30FC 1
 62
     7
420
 16777215
370
     9
100
AcDbVertex
100
AcDb2dVertex
 10
73.18865174391304
 20
-141.8979819089698
 30
0.0
  0
VERTEX
  5
70
330
6E
100
AcDbEntity
  8
_U+30EC_U+30A4_U+30E4_U+30FC 1
 62
     7
420
 16777215
370
     9
100
AcDbVertex
100
AcDb2dVertex
 10
78.18885328301394
 20
-141.8979819089698
 30
0.0
  0
SEQEND
  5
71
330
6E
100
AcDbEntity
  8
_U+30EC_U+30A4_U+30E4_U+30FC 1
 62
     7
420
 16777215
370
     9
  0
POLYLINE
  5
72
330
1F
100
AcDbEntity
  8
_U+30EC_U+30A4_U+30E4_U+30FC 1
 62
     7
420
 16777215
370
     9
100
AcDb2dPolyline
 66
     1
 10
0.0
 20
0.0
 30
0.0
  0
VERTEX
  5
73
330
72
100
AcDbEntity
  8
_U+30EC_U+30A4_U+30E4_U+30FC 1
 62
     7
420
 16777215
370
     9
100
AcDbVertex
100
AcDb2dVertex
 10
73.18865174391304
 20
-140.4379405204461
 30
0.0
  0
VERTEX
  5
74
330
72
100
AcDbEntity
  8
_U+30EC_U+30A4_U+30E4_U+30FC 1
 62
     7
420
 16777215
370
     9
100
AcDbVertex
100
AcDb2dVertex
 10
73.18865174391304
 20
-142.8977541309424
 30
0.0
  0
SEQEND
  5
75
330
72
100
AcDbEntity
  8
_U+30EC_U+30A4_U+30E4_U+30FC 1
 62
     7
420
 16777215
370
     9
  0
POLYLINE
  5
76
330
1F
100
AcDbEntity
  8
_U+30EC_U+30A4_U+30E4_U+30FC 1
 62
     7
420
 16777215
370
     9
100
AcDb2dPolyline
 66
     1
 10
0.0
 20
0.0
 30
0.0
  0
VERTEX
  5
77
330
76
100
AcDbEntity
  8
_U+30EC_U+30A4_U+30E4_U+30FC 1
 62
     7
420
 16777215
370
     9
100
AcDbVertex
100
AcDb2dVertex
 10
78.18885328301394
 20
-140.4379405204461
 30
0.0
  0
VERTEX
  5
78
330
76
100
AcDbEntity
  8
_U+30EC_U+30A4_U+30E4_U+30FC 1
 62
     7
420
 16777215
370
     9
100
AcDbVertex
100
AcDb2dVertex
 10
78.18885328301394
 20
-142.8977541309424
 30
0.0
  0
SEQEND
  5
79
330
76
100
AcDbEntity
  8
_U+30EC_U+30A4_U+30E4_U+30FC 1
 62
     7
420
 16777215
370
     9
  0
INSERT
  5
7B
330
1F
100
AcDbEntity
  8
_U+30EC_U+30A4_U+30E4_U+30FC 1
100
AcDbBlockReference
  2
block 3
 10
0.0
 20
0.0
 30
0.0
  0
POLYLINE
  5
80
330
1F
100
AcDbEntity
  8
_U+30EC_U+30A4_U+30E4_U+30FC 1
 62
     7
420
 16777215
370
     9
100
AcDb2dPolyline
 66
     1
 10
0.0
 20
0.0
 30
0.0
  0
VERTEX
  5
81
330
80
100
AcDbEntity
  8
_U+30EC_U+30A4_U+30E4_U+30FC 1
 62
     7
420
 16777215
370
     9
100
AcDbVertex
100
AcDb2dVertex
 10
102.1887482262812
 20
-121.3981005252061
 30
0.0
  0
VERTEX
  5
82
330
80
100
AcDbEntity
  8
_U+30EC_U+30A4_U+30E4_U+30FC 1
 62
     7
420
 16777215
370
     9
100
AcDbVertex
100
AcDb2dVertex
 10
102.1887482262812
 20
-117.6276116372598
 30
0.0
  0
SEQEND
  5
83
330
80
100
AcDbEntity
  8
_U+30EC_U+30A4_U+30E4_U+30FC 1
 62
     7
420
 16777215
370
     9
  0
POLYLINE
  5
84
330
1F
100
AcDbEntity
  8
_U+30EC_U+30A4_U+30E4_U+30FC 1
 62
     7
420
 16777215
370
     9
100
AcDb2dPolyline
 66
     1
 10
0.0
 20
0.0
 30
0.0
  0
VERTEX
  5
85
330
84
100
AcDbEntity
  8
_U+30EC_U+30A4_U+30E4_U+30FC 1
 62
     7
420
 16777215
370
     9
100
AcDbVertex
100
AcDb2dVertex
 10
102.1887482262812
 20
-121.3981005252061
 30
0.0
  0
VERTEX
  5
86
330
84
100
AcDbEntity
  8
_U+30EC_U+30A4_U+30E4_U+30FC 1
 62
     7
420
 16777215
370
     9
100
AcDbVertex
100
AcDb2dVertex
 10
102.1887482262812
 20
-122.3978727471783
 30
0.0
  0
SEQEND
  5
87
330
84
100
AcDbEntity
  8
_U+30EC_U+30A4_U+30E4_U+30FC 1
 62
     7
420
 16777215
370
     9
  0
POLYLINE
  5
88
330
1F
100
AcDbEntity
  8
_U+30EC_U+30A4_U+30E4_U+30FC 1
 62
     7
420
 16777215
370
     9
100
AcDb2dPolyline
 66
     1
 10
0.0
 20
0.0
 30
0.0
  0
VERTEX
  5
89
330
88
100
AcDbEntity
  8
_U+30EC_U+30A4_U+30E4_U+30FC 1
 62
     7
420
 16777215
370
     9
100
AcDbVertex
100
AcDb2dVertex
 10
100.7287421524179
 20
-121.3981005252061
 30
0.0
  0
VERTEX
  5
8A
330
88
100
AcDbEntity
  8
_U+30EC_U+30A4_U+30E4_U+30FC 1
 62
     7
420
 16777215
370
     9
100
AcDbVertex
100
AcDb2dVertex
 10
103.1888732007659
 20
-121.3981005252061
 30
0.0
  0
SEQEND
  5
8B
330
88
100
AcDbEntity
  8
_U+30EC_U+30A4_U+30E4_U+30FC 1
 62
     7
420
 16777215
370
     9
  0
POLYLINE
  5
8C
330
1F
100
AcDbEntity
  8
_U+30EC_U+30A4_U+30E4_U+30FC 1
 62
     7
420
 16777215
370
     9
100
AcDb2dPolyline
 66
     1
 10
0.0
 20
0.0
 30
0.0
  0
VERTEX
  5
8D
330
8C
100
AcDbEntity
  8
_U+30EC_U+30A4_U+30E4_U+30FC 1
 62
     7
420
 16777215
370
     9
100
AcDbVertex
100
AcDb2dVertex
 10
100.7287421524179
 20
-122.3978727471783
 30
0.0
  0
VERTEX
  5
8E
330
8C
100
AcDbEntity
  8
_U+30EC_U+30A4_U+30E4_U+30FC 1
 62
     7
420
 16777215
370
     9
100
AcDbVertex
100
AcDb2dVertex
 10
103.1888732007659
 20
-122.3978727471783
 30
0.0
  0
SEQEND
  5
8F
330
8C
100
AcDbEntity
  8
_U+30EC_U+30A4_U+30E4_U+30FC 1
 62
     7
420
 16777215
370
     9
  0
INSERT
  5
91
330
1F
100
AcDbEntity
  8
_U+30EC_U+30A4_U+30E4_U+30FC 1
100
AcDbBlockReference
  2
block 4
 10
0.0
 20
0.0
 30
0.0
  0
POLYLINE
  5
96
330
1F
100
AcDbEntity
  8
_U+30EC_U+30A4_U+30E4_U+30FC 1
 62
     7
420
 16777215
370
     9
100
AcDb2dPolyline
 66
     1
 10
0.0
 20
0.0
 30
0.0
  0
VERTEX
  5
97
330
96
100
AcDbEntity
  8
_U+30EC_U+30A4_U+30E4_U+30FC 1
 62
     7
420
 16777215
370
     9
100
AcDbVertex
100
AcDb2dVertex
 10
102.1887482262812
 20
-137.8975171877481
 30
0.0
  0
VERTEX
  5
98
330
96
100
AcDbEntity
  8
_U+30EC_U+30A4_U+30E4_U+30FC 1
 62
     7
420
 16777215
370
     9
100
AcDbVertex
100
AcDb2dVertex
 10
102.1887482262812
 20
-134.8975302440531
 30
0.0
  0
SEQEND
  5
99
330
96
100
AcDbEntity
  8
_U+30EC_U+30A4_U+30E4_U+30FC 1
 62
     7
420
 16777215
370
     9
  0
POLYLINE
  5
9A
330
1F
100
AcDbEntity
  8
_U+30EC_U+30A4_U+30E4_U+30FC 1
 62
     7
420
 16777215
370
     9
100
AcDb2dPolyline
 66
     1
 10
0.0
 20
0.0
 30
0.0
  0
VERTEX
  5
9B
330
9A
100
AcDbEntity
  8
_U+30EC_U+30A4_U+30E4_U+30FC 1
 62
     7
420
 16777215
370
     9
100
AcDbVertex
100
AcDb2dVertex
 10
80.72892377376691
 20
-137.8975171877481
 30
0.0
  0
VERTEX
  5
9C
330
9A
100
AcDbEntity
  8
_U+30EC_U+30A4_U+30E4_U+30FC 1
 62
     7
420
 16777215
370
     9
100
AcDbVertex
100
AcDb2dVertex
 10
103.1888732007659
 20
-137.8975171877481
 30
0.0
  0
SEQEND
  5
9D
330
9A
100
AcDbEntity
  8
_U+30EC_U+30A4_U+30E4_U+30FC 1
 62
     7
420
 16777215
370
     9
  0
INSERT
  5
9F
330
1F
100
AcDbEntity
  8
_U+30EC_U+30A4_U+30E4_U+30FC 1
100
AcDbBlockReference
  2
block 5
 10
0.0
 20
0.0
 30
0.0
  0
POLYLINE
  5
A4
330
1F
100
AcDbEntity
  8
_U+30EC_U+30A4_U+30E4_U+30FC 1
 62
     7
420
 16777215
370
     9
100
AcDb2dPolyline
 66
     1
 10
0.0
 20
0.0
 30
0.0
  0
VERTEX
  5
A5
330
A4
100
AcDbEntity
  8
_U+30EC_U+30A4_U+30E4_U+30FC 1
 62
     7
420
 16777215
370
     9
100
AcDbVertex
100
AcDb2dVertex
 10
102.1887482262812
 20
-134.8975302440531
 30
0.0
  0
VERTEX
  5
A6
330
A4
100
AcDbEntity
  8
_U+30EC_U+30A4_U+30E4_U+30FC 1
 62
     7
420
 16777215
370
     9
100
AcDbVertex
100
AcDb2dVertex
 10
102.1887482262812
 20
-122.3978727471783
 30
0.0
  0
SEQEND
  5
A7
330
A4
100
AcDbEntity
  8
_U+30EC_U+30A4_U+30E4_U+30FC 1
 62
     7
420
 16777215
370
     9
  0
POLYLINE
  5
A8
330
1F
100
AcDbEntity
  8
_U+30EC_U+30A4_U+30E4_U+30FC 1
 62
     7
420
 16777215
370
     9
100
AcDb2dPolyline
 66
     1
 10
0.0
 20
0.0
 30
0.0
  0
VERTEX
  5
A9
330
A8
100
AcDbEntity
  8
_U+30EC_U+30A4_U+30E4_U+30FC 1
 62
     7
420
 16777215
370
     9
100
AcDbVertex
100
AcDb2dVertex
 10
80.72892377376691
 20
-134.8975302440531
 30
0.0
  0
VERTEX
  5
AA
330
A8
100
AcDbEntity
  8
_U+30EC_U+30A4_U+30E4_U+30FC 1
 62
     7
420
 16777215
370
     9
100
AcDbVertex
100
AcDb2dVertex
 10
103.1888732007659
 20
-134.8975302440531
 30
0.0
  0
SEQEND
  5
AB
330
A8
100
AcDbEntity
  8
_U+30EC_U+30A4_U+30E4_U+30FC 1
 62
     7
420
 16777215
370
     9
  0
INSERT
  5
AD
330
1F
100
AcDbEntity
  8
_U+30EC_U+30A4_U+30E4_U+30FC 1
100
AcDbBlockReference
  2
block 6
 10
0.0
 20
0.0
 30
0.0
  0
ENDSEC
  0
SECTION
  2
OBJECTS
  0
DICTIONARY
  5
C
330
0
100
AcDbDictionary
281
     1
  3
ACAD_GROUP
350
D
  3
ACAD_LAYOUT
350
1A
  3
ACAD_MATERIAL
350
3B
  3
ACAD_MLEADERSTYLE
350
BF
  3
ACAD_MLINESTYLE
350
17
  3
ACAD_PLOTSETTINGS
350
19
  3
ACAD_PLOTSTYLENAME
350
E
  3
ACAD_TABLESTYLE
350
BE
  3
ACAD_VISUALSTYLE
350
2A
  0
SUN
  5
3F
330
29
100
AcDbSun
 90
        1
290
     0
 63
     7
421
 16777215
 40
1.0
291
     1
 91
  2455826
 92
 54000000
292
     0
 70
     2
 71
   256
280
     1
  0
DICTIONARY
  5
D
102
{ACAD_REACTORS
330
C
102
}
330
C
100
AcDbDictionary
281
     1
  0
DICTIONARY
  5
1A
102
{ACAD_REACTORS
330
C
102
}
330
C
100
AcDbDictionary
281
     1
  3
Layout1
350
1E
  3
Layout2
350
26
  3
Model
350
22
  0
DICTIONARY
  5
3B
102
{ACAD_REACTORS
330
C
102
}
330
C
100
AcDbDictionary
281
     1
  3
ByBlock
350
3D
  3
ByLayer
350
3C
  3
Global
350
3E
  0
DICTIONARY
  5
BF
102
{ACAD_REACTORS
330
C
102
}
330
C
100
AcDbDictionary
281
     1
  0
DICTIONARY
  5
17
102
{ACAD_REACTORS
330
C
102
}
330
C
100
AcDbDictionary
281
     1
  3
Standard
350
18
  0
DICTIONARY
  5
19
102
{ACAD_REACTORS
330
C
102
}
330
C
100
AcDbDictionary
281
     1
  0
ACDBDICTIONARYWDFLT
  5
E
102
{ACAD_REACTORS
330
C
102
}
330
C
100
AcDbDictionary
281
     1
  3
Normal
350
F
100
AcDbDictionaryWithDefault
340
F
  0
DICTIONARY
  5
BE
102
{ACAD_REACTORS
330
C
102
}
330
C
100
AcDbDictionary
281
     1
  0
DICTIONARY
  5
2A
102
{ACAD_REACTORS
330
C
102
}
330
C
100
AcDbDictionary
281
     1
  3
2dWireframe
350
2F
  3
3D Hidden
350
31
  3
3dWireframe
350
30
  3
Basic
350
32
  3
Brighten
350
36
  3
ColorChange
350
3A
  3
Conceptual
350
34
  3
Dim
350
35
  3
Facepattern
350
39
  3
Flat
350
2B
  3
FlatWithEdges
350
2C
  3
Gouraud
350
2D
  3
GouraudWithEdges
350
2E
  3
Linepattern
350
38
  3
Realistic
350
33
  3
Thicken
350
37
  0
LAYOUT
  5
1E
102
{ACAD_REACTORS
330
1A
102
}
330
1A
100
AcDbPlotSettings
  1

  2
none_device
  4

  6

 40
0.0
 41
0.0
 42
0.0
 43
0.0
 44
0.0
 45
0.0
 46
0.0
 47
0.0
 48
0.0
 49
0.0
140
0.0
141
0.0
142
1.0
143
1.0
 70
   688
 72
     0
 73
     0
 74
     5
  7

 75
    16
 76
     0
 77
     2
 78
   300
147
1.0
148
0.0
149
0.0
100
AcDbLayout
  1
Layout1
 70
     1
 71
     1
 10
0.0
 20
0.0
 11
12.0
 21
9.0
 12
0.0
 22
0.0
 32
0.0
 14
1.000000000000000E+20
 24
1.000000000000000E+20
 34
1.000000000000000E+20
 15
-1.000000000000000E+20
 25
-1.000000000000000E+20
 35
-1.000000000000000E+20
146
0.0
 13
0.0
 23
0.0
 33
0.0
 16
1.0
 26
0.0
 36
0.0
 17
0.0
 27
1.0
 37
0.0
 76
     0
330
1B
  0
LAYOUT
  5
26
102
{ACAD_REACTORS
330
1A
102
}
330
1A
100
AcDbPlotSettings
  1

  2
none_device
  4

  6

 40
0.0
 41
0.0
 42
0.0
 43
0.0
 44
0.0
 45
0.0
 46
0.0
 47
0.0
 48
0.0
 49
0.0
140
0.0
141
0.0
142
1.0
143
1.0
 70
   688
 72
     0
 73
     0
 74
     5
  7

 75
    16
 76
     0
 77
     2
 78
   300
147
1.0
148
0.0
149
0.0
100
AcDbLayout
  1
Layout2
 70
     1
 71
     2
 10
0.0
 20
0.0
 11
0.0
 21
0.0
 12
0.0
 22
0.0
 32
0.0
 14
0.0
 24
0.0
 34
0.0
 15
0.0
 25
0.0
 35
0.0
146
0.0
 13
0.0
 23
0.0
 33
0.0
 16
1.0
 26
0.0
 36
0.0
 17
0.0
 27
1.0
 37
0.0
 76
     0
330
23
  0
LAYOUT
  5
22
102
{ACAD_REACTORS
330
1A
102
}
330
1A
100
AcDbPlotSettings
  1

  2
none_device
  4

  6

 40
0.0
 41
0.0
 42
0.0
 43
0.0
 44
0.0
 45
0.0
 46
0.0
 47
0.0
 48
0.0
 49
0.0
140
0.0
141
0.0
142
1.0
143
1.0
 70
  1712
 72
     0
 73
     0
 74
     0
  7

 75
     0
 76
     0
 77
     2
 78
   300
147
1.0
148
0.0
149
0.0
100
AcDbLayout
  1
Model
 70
     1
 71
     0
 10
0.0
 20
0.0
 11
12.0
 21
9.0
 12
0.0
 22
0.0
 32
0.0
 14
1.000000000000000E+20
 24
1.000000000000000E+20
 34
1.000000000000000E+20
 15
-1.000000000000000E+20
 25
-1.000000000000000E+20
 35
-1.000000000000000E+20
146
0.0
 13
0.0
 23
0.0
 33
0.0
 16
1.0
 26
0.0
 36
0.0
 17
0.0
 27
1.0
 37
0.0
 76
     0
330
1F
331
29
  0
MATERIAL
  5
3D
102
{ACAD_REACTORS
330
3B
102
}
330
3B
100
AcDbMaterial
  1
ByBlock
 72
     1
 94
      127
  0
MATERIAL
  5
3C
102
{ACAD_REACTORS
330
3B
102
}
330
3B
100
AcDbMaterial
  1
ByLayer
 72
     1
 94
      127
  0
MATERIAL
  5
3E
102
{ACAD_REACTORS
330
3B
102
}
330
3B
100
AcDbMaterial
  1
Global
 72
     1
 94
      127
  0
MLINESTYLE
  5
18
102
{ACAD_REACTORS
330
17
102
}
330
17
100
AcDbMlineStyle
  2
Standard
 70
     0
  3

 62
   256
 51
90.0
 52
90.0
 71
     2
 49
0.5
 62
   256
  6
BYLAYER
 49
-0.5
 62
   256
  6
BYLAYER
  0
ACDBPLACEHOLDER
  5
F
102
{ACAD_REACTORS
330
E
102
}
330
E
  0
VISUALSTYLE
  5
2F
102
{ACAD_REACTORS
330
2A
102
}
330
2A
100
AcDbVisualStyle
  2
2dWireframe
 70
     4
177
     2
291
     0
 71
     0
176
     1
 72
     2
176
     1
 73
     0
176
     1
 90
        0
176
     1
 40
-0.6
176
     1
 41
-30.0
176
     1
 62
     5
 63
     7
421
 16777215
176
     1
 74
     1
176
     1
 91
        4
176
     1
 64
     7
176
     1
 65
   257
176
     1
 75
     1
176
     1
175
     1
176
     1
 42
1.0
176
     1
 92
        0
176
     1
 66
   257
176
     1
 43
1.0
176
     1
 76
     1
176
     1
 77
     6
176
     1
 78
     2
176
     1
 67
     7
176
     1
 79
     5
176
     1
170
     0
176
     1
171
     0
176
     1
290
     0
176
     1
 93
        1
176
     1
 44
0.0
176
     1
173
     0
176
     1
  0
VISUALSTYLE
  5
31
102
{ACAD_REACTORS
330
2A
102
}
330
2A
100
AcDbVisualStyle
  2
3D Hidden
 70
     6
177
     2
291
     0
 71
     1
176
     1
 72
     2
176
     1
 73
     2
176
     1
 90
        0
176
     1
 40
-0.6
176
     1
 41
-30.0
176
     1
 62
     5
 63
     7
421
 16777215
176
     1
 74
     2
176
     1
 91
        2
176
     1
 64
     7
176
     1
 65
   257
176
     1
 75
     2
176
     1
175
     1
176
     1
 42
40.0
176
     1
 92
        0
176
     1
 66
   257
176
     1
 43
1.0
176
     1
 76
     1
176
     1
 77
     6
176
     1
 78
     2
176
     1
 67
     7
176
     1
 79
     3
176
     1
170
     0
176
     1
171
     0
176
     1
290
     0
176
     1
 93
        1
176
     1
 44
0.0
176
     1
173
     0
176
     1
  0
VISUALSTYLE
  5
30
102
{ACAD_REACTORS
330
2A
102
}
330
2A
100
AcDbVisualStyle
  2
3dWireframe
 70
     5
177
     2
291
     0
 71
     0
176
     1
 72
     2
176
     1
 73
     0
176
     1
 90
        0
176
     1
 40
-0.6
176
     1
 41
-30.0
176
     1
 62
     5
 63
     7
421
 16777215
176
     1
 74
     1
176
     1
 91
        4
176
     1
 64
     7
176
     1
 65
   257
176
     1
 75
     1
176
     1
175
     1
176
     1
 42
1.0
176
     1
 92
        0
176
     1
 66
   257
176
     1
 43
1.0
176
     1
 76
     1
176
     1
 77
     6
176
     1
 78
     2
176
     1
 67
     7
176
     1
 79
     5
176
     1
170
     0
176
     1
171
     0
176
     1
290
     0
176
     1
 93
        1
176
     1
 44
0.0
176
     1
173
     0
176
     1
  0
VISUALSTYLE
  5
32
102
{ACAD_REACTORS
330
2A
102
}
330
2A
100
AcDbVisualStyle
  2
Basic
 70
     7
177
     2
291
     1
 71
     1
176
     1
 72
     0
176
     1
 73
     1
176
     1
 90
        0
176
     1
 40
-0.6
176
     1
 41
-30.0
176
     1
 62
     5
 63
     7
421
 16777215
176
     1
 74
     0
176
     1
 91
        4
176
     1
 64
     7
176
     1
 65
   257
176
     1
 75
     1
176
     1
175
     1
176
     1
 42
1.0
176
     1
 92
        8
176
     1
 66
     7
176
     1
 43
1.0
176
     1
 76
     1
176
     1
 77
     6
176
     1
 78
     2
176
     1
 67
     7
176
     1
 79
     5
176
     1
170
     0
176
     1
171
     0
176
     1
290
     0
176
     1
 93
        1
176
     1
 44
0.0
176
     1
173
     0
176
     1
  0
VISUALSTYLE
  5
36
102
{ACAD_REACTORS
330
2A
102
}
330
2A
100
AcDbVisualStyle
  2
Brighten
 70
    12
177
     2
291
     1
 71
     2
176
     1
 72
     2
176
     1
 73
     0
176
     1
 90
        0
176
     1
 40
-0.6
176
     1
 41
-30.0
176
     1
 62
     5
 63
     7
421
 16777215
176
     1
 74
     1
176
     1
 91
        4
176
     1
 64
     7
176
     1
 65
   257
176
     1
 75
     1
176
     1
175
     1
176
     1
 42
1.0
176
     1
 92
        8
176
     1
 66
     7
176
     1
 43
1.0
176
     1
 76
     1
176
     1
 77
     6
176
     1
 78
     2
176
     1
 67
     7
176
     1
 79
     5
176
     1
170
     0
176
     1
171
     0
176
     1
290
     0
176
     1
 93
        1
176
     1
 44
50.0
176
     1
173
     0
176
     1
  0
VISUALSTYLE
  5
3A
102
{ACAD_REACTORS
330
2A
102
}
330
2A
100
AcDbVisualStyle
  2
ColorChange
 70
    16
177
     2
291
     1
 71
     2
176
     1
 72
     2
176
     1
 73
     3
176
     1
 90
        0
176
     1
 40
-0.6
176
     1
 41
-30.0
176
     1
 62
     5
 63
     8
421
  8421504
176
     1
 74
     1
176
     1
 91
        4
176
     1
 64
     7
176
     1
 65
   257
176
     1
 75
     1
176
     1
175
     1
176
     1
 42
1.0
176
     1
 92
        8
176
     1
 66
     8
424
  8421504
176
     1
 43
1.0
176
     1
 76
     1
176
     1
 77
     6
176
     1
 78
     2
176
     1
 67
     7
176
     1
 79
     5
176
     1
170
     0
176
     1
171
     0
176
     1
290
     0
176
     1
 93
        1
176
     1
 44
0.0
176
     1
173
     0
176
     1
  0
VISUALSTYLE
  5
34
102
{ACAD_REACTORS
330
2A
102
}
330
2A
100
AcDbVisualStyle
  2
Conceptual
 70
     9
177
     2
291
     0
 71
     3
176
     1
 72
     2
176
     1
 73
     0
176
     1
 90
        0
176
     1
 40
-0.6
176
     1
 41
-30.0
176
     1
 62
     5
 63
     7
421
 16777215
176
     1
 74
     2
176
     1
 91
        2
176
     1
 64
     7
176
     1
 65
   257
176
     1
 75
     1
176
     1
175
     1
176
     1
 42
40.0
176
     1
 92
        8
176
     1
 66
     7
176
     1
 43
1.0
176
     1
 76
     1
176
     1
 77
     6
176
     1
 78
     2
176
     1
 67
     7
176
     1
 79
     3
176
     1
170
     0
176
     1
171
     0
176
     1
290
     0
176
     1
 93
        1
176
     1
 44
0.0
176
     1
173
     0
176
     1
  0
VISUALSTYLE
  5
35
102
{ACAD_REACTORS
330
2A
102
}
330
2A
100
AcDbVisualStyle
  2
Dim
 70
    11
177
     2
291
     1
 71
     2
176
     1
 72
     2
176
     1
 73
     0
176
     1
 90
        0
176
     1
 40
-0.6
176
     1
 41
-30.0
176
     1
 62
     5
 63
     7
421
 16777215
176
     1
 74
     1
176
     1
 91
        4
176
     1
 64
     7
176
     1
 65
   257
176
     1
 75
     1
176
     1
175
     1
176
     1
 42
1.0
176
     1
 92
        8
176
     1
 66
     7
176
     1
 43
1.0
176
     1
 76
     1
176
     1
 77
     6
176
     1
 78
     2
176
     1
 67
     7
176
     1
 79
     5
176
     1
170
     0
176
     1
171
     0
176
     1
290
     0
176
     1
 93
        1
176
     1
 44
-50.0
176
     1
173
     0
176
     1
  0
VISUALSTYLE
  5
39
102
{ACAD_REACTORS
330
2A
102
}
330
2A
100
AcDbVisualStyle
  2
Facepattern
 70
    15
177
     2
291
     1
 71
     2
176
     1
 72
     2
176
     1
 73
     0
176
     1
 90
        0
176
     1
 40
-0.6
176
     1
 41
-30.0
176
     1
 62
     5
 63
     7
421
 16777215
176
     1
 74
     1
176
     1
 91
        4
176
     1
 64
     7
176
     1
 65
   257
176
     1
 75
     1
176
     1
175
     1
176
     1
 42
1.0
176
     1
 92
        8
176
     1
 66
     7
176
     1
 43
1.0
176
     1
 76
     1
176
     1
 77
     6
176
     1
 78
     2
176
     1
 67
     7
176
     1
 79
     5
176
     1
170
     0
176
     1
171
     0
176
     1
290
     0
176
     1
 93
        1
176
     1
 44
0.0
176
     1
173
     0
176
     1
  0
VISUALSTYLE
  5
2B
102
{ACAD_REACTORS
330
2A
102
}
330
2A
100
AcDbVisualStyle
  2
Flat
 70
     0
177
     2
291
     1
 71
     2
176
     1
 72
     1
176
     1
 73
     1
176
     1
 90
        2
176
     1
 40
-0.6
176
     1
 41
30.0
176
     1
 62
     5
 63
     7
421
 16777215
176
     1
 74
     0
176
     1
 91
        4
176
     1
 64
     7
176
     1
 65
   257
176
     1
 75
     1
176
     1
175
     1
176
     1
 42
1.0
176
     1
 92
        8
176
     1
 66
     7
176
     1
 43
1.0
176
     1
 76
     1
176
     1
 77
     6
176
     1
 78
     2
176
     1
 67
     7
176
     1
 79
     5
176
     1
170
     0
176
     1
171
     0
176
     1
290
     0
176
     1
 93
       13
176
     1
 44
0.0
176
     1
173
     0
176
     1
  0
VISUALSTYLE
  5
2C
102
{ACAD_REACTORS
330
2A
102
}
330
2A
100
AcDbVisualStyle
  2
FlatWithEdges
 70
     1
177
     2
291
     1
 71
     2
176
     1
 72
     1
176
     1
 73
     1
176
     1
 90
        2
176
     1
 40
-0.6
176
     1
 41
30.0
176
     1
 62
     5
 63
     7
421
 16777215
176
     1
 74
     1
176
     1
 91
        4
176
     1
 64
     7
176
     1
 65
   257
176
     1
 75
     1
176
     1
175
     1
176
     1
 42
1.0
176
     1
 92
        0
176
     1
 66
   257
176
     1
 43
1.0
176
     1
 76
     1
176
     1
 77
     6
176
     1
 78
     2
176
     1
 67
     7
176
     1
 79
     5
176
     1
170
     0
176
     1
171
     0
176
     1
290
     0
176
     1
 93
       13
176
     1
 44
0.0
176
     1
173
     0
176
     1
  0
VISUALSTYLE
  5
2D
102
{ACAD_REACTORS
330
2A
102
}
330
2A
100
AcDbVisualStyle
  2
Gouraud
 70
     2
177
     2
291
     1
 71
     2
176
     1
 72
     2
176
     1
 73
     1
176
     1
 90
        2
176
     1
 40
-0.6
176
     1
 41
30.0
176
     1
 62
     5
 63
     7
421
 16777215
176
     1
 74
     0
176
     1
 91
        4
176
     1
 64
     7
176
     1
 65
   257
176
     1
 75
     1
176
     1
175
     1
176
     1
 42
1.0
176
     1
 92
        0
176
     1
 66
     7
176
     1
 43
1.0
176
     1
 76
     1
176
     1
 77
     6
176
     1
 78
     2
176
     1
 67
     7
176
     1
 79
     5
176
     1
170
     0
176
     1
171
     0
176
     1
290
     0
176
     1
 93
       13
176
     1
 44
0.0
176
     1
173
     0
176
     1
  0
VISUALSTYLE
  5
2E
102
{ACAD_REACTORS
330
2A
102
}
330
2A
100
AcDbVisualStyle
  2
GouraudWithEdges
 70
     3
177
     2
291
     1
 71
     2
176
     1
 72
     2
176
     1
 73
     1
176
     1
 90
        2
176
     1
 40
-0.6
176
     1
 41
30.0
176
     1
 62
     5
 63
     7
421
 16777215
176
     1
 74
     1
176
     1
 91
        4
176
     1
 64
     7
176
     1
 65
   257
176
     1
 75
     1
176
     1
175
     1
176
     1
 42
1.0
176
     1
 92
        0
176
     1
 66
   257
176
     1
 43
1.0
176
     1
 76
     1
176
     1
 77
     6
176
     1
 78
     2
176
     1
 67
     7
176
     1
 79
     5
176
     1
170
     0
176
     1
171
     0
176
     1
290
     0
176
     1
 93
       13
176
     1
 44
0.0
176
     1
173
     0
176
     1
  0
VISUALSTYLE
  5
38
102
{ACAD_REACTORS
330
2A
102
}
330
2A
100
AcDbVisualStyle
  2
Linepattern
 70
    14
177
     2
291
     1
 71
     2
176
     1
 72
     2
176
     1
 73
     0
176
     1
 90
        0
176
     1
 40
-0.6
176
     1
 41
-30.0
176
     1
 62
     5
 63
     7
421
 16777215
176
     1
 74
     1
176
     1
 91
        4
176
     1
 64
     7
176
     1
 65
   257
176
     1
 75
     7
176
     1
175
     7
176
     1
 42
1.0
176
     1
 92
        8
176
     1
 66
     7
176
     1
 43
1.0
176
     1
 76
     1
176
     1
 77
     6
176
     1
 78
     2
176
     1
 67
     7
176
     1
 79
     5
176
     1
170
     0
176
     1
171
     0
176
     1
290
     0
176
     1
 93
        1
176
     1
 44
0.0
176
     1
173
     0
176
     1
  0
VISUALSTYLE
  5
33
102
{ACAD_REACTORS
330
2A
102
}
330
2A
100
AcDbVisualStyle
  2
Realistic
 70
     8
177
     2
291
     0
 71
     2
176
     1
 72
     2
176
     1
 73
     0
176
     1
 90
        0
176
     1
 40
-0.6
176
     1
 41
-30.0
176
     1
 62
     5
 63
     7
421
 16777215
176
     1
 74
     1
176
     1
 91
        0
176
     1
 64
     7
176
     1
 65
   257
176
     1
 75
     1
176
     1
175
     1
176
     1
 42
1.0
176
     1
 92
        8
176
     1
 66
     8
424
  7895160
176
     1
 43
1.0
176
     1
 76
     1
176
     1
 77
     6
176
     1
 78
     2
176
     1
 67
     7
176
     1
 79
     5
176
     1
170
     0
176
     1
171
     0
176
     1
290
     0
176
     1
 93
       13
176
     1
 44
0.0
176
     1
173
     0
176
     1
  0
VISUALSTYLE
  5
37
102
{ACAD_REACTORS
330
2A
102
}
330
2A
100
AcDbVisualStyle
  2
Thicken
 70
    13
177
     2
291
     1
 71
     2
176
     1
 72
     2
176
     1
 73
     0
176
     1
 90
        0
176
     1
 40
-0.6
176
     1
 41
-30.0
176
     1
 62
     5
 63
     7
421
 16777215
176
     1
 74
     1
176
     1
 91
        4
176
     1
 64
     7
176
     1
 65
   257
176
     1
 75
     1
176
     1
175
     1
176
     1
 42
1.0
176
     1
 92
       12
176
     1
 66
     7
176
     1
 43
1.0
176
     1
 76
     1
176
     1
 77
     6
176
     1
 78
     2
176
     1
 67
     7
176
     1
 79
     5
176
     1
170
     0
176
     1
171
     0
176
     1
290
     0
176
     1
 93
        1
176
     1
 44
0.0
176
     1
173
     0
176
     1
  0
ENDSEC
  0
EOF
