  0
SECTION
  2
HEADER
  9
$ACADVER
  1
AC1024
  9
$ACADMAINTVER
 70
     6
  9
$DWGCODEPAGE
  3
UNDEFINED
  9
$INSBASE
 10
0.0
 20
0.0
 30
0.0
  9
$EXTMIN
 10
1.000000000000000E+20
 20
1.000000000000000E+20
 30
1.000000000000000E+20
  9
$EXTMAX
 10
-1.000000000000000E+20
 20
-1.000000000000000E+20
 30
-1.000000000000000E+20
  9
$LIMMIN
 10
0.0
 20
0.0
  9
$LIMMAX
 10
12.0
 20
9.0
  9
$ORTHOMODE
 70
     0
  9
$REGENMODE
 70
     1
  9
$FILLMODE
 70
     1
  9
$QTEXTMODE
 70
     0
  9
$MIRRTEXT
 70
     1
  9
$LTSCALE
 40
1.0
  9
$ATTMODE
 70
     1
  9
$TEXTSIZE
 40
0.2
  9
$TRACEWID
 40
0.05
  9
$TEXTSTYLE
  7
Standard
  9
$CLAYER
  8
0
  9
$CELTYPE
  6
ByLayer
  9
$CECOLOR
 62
   256
  9
$CELTSCALE
 40
1.0
  9
$DISPSILH
 70
     0
  9
$DIMSCALE
 40
1.0
  9
$DIMASZ
 40
0.18
  9
$DIMEXO
 40
0.0625
  9
$DIMDLI
 40
0.38
  9
$DIMRND
 40
0.0
  9
$DIMDLE
 40
0.0
  9
$DIMEXE
 40
0.18
  9
$DIMTP
 40
0.0
  9
$DIMTM
 40
0.0
  9
$DIMTXT
 40
0.18
  9
$DIMCEN
 40
0.09
  9
$DIMTSZ
 40
0.0
  9
$DIMTOL
 70
     0
  9
$DIMLIM
 70
     0
  9
$DIMTIH
 70
     1
  9
$DIMTOH
 70
     1
  9
$DIMSE1
 70
     0
  9
$DIMSE2
 70
     0
  9
$DIMTAD
 70
     0
  9
$DIMZIN
 70
     0
  9
$DIMBLK
  1

  9
$DIMASO
 70
     1
  9
$DIMSHO
 70
     1
  9
$DIMPOST
  1

  9
$DIMAPOST
  1

  9
$DIMALT
 70
     0
  9
$DIMALTD
 70
     2
  9
$DIMALTF
 40
25.4
  9
$DIMLFAC
 40
1.0
  9
$DIMTOFL
 70
     0
  9
$DIMTVP
 40
0.0
  9
$DIMTIX
 70
     0
  9
$DIMSOXD
 70
     0
  9
$DIMSAH
 70
     0
  9
$DIMBLK1
  1

  9
$DIMBLK2
  1

  9
$DIMSTYLE
  2
Standard
  9
$DIMCLRD
 70
     0
  9
$DIMCLRE
 70
     0
  9
$DIMCLRT
 70
     0
  9
$DIMTFAC
 40
1.0
  9
$DIMGAP
 40
0.09
  9
$DIMJUST
 70
     0
  9
$DIMSD1
 70
     0
  9
$DIMSD2
 70
     0
  9
$DIMTOLJ
 70
     1
  9
$DIMTZIN
 70
     0
  9
$DIMALTZ
 70
     0
  9
$DIMALTTZ
 70
     0
  9
$DIMUPT
 70
     0
  9
$DIMDEC
 70
     4
  9
$DIMTDEC
 70
     4
  9
$DIMALTU
 70
     2
  9
$DIMALTTD
 70
     2
  9
$DIMTXSTY
  7
Standard
  9
$DIMAUNIT
 70
     0
  9
$DIMADEC
 70
     0
  9
$DIMALTRND
 40
0.0
  9
$DIMAZIN
 70
     0
  9
$DIMDSEP
 70
    46
  9
$DIMATFIT
 70
     3
  9
$DIMFRAC
 70
     0
  9
$DIMLDRBLK
  1

  9
$DIMLUNIT
 70
     2
  9
$DIMLWD
 70
    -2
  9
$DIMLWE
 70
    -2
  9
$DIMTMOVE
 70
     0
  9
$DIMFXL
 40
1.0
  9
$DIMFXLON
 70
     0
  9
$DIMJOGANG
 40
0.7853981633974483
  9
$DIMTFILL
 70
     0
  9
$DIMTFILLCLR
 70
     0
  9
$DIMARCSYM
 70
     0
  9
$DIMLTYPE
  6

  9
$DIMLTEX1
  6

  9
$DIMLTEX2
  6

  9
$DIMTXTDIRECTION
 70
     0
  9
$LUNITS
 70
     2
  9
$LUPREC
 70
     4
  9
$SKETCHINC
 40
0.1
  9
$FILLETRAD
 40
0.5
  9
$AUNITS
 70
     0
  9
$AUPREC
 70
     0
  9
$MENU
  1
.
  9
$ELEVATION
 40
0.0
  9
$PELEVATION
 40
0.0
  9
$THICKNESS
 40
0.0
  9
$LIMCHECK
 70
     0
  9
$CHAMFERA
 40
0.5
  9
$CHAMFERB
 40
0.5
  9
$CHAMFERC
 40
1.0
  9
$CHAMFERD
 40
0.0
  9
$SKPOLY
 70
     0
  9
$TDCREATE
 40
2457917.615902766
  9
$TDUCREATE
 40
2457917.240902778
  9
$TDUPDATE
 40
2457917.615902766
  9
$TDUUPDATE
 40
2457917.240902778
  9
$TDINDWG
 40
0.0000000116
  9
$TDUSRTIMER
 40
0.0000000116
  9
$USRTIMER
 70
     1
  9
$ANGBASE
 50
0.0
  9
$ANGDIR
 70
     0
  9
$PDMODE
 70
     0
  9
$PDSIZE
 40
0.0
  9
$PLINEWID
 40
0.0
  9
$SPLFRAME
 70
     0
  9
$SPLINETYPE
 70
     6
  9
$SPLINESEGS
 70
     8
  9
$HANDSEED
  5
E1
  9
$SURFTAB1
 70
     6
  9
$SURFTAB2
 70
     6
  9
$SURFTYPE
 70
     6
  9
$SURFU
 70
     6
  9
$SURFV
 70
     6
  9
$UCSBASE
  2

  9
$UCSNAME
  2

  9
$UCSORG
 10
0.0
 20
0.0
 30
0.0
  9
$UCSXDIR
 10
1.0
 20
0.0
 30
0.0
  9
$UCSYDIR
 10
0.0
 20
1.0
 30
0.0
  9
$UCSORTHOREF
  2

  9
$UCSORTHOVIEW
 70
     0
  9
$UCSORGTOP
 10
0.0
 20
0.0
 30
0.0
  9
$UCSORGBOTTOM
 10
0.0
 20
0.0
 30
0.0
  9
$UCSORGLEFT
 10
0.0
 20
0.0
 30
0.0
  9
$UCSORGRIGHT
 10
0.0
 20
0.0
 30
0.0
  9
$UCSORGFRONT
 10
0.0
 20
0.0
 30
0.0
  9
$UCSORGBACK
 10
0.0
 20
0.0
 30
0.0
  9
$PUCSBASE
  2

  9
$PUCSNAME
  2

  9
$PUCSORG
 10
0.0
 20
0.0
 30
0.0
  9
$PUCSXDIR
 10
1.0
 20
0.0
 30
0.0
  9
$PUCSYDIR
 10
0.0
 20
1.0
 30
0.0
  9
$PUCSORTHOREF
  2

  9
$PUCSORTHOVIEW
 70
     0
  9
$PUCSORGTOP
 10
0.0
 20
0.0
 30
0.0
  9
$PUCSORGBOTTOM
 10
0.0
 20
0.0
 30
0.0
  9
$PUCSORGLEFT
 10
0.0
 20
0.0
 30
0.0
  9
$PUCSORGRIGHT
 10
0.0
 20
0.0
 30
0.0
  9
$PUCSORGFRONT
 10
0.0
 20
0.0
 30
0.0
  9
$PUCSORGBACK
 10
0.0
 20
0.0
 30
0.0
  9
$USERI1
 70
     0
  9
$USERI2
 70
     0
  9
$USERI3
 70
     0
  9
$USERI4
 70
     0
  9
$USERI5
 70
     0
  9
$USERR1
 40
0.0
  9
$USERR2
 40
0.0
  9
$USERR3
 40
0.0
  9
$USERR4
 40
0.0
  9
$USERR5
 40
0.0
  9
$WORLDVIEW
 70
     1
  9
$SHADEDGE
 70
     3
  9
$SHADEDIF
 70
    70
  9
$TILEMODE
 70
     1
  9
$MAXACTVP
 70
    64
  9
$PINSBASE
 10
0.0
 20
0.0
 30
0.0
  9
$PLIMCHECK
 70
     0
  9
$PEXTMIN
 10
1.000000000000000E+20
 20
1.000000000000000E+20
 30
1.000000000000000E+20
  9
$PEXTMAX
 10
-1.000000000000000E+20
 20
-1.000000000000000E+20
 30
-1.000000000000000E+20
  9
$PLIMMIN
 10
0.0
 20
0.0
  9
$PLIMMAX
 10
12.0
 20
9.0
  9
$UNITMODE
 70
     0
  9
$VISRETAIN
 70
     1
  9
$PLINEGEN
 70
     0
  9
$PSLTSCALE
 70
     1
  9
$TREEDEPTH
 70
  3020
  9
$CMLSTYLE
  2
Standard
  9
$CMLJUST
 70
     0
  9
$CMLSCALE
 40
1.0
  9
$PROXYGRAPHICS
 70
     1
  9
$MEASUREMENT
 70
     0
  9
$CELWEIGHT
370
    -1
  9
$ENDCAPS
280
     0
  9
$JOINSTYLE
280
     0
  9
$LWDISPLAY
290
     1
  9
$INSUNITS
 70
     1
  9
$HYPERLINKBASE
  1

  9
$STYLESHEET
  1

  9
$XEDIT
290
     1
  9
$CEPSNTYPE
380
     0
  9
$PSTYLEMODE
290
     1
  9
$FINGERPRINTGUID
  2
{585B3FEE-9CFE-EA60-6FD0-AC1BCF91AECB}
  9
$VERSIONGUID
  2
{FAEB1C32-E019-11D5-929B-00C0DF256EC4}
  9
$EXTNAMES
290
     1
  9
$PSVPSCALE
 40
0.0
  9
$OLESTARTUP
290
     0
  9
$SORTENTS
280
   127
  9
$INDEXCTL
280
     0
  9
$HIDETEXT
280
     1
  9
$XCLIPFRAME
280
     2
  9
$HALOGAP
280
     0
  9
$OBSCOLOR
 70
   257
  9
$OBSLTYPE
280
     0
  9
$INTERSECTIONDISPLAY
280
     0
  9
$INTERSECTIONCOLOR
 70
   257
  9
$DIMASSOC
280
     2
  9
$PROJECTNAME
  1

  9
$CAMERADISPLAY
290
     0
  9
$LENSLENGTH
 40
50.0
  9
$CAMERAHEIGHT
 40
0.0
  9
$STEPSPERSEC
 40
2.0
  9
$STEPSIZE
 40
6.0
  9
$3DDWFPREC
 40
2.0
  9
$PSOLWIDTH
 40
0.25
  9
$PSOLHEIGHT
 40
4.0
  9
$LOFTANG1
 40
1.570796326794897
  9
$LOFTANG2
 40
1.570796326794897
  9
$LOFTMAG1
 40
0.0
  9
$LOFTMAG2
 40
0.0
  9
$LOFTPARAM
 70
     7
  9
$LOFTNORMALS
280
     1
  9
$LATITUDE
 40
37.795
  9
$LONGITUDE
 40
-122.394
  9
$NORTHDIRECTION
 40
0.0
  9
$TIMEZONE
 70
 -8000
  9
$LIGHTGLYPHDISPLAY
280
     1
  9
$TILEMODELIGHTSYNCH
280
     1
  9
$CMATERIAL
347
3C
  9
$SOLIDHIST
280
     1
  9
$SHOWHIST
280
     1
  9
$DWFFRAME
280
     2
  9
$DGNFRAME
280
     2
  9
$REALWORLDSCALE
290
     1
  9
$INTERFERECOLOR
 62
   256
  9
$CSHADOW
280
     0
  9
$SHADOWPLANELOCATION
 40
0.0
  0
ENDSEC
  0
SECTION
  2
CLASSES
  0
CLASS
  1
ACDBDICTIONARYWDFLT
  2
AcDbDictionaryWithDefault
  3
ObjectDBX Classes
 90
        0
 91
        4
280
     0
281
     0
  0
CLASS
  1
VISUALSTYLE
  2
AcDbVisualStyle
  3
ObjectDBX Classes
 90
     4095
 91
        4
280
     0
281
     0
  0
CLASS
  1
MATERIAL
  2
AcDbMaterial
  3
ObjectDBX Classes
 90
     1153
 91
        4
280
     0
281
     0
  0
CLASS
  1
SUN
  2
AcDbSun
  3
SCENEOE
 90
     1024
 91
        4
280
     0
281
     0
  0
ENDSEC
  0
SECTION
  2
TABLES
  0
TABLE
  2
VPORT
  5
8
330
0
100
AcDbSymbolTable
 70
     1
  0
VPORT
  5
29
330
8
100
AcDbSymbolTableRecord
100
AcDbViewportTableRecord
  2
*Active
 70
     0
 10
0.0
 20
0.0
 11
1.0
 21
1.0
 12
0.0
 22
0.0
 13
0.0
 23
0.0
 14
0.5
 24
0.5
 15
0.5
 25
0.5
 16
0.0
 26
0.0
 36
1.0
 17
91.00082462281999
 27
-128.4993055234307
 37
0.0
 40
256.9986110468615
 41
0.7081814508812795
 42
50.0
 43
0.0
 44
0.0
 50
0.0
 51
0.0
 71
     0
 72
   100
 73
     1
 74
     3
 75
     0
 76
     0
 77
     0
 78
     0
281
     0
 65
     1
110
0.0
120
0.0
130
0.0
111
1.0
121
0.0
131
0.0
112
0.0
122
1.0
132
0.0
 79
     0
146
0.0
 60
     3
 61
     5
292
     1
282
     1
141
0.0
142
0.0
 63
   250
361
3F
  0
ENDTAB
  0
TABLE
  2
LTYPE
  5
5
330
0
100
AcDbSymbolTable
 70
     1
  0
LTYPE
  5
14
330
5
100
AcDbSymbolTableRecord
100
AcDbLinetypeTableRecord
  2
ByBlock
 70
     0
  3

 72
    65
 73
     0
 40
0.0
  0
LTYPE
  5
15
330
5
100
AcDbSymbolTableRecord
100
AcDbLinetypeTableRecord
  2
ByLayer
 70
     0
  3

 72
    65
 73
     0
 40
0.0
  0
LTYPE
  5
16
330
5
100
AcDbSymbolTableRecord
100
AcDbLinetypeTableRecord
  2
Continuous
 70
     0
  3
Solid line
 72
    65
 73
     0
 40
0.0
  0
ENDTAB
  0
TABLE
  2
LAYER
  5
2
330
0
100
AcDbSymbolTable
 70
     2
  0
LAYER
  5
10
330
2
100
AcDbSymbolTableRecord
100
AcDbLayerTableRecord
  2
0
 70
     0
 62
     7
  6
Continuous
370
    -3
390
F
347
3E
  0
LAYER
  5
40
330
2
100
AcDbSymbolTableRecord
100
AcDbLayerTableRecord
  2
_U+30EC_U+30A4_U+30E4_U+30FC 1
 70
     0
 62
     7
  6
Continuous
370
    -3
390
F
347
3E
  0
ENDTAB
  0
TABLE
  2
STYLE
  5
3
330
0
100
AcDbSymbolTable
 70
     1
  0
STYLE
  5
11
330
3
100
AcDbSymbolTableRecord
100
AcDbTextStyleTableRecord
  2
Standard
 70
     0
 40
0.0
 41
1.0
 50
0.0
 71
     0
 42
0.2
  3
txt
  4

  0
ENDTAB
  0
TABLE
  2
VIEW
  5
6
330
0
100
AcDbSymbolTable
 70
     0
  0
ENDTAB
  0
TABLE
  2
UCS
  5
7
330
0
100
AcDbSymbolTable
 70
     0
  0
ENDTAB
  0
TABLE
  2
APPID
  5
9
330
0
100
AcDbSymbolTable
 70
     1
  0
APPID
  5
12
330
9
100
AcDbSymbolTableRecord
100
AcDbRegAppTableRecord
  2
ACAD
 70
     0
  0
ENDTAB
  0
TABLE
  2
DIMSTYLE
  5
A
330
0
100
AcDbSymbolTable
 70
     1
100
AcDbDimStyleTable
  0
DIMSTYLE
105
27
330
A
100
AcDbSymbolTableRecord
100
AcDbDimStyleTableRecord
  2
Standard
 70
     0
178
     0
340
11
  0
ENDTAB
  0
TABLE
  2
BLOCK_RECORD
  5
1
330
0
100
AcDbSymbolTable
 70
     6
  0
BLOCK_RECORD
  5
1F
330
1
100
AcDbSymbolTableRecord
100
AcDbBlockTableRecord
  2
*Model_Space
340
22
 70
     0
280
     1
281
     0
  0
BLOCK_RECORD
  5
1B
330
1
100
AcDbSymbolTableRecord
100
AcDbBlockTableRecord
  2
*Paper_Space
340
1E
 70
     0
280
     1
281
     0
  0
BLOCK_RECORD
  5
23
330
1
100
AcDbSymbolTableRecord
100
AcDbBlockTableRecord
  2
*Paper_Space0
340
26
 70
     0
280
     1
281
     0
  0
BLOCK_RECORD
  5
76
330
1
100
AcDbSymbolTableRecord
100
AcDbBlockTableRecord
  2
block 2
340
0
102
{BLKREFS
331
77
102
}
 70
     0
280
     1
281
     0
  0
BLOCK_RECORD
  5
88
330
1
100
AcDbSymbolTableRecord
100
AcDbBlockTableRecord
  2
block 3
340
0
102
{BLKREFS
331
89
102
}
 70
     0
280
     1
281
     0
  0
BLOCK_RECORD
  5
9C
330
1
100
AcDbSymbolTableRecord
100
AcDbBlockTableRecord
  2
block 4
340
0
102
{BLKREFS
331
9D
102
}
 70
     0
280
     1
281
     0
  0
BLOCK_RECORD
  5
AC
330
1
100
AcDbSymbolTableRecord
100
AcDbBlockTableRecord
  2
block 5
340
0
102
{BLKREFS
331
AD
102
}
 70
     0
280
     1
281
     0
  0
BLOCK_RECORD
  5
CD
330
1
100
AcDbSymbolTableRecord
100
AcDbBlockTableRecord
  2
block 6
340
0
102
{BLKREFS
331
CE
102
}
 70
     0
280
     1
281
     0
  0
ENDTAB
  0
ENDSEC
  0
SECTION
  2
BLOCKS
  0
BLOCK
  5
20
330
1F
100
AcDbEntity
  8
0
100
AcDbBlockBegin
  2
*Model_Space
 70
     0
 10
0.0
 20
0.0
 30
0.0
  3
*Model_Space
  1

  0
ENDBLK
  5
21
330
1F
100
AcDbEntity
  8
0
100
AcDbBlockEnd
  0
BLOCK
  5
1C
330
1B
100
AcDbEntity
 67
     1
  8
0
100
AcDbBlockBegin
  2
*Paper_Space
 70
     0
 10
0.0
 20
0.0
 30
0.0
  3
*Paper_Space
  1

  0
ENDBLK
  5
1D
330
1B
100
AcDbEntity
 67
     1
  8
0
100
AcDbBlockEnd
  0
BLOCK
  5
24
330
23
100
AcDbEntity
  8
0
100
AcDbBlockBegin
  2
*Paper_Space0
 70
     0
 10
0.0
 20
0.0
 30
0.0
  3
*Paper_Space0
  1

  0
ENDBLK
  5
25
330
23
100
AcDbEntity
  8
0
100
AcDbBlockEnd
  0
BLOCK
  5
78
330
76
100
AcDbEntity
  8
0
100
AcDbBlockBegin
  2
block 2
 70
     0
 10
0.0
 20
0.0
 30
0.0
  3
block 2
  1

  0
SPLINE
  5
7A
330
76
100
AcDbEntity
  8
_U+30EC_U+30A4_U+30E4_U+30FC 1
370
     0
100
AcDbSpline
210
0.0
220
0.0
230
1.0
 70
    11
 71
     3
 72
    26
 73
    22
 74
     0
 42
0.0000000001
 43
0.0000000001
 12
1.0
 22
0.0
 32
0.0
 13
1.0
 23
0.0
 33
0.0
 40
0.0
 40
0.0
 40
0.0
 40
0.0
 40
1.0
 40
1.0
 40
1.0
 40
2.0
 40
2.0
 40
2.0
 40
3.0
 40
3.0
 40
3.0
 40
4.0
 40
4.0
 40
4.0
 40
5.0
 40
5.0
 40
5.0
 40
6.0
 40
6.0
 40
6.0
 40
7.0
 40
7.0
 40
7.0
 40
7.0
 10
107.0246473256744
 20
-125.3411864921022
 30
0.0
 10
107.0246473256744
 20
-125.3411864921022
 30
0.0
 10
105.9204942226518
 20
-125.3411864921022
 30
0.0
 10
105.9204942226518
 20
-125.3411864921022
 30
0.0
 10
105.9204942226518
 20
-125.3411864921022
 30
0.0
 10
105.9204942226518
 20
-125.6712266395892
 30
0.0
 10
105.9204942226518
 20
-125.6712266395892
 30
0.0
 10
105.9204942226518
 20
-125.6712266395892
 30
0.0
 10
105.7723551167861
 20
-125.6712266395892
 30
0.0
 10
105.7723551167861
 20
-125.6712266395892
 30
0.0
 10
105.7575412061995
 20
-125.3391194348111
 30
0.0
 10
105.5945881897472
 20
-125.2926106457602
 30
0.0
 10
105.4802110196369
 20
-125.262982824587
 30
0.0
 10
105.4802110196369
 20
-125.262982824587
 30
0.0
 10
105.4802110196369
 20
-125.1169107760124
 30
0.0
 10
105.4802110196369
 20
-125.1169107760124
 30
0.0
 10
105.4802110196369
 20
-125.1169107760124
 30
0.0
 10
107.0246473256744
 20
-125.1169107760124
 30
0.0
 10
107.0246473256744
 20
-125.1169107760124
 30
0.0
 10
107.0246473256744
 20
-125.1169107760124
 30
0.0
 10
107.0246473256744
 20
-125.3411864921022
 30
0.0
 10
107.0246473256744
 20
-125.3411864921022
 30
0.0
  0
HATCH
  5
7B
330
76
100
AcDbEntity
  8
_U+30EC_U+30A4_U+30E4_U+30FC 1
 62
     7
420
 16777215
100
AcDbHatch
 10
0.0
 20
0.0
 30
0.0
210
0.0
220
0.0
230
1.0
  2
SOLID
 70
     1
 71
     0
 91
        1
 92
        1
 93
        1
 72
     4
 94
        3
 73
     0
 74
     1
 95
       26
 96
       22
 40
0.0
 40
0.0
 40
0.0
 40
0.0
 40
1.0
 40
1.0
 40
1.0
 40
2.0
 40
2.0
 40
2.0
 40
3.0
 40
3.0
 40
3.0
 40
4.0
 40
4.0
 40
4.0
 40
5.0
 40
5.0
 40
5.0
 40
6.0
 40
6.0
 40
6.0
 40
7.0
 40
7.0
 40
7.0
 40
7.0
 10
107.0246473256744
 20
-125.3411864921022
 10
107.0246473256744
 20
-125.3411864921022
 10
105.9204942226518
 20
-125.3411864921022
 10
105.9204942226518
 20
-125.3411864921022
 10
105.9204942226518
 20
-125.3411864921022
 10
105.9204942226518
 20
-125.6712266395892
 10
105.9204942226518
 20
-125.6712266395892
 10
105.9204942226518
 20
-125.6712266395892
 10
105.7723551167861
 20
-125.6712266395892
 10
105.7723551167861
 20
-125.6712266395892
 10
105.7575412061995
 20
-125.3391194348111
 10
105.5945881897472
 20
-125.2926106457602
 10
105.4802110196369
 20
-125.262982824587
 10
105.4802110196369
 20
-125.262982824587
 10
105.4802110196369
 20
-125.1169107760124
 10
105.4802110196369
 20
-125.1169107760124
 10
105.4802110196369
 20
-125.1169107760124
 10
107.0246473256744
 20
-125.1169107760124
 10
107.0246473256744
 20
-125.1169107760124
 10
107.0246473256744
 20
-125.1169107760124
 10
107.0246473256744
 20
-125.3411864921022
 10
107.0246473256744
 20
-125.3411864921022
 97
        0
 97
        0
 75
     2
 76
     1
 98
        0
  0
ENDBLK
  5
79
330
76
100
AcDbEntity
  8
0
100
AcDbBlockEnd
  0
BLOCK
  5
8A
330
88
100
AcDbEntity
  8
0
100
AcDbBlockBegin
  2
block 3
 70
     0
 10
0.0
 20
0.0
 30
0.0
  3
block 3
  1

  0
SPLINE
  5
8C
330
88
100
AcDbEntity
  8
_U+30EC_U+30A4_U+30E4_U+30FC 1
370
     0
100
AcDbSpline
210
0.0
220
0.0
230
1.0
 70
    11
 71
     3
 72
    62
 73
    58
 74
     0
 42
0.0000000001
 43
0.0000000001
 12
1.0
 22
0.0
 32
0.0
 13
1.0
 23
0.0
 33
0.0
 40
0.0
 40
0.0
 40
0.0
 40
0.0
 40
1.0
 40
1.0
 40
1.0
 40
2.0
 40
2.0
 40
2.0
 40
3.0
 40
3.0
 40
3.0
 40
4.0
 40
4.0
 40
4.0
 40
5.0
 40
5.0
 40
5.0
 40
6.0
 40
6.0
 40
6.0
 40
7.0
 40
7.0
 40
7.0
 40
8.0
 40
8.0
 40
8.0
 40
9.0
 40
9.0
 40
9.0
 40
10.0
 40
10.0
 40
10.0
 40
11.0
 40
11.0
 40
11.0
 40
12.0
 40
12.0
 40
12.0
 40
13.0
 40
13.0
 40
13.0
 40
14.0
 40
14.0
 40
14.0
 40
15.0
 40
15.0
 40
15.0
 40
16.0
 40
16.0
 40
16.0
 40
17.0
 40
17.0
 40
17.0
 40
18.0
 40
18.0
 40
18.0
 40
19.0
 40
19.0
 40
19.0
 40
19.0
 10
87.54624970684608
 20
-120.0521036483724
 30
0.0
 10
87.45099281667892
 20
-120.0521036483724
 30
0.0
 10
87.23309052723687
 20
-120.0309163111381
 30
0.0
 10
87.10837807067082
 20
-119.8447089001604
 30
0.0
 10
87.03430851773795
 20
-119.7325710421155
 30
0.0
 10
87.0300021483814
 20
-119.633180037366
 30
0.0
 10
87.0258680337991
 20
-119.5486029432031
 30
0.0
 10
87.0258680337991
 20
-119.5486029432031
 30
0.0
 10
87.2458373805323
 20
-119.5486029432031
 30
0.0
 10
87.2458373805323
 20
-119.5486029432031
 30
0.0
 10
87.24790443782345
 20
-119.622672496136
 30
0.0
 10
87.25858423382772
 20
-119.8574557534558
 30
0.0
 10
87.54211559226378
 20
-119.8574557534558
 30
0.0
 10
87.67957490212525
 20
-119.8574557534558
 30
0.0
 10
87.83184812257329
 20
-119.7876925698795
 30
0.0
 10
87.83184812257329
 20
-119.5591104844331
 30
0.0
 10
87.83184812257329
 20
-119.442838511806
 30
0.0
 10
87.79377981746129
 20
-119.3940904106897
 30
0.0
 10
87.76208493899698
 20
-119.3623955322254
 30
0.0
 10
87.68801538606411
 20
-119.2883259792925
 30
0.0
 10
87.57157115866266
 20
-119.2757513807713
 30
0.0
 10
87.51662188567293
 20
-119.2757513807713
 30
0.0
 10
87.49767386050405
 20
-119.2757513807713
 30
0.0
 10
87.4616726126832
 20
-119.2778184380625
 30
0.0
 10
87.4341118488012
 20
-119.2819525526448
 30
0.0
 10
87.4341118488012
 20
-119.2819525526448
 30
0.0
 10
87.4341118488012
 20
-119.0873046577282
 30
0.0
 10
87.4341118488012
 20
-119.0873046577282
 30
0.0
 10
87.47218015391321
 20
-119.0936780843759
 30
0.0
 10
87.51455482838178
 20
-119.0959173964413
 30
0.0
 10
87.52092825502949
 20
-119.0959173964413
 30
0.0
 10
87.58638506924925
 20
-119.0959173964413
 30
0.0
 10
87.78533933352242
 20
-119.074730059207
 30
0.0
 10
87.78533933352242
 20
-118.8377074898218
 30
0.0
 10
87.78533933352242
 20
-118.6601128175572
 30
0.0
 10
87.6540811955344
 20
-118.6049912897932
 30
0.0
 10
87.54418264955493
 20
-118.6049912897932
 30
0.0
 10
87.279771571062
 20
-118.6049912897932
 30
0.0
 10
87.27133108712314
 20
-118.8377074898218
 30
0.0
 10
87.26702471776657
 20
-118.9097099854636
 30
0.0
 10
87.26702471776657
 20
-118.9097099854636
 30
0.0
 10
87.0639363389111
 20
-118.9097099854636
 30
0.0
 10
87.0639363389111
 20
-118.9097099854636
 30
0.0
 10
87.07237682284996
 20
-118.7848252741232
 30
0.0
 10
87.09993758673197
 20
-118.4082763375854
 30
0.0
 10
87.5567572480761
 20
-118.4082763375854
 30
0.0
 10
87.78103296416586
 20
-118.4082763375854
 30
0.0
 10
88.02218964813335
 20
-118.5352281062169
 30
0.0
 10
88.02218964813335
 20
-118.8313340631741
 30
0.0
 10
88.02218964813335
 20
-119.0175414741519
 30
0.0
 10
87.92710501274045
 20
-119.1000515110236
 30
0.0
 10
87.82754175321674
 20
-119.1613742106611
 30
0.0
 10
87.88903670762843
 20
-119.188934974543
 30
0.0
 10
88.07093774924964
 20
-119.2693779541236
 30
0.0
 10
88.07093774924964
 20
-119.546535885912
 30
0.0
 10
88.07093774924964
 20
-119.8850165173378
 30
0.0
 10
87.82340763863444
 20
-120.0521036483724
 30
0.0
 10
87.54624970684608
 20
-120.0521036483724
 30
0.0
  0
HATCH
  5
8D
330
88
100
AcDbEntity
  8
_U+30EC_U+30A4_U+30E4_U+30FC 1
 62
     7
420
 16777215
100
AcDbHatch
 10
0.0
 20
0.0
 30
0.0
210
0.0
220
0.0
230
1.0
  2
SOLID
 70
     1
 71
     0
 91
        1
 92
        1
 93
        1
 72
     4
 94
        3
 73
     0
 74
     1
 95
       62
 96
       58
 40
0.0
 40
0.0
 40
0.0
 40
0.0
 40
1.0
 40
1.0
 40
1.0
 40
2.0
 40
2.0
 40
2.0
 40
3.0
 40
3.0
 40
3.0
 40
4.0
 40
4.0
 40
4.0
 40
5.0
 40
5.0
 40
5.0
 40
6.0
 40
6.0
 40
6.0
 40
7.0
 40
7.0
 40
7.0
 40
8.0
 40
8.0
 40
8.0
 40
9.0
 40
9.0
 40
9.0
 40
10.0
 40
10.0
 40
10.0
 40
11.0
 40
11.0
 40
11.0
 40
12.0
 40
12.0
 40
12.0
 40
13.0
 40
13.0
 40
13.0
 40
14.0
 40
14.0
 40
14.0
 40
15.0
 40
15.0
 40
15.0
 40
16.0
 40
16.0
 40
16.0
 40
17.0
 40
17.0
 40
17.0
 40
18.0
 40
18.0
 40
18.0
 40
19.0
 40
19.0
 40
19.0
 40
19.0
 10
87.54624970684608
 20
-120.0521036483724
 10
87.45099281667892
 20
-120.0521036483724
 10
87.23309052723687
 20
-120.0309163111381
 10
87.10837807067082
 20
-119.8447089001604
 10
87.03430851773795
 20
-119.7325710421155
 10
87.0300021483814
 20
-119.633180037366
 10
87.0258680337991
 20
-119.5486029432031
 10
87.0258680337991
 20
-119.5486029432031
 10
87.2458373805323
 20
-119.5486029432031
 10
87.2458373805323
 20
-119.5486029432031
 10
87.24790443782345
 20
-119.622672496136
 10
87.25858423382772
 20
-119.8574557534558
 10
87.54211559226378
 20
-119.8574557534558
 10
87.67957490212525
 20
-119.8574557534558
 10
87.83184812257329
 20
-119.7876925698795
 10
87.83184812257329
 20
-119.5591104844331
 10
87.83184812257329
 20
-119.442838511806
 10
87.79377981746129
 20
-119.3940904106897
 10
87.76208493899698
 20
-119.3623955322254
 10
87.68801538606411
 20
-119.2883259792925
 10
87.57157115866266
 20
-119.2757513807713
 10
87.51662188567293
 20
-119.2757513807713
 10
87.49767386050405
 20
-119.2757513807713
 10
87.4616726126832
 20
-119.2778184380625
 10
87.4341118488012
 20
-119.2819525526448
 10
87.4341118488012
 20
-119.2819525526448
 10
87.4341118488012
 20
-119.0873046577282
 10
87.4341118488012
 20
-119.0873046577282
 10
87.47218015391321
 20
-119.0936780843759
 10
87.51455482838178
 20
-119.0959173964413
 10
87.52092825502949
 20
-119.0959173964413
 10
87.58638506924925
 20
-119.0959173964413
 10
87.78533933352242
 20
-119.074730059207
 10
87.78533933352242
 20
-118.8377074898218
 10
87.78533933352242
 20
-118.6601128175572
 10
87.6540811955344
 20
-118.6049912897932
 10
87.54418264955493
 20
-118.6049912897932
 10
87.279771571062
 20
-118.6049912897932
 10
87.27133108712314
 20
-118.8377074898218
 10
87.26702471776657
 20
-118.9097099854636
 10
87.26702471776657
 20
-118.9097099854636
 10
87.0639363389111
 20
-118.9097099854636
 10
87.0639363389111
 20
-118.9097099854636
 10
87.07237682284996
 20
-118.7848252741232
 10
87.09993758673197
 20
-118.4082763375854
 10
87.5567572480761
 20
-118.4082763375854
 10
87.78103296416586
 20
-118.4082763375854
 10
88.02218964813335
 20
-118.5352281062169
 10
88.02218964813335
 20
-118.8313340631741
 10
88.02218964813335
 20
-119.0175414741519
 10
87.92710501274045
 20
-119.1000515110236
 10
87.82754175321674
 20
-119.1613742106611
 10
87.88903670762843
 20
-119.188934974543
 10
88.07093774924964
 20
-119.2693779541236
 10
88.07093774924964
 20
-119.546535885912
 10
88.07093774924964
 20
-119.8850165173378
 10
87.82340763863444
 20
-120.0521036483724
 10
87.54624970684608
 20
-120.0521036483724
 97
        0
 97
        0
 75
     2
 76
     1
 98
        0
  0
SPLINE
  5
8E
330
88
100
AcDbEntity
  8
_U+30EC_U+30A4_U+30E4_U+30FC 1
370
     0
100
AcDbSpline
210
0.0
220
0.0
230
1.0
 70
    11
 71
     3
 72
    44
 73
    40
 74
     0
 42
0.0000000001
 43
0.0000000001
 12
1.0
 22
0.0
 32
0.0
 13
1.0
 23
0.0
 33
0.0
 40
0.0
 40
0.0
 40
0.0
 40
0.0
 40
1.0
 40
1.0
 40
1.0
 40
2.0
 40
2.0
 40
2.0
 40
3.0
 40
3.0
 40
3.0
 40
4.0
 40
4.0
 40
4.0
 40
5.0
 40
5.0
 40
5.0
 40
6.0
 40
6.0
 40
6.0
 40
7.0
 40
7.0
 40
7.0
 40
8.0
 40
8.0
 40
8.0
 40
9.0
 40
9.0
 40
9.0
 40
10.0
 40
10.0
 40
10.0
 40
11.0
 40
11.0
 40
11.0
 40
12.0
 40
12.0
 40
12.0
 40
13.0
 40
13.0
 40
13.0
 40
13.0
 10
88.82472464142229
 20
-119.4195841172805
 30
0.0
 10
88.60682235198024
 20
-119.5782307643763
 30
0.0
 10
88.51363251910423
 20
-119.6523003173092
 30
0.0
 10
88.46505667276222
 20
-119.7961330538183
 30
0.0
 10
88.46505667276222
 20
-119.7961330538183
 30
0.0
 10
89.24347599765441
 20
-119.7961330538183
 30
0.0
 10
89.24347599765441
 20
-119.7961330538183
 30
0.0
 10
89.24347599765441
 20
-119.7961330538183
 30
0.0
 10
89.24347599765441
 20
-120.001288489965
 30
0.0
 10
89.24347599765441
 20
-120.001288489965
 30
0.0
 10
89.24347599765441
 20
-120.001288489965
 30
0.0
 10
88.21545950485586
 20
-120.001288489965
 30
0.0
 10
88.21545950485586
 20
-120.001288489965
 30
0.0
 10
88.24715438332017
 20
-119.643687578596
 30
0.0
 10
88.31278345231416
 20
-119.5654839110809
 30
0.0
 10
88.69777287279084
 20
-119.2671386420582
 30
0.0
 10
88.9537434673449
 20
-119.0683566325593
 30
0.0
 10
89.01920028156465
 20
-119.0006605062741
 30
0.0
 10
89.01920028156465
 20
-118.8632011964127
 30
0.0
 10
89.01920028156465
 20
-118.7446899117201
 30
0.0
 10
88.9473700406972
 20
-118.6136040285063
 30
0.0
 10
88.75065508848942
 20
-118.6136040285063
 30
0.0
 10
88.4903781245788
 20
-118.6136040285063
 30
0.0
 10
88.48193764063994
 20
-118.8440809164695
 30
0.0
 10
88.47763127128337
 20
-118.960525143871
 30
0.0
 10
88.47763127128337
 20
-118.960525143871
 30
0.0
 10
88.25352780996788
 20
-118.960525143871
 30
0.0
 10
88.25352780996788
 20
-118.960525143871
 30
0.0
 10
88.26196829390673
 20
-118.8335733752395
 30
0.0
 10
88.27247583513675
 20
-118.7214355171946
 30
0.0
 10
88.35291881471733
 20
-118.602924232502
 30
0.0
 10
88.4628173606968
 20
-118.4422105281151
 30
0.0
 10
88.64902477167455
 20
-118.4082763375854
 30
0.0
 10
88.76546899907599
 20
-118.4082763375854
 30
0.0
 10
89.04262693086434
 20
-118.4082763375854
 30
0.0
 10
89.24984942430213
 20
-118.592416691272
 30
0.0
 10
89.24984942430213
 20
-118.8652682537038
 30
0.0
 10
89.24984942430213
 20
-119.0936780843759
 30
0.0
 10
89.13357745167494
 20
-119.1932413438996
 30
0.0
 10
88.82472464142229
 20
-119.4195841172805
 30
0.0
  0
HATCH
  5
8F
330
88
100
AcDbEntity
  8
_U+30EC_U+30A4_U+30E4_U+30FC 1
 62
     7
420
 16777215
100
AcDbHatch
 10
0.0
 20
0.0
 30
0.0
210
0.0
220
0.0
230
1.0
  2
SOLID
 70
     1
 71
     0
 91
        1
 92
        1
 93
        1
 72
     4
 94
        3
 73
     0
 74
     1
 95
       44
 96
       40
 40
0.0
 40
0.0
 40
0.0
 40
0.0
 40
1.0
 40
1.0
 40
1.0
 40
2.0
 40
2.0
 40
2.0
 40
3.0
 40
3.0
 40
3.0
 40
4.0
 40
4.0
 40
4.0
 40
5.0
 40
5.0
 40
5.0
 40
6.0
 40
6.0
 40
6.0
 40
7.0
 40
7.0
 40
7.0
 40
8.0
 40
8.0
 40
8.0
 40
9.0
 40
9.0
 40
9.0
 40
10.0
 40
10.0
 40
10.0
 40
11.0
 40
11.0
 40
11.0
 40
12.0
 40
12.0
 40
12.0
 40
13.0
 40
13.0
 40
13.0
 40
13.0
 10
88.82472464142229
 20
-119.4195841172805
 10
88.60682235198024
 20
-119.5782307643763
 10
88.51363251910423
 20
-119.6523003173092
 10
88.46505667276222
 20
-119.7961330538183
 10
88.46505667276222
 20
-119.7961330538183
 10
89.24347599765441
 20
-119.7961330538183
 10
89.24347599765441
 20
-119.7961330538183
 10
89.24347599765441
 20
-119.7961330538183
 10
89.24347599765441
 20
-120.001288489965
 10
89.24347599765441
 20
-120.001288489965
 10
89.24347599765441
 20
-120.001288489965
 10
88.21545950485586
 20
-120.001288489965
 10
88.21545950485586
 20
-120.001288489965
 10
88.24715438332017
 20
-119.643687578596
 10
88.31278345231416
 20
-119.5654839110809
 10
88.69777287279084
 20
-119.2671386420582
 10
88.9537434673449
 20
-119.0683566325593
 10
89.01920028156465
 20
-119.0006605062741
 10
89.01920028156465
 20
-118.8632011964127
 10
89.01920028156465
 20
-118.7446899117201
 10
88.9473700406972
 20
-118.6136040285063
 10
88.75065508848942
 20
-118.6136040285063
 10
88.4903781245788
 20
-118.6136040285063
 10
88.48193764063994
 20
-118.8440809164695
 10
88.47763127128337
 20
-118.960525143871
 10
88.47763127128337
 20
-118.960525143871
 10
88.25352780996788
 20
-118.960525143871
 10
88.25352780996788
 20
-118.960525143871
 10
88.26196829390673
 20
-118.8335733752395
 10
88.27247583513675
 20
-118.7214355171946
 10
88.35291881471733
 20
-118.602924232502
 10
88.4628173606968
 20
-118.4422105281151
 10
88.64902477167455
 20
-118.4082763375854
 10
88.76546899907599
 20
-118.4082763375854
 10
89.04262693086434
 20
-118.4082763375854
 10
89.24984942430213
 20
-118.592416691272
 10
89.24984942430213
 20
-118.8652682537038
 10
89.24984942430213
 20
-119.0936780843759
 10
89.13357745167494
 20
-119.1932413438996
 10
88.82472464142229
 20
-119.4195841172805
 97
        0
 97
        0
 75
     2
 76
     1
 98
        0
  0
ENDBLK
  5
8B
330
88
100
AcDbEntity
  8
0
100
AcDbBlockEnd
  0
BLOCK
  5
9E
330
9C
100
AcDbEntity
  8
0
100
AcDbBlockBegin
  2
block 4
 70
     0
 10
0.0
 20
0.0
 30
0.0
  3
block 4
  1

  0
SPLINE
  5
A0
330
9C
100
AcDbEntity
  8
_U+30EC_U+30A4_U+30E4_U+30FC 1
370
     0
100
AcDbSpline
210
0.0
220
0.0
230
1.0
 70
    11
 71
     3
 72
    26
 73
    22
 74
     0
 42
0.0000000001
 43
0.0000000001
 12
1.0
 22
0.0
 32
0.0
 13
1.0
 23
0.0
 33
0.0
 40
0.0
 40
0.0
 40
0.0
 40
0.0
 40
1.0
 40
1.0
 40
1.0
 40
2.0
 40
2.0
 40
2.0
 40
3.0
 40
3.0
 40
3.0
 40
4.0
 40
4.0
 40
4.0
 40
5.0
 40
5.0
 40
5.0
 40
6.0
 40
6.0
 40
6.0
 40
7.0
 40
7.0
 40
7.0
 40
7.0
 10
78.9839816425804
 20
-138.2003499003457
 30
0.0
 10
78.9839816425804
 20
-138.2003499003457
 30
0.0
 10
78.9839816425804
 20
-137.0961967973232
 30
0.0
 10
78.9839816425804
 20
-137.0961967973232
 30
0.0
 10
78.9839816425804
 20
-137.0961967973232
 30
0.0
 10
78.65394149509346
 20
-137.0961967973232
 30
0.0
 10
78.65394149509346
 20
-137.0961967973232
 30
0.0
 10
78.65394149509346
 20
-137.0961967973232
 30
0.0
 10
78.65394149509346
 20
-136.9480576914574
 30
0.0
 10
78.65394149509346
 20
-136.9480576914574
 30
0.0
 10
78.98604869987155
 20
-136.9332437808709
 30
0.0
 10
79.03255748892242
 20
-136.7702907644185
 30
0.0
 10
79.06218531009557
 20
-136.6562581038568
 30
0.0
 10
79.06218531009557
 20
-136.6562581038568
 30
0.0
 10
79.20825735867017
 20
-136.6562581038568
 30
0.0
 10
79.20825735867017
 20
-136.6562581038568
 30
0.0
 10
79.20825735867017
 20
-136.6562581038568
 30
0.0
 10
79.20825735867017
 20
-138.2003499003457
 30
0.0
 10
79.20825735867017
 20
-138.2003499003457
 30
0.0
 10
79.20825735867017
 20
-138.2003499003457
 30
0.0
 10
78.9839816425804
 20
-138.2003499003457
 30
0.0
 10
78.9839816425804
 20
-138.2003499003457
 30
0.0
  0
HATCH
  5
A1
330
9C
100
AcDbEntity
  8
_U+30EC_U+30A4_U+30E4_U+30FC 1
 62
     7
420
 16777215
100
AcDbHatch
 10
0.0
 20
0.0
 30
0.0
210
0.0
220
0.0
230
1.0
  2
SOLID
 70
     1
 71
     0
 91
        1
 92
        1
 93
        1
 72
     4
 94
        3
 73
     0
 74
     1
 95
       26
 96
       22
 40
0.0
 40
0.0
 40
0.0
 40
0.0
 40
1.0
 40
1.0
 40
1.0
 40
2.0
 40
2.0
 40
2.0
 40
3.0
 40
3.0
 40
3.0
 40
4.0
 40
4.0
 40
4.0
 40
5.0
 40
5.0
 40
5.0
 40
6.0
 40
6.0
 40
6.0
 40
7.0
 40
7.0
 40
7.0
 40
7.0
 10
78.9839816425804
 20
-138.2003499003457
 10
78.9839816425804
 20
-138.2003499003457
 10
78.9839816425804
 20
-137.0961967973232
 10
78.9839816425804
 20
-137.0961967973232
 10
78.9839816425804
 20
-137.0961967973232
 10
78.65394149509346
 20
-137.0961967973232
 10
78.65394149509346
 20
-137.0961967973232
 10
78.65394149509346
 20
-137.0961967973232
 10
78.65394149509346
 20
-136.9480576914574
 10
78.65394149509346
 20
-136.9480576914574
 10
78.98604869987155
 20
-136.9332437808709
 10
79.03255748892242
 20
-136.7702907644185
 10
79.06218531009557
 20
-136.6562581038568
 10
79.06218531009557
 20
-136.6562581038568
 10
79.20825735867017
 20
-136.6562581038568
 10
79.20825735867017
 20
-136.6562581038568
 10
79.20825735867017
 20
-136.6562581038568
 10
79.20825735867017
 20
-138.2003499003457
 10
79.20825735867017
 20
-138.2003499003457
 10
79.20825735867017
 20
-138.2003499003457
 10
78.9839816425804
 20
-138.2003499003457
 10
78.9839816425804
 20
-138.2003499003457
 97
        0
 97
        0
 75
     2
 76
     1
 98
        0
  0
SPLINE
  5
A2
330
9C
100
AcDbEntity
  8
_U+30EC_U+30A4_U+30E4_U+30FC 1
370
     0
100
AcDbSpline
210
0.0
220
0.0
230
1.0
 70
    11
 71
     3
 72
    53
 73
    49
 74
     0
 42
0.0000000001
 43
0.0000000001
 12
1.0
 22
0.0
 32
0.0
 13
1.0
 23
0.0
 33
0.0
 40
0.0
 40
0.0
 40
0.0
 40
0.0
 40
1.0
 40
1.0
 40
1.0
 40
2.0
 40
2.0
 40
2.0
 40
3.0
 40
3.0
 40
3.0
 40
4.0
 40
4.0
 40
4.0
 40
5.0
 40
5.0
 40
5.0
 40
6.0
 40
6.0
 40
6.0
 40
7.0
 40
7.0
 40
7.0
 40
8.0
 40
8.0
 40
8.0
 40
9.0
 40
9.0
 40
9.0
 40
10.0
 40
10.0
 40
10.0
 40
11.0
 40
11.0
 40
11.0
 40
12.0
 40
12.0
 40
12.0
 40
13.0
 40
13.0
 40
13.0
 40
14.0
 40
14.0
 40
14.0
 40
15.0
 40
15.0
 40
15.0
 40
16.0
 40
16.0
 40
16.0
 40
16.0
 10
80.19045408151489
 20
-138.2513373135274
 30
0.0
 10
80.11207815922546
 20
-138.2513373135274
 30
0.0
 10
80.01062009718486
 20
-138.2341118361012
 30
0.0
 10
79.90898978036998
 20
-138.1707220791726
 30
0.0
 10
79.73552922268765
 20
-138.0608235331931
 30
0.0
 10
79.71434188545336
 20
-137.9295653952051
 30
0.0
 10
79.69539386028448
 20
-137.8217339065168
 30
0.0
 10
79.69539386028448
 20
-137.8217339065168
 30
0.0
 10
79.91743026430883
 20
-137.8217339065168
 30
0.0
 10
79.91743026430883
 20
-137.8217339065168
 30
0.0
 10
79.97255179207284
 20
-138.0205159160157
 30
0.0
 10
80.09950356070429
 20
-138.0501437371888
 30
0.0
 10
80.19252113880604
 20
-138.0501437371888
 30
0.0
 10
80.33204750595866
 20
-138.0501437371888
 30
0.0
 10
80.48449298118096
 20
-137.9509249872137
 30
0.0
 10
80.48449298118096
 20
-137.7180365324108
 30
0.0
 10
80.48449298118096
 20
-137.4620659378567
 30
0.0
 10
80.30465899685092
 20
-137.3924750090547
 30
0.0
 10
80.18408065486717
 20
-137.3924750090547
 30
0.0
 10
80.15238577640288
 20
-137.3924750090547
 30
0.0
 10
80.01062009718486
 20
-137.3924750090547
 30
0.0
 10
79.9217366336654
 20
-137.521321580203
 30
0.0
 10
79.9217366336654
 20
-137.521321580203
 30
0.0
 10
79.74620901869193
 20
-137.5023735550341
 30
0.0
 10
79.74620901869193
 20
-137.5023735550341
 30
0.0
 10
79.74620901869193
 20
-137.5023735550341
 30
0.0
 10
79.86678736067567
 20
-136.6562581038568
 30
0.0
 10
79.86678736067567
 20
-136.6562581038568
 30
0.0
 10
79.86678736067567
 20
-136.6562581038568
 30
0.0
 10
80.64520668556787
 20
-136.6562581038568
 30
0.0
 10
80.64520668556787
 20
-136.6562581038568
 30
0.0
 10
80.64520668556787
 20
-136.6562581038568
 30
0.0
 10
80.64520668556787
 20
-136.8509059987734
 30
0.0
 10
80.64520668556787
 20
-136.8509059987734
 30
0.0
 10
80.64520668556787
 20
-136.8509059987734
 30
0.0
 10
80.02956812235372
 20
-136.8509059987734
 30
0.0
 10
80.02956812235372
 20
-136.8509059987734
 30
0.0
 10
80.02956812235372
 20
-136.8509059987734
 30
0.0
 10
79.96411130813398
 20
-137.2739637243621
 30
0.0
 10
79.96411130813398
 20
-137.2739637243621
 30
0.0
 10
80.02543400777142
 20
-137.2398572790581
 30
0.0
 10
80.10794404464316
 20
-137.1998941714292
 30
0.0
 10
80.2262830745615
 20
-137.1998941714292
 30
0.0
 10
80.48018661182441
 20
-137.1998941714292
 30
0.0
 10
80.7172091812096
 20
-137.3859293276327
 30
0.0
 10
80.7172091812096
 20
-137.6990885072419
 30
0.0
 10
80.7172091812096
 20
-138.0163818014334
 30
0.0
 10
80.49293346511982
 20
-138.2513373135274
 30
0.0
 10
80.19045408151489
 20
-138.2513373135274
 30
0.0
  0
HATCH
  5
A3
330
9C
100
AcDbEntity
  8
_U+30EC_U+30A4_U+30E4_U+30FC 1
 62
     7
420
 16777215
100
AcDbHatch
 10
0.0
 20
0.0
 30
0.0
210
0.0
220
0.0
230
1.0
  2
SOLID
 70
     1
 71
     0
 91
        1
 92
        1
 93
        1
 72
     4
 94
        3
 73
     0
 74
     1
 95
       53
 96
       49
 40
0.0
 40
0.0
 40
0.0
 40
0.0
 40
1.0
 40
1.0
 40
1.0
 40
2.0
 40
2.0
 40
2.0
 40
3.0
 40
3.0
 40
3.0
 40
4.0
 40
4.0
 40
4.0
 40
5.0
 40
5.0
 40
5.0
 40
6.0
 40
6.0
 40
6.0
 40
7.0
 40
7.0
 40
7.0
 40
8.0
 40
8.0
 40
8.0
 40
9.0
 40
9.0
 40
9.0
 40
10.0
 40
10.0
 40
10.0
 40
11.0
 40
11.0
 40
11.0
 40
12.0
 40
12.0
 40
12.0
 40
13.0
 40
13.0
 40
13.0
 40
14.0
 40
14.0
 40
14.0
 40
15.0
 40
15.0
 40
15.0
 40
16.0
 40
16.0
 40
16.0
 40
16.0
 10
80.19045408151489
 20
-138.2513373135274
 10
80.11207815922546
 20
-138.2513373135274
 10
80.01062009718486
 20
-138.2341118361012
 10
79.90898978036998
 20
-138.1707220791726
 10
79.73552922268765
 20
-138.0608235331931
 10
79.71434188545336
 20
-137.9295653952051
 10
79.69539386028448
 20
-137.8217339065168
 10
79.69539386028448
 20
-137.8217339065168
 10
79.91743026430883
 20
-137.8217339065168
 10
79.91743026430883
 20
-137.8217339065168
 10
79.97255179207284
 20
-138.0205159160157
 10
80.09950356070429
 20
-138.0501437371888
 10
80.19252113880604
 20
-138.0501437371888
 10
80.33204750595866
 20
-138.0501437371888
 10
80.48449298118096
 20
-137.9509249872137
 10
80.48449298118096
 20
-137.7180365324108
 10
80.48449298118096
 20
-137.4620659378567
 10
80.30465899685092
 20
-137.3924750090547
 10
80.18408065486717
 20
-137.3924750090547
 10
80.15238577640288
 20
-137.3924750090547
 10
80.01062009718486
 20
-137.3924750090547
 10
79.9217366336654
 20
-137.521321580203
 10
79.9217366336654
 20
-137.521321580203
 10
79.74620901869193
 20
-137.5023735550341
 10
79.74620901869193
 20
-137.5023735550341
 10
79.74620901869193
 20
-137.5023735550341
 10
79.86678736067567
 20
-136.6562581038568
 10
79.86678736067567
 20
-136.6562581038568
 10
79.86678736067567
 20
-136.6562581038568
 10
80.64520668556787
 20
-136.6562581038568
 10
80.64520668556787
 20
-136.6562581038568
 10
80.64520668556787
 20
-136.6562581038568
 10
80.64520668556787
 20
-136.8509059987734
 10
80.64520668556787
 20
-136.8509059987734
 10
80.64520668556787
 20
-136.8509059987734
 10
80.02956812235372
 20
-136.8509059987734
 10
80.02956812235372
 20
-136.8509059987734
 10
80.02956812235372
 20
-136.8509059987734
 10
79.96411130813398
 20
-137.2739637243621
 10
79.96411130813398
 20
-137.2739637243621
 10
80.02543400777142
 20
-137.2398572790581
 10
80.10794404464316
 20
-137.1998941714292
 10
80.2262830745615
 20
-137.1998941714292
 10
80.48018661182441
 20
-137.1998941714292
 10
80.7172091812096
 20
-137.3859293276327
 10
80.7172091812096
 20
-137.6990885072419
 10
80.7172091812096
 20
-138.0163818014334
 10
80.49293346511982
 20
-138.2513373135274
 10
80.19045408151489
 20
-138.2513373135274
 97
        0
 97
        0
 75
     2
 76
     1
 98
        0
  0
ENDBLK
  5
9F
330
9C
100
AcDbEntity
  8
0
100
AcDbBlockEnd
  0
BLOCK
  5
AE
330
AC
100
AcDbEntity
  8
0
100
AcDbBlockBegin
  2
block 5
 70
     0
 10
0.0
 20
0.0
 30
0.0
  3
block 5
  1

  0
POLYLINE
  5
B0
330
AC
100
AcDbEntity
  8
_U+30EC_U+30A4_U+30E4_U+30FC 1
370
     0
100
AcDb2dPolyline
 66
     1
 10
0.0
 20
0.0
 30
0.0
  0
VERTEX
  5
B1
330
B0
100
AcDbEntity
  8
_U+30EC_U+30A4_U+30E4_U+30FC 1
370
     0
100
AcDbVertex
100
AcDb2dVertex
 10
89.47291935697206
 20
-137.8534287849811
 30
0.0
  0
VERTEX
  5
B2
330
B0
100
AcDbEntity
  8
_U+30EC_U+30A4_U+30E4_U+30FC 1
370
     0
100
AcDbVertex
100
AcDb2dVertex
 10
89.47291935697206
 20
-138.2003499003457
 30
0.0
  0
VERTEX
  5
B3
330
B0
100
AcDbEntity
  8
_U+30EC_U+30A4_U+30E4_U+30FC 1
370
     0
100
AcDbVertex
100
AcDb2dVertex
 10
89.25501706753
 20
-138.2003499003457
 30
0.0
  0
VERTEX
  5
B4
330
B0
100
AcDbEntity
  8
_U+30EC_U+30A4_U+30E4_U+30FC 1
370
     0
100
AcDbVertex
100
AcDb2dVertex
 10
89.25501706753
 20
-137.8534287849811
 30
0.0
  0
VERTEX
  5
B5
330
B0
100
AcDbEntity
  8
_U+30EC_U+30A4_U+30E4_U+30FC 1
370
     0
100
AcDbVertex
100
AcDb2dVertex
 10
88.5992431419127
 20
-137.8534287849811
 30
0.0
  0
VERTEX
  5
B6
330
B0
100
AcDbEntity
  8
_U+30EC_U+30A4_U+30E4_U+30FC 1
370
     0
100
AcDbVertex
100
AcDb2dVertex
 10
88.5992431419127
 20
-137.6291530688913
 30
0.0
  0
VERTEX
  5
B7
330
B0
100
AcDbEntity
  8
_U+30EC_U+30A4_U+30E4_U+30FC 1
370
     0
100
AcDbVertex
100
AcDb2dVertex
 10
89.27827146205544
 20
-136.6562581038568
 30
0.0
  0
VERTEX
  5
B8
330
B0
100
AcDbEntity
  8
_U+30EC_U+30A4_U+30E4_U+30FC 1
370
     0
100
AcDbVertex
100
AcDb2dVertex
 10
89.47291935697206
 20
-136.6562581038568
 30
0.0
  0
VERTEX
  5
B9
330
B0
100
AcDbEntity
  8
_U+30EC_U+30A4_U+30E4_U+30FC 1
370
     0
100
AcDbVertex
100
AcDb2dVertex
 10
89.47291935697206
 20
-137.6546467754822
 30
0.0
  0
VERTEX
  5
BA
330
B0
100
AcDbEntity
  8
_U+30EC_U+30A4_U+30E4_U+30FC 1
370
     0
100
AcDbVertex
100
AcDb2dVertex
 10
89.6803141051841
 20
-137.6546467754822
 30
0.0
  0
VERTEX
  5
BB
330
B0
100
AcDbEntity
  8
_U+30EC_U+30A4_U+30E4_U+30FC 1
370
     0
100
AcDbVertex
100
AcDb2dVertex
 10
89.6803141051841
 20
-137.8534287849811
 30
0.0
  0
VERTEX
  5
BC
330
B0
100
AcDbEntity
  8
_U+30EC_U+30A4_U+30E4_U+30FC 1
370
     0
100
AcDbVertex
100
AcDb2dVertex
 10
89.47291935697206
 20
-137.8534287849811
 30
0.0
  0
SEQEND
  5
BD
330
B0
100
AcDbEntity
  8
_U+30EC_U+30A4_U+30E4_U+30FC 1
370
     0
  0
POLYLINE
  5
BE
330
AC
100
AcDbEntity
  8
_U+30EC_U+30A4_U+30E4_U+30FC 1
370
     0
100
AcDb2dPolyline
 66
     1
 10
0.0
 20
0.0
 30
0.0
  0
VERTEX
  5
BF
330
BE
100
AcDbEntity
  8
_U+30EC_U+30A4_U+30E4_U+30FC 1
370
     0
100
AcDbVertex
100
AcDb2dVertex
 10
89.25501706753
 20
-136.9987005950906
 30
0.0
  0
VERTEX
  5
C0
330
BE
100
AcDbEntity
  8
_U+30EC_U+30A4_U+30E4_U+30FC 1
370
     0
100
AcDbVertex
100
AcDb2dVertex
 10
88.79819740618588
 20
-137.6546467754822
 30
0.0
  0
VERTEX
  5
C1
330
BE
100
AcDbEntity
  8
_U+30EC_U+30A4_U+30E4_U+30FC 1
370
     0
100
AcDbVertex
100
AcDb2dVertex
 10
89.25501706753
 20
-137.6546467754822
 30
0.0
  0
VERTEX
  5
C2
330
BE
100
AcDbEntity
  8
_U+30EC_U+30A4_U+30E4_U+30FC 1
370
     0
100
AcDbVertex
100
AcDb2dVertex
 10
89.25501706753
 20
-136.9987005950906
 30
0.0
  0
SEQEND
  5
C3
330
BE
100
AcDbEntity
  8
_U+30EC_U+30A4_U+30E4_U+30FC 1
370
     0
  0
HATCH
  5
C4
330
AC
100
AcDbEntity
  8
_U+30EC_U+30A4_U+30E4_U+30FC 1
 62
     7
420
 16777215
100
AcDbHatch
 10
0.0
 20
0.0
 30
0.0
210
0.0
220
0.0
230
1.0
  2
SOLID
 70
     1
 71
     0
 91
        2
 92
        1
 93
       11
 72
     1
 10
89.47291935697206
 20
-137.8534287849811
 11
89.47291935697206
 21
-138.2003499003457
 72
     1
 10
89.47291935697206
 20
-138.2003499003457
 11
89.25501706753
 21
-138.2003499003457
 72
     1
 10
89.25501706753
 20
-138.2003499003457
 11
89.25501706753
 21
-137.8534287849811
 72
     1
 10
89.25501706753
 20
-137.8534287849811
 11
88.5992431419127
 21
-137.8534287849811
 72
     1
 10
88.5992431419127
 20
-137.8534287849811
 11
88.5992431419127
 21
-137.6291530688913
 72
     1
 10
88.5992431419127
 20
-137.6291530688913
 11
89.27827146205544
 21
-136.6562581038568
 72
     1
 10
89.27827146205544
 20
-136.6562581038568
 11
89.47291935697206
 21
-136.6562581038568
 72
     1
 10
89.47291935697206
 20
-136.6562581038568
 11
89.47291935697206
 21
-137.6546467754822
 72
     1
 10
89.47291935697206
 20
-137.6546467754822
 11
89.6803141051841
 21
-137.6546467754822
 72
     1
 10
89.6803141051841
 20
-137.6546467754822
 11
89.6803141051841
 21
-137.8534287849811
 72
     1
 10
89.6803141051841
 20
-137.8534287849811
 11
89.47291935697206
 21
-137.8534287849811
 97
        0
 92
        1
 93
        3
 72
     1
 10
89.25501706753
 20
-136.9987005950906
 11
88.79819740618588
 21
-137.6546467754822
 72
     1
 10
88.79819740618588
 20
-137.6546467754822
 11
89.25501706753
 21
-137.6546467754822
 72
     1
 10
89.25501706753
 20
-137.6546467754822
 11
89.25501706753
 21
-136.9987005950906
 97
        0
 75
     2
 76
     1
 98
        0
  0
ENDBLK
  5
AF
330
AC
100
AcDbEntity
  8
0
100
AcDbBlockEnd
  0
BLOCK
  5
CF
330
CD
100
AcDbEntity
  8
0
100
AcDbBlockBegin
  2
block 6
 70
     0
 10
0.0
 20
0.0
 30
0.0
  3
block 6
  1

  0
SPLINE
  5
D1
330
CD
100
AcDbEntity
  8
_U+30EC_U+30A4_U+30E4_U+30FC 1
370
     0
100
AcDbSpline
210
0.0
220
0.0
230
1.0
 70
    11
 71
     3
 72
    29
 73
    25
 74
     0
 42
0.0000000001
 43
0.0000000001
 12
1.0
 22
0.0
 32
0.0
 13
1.0
 23
0.0
 33
0.0
 40
0.0
 40
0.0
 40
0.0
 40
0.0
 40
1.0
 40
1.0
 40
1.0
 40
2.0
 40
2.0
 40
2.0
 40
3.0
 40
3.0
 40
3.0
 40
4.0
 40
4.0
 40
4.0
 40
5.0
 40
5.0
 40
5.0
 40
6.0
 40
6.0
 40
6.0
 40
7.0
 40
7.0
 40
7.0
 40
8.0
 40
8.0
 40
8.0
 40
8.0
 10
107.5452012534956
 20
-130.6101155272433
 30
0.0
 10
107.5452012534956
 20
-130.8767659178016
 30
0.0
 10
107.4077419436342
 20
-131.1306694550645
 30
0.0
 10
107.0587537709784
 20
-131.1306694550645
 30
0.0
 10
106.8027831764243
 20
-131.1306694550645
 30
0.0
 10
106.7076985410314
 20
-130.9887315210723
 30
0.0
 10
106.646375841394
 20
-130.8829670896751
 30
0.0
 10
106.5871201990477
 20
-131.0076795462411
 30
0.0
 10
106.4727430289374
 20
-131.0838161564652
 30
0.0
 10
106.3118570697762
 20
-131.0838161564652
 30
0.0
 10
106.0369384500533
 20
-131.0838161564652
 30
0.0
 10
105.901546197483
 20
-130.8850341469662
 30
0.0
 10
105.901546197483
 20
-130.6101155272433
 30
0.0
 10
105.901546197483
 20
-130.3265841688072
 30
0.0
 10
106.0455511887664
 20
-130.1360703884729
 30
0.0
 10
106.3118570697762
 20
-130.1360703884729
 30
0.0
 10
106.4727430289374
 20
-130.1360703884729
 30
0.0
 10
106.5871201990477
 20
-130.2146185655366
 30
0.0
 10
106.646375841394
 20
-130.3393310221027
 30
0.0
 10
106.6970187450271
 20
-130.2504475585832
 30
0.0
 10
106.79210338042
 20
-130.0916286567132
 30
0.0
 10
107.0546196563961
 20
-130.0916286567132
 30
0.0
 10
107.4291015356427
 20
-130.0916286567132
 30
0.0
 10
107.5452012534956
 20
-130.371025900567
 30
0.0
 10
107.5452012534956
 20
-130.6101155272433
 30
0.0
  0
SPLINE
  5
D2
330
CD
100
AcDbEntity
  8
_U+30EC_U+30A4_U+30E4_U+30FC 1
370
     0
100
AcDbSpline
210
0.0
220
0.0
230
1.0
 70
    11
 71
     3
 72
    17
 73
    13
 74
     0
 42
0.0000000001
 43
0.0000000001
 12
1.0
 22
0.0
 32
0.0
 13
1.0
 23
0.0
 33
0.0
 40
0.0
 40
0.0
 40
0.0
 40
0.0
 40
1.0
 40
1.0
 40
1.0
 40
2.0
 40
2.0
 40
2.0
 40
3.0
 40
3.0
 40
3.0
 40
4.0
 40
4.0
 40
4.0
 40
4.0
 10
106.0941270351084
 20
-130.6101155272433
 30
0.0
 10
106.0941270351084
 20
-130.7751356009868
 30
0.0
 10
106.1892116705013
 20
-130.8598849499239
 30
0.0
 10
106.3246039230716
 20
-130.8598849499239
 30
0.0
 10
106.4472493223465
 20
-130.8598849499239
 30
0.0
 10
106.5657606070391
 20
-130.7878824542822
 30
0.0
 10
106.5657606070391
 20
-130.6101155272433
 30
0.0
 10
106.5657606070391
 20
-130.4323486002044
 30
0.0
 10
106.4472493223465
 20
-130.3603461045627
 30
0.0
 10
106.3246039230716
 20
-130.3603461045627
 30
0.0
 10
106.1892116705013
 20
-130.3603461045627
 30
0.0
 10
106.0941270351084
 20
-130.447162510791
 30
0.0
 10
106.0941270351084
 20
-130.6101155272433
 30
0.0
  0
SPLINE
  5
D3
330
CD
100
AcDbEntity
  8
_U+30EC_U+30A4_U+30E4_U+30FC 1
370
     0
100
AcDbSpline
210
0.0
220
0.0
230
1.0
 70
    11
 71
     3
 72
    17
 73
    13
 74
     0
 42
0.0000000001
 43
0.0000000001
 12
1.0
 22
0.0
 32
0.0
 13
1.0
 23
0.0
 33
0.0
 40
0.0
 40
0.0
 40
0.0
 40
0.0
 40
1.0
 40
1.0
 40
1.0
 40
2.0
 40
2.0
 40
2.0
 40
3.0
 40
3.0
 40
3.0
 40
4.0
 40
4.0
 40
4.0
 40
4.0
 10
106.7542073300823
 20
-130.6101155272433
 30
0.0
 10
106.7542073300823
 20
-130.7537760089782
 30
0.0
 10
106.8410237363106
 20
-130.9063937389748
 30
0.0
 10
107.0439398603918
 20
-130.9063937389748
 30
0.0
 10
107.2492675513127
 20
-130.9063937389748
 30
0.0
 10
107.350553358579
 20
-130.7792697155691
 30
0.0
 10
107.350553358579
 20
-130.6101155272433
 30
0.0
 10
107.350553358579
 20
-130.4240803710398
 30
0.0
 10
107.2279079593041
 20
-130.3138373155118
 30
0.0
 10
107.0501410322652
 20
-130.3138373155118
 30
0.0
 10
106.8282768830152
 20
-130.3138373155118
 30
0.0
 10
106.7542073300823
 20
-130.4767903319641
 30
0.0
 10
106.7542073300823
 20
-130.6101155272433
 30
0.0
  0
HATCH
  5
D4
330
CD
100
AcDbEntity
  8
_U+30EC_U+30A4_U+30E4_U+30FC 1
 62
     7
420
 16777215
100
AcDbHatch
 10
0.0
 20
0.0
 30
0.0
210
0.0
220
0.0
230
1.0
  2
SOLID
 70
     1
 71
     0
 91
        3
 92
        1
 93
        1
 72
     4
 94
        3
 73
     0
 74
     1
 95
       29
 96
       25
 40
0.0
 40
0.0
 40
0.0
 40
0.0
 40
1.0
 40
1.0
 40
1.0
 40
2.0
 40
2.0
 40
2.0
 40
3.0
 40
3.0
 40
3.0
 40
4.0
 40
4.0
 40
4.0
 40
5.0
 40
5.0
 40
5.0
 40
6.0
 40
6.0
 40
6.0
 40
7.0
 40
7.0
 40
7.0
 40
8.0
 40
8.0
 40
8.0
 40
8.0
 10
107.5452012534956
 20
-130.6101155272433
 10
107.5452012534956
 20
-130.8767659178016
 10
107.4077419436342
 20
-131.1306694550645
 10
107.0587537709784
 20
-131.1306694550645
 10
106.8027831764243
 20
-131.1306694550645
 10
106.7076985410314
 20
-130.9887315210723
 10
106.646375841394
 20
-130.8829670896751
 10
106.5871201990477
 20
-131.0076795462411
 10
106.4727430289374
 20
-131.0838161564652
 10
106.3118570697762
 20
-131.0838161564652
 10
106.0369384500533
 20
-131.0838161564652
 10
105.901546197483
 20
-130.8850341469662
 10
105.901546197483
 20
-130.6101155272433
 10
105.901546197483
 20
-130.3265841688072
 10
106.0455511887664
 20
-130.1360703884729
 10
106.3118570697762
 20
-130.1360703884729
 10
106.4727430289374
 20
-130.1360703884729
 10
106.5871201990477
 20
-130.2146185655366
 10
106.646375841394
 20
-130.3393310221027
 10
106.6970187450271
 20
-130.2504475585832
 10
106.79210338042
 20
-130.0916286567132
 10
107.0546196563961
 20
-130.0916286567132
 10
107.4291015356427
 20
-130.0916286567132
 10
107.5452012534956
 20
-130.371025900567
 10
107.5452012534956
 20
-130.6101155272433
 97
        0
 97
        0
 92
        1
 93
        1
 72
     4
 94
        3
 73
     0
 74
     1
 95
       17
 96
       13
 40
0.0
 40
0.0
 40
0.0
 40
0.0
 40
1.0
 40
1.0
 40
1.0
 40
2.0
 40
2.0
 40
2.0
 40
3.0
 40
3.0
 40
3.0
 40
4.0
 40
4.0
 40
4.0
 40
4.0
 10
106.0941270351084
 20
-130.6101155272433
 10
106.0941270351084
 20
-130.7751356009868
 10
106.1892116705013
 20
-130.8598849499239
 10
106.3246039230716
 20
-130.8598849499239
 10
106.4472493223465
 20
-130.8598849499239
 10
106.5657606070391
 20
-130.7878824542822
 10
106.5657606070391
 20
-130.6101155272433
 10
106.5657606070391
 20
-130.4323486002044
 10
106.4472493223465
 20
-130.3603461045627
 10
106.3246039230716
 20
-130.3603461045627
 10
106.1892116705013
 20
-130.3603461045627
 10
106.0941270351084
 20
-130.447162510791
 10
106.0941270351084
 20
-130.6101155272433
 97
        0
 97
        0
 92
        1
 93
        1
 72
     4
 94
        3
 73
     0
 74
     1
 95
       17
 96
       13
 40
0.0
 40
0.0
 40
0.0
 40
0.0
 40
1.0
 40
1.0
 40
1.0
 40
2.0
 40
2.0
 40
2.0
 40
3.0
 40
3.0
 40
3.0
 40
4.0
 40
4.0
 40
4.0
 40
4.0
 10
106.7542073300823
 20
-130.6101155272433
 10
106.7542073300823
 20
-130.7537760089782
 10
106.8410237363106
 20
-130.9063937389748
 10
107.0439398603918
 20
-130.9063937389748
 10
107.2492675513127
 20
-130.9063937389748
 10
107.350553358579
 20
-130.7792697155691
 10
107.350553358579
 20
-130.6101155272433
 10
107.350553358579
 20
-130.4240803710398
 10
107.2279079593041
 20
-130.3138373155118
 10
107.0501410322652
 20
-130.3138373155118
 10
106.8282768830152
 20
-130.3138373155118
 10
106.7542073300823
 20
-130.4767903319641
 10
106.7542073300823
 20
-130.6101155272433
 97
        0
 97
        0
 75
     2
 76
     1
 98
        0
  0
POLYLINE
  5
D5
330
CD
100
AcDbEntity
  8
_U+30EC_U+30A4_U+30E4_U+30FC 1
370
     0
100
AcDb2dPolyline
 66
     1
 10
0.0
 20
0.0
 30
0.0
  0
VERTEX
  5
D6
330
D5
100
AcDbEntity
  8
_U+30EC_U+30A4_U+30E4_U+30FC 1
370
     0
100
AcDbVertex
100
AcDb2dVertex
 10
107.4945583498625
 20
-129.8732096029484
 30
0.0
  0
VERTEX
  5
D7
330
D5
100
AcDbEntity
  8
_U+30EC_U+30A4_U+30E4_U+30FC 1
370
     0
100
AcDbVertex
100
AcDb2dVertex
 10
107.2427218698907
 20
-129.8732096029484
 30
0.0
  0
VERTEX
  5
D8
330
D5
100
AcDbEntity
  8
_U+30EC_U+30A4_U+30E4_U+30FC 1
370
     0
100
AcDbVertex
100
AcDb2dVertex
 10
107.2427218698907
 20
-129.6213731229766
 30
0.0
  0
VERTEX
  5
D9
330
D5
100
AcDbEntity
  8
_U+30EC_U+30A4_U+30E4_U+30FC 1
370
     0
100
AcDbVertex
100
AcDb2dVertex
 10
107.4945583498625
 20
-129.6213731229766
 30
0.0
  0
VERTEX
  5
DA
330
D5
100
AcDbEntity
  8
_U+30EC_U+30A4_U+30E4_U+30FC 1
370
     0
100
AcDbVertex
100
AcDb2dVertex
 10
107.4945583498625
 20
-129.8732096029484
 30
0.0
  0
SEQEND
  5
DB
330
D5
100
AcDbEntity
  8
_U+30EC_U+30A4_U+30E4_U+30FC 1
370
     0
  0
HATCH
  5
DC
330
CD
100
AcDbEntity
  8
_U+30EC_U+30A4_U+30E4_U+30FC 1
 62
     7
420
 16777215
100
AcDbHatch
 10
0.0
 20
0.0
 30
0.0
210
0.0
220
0.0
230
1.0
  2
SOLID
 70
     1
 71
     0
 91
        1
 92
        1
 93
        4
 72
     1
 10
107.4945583498625
 20
-129.8732096029484
 11
107.2427218698907
 21
-129.8732096029484
 72
     1
 10
107.2427218698907
 20
-129.8732096029484
 11
107.2427218698907
 21
-129.6213731229766
 72
     1
 10
107.2427218698907
 20
-129.6213731229766
 11
107.4945583498625
 21
-129.6213731229766
 72
     1
 10
107.4945583498625
 20
-129.6213731229766
 11
107.4945583498625
 21
-129.8732096029484
 97
        0
 75
     2
 76
     1
 98
        0
  0
SPLINE
  5
DD
330
CD
100
AcDbEntity
  8
_U+30EC_U+30A4_U+30E4_U+30FC 1
370
     0
100
AcDbSpline
210
0.0
220
0.0
230
1.0
 70
    11
 71
     3
 72
    44
 73
    40
 74
     0
 42
0.0000000001
 43
0.0000000001
 12
1.0
 22
0.0
 32
0.0
 13
1.0
 23
0.0
 33
0.0
 40
0.0
 40
0.0
 40
0.0
 40
0.0
 40
1.0
 40
1.0
 40
1.0
 40
2.0
 40
2.0
 40
2.0
 40
3.0
 40
3.0
 40
3.0
 40
4.0
 40
4.0
 40
4.0
 40
5.0
 40
5.0
 40
5.0
 40
6.0
 40
6.0
 40
6.0
 40
7.0
 40
7.0
 40
7.0
 40
8.0
 40
8.0
 40
8.0
 40
9.0
 40
9.0
 40
9.0
 40
10.0
 40
10.0
 40
10.0
 40
11.0
 40
11.0
 40
11.0
 40
12.0
 40
12.0
 40
12.0
 40
13.0
 40
13.0
 40
13.0
 40
13.0
 10
106.9126817224038
 20
-128.792138639677
 30
0.0
 10
107.0715006242738
 20
-129.0098686743448
 30
0.0
 10
107.1455701772067
 20
-129.1028862524465
 30
0.0
 10
107.2892306589416
 20
-129.1518066083371
 30
0.0
 10
107.2892306589416
 20
-129.1518066083371
 30
0.0
 10
107.2892306589416
 20
-128.3732150286706
 30
0.0
 10
107.2892306589416
 20
-128.3732150286706
 30
0.0
 10
107.2892306589416
 20
-128.3732150286706
 30
0.0
 10
107.4945583498625
 20
-128.3732150286706
 30
0.0
 10
107.4945583498625
 20
-128.3732150286706
 30
0.0
 10
107.4945583498625
 20
-128.3732150286706
 30
0.0
 10
107.4945583498625
 20
-129.4012315214691
 30
0.0
 10
107.4945583498625
 20
-129.4012315214691
 30
0.0
 10
107.1369574384935
 20
-129.3695366430048
 30
0.0
 10
107.0587537709784
 20
-129.3040798287851
 30
0.0
 10
106.7604085019557
 20
-128.9189181535342
 30
0.0
 10
106.5616264924568
 20
-128.6629475589801
 30
0.0
 10
106.4937581113974
 20
-128.5974907447604
 30
0.0
 10
106.3562988015359
 20
-128.5974907447604
 30
0.0
 10
106.2377875168433
 20
-128.5974907447604
 30
0.0
 10
106.1068738884038
 20
-128.6694932404021
 30
0.0
 10
106.1068738884038
 20
-128.8662081926098
 30
0.0
 10
106.1068738884038
 20
-129.1263129017462
 30
0.0
 10
106.3373507763671
 20
-129.1345811309108
 30
0.0
 10
106.4537950037685
 20
-129.1390597550416
 30
0.0
 10
106.4537950037685
 20
-129.1390597550416
 30
0.0
 10
106.4537950037685
 20
-129.3633354711314
 30
0.0
 10
106.4537950037685
 20
-129.3633354711314
 30
0.0
 10
106.3266709803628
 20
-129.3547227324183
 30
0.0
 10
106.2147053770922
 20
-129.344042936414
 30
0.0
 10
106.0961940923996
 20
-129.2637722116077
 30
0.0
 10
105.9353081332384
 20
-129.1538736656282
 30
0.0
 10
105.901546197483
 20
-128.9674939998762
 30
0.0
 10
105.901546197483
 20
-128.8513942820233
 30
0.0
 10
105.901546197483
 20
-128.5740640954607
 30
0.0
 10
106.0855142963953
 20
-128.3666693472486
 30
0.0
 10
106.3583658588271
 20
-128.3666693472486
 30
0.0
 10
106.5871201990477
 20
-128.3666693472486
 30
0.0
 10
106.6863389490229
 20
-128.48311357465
 30
0.0
 10
106.9126817224038
 20
-128.792138639677
 30
0.0
  0
HATCH
  5
DE
330
CD
100
AcDbEntity
  8
_U+30EC_U+30A4_U+30E4_U+30FC 1
 62
     7
420
 16777215
100
AcDbHatch
 10
0.0
 20
0.0
 30
0.0
210
0.0
220
0.0
230
1.0
  2
SOLID
 70
     1
 71
     0
 91
        1
 92
        1
 93
        1
 72
     4
 94
        3
 73
     0
 74
     1
 95
       44
 96
       40
 40
0.0
 40
0.0
 40
0.0
 40
0.0
 40
1.0
 40
1.0
 40
1.0
 40
2.0
 40
2.0
 40
2.0
 40
3.0
 40
3.0
 40
3.0
 40
4.0
 40
4.0
 40
4.0
 40
5.0
 40
5.0
 40
5.0
 40
6.0
 40
6.0
 40
6.0
 40
7.0
 40
7.0
 40
7.0
 40
8.0
 40
8.0
 40
8.0
 40
9.0
 40
9.0
 40
9.0
 40
10.0
 40
10.0
 40
10.0
 40
11.0
 40
11.0
 40
11.0
 40
12.0
 40
12.0
 40
12.0
 40
13.0
 40
13.0
 40
13.0
 40
13.0
 10
106.9126817224038
 20
-128.792138639677
 10
107.0715006242738
 20
-129.0098686743448
 10
107.1455701772067
 20
-129.1028862524465
 10
107.2892306589416
 20
-129.1518066083371
 10
107.2892306589416
 20
-129.1518066083371
 10
107.2892306589416
 20
-128.3732150286706
 10
107.2892306589416
 20
-128.3732150286706
 10
107.2892306589416
 20
-128.3732150286706
 10
107.4945583498625
 20
-128.3732150286706
 10
107.4945583498625
 20
-128.3732150286706
 10
107.4945583498625
 20
-128.3732150286706
 10
107.4945583498625
 20
-129.4012315214691
 10
107.4945583498625
 20
-129.4012315214691
 10
107.1369574384935
 20
-129.3695366430048
 10
107.0587537709784
 20
-129.3040798287851
 10
106.7604085019557
 20
-128.9189181535342
 10
106.5616264924568
 20
-128.6629475589801
 10
106.4937581113974
 20
-128.5974907447604
 10
106.3562988015359
 20
-128.5974907447604
 10
106.2377875168433
 20
-128.5974907447604
 10
106.1068738884038
 20
-128.6694932404021
 10
106.1068738884038
 20
-128.8662081926098
 10
106.1068738884038
 20
-129.1263129017462
 10
106.3373507763671
 20
-129.1345811309108
 10
106.4537950037685
 20
-129.1390597550416
 10
106.4537950037685
 20
-129.1390597550416
 10
106.4537950037685
 20
-129.3633354711314
 10
106.4537950037685
 20
-129.3633354711314
 10
106.3266709803628
 20
-129.3547227324183
 10
106.2147053770922
 20
-129.344042936414
 10
106.0961940923996
 20
-129.2637722116077
 10
105.9353081332384
 20
-129.1538736656282
 10
105.901546197483
 20
-128.9674939998762
 10
105.901546197483
 20
-128.8513942820233
 10
105.901546197483
 20
-128.5740640954607
 10
106.0855142963953
 20
-128.3666693472486
 10
106.3583658588271
 20
-128.3666693472486
 10
106.5871201990477
 20
-128.3666693472486
 10
106.6863389490229
 20
-128.48311357465
 10
106.9126817224038
 20
-128.792138639677
 97
        0
 97
        0
 75
     2
 76
     1
 98
        0
  0
ENDBLK
  5
D0
330
CD
100
AcDbEntity
  8
0
100
AcDbBlockEnd
  0
ENDSEC
  0
SECTION
  2
ENTITIES
  0
POLYLINE
  5
41
330
1F
100
AcDbEntity
  8
_U+30EC_U+30A4_U+30E4_U+30FC 1
370
     0
100
AcDb2dPolyline
 66
     1
 10
0.0
 20
0.0
 30
0.0
  0
VERTEX
  5
42
330
41
100
AcDbEntity
  8
_U+30EC_U+30A4_U+30E4_U+30FC 1
370
     0
100
AcDbVertex
100
AcDb2dVertex
 10
72.15268454812055
 20
-125.6469560796994
 30
0.0
  0
VERTEX
  5
43
330
41
100
AcDbEntity
  8
_U+30EC_U+30A4_U+30E4_U+30FC 1
370
     0
100
AcDbVertex
100
AcDb2dVertex
 10
87.14094194351603
 20
-125.6469560796994
 30
0.0
  0
VERTEX
  5
44
330
41
100
AcDbEntity
  8
_U+30EC_U+30A4_U+30E4_U+30FC 1
370
     0
100
AcDbVertex
100
AcDb2dVertex
 10
87.14094194351603
 20
-134.8465538551775
 30
0.0
  0
VERTEX
  5
45
330
41
100
AcDbEntity
  8
_U+30EC_U+30A4_U+30E4_U+30FC 1
370
     0
100
AcDbVertex
100
AcDb2dVertex
 10
91.1417240636698
 20
-134.8465538551775
 30
0.0
  0
VERTEX
  5
46
330
41
100
AcDbEntity
  8
_U+30EC_U+30A4_U+30E4_U+30FC 1
370
     0
100
AcDbVertex
100
AcDb2dVertex
 10
91.1417240636698
 20
-133.8461113554276
 30
0.0
  0
VERTEX
  5
47
330
41
100
AcDbEntity
  8
_U+30EC_U+30A4_U+30E4_U+30FC 1
370
     0
100
AcDbVertex
100
AcDb2dVertex
 10
88.04147775387477
 20
-133.8461113554276
 30
0.0
  0
VERTEX
  5
48
330
41
100
AcDbEntity
  8
_U+30EC_U+30A4_U+30E4_U+30FC 1
370
     0
100
AcDbVertex
100
AcDb2dVertex
 10
88.04147775387477
 20
-125.6469560796994
 30
0.0
  0
VERTEX
  5
49
330
41
100
AcDbEntity
  8
_U+30EC_U+30A4_U+30E4_U+30FC 1
370
     0
100
AcDbVertex
100
AcDb2dVertex
 10
104.1410909542505
 20
-125.6469560796994
 30
0.0
  0
VERTEX
  5
4A
330
41
100
AcDbEntity
  8
_U+30EC_U+30A4_U+30E4_U+30FC 1
370
     0
100
AcDbVertex
100
AcDb2dVertex
 10
104.1410909542505
 20
-124.6471838577272
 30
0.0
  0
VERTEX
  5
4B
330
41
100
AcDbEntity
  8
_U+30EC_U+30A4_U+30E4_U+30FC 1
370
     0
100
AcDbVertex
100
AcDb2dVertex
 10
72.15268454812055
 20
-124.6471838577272
 30
0.0
  0
VERTEX
  5
4C
330
41
100
AcDbEntity
  8
_U+30EC_U+30A4_U+30E4_U+30FC 1
370
     0
100
AcDbVertex
100
AcDb2dVertex
 10
72.15268454812055
 20
-125.6469560796994
 30
0.0
  0
SEQEND
  5
4E
330
41
100
AcDbEntity
  8
_U+30EC_U+30A4_U+30E4_U+30FC 1
370
     0
  0
HATCH
  5
4D
330
1F
100
AcDbEntity
  8
_U+30EC_U+30A4_U+30E4_U+30FC 1
 62
   253
420
 11711154
100
AcDbHatch
 10
0.0
 20
0.0
 30
0.0
210
0.0
220
0.0
230
1.0
  2
SOLID
 70
     1
 71
     0
 91
        1
 92
        1
 93
       10
 72
     1
 10
72.15268454812055
 20
-125.6469560796994
 11
87.14094194351603
 21
-125.6469560796994
 72
     1
 10
87.14094194351603
 20
-125.6469560796994
 11
87.14094194351603
 21
-134.8465538551775
 72
     1
 10
87.14094194351603
 20
-134.8465538551775
 11
91.1417240636698
 21
-134.8465538551775
 72
     1
 10
91.1417240636698
 20
-134.8465538551775
 11
91.1417240636698
 21
-133.8461113554276
 72
     1
 10
91.1417240636698
 20
-133.8461113554276
 11
88.04147775387477
 21
-133.8461113554276
 72
     1
 10
88.04147775387477
 20
-133.8461113554276
 11
88.04147775387477
 21
-125.6469560796994
 72
     1
 10
88.04147775387477
 20
-125.6469560796994
 11
104.1410909542505
 21
-125.6469560796994
 72
     1
 10
104.1410909542505
 20
-125.6469560796994
 11
104.1410909542505
 21
-124.6471838577272
 72
     1
 10
104.1410909542505
 20
-124.6471838577272
 11
72.15268454812055
 21
-124.6471838577272
 72
     1
 10
72.15268454812055
 20
-124.6471838577272
 11
72.15268454812055
 21
-125.6469560796994
 97
        0
 75
     2
 76
     1
 98
        0
  0
POLYLINE
  5
4F
330
1F
100
AcDbEntity
  8
_U+30EC_U+30A4_U+30E4_U+30FC 1
 62
     7
420
 16777215
370
    25
100
AcDb2dPolyline
 66
     1
 10
0.0
 20
0.0
 30
0.0
  0
VERTEX
  5
50
330
4F
100
AcDbEntity
  8
_U+30EC_U+30A4_U+30E4_U+30FC 1
 62
     7
420
 16777215
370
    25
100
AcDbVertex
100
AcDb2dVertex
 10
87.14094194351603
 20
-125.6469560796994
 30
0.0
  0
VERTEX
  5
51
330
4F
100
AcDbEntity
  8
_U+30EC_U+30A4_U+30E4_U+30FC 1
 62
     7
420
 16777215
370
    25
100
AcDbVertex
100
AcDb2dVertex
 10
72.1416778817347
 20
-125.6469560796994
 30
0.0
  0
VERTEX
  5
52
330
4F
100
AcDbEntity
  8
_U+30EC_U+30A4_U+30E4_U+30FC 1
 62
     7
420
 16777215
370
    25
100
AcDbVertex
100
AcDb2dVertex
 10
72.12513260437902
 20
-125.6469560796994
 30
0.0
  0
VERTEX
  5
53
330
4F
100
AcDbEntity
  8
_U+30EC_U+30A4_U+30E4_U+30FC 1
 62
     7
420
 16777215
370
    25
100
AcDbVertex
100
AcDb2dVertex
 10
72.12513260437902
 20
-124.6471838577272
 30
0.0
  0
VERTEX
  5
54
330
4F
100
AcDbEntity
  8
_U+30EC_U+30A4_U+30E4_U+30FC 1
 62
     7
420
 16777215
370
    25
100
AcDbVertex
100
AcDb2dVertex
 10
72.1416778817347
 20
-124.6471838577272
 30
0.0
  0
VERTEX
  5
55
330
4F
100
AcDbEntity
  8
_U+30EC_U+30A4_U+30E4_U+30FC 1
 62
     7
420
 16777215
370
    25
100
AcDbVertex
100
AcDb2dVertex
 10
104.1410909542505
 20
-124.6471838577272
 30
0.0
  0
VERTEX
  5
56
330
4F
100
AcDbEntity
  8
_U+30EC_U+30A4_U+30E4_U+30FC 1
 62
     7
420
 16777215
370
    25
100
AcDbVertex
100
AcDb2dVertex
 10
104.1410909542505
 20
-125.6469560796994
 30
0.0
  0
VERTEX
  5
57
330
4F
100
AcDbEntity
  8
_U+30EC_U+30A4_U+30E4_U+30FC 1
 62
     7
420
 16777215
370
    25
100
AcDbVertex
100
AcDb2dVertex
 10
88.04147775387477
 20
-125.6469560796994
 30
0.0
  0
VERTEX
  5
58
330
4F
100
AcDbEntity
  8
_U+30EC_U+30A4_U+30E4_U+30FC 1
 62
     7
420
 16777215
370
    25
100
AcDbVertex
100
AcDb2dVertex
 10
88.04147775387477
 20
-133.8461113554276
 30
0.0
  0
VERTEX
  5
59
330
4F
100
AcDbEntity
  8
_U+30EC_U+30A4_U+30E4_U+30FC 1
 62
     7
420
 16777215
370
    25
100
AcDbVertex
100
AcDb2dVertex
 10
91.1417240636698
 20
-133.8461113554276
 30
0.0
  0
VERTEX
  5
5A
330
4F
100
AcDbEntity
  8
_U+30EC_U+30A4_U+30E4_U+30FC 1
 62
     7
420
 16777215
370
    25
100
AcDbVertex
100
AcDb2dVertex
 10
91.1417240636698
 20
-134.8465538551775
 30
0.0
  0
VERTEX
  5
5B
330
4F
100
AcDbEntity
  8
_U+30EC_U+30A4_U+30E4_U+30FC 1
 62
     7
420
 16777215
370
    25
100
AcDbVertex
100
AcDb2dVertex
 10
87.14094194351603
 20
-134.8465538551775
 30
0.0
  0
VERTEX
  5
5C
330
4F
100
AcDbEntity
  8
_U+30EC_U+30A4_U+30E4_U+30FC 1
 62
     7
420
 16777215
370
    25
100
AcDbVertex
100
AcDb2dVertex
 10
87.14094194351603
 20
-125.6469560796994
 30
0.0
  0
SEQEND
  5
5D
330
4F
100
AcDbEntity
  8
_U+30EC_U+30A4_U+30E4_U+30FC 1
 62
     7
420
 16777215
370
    25
  0
SPLINE
  5
5E
330
1F
100
AcDbEntity
  8
_U+30EC_U+30A4_U+30E4_U+30FC 1
 62
     7
420
 16777215
370
     9
100
AcDbSpline
210
0.0
220
0.0
230
1.0
 70
    11
 71
     3
 72
    17
 73
    13
 74
     0
 42
0.0000000001
 43
0.0000000001
 12
1.0
 22
0.0
 32
0.0
 13
1.0
 23
0.0
 33
0.0
 40
0.0
 40
0.0
 40
0.0
 40
0.0
 40
1.0
 40
1.0
 40
1.0
 40
2.0
 40
2.0
 40
2.0
 40
3.0
 40
3.0
 40
3.0
 40
4.0
 40
4.0
 40
4.0
 40
4.0
 10
72.22503926849684
 20
-120.6474246920603
 30
0.0
 10
72.22503926849684
 20
-120.5922855254075
 30
0.0
 10
72.18027176963896
 20
-120.5475180254187
 30
0.0
 10
72.12513260437902
 20
-120.5475180254187
 30
0.0
 10
72.07003053753793
 20
-120.5475180254187
 30
0.0
 10
72.02522775977154
 20
-120.5922855254075
 30
0.0
 10
72.02522775977154
 20
-120.6474246920603
 30
0.0
 10
72.02522775977154
 20
-120.7025285809355
 30
0.0
 10
72.07003053753793
 20
-120.7473313587019
 30
0.0
 10
72.12513260437902
 20
-120.7473313587019
 30
0.0
 10
72.18027176963896
 20
-120.7473313587019
 30
0.0
 10
72.22503926849684
 20
-120.7025285809355
 30
0.0
 10
72.22503926849684
 20
-120.6474246920603
 30
0.0
  0
SPLINE
  5
5F
330
1F
100
AcDbEntity
  8
_U+30EC_U+30A4_U+30E4_U+30FC 1
 62
     7
420
 16777215
370
     9
100
AcDbSpline
210
0.0
220
0.0
230
1.0
 70
    11
 71
     3
 72
    17
 73
    13
 74
     0
 42
0.0000000001
 43
0.0000000001
 12
1.0
 22
0.0
 32
0.0
 13
1.0
 23
0.0
 33
0.0
 40
0.0
 40
0.0
 40
0.0
 40
0.0
 40
1.0
 40
1.0
 40
1.0
 40
2.0
 40
2.0
 40
2.0
 40
3.0
 40
3.0
 40
3.0
 40
4.0
 40
4.0
 40
4.0
 40
4.0
 10
104.2409976183684
 20
-120.6474246920603
 30
0.0
 10
104.2409976183684
 20
-120.5922855254075
 30
0.0
 10
104.1962301195105
 20
-120.5475180254187
 30
0.0
 10
104.1410909542505
 20
-120.5475180254187
 30
0.0
 10
104.0859870667675
 20
-120.5475180254187
 30
0.0
 10
104.0411842901327
 20
-120.5922855254075
 30
0.0
 10
104.0411842901327
 20
-120.6474246920603
 30
0.0
 10
104.0411842901327
 20
-120.7025285809355
 30
0.0
 10
104.0859870667675
 20
-120.7473313587019
 30
0.0
 10
104.1410909542505
 20
-120.7473313587019
 30
0.0
 10
104.1962301195105
 20
-120.7473313587019
 30
0.0
 10
104.2409976183684
 20
-120.7025285809355
 30
0.0
 10
104.2409976183684
 20
-120.6474246920603
 30
0.0
  0
SPLINE
  5
60
330
1F
100
AcDbEntity
  8
_U+30EC_U+30A4_U+30E4_U+30FC 1
 62
     7
420
 16777215
370
     9
100
AcDbSpline
210
0.0
220
0.0
230
1.0
 70
    11
 71
     3
 72
    17
 73
    13
 74
     0
 42
0.0000000001
 43
0.0000000001
 12
1.0
 22
0.0
 32
0.0
 13
1.0
 23
0.0
 33
0.0
 40
0.0
 40
0.0
 40
0.0
 40
0.0
 40
1.0
 40
1.0
 40
1.0
 40
2.0
 40
2.0
 40
2.0
 40
3.0
 40
3.0
 40
3.0
 40
4.0
 40
4.0
 40
4.0
 40
4.0
 10
108.2407566829927
 20
-125.6469560796994
 30
0.0
 10
108.2407566829927
 20
-125.5918169130466
 30
0.0
 10
108.1959891841348
 20
-125.5470141352799
 30
0.0
 10
108.1408527507423
 20
-125.5470141352799
 30
0.0
 10
108.0857461313918
 20
-125.5470141352799
 30
0.0
 10
108.040943354757
 20
-125.5918169130466
 30
0.0
 10
108.040943354757
 20
-125.6469560796994
 30
0.0
 10
108.040943354757
 20
-125.7027655241298
 30
0.0
 10
108.0857461313918
 20
-125.7475330241187
 30
0.0
 10
108.1408527507423
 20
-125.7475330241187
 30
0.0
 10
108.1959891841348
 20
-125.7475330241187
 30
0.0
 10
108.2407566829927
 20
-125.7027655241298
 30
0.0
 10
108.2407566829927
 20
-125.6469560796994
 30
0.0
  0
SPLINE
  5
61
330
1F
100
AcDbEntity
  8
_U+30EC_U+30A4_U+30E4_U+30FC 1
 62
     7
420
 16777215
370
     9
100
AcDbSpline
210
0.0
220
0.0
230
1.0
 70
    11
 71
     3
 72
    17
 73
    13
 74
     0
 42
0.0000000001
 43
0.0000000001
 12
1.0
 22
0.0
 32
0.0
 13
1.0
 23
0.0
 33
0.0
 40
0.0
 40
0.0
 40
0.0
 40
0.0
 40
1.0
 40
1.0
 40
1.0
 40
2.0
 40
2.0
 40
2.0
 40
3.0
 40
3.0
 40
3.0
 40
4.0
 40
4.0
 40
4.0
 40
4.0
 10
108.2407566829927
 20
-124.6471838577272
 30
0.0
 10
108.2407566829927
 20
-124.5920446910741
 30
0.0
 10
108.1959891841348
 20
-124.5472771910855
 30
0.0
 10
108.1408527507423
 20
-124.5472771910855
 30
0.0
 10
108.0857461313918
 20
-124.5472771910855
 30
0.0
 10
108.040943354757
 20
-124.5920446910741
 30
0.0
 10
108.040943354757
 20
-124.6471838577272
 30
0.0
 10
108.040943354757
 20
-124.7022877466021
 30
0.0
 10
108.0857461313918
 20
-124.7470905243688
 30
0.0
 10
108.1408527507423
 20
-124.7470905243688
 30
0.0
 10
108.1959891841348
 20
-124.7470905243688
 30
0.0
 10
108.2407566829927
 20
-124.7022877466021
 30
0.0
 10
108.2407566829927
 20
-124.6471838577272
 30
0.0
  0
SPLINE
  5
62
330
1F
100
AcDbEntity
  8
_U+30EC_U+30A4_U+30E4_U+30FC 1
 62
     7
420
 16777215
370
     9
100
AcDbSpline
210
0.0
220
0.0
230
1.0
 70
    11
 71
     3
 72
    17
 73
    13
 74
     0
 42
0.0000000001
 43
0.0000000001
 12
1.0
 22
0.0
 32
0.0
 13
1.0
 23
0.0
 33
0.0
 40
0.0
 40
0.0
 40
0.0
 40
0.0
 40
1.0
 40
1.0
 40
1.0
 40
2.0
 40
2.0
 40
2.0
 40
3.0
 40
3.0
 40
3.0
 40
4.0
 40
4.0
 40
4.0
 40
4.0
 10
108.2407566829927
 20
-133.8461113554276
 30
0.0
 10
108.2407566829927
 20
-133.7909721887745
 30
0.0
 10
108.1959891841348
 20
-133.7461694110078
 30
0.0
 10
108.1408527507423
 20
-133.7461694110078
 30
0.0
 10
108.0857461313918
 20
-133.7461694110078
 30
0.0
 10
108.040943354757
 20
-133.7909721887745
 30
0.0
 10
108.040943354757
 20
-133.8461113554276
 30
0.0
 10
108.040943354757
 20
-133.901920799858
 30
0.0
 10
108.0857461313918
 20
-133.9466882998466
 30
0.0
 10
108.1408527507423
 20
-133.9466882998466
 30
0.0
 10
108.1959891841348
 20
-133.9466882998466
 30
0.0
 10
108.2407566829927
 20
-133.901920799858
 30
0.0
 10
108.2407566829927
 20
-133.8461113554276
 30
0.0
  0
SPLINE
  5
63
330
1F
100
AcDbEntity
  8
_U+30EC_U+30A4_U+30E4_U+30FC 1
 62
     7
420
 16777215
370
     9
100
AcDbSpline
210
0.0
220
0.0
230
1.0
 70
    11
 71
     3
 72
    17
 73
    13
 74
     0
 42
0.0000000001
 43
0.0000000001
 12
1.0
 22
0.0
 32
0.0
 13
1.0
 23
0.0
 33
0.0
 40
0.0
 40
0.0
 40
0.0
 40
0.0
 40
1.0
 40
1.0
 40
1.0
 40
2.0
 40
2.0
 40
2.0
 40
3.0
 40
3.0
 40
3.0
 40
4.0
 40
4.0
 40
4.0
 40
4.0
 10
87.24151888539454
 20
-138.8463130208437
 30
0.0
 10
87.24151888539454
 20
-138.7911738541913
 30
0.0
 10
87.19675138653665
 20
-138.7464063542021
 30
0.0
 10
87.14094194351603
 20
-138.7464063542021
 30
0.0
 10
87.08580277825608
 20
-138.7464063542021
 30
0.0
 10
87.04103527939819
 20
-138.7911738541913
 30
0.0
 10
87.04103527939819
 20
-138.8463130208437
 30
0.0
 10
87.04103527939819
 20
-138.9014169097193
 30
0.0
 10
87.08580277825608
 20
-138.946219687486
 30
0.0
 10
87.14094194351603
 20
-138.946219687486
 30
0.0
 10
87.19675138653665
 20
-138.946219687486
 30
0.0
 10
87.24151888539454
 20
-138.9014169097193
 30
0.0
 10
87.24151888539454
 20
-138.8463130208437
 30
0.0
  0
SPLINE
  5
64
330
1F
100
AcDbEntity
  8
_U+30EC_U+30A4_U+30E4_U+30FC 1
 62
     7
420
 16777215
370
     9
100
AcDbSpline
210
0.0
220
0.0
230
1.0
 70
    11
 71
     3
 72
    17
 73
    13
 74
     0
 42
0.0000000001
 43
0.0000000001
 12
1.0
 22
0.0
 32
0.0
 13
1.0
 23
0.0
 33
0.0
 40
0.0
 40
0.0
 40
0.0
 40
0.0
 40
1.0
 40
1.0
 40
1.0
 40
2.0
 40
2.0
 40
2.0
 40
3.0
 40
3.0
 40
3.0
 40
4.0
 40
4.0
 40
4.0
 40
4.0
 10
91.24163072778762
 20
-138.8463130208437
 30
0.0
 10
91.24163072778762
 20
-138.7911738541913
 30
0.0
 10
91.19682795115287
 20
-138.7464063542021
 30
0.0
 10
91.1417240636698
 20
-138.7464063542021
 30
0.0
 10
91.08658489840984
 20
-138.7464063542021
 30
0.0
 10
91.04181739955196
 20
-138.7911738541913
 30
0.0
 10
91.04181739955196
 20
-138.8463130208437
 30
0.0
 10
91.04181739955196
 20
-138.9014169097193
 30
0.0
 10
91.08658489840984
 20
-138.946219687486
 30
0.0
 10
91.1417240636698
 20
-138.946219687486
 30
0.0
 10
91.19682795115287
 20
-138.946219687486
 30
0.0
 10
91.24163072778762
 20
-138.9014169097193
 30
0.0
 10
91.24163072778762
 20
-138.8463130208437
 30
0.0
  0
SPLINE
  5
65
330
1F
100
AcDbEntity
  8
_U+30EC_U+30A4_U+30E4_U+30FC 1
 62
     7
420
 16777215
370
     9
100
AcDbSpline
210
0.0
220
0.0
230
1.0
 70
    11
 71
     3
 72
    17
 73
    13
 74
     0
 42
0.0000000001
 43
0.0000000001
 12
1.0
 22
0.0
 32
0.0
 13
1.0
 23
0.0
 33
0.0
 40
0.0
 40
0.0
 40
0.0
 40
0.0
 40
1.0
 40
1.0
 40
1.0
 40
2.0
 40
2.0
 40
2.0
 40
3.0
 40
3.0
 40
3.0
 40
4.0
 40
4.0
 40
4.0
 40
4.0
 10
72.22503926849684
 20
-138.8463130208437
 30
0.0
 10
72.22503926849684
 20
-138.7911738541913
 30
0.0
 10
72.18027176963896
 20
-138.7464063542021
 30
0.0
 10
72.12513260437902
 20
-138.7464063542021
 30
0.0
 10
72.07003053753793
 20
-138.7464063542021
 30
0.0
 10
72.02522775977154
 20
-138.7911738541913
 30
0.0
 10
72.02522775977154
 20
-138.8463130208437
 30
0.0
 10
72.02522775977154
 20
-138.9014169097193
 30
0.0
 10
72.07003053753793
 20
-138.946219687486
 30
0.0
 10
72.12513260437902
 20
-138.946219687486
 30
0.0
 10
72.18027176963896
 20
-138.946219687486
 30
0.0
 10
72.22503926849684
 20
-138.9014169097193
 30
0.0
 10
72.22503926849684
 20
-138.8463130208437
 30
0.0
  0
POLYLINE
  5
66
330
1F
100
AcDbEntity
  8
_U+30EC_U+30A4_U+30E4_U+30FC 1
 62
     7
420
 16777215
370
     9
100
AcDb2dPolyline
 66
     1
 10
0.0
 20
0.0
 30
0.0
  0
VERTEX
  5
67
330
66
100
AcDbEntity
  8
_U+30EC_U+30A4_U+30E4_U+30FC 1
 62
     7
420
 16777215
370
     9
100
AcDbVertex
100
AcDb2dVertex
 10
108.1408527507423
 20
-124.6471838577272
 30
0.0
  0
VERTEX
  5
68
330
66
100
AcDbEntity
  8
_U+30EC_U+30A4_U+30E4_U+30FC 1
 62
     7
420
 16777215
370
     9
100
AcDbVertex
100
AcDb2dVertex
 10
108.1408527507423
 20
-120.8768713586698
 30
0.0
  0
SEQEND
  5
69
330
66
100
AcDbEntity
  8
_U+30EC_U+30A4_U+30E4_U+30FC 1
 62
     7
420
 16777215
370
     9
  0
POLYLINE
  5
6A
330
1F
100
AcDbEntity
  8
_U+30EC_U+30A4_U+30E4_U+30FC 1
 62
     7
420
 16777215
370
     9
100
AcDb2dPolyline
 66
     1
 10
0.0
 20
0.0
 30
0.0
  0
VERTEX
  5
6B
330
6A
100
AcDbEntity
  8
_U+30EC_U+30A4_U+30E4_U+30FC 1
 62
     7
420
 16777215
370
     9
100
AcDbVertex
100
AcDb2dVertex
 10
108.1408527507423
 20
-125.6469560796994
 30
0.0
  0
VERTEX
  5
6C
330
6A
100
AcDbEntity
  8
_U+30EC_U+30A4_U+30E4_U+30FC 1
 62
     7
420
 16777215
370
     9
100
AcDbVertex
100
AcDb2dVertex
 10
108.1408527507423
 20
-124.6471838577272
 30
0.0
  0
SEQEND
  5
6D
330
6A
100
AcDbEntity
  8
_U+30EC_U+30A4_U+30E4_U+30FC 1
 62
     7
420
 16777215
370
     9
  0
POLYLINE
  5
6E
330
1F
100
AcDbEntity
  8
_U+30EC_U+30A4_U+30E4_U+30FC 1
 62
     7
420
 16777215
370
     9
100
AcDb2dPolyline
 66
     1
 10
0.0
 20
0.0
 30
0.0
  0
VERTEX
  5
6F
330
6E
100
AcDbEntity
  8
_U+30EC_U+30A4_U+30E4_U+30FC 1
 62
     7
420
 16777215
370
     9
100
AcDbVertex
100
AcDb2dVertex
 10
106.6808086672347
 20
-125.6469560796994
 30
0.0
  0
VERTEX
  5
70
330
6E
100
AcDbEntity
  8
_U+30EC_U+30A4_U+30E4_U+30FC 1
 62
     7
420
 16777215
370
     9
100
AcDbVertex
100
AcDb2dVertex
 10
109.1413305282704
 20
-125.6469560796994
 30
0.0
  0
SEQEND
  5
71
330
6E
100
AcDbEntity
  8
_U+30EC_U+30A4_U+30E4_U+30FC 1
 62
     7
420
 16777215
370
     9
  0
POLYLINE
  5
72
330
1F
100
AcDbEntity
  8
_U+30EC_U+30A4_U+30E4_U+30FC 1
 62
     7
420
 16777215
370
     9
100
AcDb2dPolyline
 66
     1
 10
0.0
 20
0.0
 30
0.0
  0
VERTEX
  5
73
330
72
100
AcDbEntity
  8
_U+30EC_U+30A4_U+30E4_U+30FC 1
 62
     7
420
 16777215
370
     9
100
AcDbVertex
100
AcDb2dVertex
 10
106.6808086672347
 20
-124.6471838577272
 30
0.0
  0
VERTEX
  5
74
330
72
100
AcDbEntity
  8
_U+30EC_U+30A4_U+30E4_U+30FC 1
 62
     7
420
 16777215
370
     9
100
AcDbVertex
100
AcDb2dVertex
 10
109.1413305282704
 20
-124.6471838577272
 30
0.0
  0
SEQEND
  5
75
330
72
100
AcDbEntity
  8
_U+30EC_U+30A4_U+30E4_U+30FC 1
 62
     7
420
 16777215
370
     9
  0
INSERT
  5
77
330
1F
100
AcDbEntity
  8
_U+30EC_U+30A4_U+30E4_U+30FC 1
100
AcDbBlockReference
  2
block 2
 10
0.0
 20
0.0
 30
0.0
  0
POLYLINE
  5
7C
330
1F
100
AcDbEntity
  8
_U+30EC_U+30A4_U+30E4_U+30FC 1
 62
     7
420
 16777215
370
     9
100
AcDb2dPolyline
 66
     1
 10
0.0
 20
0.0
 30
0.0
  0
VERTEX
  5
7D
330
7C
100
AcDbEntity
  8
_U+30EC_U+30A4_U+30E4_U+30FC 1
 62
     7
420
 16777215
370
     9
100
AcDbVertex
100
AcDb2dVertex
 10
72.11962927118608
 20
-120.6474246920603
 30
0.0
  0
VERTEX
  5
7E
330
7C
100
AcDbEntity
  8
_U+30EC_U+30A4_U+30E4_U+30FC 1
 62
     7
420
 16777215
370
     9
100
AcDbVertex
100
AcDb2dVertex
 10
104.1410909542505
 20
-120.6474246920603
 30
0.0
  0
SEQEND
  5
7F
330
7C
100
AcDbEntity
  8
_U+30EC_U+30A4_U+30E4_U+30FC 1
 62
     7
420
 16777215
370
     9
  0
POLYLINE
  5
80
330
1F
100
AcDbEntity
  8
_U+30EC_U+30A4_U+30E4_U+30FC 1
 62
     7
420
 16777215
370
     9
100
AcDb2dPolyline
 66
     1
 10
0.0
 20
0.0
 30
0.0
  0
VERTEX
  5
81
330
80
100
AcDbEntity
  8
_U+30EC_U+30A4_U+30E4_U+30FC 1
 62
     7
420
 16777215
370
     9
100
AcDbVertex
100
AcDb2dVertex
 10
72.12513260437902
 20
-122.1074308028065
 30
0.0
  0
VERTEX
  5
82
330
80
100
AcDbEntity
  8
_U+30EC_U+30A4_U+30E4_U+30FC 1
 62
     7
420
 16777215
370
     9
100
AcDbVertex
100
AcDb2dVertex
 10
72.12513260437902
 20
-119.6469469145325
 30
0.0
  0
SEQEND
  5
83
330
80
100
AcDbEntity
  8
_U+30EC_U+30A4_U+30E4_U+30FC 1
 62
     7
420
 16777215
370
     9
  0
POLYLINE
  5
84
330
1F
100
AcDbEntity
  8
_U+30EC_U+30A4_U+30E4_U+30FC 1
 62
     7
420
 16777215
370
     9
100
AcDb2dPolyline
 66
     1
 10
0.0
 20
0.0
 30
0.0
  0
VERTEX
  5
85
330
84
100
AcDbEntity
  8
_U+30EC_U+30A4_U+30E4_U+30FC 1
 62
     7
420
 16777215
370
     9
100
AcDbVertex
100
AcDb2dVertex
 10
104.1410909542505
 20
-122.1074308028065
 30
0.0
  0
VERTEX
  5
86
330
84
100
AcDbEntity
  8
_U+30EC_U+30A4_U+30E4_U+30FC 1
 62
     7
420
 16777215
370
     9
100
AcDbVertex
100
AcDb2dVertex
 10
104.1410909542505
 20
-119.6469469145325
 30
0.0
  0
SEQEND
  5
87
330
84
100
AcDbEntity
  8
_U+30EC_U+30A4_U+30E4_U+30FC 1
 62
     7
420
 16777215
370
     9
  0
INSERT
  5
89
330
1F
100
AcDbEntity
  8
_U+30EC_U+30A4_U+30E4_U+30FC 1
100
AcDbBlockReference
  2
block 3
 10
0.0
 20
0.0
 30
0.0
  0
POLYLINE
  5
90
330
1F
100
AcDbEntity
  8
_U+30EC_U+30A4_U+30E4_U+30FC 1
 62
     7
420
 16777215
370
     9
100
AcDb2dPolyline
 66
     1
 10
0.0
 20
0.0
 30
0.0
  0
VERTEX
  5
91
330
90
100
AcDbEntity
  8
_U+30EC_U+30A4_U+30E4_U+30FC 1
 62
     7
420
 16777215
370
     9
100
AcDbVertex
100
AcDb2dVertex
 10
87.14094194351603
 20
-138.8463130208437
 30
0.0
  0
VERTEX
  5
92
330
90
100
AcDbEntity
  8
_U+30EC_U+30A4_U+30E4_U+30FC 1
 62
     7
420
 16777215
370
     9
100
AcDbVertex
100
AcDb2dVertex
 10
72.16372649228329
 20
-138.8463130208437
 30
0.0
  0
SEQEND
  5
93
330
90
100
AcDbEntity
  8
_U+30EC_U+30A4_U+30E4_U+30FC 1
 62
     7
420
 16777215
370
     9
  0
POLYLINE
  5
94
330
1F
100
AcDbEntity
  8
_U+30EC_U+30A4_U+30E4_U+30FC 1
 62
     7
420
 16777215
370
     9
100
AcDb2dPolyline
 66
     1
 10
0.0
 20
0.0
 30
0.0
  0
VERTEX
  5
95
330
94
100
AcDbEntity
  8
_U+30EC_U+30A4_U+30E4_U+30FC 1
 62
     7
420
 16777215
370
     9
100
AcDbVertex
100
AcDb2dVertex
 10
87.14094194351603
 20
-137.38627163232
 30
0.0
  0
VERTEX
  5
96
330
94
100
AcDbEntity
  8
_U+30EC_U+30A4_U+30E4_U+30FC 1
 62
     7
420
 16777215
370
     9
100
AcDbVertex
100
AcDb2dVertex
 10
87.14094194351603
 20
-139.8467555205936
 30
0.0
  0
SEQEND
  5
97
330
94
100
AcDbEntity
  8
_U+30EC_U+30A4_U+30E4_U+30FC 1
 62
     7
420
 16777215
370
     9
  0
POLYLINE
  5
98
330
1F
100
AcDbEntity
  8
_U+30EC_U+30A4_U+30E4_U+30FC 1
 62
     7
420
 16777215
370
     9
100
AcDb2dPolyline
 66
     1
 10
0.0
 20
0.0
 30
0.0
  0
VERTEX
  5
99
330
98
100
AcDbEntity
  8
_U+30EC_U+30A4_U+30E4_U+30FC 1
 62
     7
420
 16777215
370
     9
100
AcDbVertex
100
AcDb2dVertex
 10
72.12513260437902
 20
-128.1873441346199
 30
0.0
  0
VERTEX
  5
9A
330
98
100
AcDbEntity
  8
_U+30EC_U+30A4_U+30E4_U+30FC 1
 62
     7
420
 16777215
370
     9
100
AcDbVertex
100
AcDb2dVertex
 10
72.12513260437902
 20
-139.8467555205936
 30
0.0
  0
SEQEND
  5
9B
330
98
100
AcDbEntity
  8
_U+30EC_U+30A4_U+30E4_U+30FC 1
 62
     7
420
 16777215
370
     9
  0
INSERT
  5
9D
330
1F
100
AcDbEntity
  8
_U+30EC_U+30A4_U+30E4_U+30FC 1
100
AcDbBlockReference
  2
block 4
 10
0.0
 20
0.0
 30
0.0
  0
POLYLINE
  5
A4
330
1F
100
AcDbEntity
  8
_U+30EC_U+30A4_U+30E4_U+30FC 1
 62
     7
420
 16777215
370
     9
100
AcDb2dPolyline
 66
     1
 10
0.0
 20
0.0
 30
0.0
  0
VERTEX
  5
A5
330
A4
100
AcDbEntity
  8
_U+30EC_U+30A4_U+30E4_U+30FC 1
 62
     7
420
 16777215
370
     9
100
AcDbVertex
100
AcDb2dVertex
 10
87.14094194351603
 20
-138.8463130208437
 30
0.0
  0
VERTEX
  5
A6
330
A4
100
AcDbEntity
  8
_U+30EC_U+30A4_U+30E4_U+30FC 1
 62
     7
420
 16777215
370
     9
100
AcDbVertex
100
AcDb2dVertex
 10
91.1417240636698
 20
-138.8463130208437
 30
0.0
  0
SEQEND
  5
A7
330
A4
100
AcDbEntity
  8
_U+30EC_U+30A4_U+30E4_U+30FC 1
 62
     7
420
 16777215
370
     9
  0
POLYLINE
  5
A8
330
1F
100
AcDbEntity
  8
_U+30EC_U+30A4_U+30E4_U+30FC 1
 62
     7
420
 16777215
370
     9
100
AcDb2dPolyline
 66
     1
 10
0.0
 20
0.0
 30
0.0
  0
VERTEX
  5
A9
330
A8
100
AcDbEntity
  8
_U+30EC_U+30A4_U+30E4_U+30FC 1
 62
     7
420
 16777215
370
     9
100
AcDbVertex
100
AcDb2dVertex
 10
91.1417240636698
 20
-137.38627163232
 30
0.0
  0
VERTEX
  5
AA
330
A8
100
AcDbEntity
  8
_U+30EC_U+30A4_U+30E4_U+30FC 1
 62
     7
420
 16777215
370
     9
100
AcDbVertex
100
AcDb2dVertex
 10
91.1417240636698
 20
-139.8467555205936
 30
0.0
  0
SEQEND
  5
AB
330
A8
100
AcDbEntity
  8
_U+30EC_U+30A4_U+30E4_U+30FC 1
 62
     7
420
 16777215
370
     9
  0
INSERT
  5
AD
330
1F
100
AcDbEntity
  8
_U+30EC_U+30A4_U+30E4_U+30FC 1
100
AcDbBlockReference
  2
block 5
 10
0.0
 20
0.0
 30
0.0
  0
POLYLINE
  5
C5
330
1F
100
AcDbEntity
  8
_U+30EC_U+30A4_U+30E4_U+30FC 1
 62
     7
420
 16777215
370
     9
100
AcDb2dPolyline
 66
     1
 10
0.0
 20
0.0
 30
0.0
  0
VERTEX
  5
C6
330
C5
100
AcDbEntity
  8
_U+30EC_U+30A4_U+30E4_U+30FC 1
 62
     7
420
 16777215
370
     9
100
AcDbVertex
100
AcDb2dVertex
 10
108.1408527507423
 20
-133.8461113554276
 30
0.0
  0
VERTEX
  5
C7
330
C5
100
AcDbEntity
  8
_U+30EC_U+30A4_U+30E4_U+30FC 1
 62
     7
420
 16777215
370
     9
100
AcDbVertex
100
AcDb2dVertex
 10
108.1408527507423
 20
-125.6469560796994
 30
0.0
  0
SEQEND
  5
C8
330
C5
100
AcDbEntity
  8
_U+30EC_U+30A4_U+30E4_U+30FC 1
 62
     7
420
 16777215
370
     9
  0
POLYLINE
  5
C9
330
1F
100
AcDbEntity
  8
_U+30EC_U+30A4_U+30E4_U+30FC 1
 62
     7
420
 16777215
370
     9
100
AcDb2dPolyline
 66
     1
 10
0.0
 20
0.0
 30
0.0
  0
VERTEX
  5
CA
330
C9
100
AcDbEntity
  8
_U+30EC_U+30A4_U+30E4_U+30FC 1
 62
     7
420
 16777215
370
     9
100
AcDbVertex
100
AcDb2dVertex
 10
92.68064652440862
 20
-133.8461113554276
 30
0.0
  0
VERTEX
  5
CB
330
C9
100
AcDbEntity
  8
_U+30EC_U+30A4_U+30E4_U+30FC 1
 62
     7
420
 16777215
370
     9
100
AcDbVertex
100
AcDb2dVertex
 10
109.1413305282704
 20
-133.8461113554276
 30
0.0
  0
SEQEND
  5
CC
330
C9
100
AcDbEntity
  8
_U+30EC_U+30A4_U+30E4_U+30FC 1
 62
     7
420
 16777215
370
     9
  0
INSERT
  5
CE
330
1F
100
AcDbEntity
  8
_U+30EC_U+30A4_U+30E4_U+30FC 1
100
AcDbBlockReference
  2
block 6
 10
0.0
 20
0.0
 30
0.0
  0
ENDSEC
  0
SECTION
  2
OBJECTS
  0
DICTIONARY
  5
C
330
0
100
AcDbDictionary
281
     1
  3
ACAD_GROUP
350
D
  3
ACAD_LAYOUT
350
1A
  3
ACAD_MATERIAL
350
3B
  3
ACAD_MLEADERSTYLE
350
E0
  3
ACAD_MLINESTYLE
350
17
  3
ACAD_PLOTSETTINGS
350
19
  3
ACAD_PLOTSTYLENAME
350
E
  3
ACAD_TABLESTYLE
350
DF
  3
ACAD_VISUALSTYLE
350
2A
  0
SUN
  5
3F
330
29
100
AcDbSun
 90
        1
290
     0
 63
     7
421
 16777215
 40
1.0
291
     1
 91
  2455826
 92
 54000000
292
     0
 70
     2
 71
   256
280
     1
  0
DICTIONARY
  5
D
102
{ACAD_REACTORS
330
C
102
}
330
C
100
AcDbDictionary
281
     1
  0
DICTIONARY
  5
1A
102
{ACAD_REACTORS
330
C
102
}
330
C
100
AcDbDictionary
281
     1
  3
Layout1
350
1E
  3
Layout2
350
26
  3
Model
350
22
  0
DICTIONARY
  5
3B
102
{ACAD_REACTORS
330
C
102
}
330
C
100
AcDbDictionary
281
     1
  3
ByBlock
350
3D
  3
ByLayer
350
3C
  3
Global
350
3E
  0
DICTIONARY
  5
E0
102
{ACAD_REACTORS
330
C
102
}
330
C
100
AcDbDictionary
281
     1
  0
DICTIONARY
  5
17
102
{ACAD_REACTORS
330
C
102
}
330
C
100
AcDbDictionary
281
     1
  3
Standard
350
18
  0
DICTIONARY
  5
19
102
{ACAD_REACTORS
330
C
102
}
330
C
100
AcDbDictionary
281
     1
  0
ACDBDICTIONARYWDFLT
  5
E
102
{ACAD_REACTORS
330
C
102
}
330
C
100
AcDbDictionary
281
     1
  3
Normal
350
F
100
AcDbDictionaryWithDefault
340
F
  0
DICTIONARY
  5
DF
102
{ACAD_REACTORS
330
C
102
}
330
C
100
AcDbDictionary
281
     1
  0
DICTIONARY
  5
2A
102
{ACAD_REACTORS
330
C
102
}
330
C
100
AcDbDictionary
281
     1
  3
2dWireframe
350
2F
  3
3D Hidden
350
31
  3
3dWireframe
350
30
  3
Basic
350
32
  3
Brighten
350
36
  3
ColorChange
350
3A
  3
Conceptual
350
34
  3
Dim
350
35
  3
Facepattern
350
39
  3
Flat
350
2B
  3
FlatWithEdges
350
2C
  3
Gouraud
350
2D
  3
GouraudWithEdges
350
2E
  3
Linepattern
350
38
  3
Realistic
350
33
  3
Thicken
350
37
  0
LAYOUT
  5
1E
102
{ACAD_REACTORS
330
1A
102
}
330
1A
100
AcDbPlotSettings
  1

  2
none_device
  4

  6

 40
0.0
 41
0.0
 42
0.0
 43
0.0
 44
0.0
 45
0.0
 46
0.0
 47
0.0
 48
0.0
 49
0.0
140
0.0
141
0.0
142
1.0
143
1.0
 70
   688
 72
     0
 73
     0
 74
     5
  7

 75
    16
 76
     0
 77
     2
 78
   300
147
1.0
148
0.0
149
0.0
100
AcDbLayout
  1
Layout1
 70
     1
 71
     1
 10
0.0
 20
0.0
 11
12.0
 21
9.0
 12
0.0
 22
0.0
 32
0.0
 14
1.000000000000000E+20
 24
1.000000000000000E+20
 34
1.000000000000000E+20
 15
-1.000000000000000E+20
 25
-1.000000000000000E+20
 35
-1.000000000000000E+20
146
0.0
 13
0.0
 23
0.0
 33
0.0
 16
1.0
 26
0.0
 36
0.0
 17
0.0
 27
1.0
 37
0.0
 76
     0
330
1B
  0
LAYOUT
  5
26
102
{ACAD_REACTORS
330
1A
102
}
330
1A
100
AcDbPlotSettings
  1

  2
none_device
  4

  6

 40
0.0
 41
0.0
 42
0.0
 43
0.0
 44
0.0
 45
0.0
 46
0.0
 47
0.0
 48
0.0
 49
0.0
140
0.0
141
0.0
142
1.0
143
1.0
 70
   688
 72
     0
 73
     0
 74
     5
  7

 75
    16
 76
     0
 77
     2
 78
   300
147
1.0
148
0.0
149
0.0
100
AcDbLayout
  1
Layout2
 70
     1
 71
     2
 10
0.0
 20
0.0
 11
0.0
 21
0.0
 12
0.0
 22
0.0
 32
0.0
 14
0.0
 24
0.0
 34
0.0
 15
0.0
 25
0.0
 35
0.0
146
0.0
 13
0.0
 23
0.0
 33
0.0
 16
1.0
 26
0.0
 36
0.0
 17
0.0
 27
1.0
 37
0.0
 76
     0
330
23
  0
LAYOUT
  5
22
102
{ACAD_REACTORS
330
1A
102
}
330
1A
100
AcDbPlotSettings
  1

  2
none_device
  4

  6

 40
0.0
 41
0.0
 42
0.0
 43
0.0
 44
0.0
 45
0.0
 46
0.0
 47
0.0
 48
0.0
 49
0.0
140
0.0
141
0.0
142
1.0
143
1.0
 70
  1712
 72
     0
 73
     0
 74
     0
  7

 75
     0
 76
     0
 77
     2
 78
   300
147
1.0
148
0.0
149
0.0
100
AcDbLayout
  1
Model
 70
     1
 71
     0
 10
0.0
 20
0.0
 11
12.0
 21
9.0
 12
0.0
 22
0.0
 32
0.0
 14
1.000000000000000E+20
 24
1.000000000000000E+20
 34
1.000000000000000E+20
 15
-1.000000000000000E+20
 25
-1.000000000000000E+20
 35
-1.000000000000000E+20
146
0.0
 13
0.0
 23
0.0
 33
0.0
 16
1.0
 26
0.0
 36
0.0
 17
0.0
 27
1.0
 37
0.0
 76
     0
330
1F
331
29
  0
MATERIAL
  5
3D
102
{ACAD_REACTORS
330
3B
102
}
330
3B
100
AcDbMaterial
  1
ByBlock
 72
     1
 94
      127
  0
MATERIAL
  5
3C
102
{ACAD_REACTORS
330
3B
102
}
330
3B
100
AcDbMaterial
  1
ByLayer
 72
     1
 94
      127
  0
MATERIAL
  5
3E
102
{ACAD_REACTORS
330
3B
102
}
330
3B
100
AcDbMaterial
  1
Global
 72
     1
 94
      127
  0
MLINESTYLE
  5
18
102
{ACAD_REACTORS
330
17
102
}
330
17
100
AcDbMlineStyle
  2
Standard
 70
     0
  3

 62
   256
 51
90.0
 52
90.0
 71
     2
 49
0.5
 62
   256
  6
BYLAYER
 49
-0.5
 62
   256
  6
BYLAYER
  0
ACDBPLACEHOLDER
  5
F
102
{ACAD_REACTORS
330
E
102
}
330
E
  0
VISUALSTYLE
  5
2F
102
{ACAD_REACTORS
330
2A
102
}
330
2A
100
AcDbVisualStyle
  2
2dWireframe
 70
     4
177
     2
291
     0
 71
     0
176
     1
 72
     2
176
     1
 73
     0
176
     1
 90
        0
176
     1
 40
-0.6
176
     1
 41
-30.0
176
     1
 62
     5
 63
     7
421
 16777215
176
     1
 74
     1
176
     1
 91
        4
176
     1
 64
     7
176
     1
 65
   257
176
     1
 75
     1
176
     1
175
     1
176
     1
 42
1.0
176
     1
 92
        0
176
     1
 66
   257
176
     1
 43
1.0
176
     1
 76
     1
176
     1
 77
     6
176
     1
 78
     2
176
     1
 67
     7
176
     1
 79
     5
176
     1
170
     0
176
     1
171
     0
176
     1
290
     0
176
     1
 93
        1
176
     1
 44
0.0
176
     1
173
     0
176
     1
  0
VISUALSTYLE
  5
31
102
{ACAD_REACTORS
330
2A
102
}
330
2A
100
AcDbVisualStyle
  2
3D Hidden
 70
     6
177
     2
291
     0
 71
     1
176
     1
 72
     2
176
     1
 73
     2
176
     1
 90
        0
176
     1
 40
-0.6
176
     1
 41
-30.0
176
     1
 62
     5
 63
     7
421
 16777215
176
     1
 74
     2
176
     1
 91
        2
176
     1
 64
     7
176
     1
 65
   257
176
     1
 75
     2
176
     1
175
     1
176
     1
 42
40.0
176
     1
 92
        0
176
     1
 66
   257
176
     1
 43
1.0
176
     1
 76
     1
176
     1
 77
     6
176
     1
 78
     2
176
     1
 67
     7
176
     1
 79
     3
176
     1
170
     0
176
     1
171
     0
176
     1
290
     0
176
     1
 93
        1
176
     1
 44
0.0
176
     1
173
     0
176
     1
  0
VISUALSTYLE
  5
30
102
{ACAD_REACTORS
330
2A
102
}
330
2A
100
AcDbVisualStyle
  2
3dWireframe
 70
     5
177
     2
291
     0
 71
     0
176
     1
 72
     2
176
     1
 73
     0
176
     1
 90
        0
176
     1
 40
-0.6
176
     1
 41
-30.0
176
     1
 62
     5
 63
     7
421
 16777215
176
     1
 74
     1
176
     1
 91
        4
176
     1
 64
     7
176
     1
 65
   257
176
     1
 75
     1
176
     1
175
     1
176
     1
 42
1.0
176
     1
 92
        0
176
     1
 66
   257
176
     1
 43
1.0
176
     1
 76
     1
176
     1
 77
     6
176
     1
 78
     2
176
     1
 67
     7
176
     1
 79
     5
176
     1
170
     0
176
     1
171
     0
176
     1
290
     0
176
     1
 93
        1
176
     1
 44
0.0
176
     1
173
     0
176
     1
  0
VISUALSTYLE
  5
32
102
{ACAD_REACTORS
330
2A
102
}
330
2A
100
AcDbVisualStyle
  2
Basic
 70
     7
177
     2
291
     1
 71
     1
176
     1
 72
     0
176
     1
 73
     1
176
     1
 90
        0
176
     1
 40
-0.6
176
     1
 41
-30.0
176
     1
 62
     5
 63
     7
421
 16777215
176
     1
 74
     0
176
     1
 91
        4
176
     1
 64
     7
176
     1
 65
   257
176
     1
 75
     1
176
     1
175
     1
176
     1
 42
1.0
176
     1
 92
        8
176
     1
 66
     7
176
     1
 43
1.0
176
     1
 76
     1
176
     1
 77
     6
176
     1
 78
     2
176
     1
 67
     7
176
     1
 79
     5
176
     1
170
     0
176
     1
171
     0
176
     1
290
     0
176
     1
 93
        1
176
     1
 44
0.0
176
     1
173
     0
176
     1
  0
VISUALSTYLE
  5
36
102
{ACAD_REACTORS
330
2A
102
}
330
2A
100
AcDbVisualStyle
  2
Brighten
 70
    12
177
     2
291
     1
 71
     2
176
     1
 72
     2
176
     1
 73
     0
176
     1
 90
        0
176
     1
 40
-0.6
176
     1
 41
-30.0
176
     1
 62
     5
 63
     7
421
 16777215
176
     1
 74
     1
176
     1
 91
        4
176
     1
 64
     7
176
     1
 65
   257
176
     1
 75
     1
176
     1
175
     1
176
     1
 42
1.0
176
     1
 92
        8
176
     1
 66
     7
176
     1
 43
1.0
176
     1
 76
     1
176
     1
 77
     6
176
     1
 78
     2
176
     1
 67
     7
176
     1
 79
     5
176
     1
170
     0
176
     1
171
     0
176
     1
290
     0
176
     1
 93
        1
176
     1
 44
50.0
176
     1
173
     0
176
     1
  0
VISUALSTYLE
  5
3A
102
{ACAD_REACTORS
330
2A
102
}
330
2A
100
AcDbVisualStyle
  2
ColorChange
 70
    16
177
     2
291
     1
 71
     2
176
     1
 72
     2
176
     1
 73
     3
176
     1
 90
        0
176
     1
 40
-0.6
176
     1
 41
-30.0
176
     1
 62
     5
 63
     8
421
  8421504
176
     1
 74
     1
176
     1
 91
        4
176
     1
 64
     7
176
     1
 65
   257
176
     1
 75
     1
176
     1
175
     1
176
     1
 42
1.0
176
     1
 92
        8
176
     1
 66
     8
424
  8421504
176
     1
 43
1.0
176
     1
 76
     1
176
     1
 77
     6
176
     1
 78
     2
176
     1
 67
     7
176
     1
 79
     5
176
     1
170
     0
176
     1
171
     0
176
     1
290
     0
176
     1
 93
        1
176
     1
 44
0.0
176
     1
173
     0
176
     1
  0
VISUALSTYLE
  5
34
102
{ACAD_REACTORS
330
2A
102
}
330
2A
100
AcDbVisualStyle
  2
Conceptual
 70
     9
177
     2
291
     0
 71
     3
176
     1
 72
     2
176
     1
 73
     0
176
     1
 90
        0
176
     1
 40
-0.6
176
     1
 41
-30.0
176
     1
 62
     5
 63
     7
421
 16777215
176
     1
 74
     2
176
     1
 91
        2
176
     1
 64
     7
176
     1
 65
   257
176
     1
 75
     1
176
     1
175
     1
176
     1
 42
40.0
176
     1
 92
        8
176
     1
 66
     7
176
     1
 43
1.0
176
     1
 76
     1
176
     1
 77
     6
176
     1
 78
     2
176
     1
 67
     7
176
     1
 79
     3
176
     1
170
     0
176
     1
171
     0
176
     1
290
     0
176
     1
 93
        1
176
     1
 44
0.0
176
     1
173
     0
176
     1
  0
VISUALSTYLE
  5
35
102
{ACAD_REACTORS
330
2A
102
}
330
2A
100
AcDbVisualStyle
  2
Dim
 70
    11
177
     2
291
     1
 71
     2
176
     1
 72
     2
176
     1
 73
     0
176
     1
 90
        0
176
     1
 40
-0.6
176
     1
 41
-30.0
176
     1
 62
     5
 63
     7
421
 16777215
176
     1
 74
     1
176
     1
 91
        4
176
     1
 64
     7
176
     1
 65
   257
176
     1
 75
     1
176
     1
175
     1
176
     1
 42
1.0
176
     1
 92
        8
176
     1
 66
     7
176
     1
 43
1.0
176
     1
 76
     1
176
     1
 77
     6
176
     1
 78
     2
176
     1
 67
     7
176
     1
 79
     5
176
     1
170
     0
176
     1
171
     0
176
     1
290
     0
176
     1
 93
        1
176
     1
 44
-50.0
176
     1
173
     0
176
     1
  0
VISUALSTYLE
  5
39
102
{ACAD_REACTORS
330
2A
102
}
330
2A
100
AcDbVisualStyle
  2
Facepattern
 70
    15
177
     2
291
     1
 71
     2
176
     1
 72
     2
176
     1
 73
     0
176
     1
 90
        0
176
     1
 40
-0.6
176
     1
 41
-30.0
176
     1
 62
     5
 63
     7
421
 16777215
176
     1
 74
     1
176
     1
 91
        4
176
     1
 64
     7
176
     1
 65
   257
176
     1
 75
     1
176
     1
175
     1
176
     1
 42
1.0
176
     1
 92
        8
176
     1
 66
     7
176
     1
 43
1.0
176
     1
 76
     1
176
     1
 77
     6
176
     1
 78
     2
176
     1
 67
     7
176
     1
 79
     5
176
     1
170
     0
176
     1
171
     0
176
     1
290
     0
176
     1
 93
        1
176
     1
 44
0.0
176
     1
173
     0
176
     1
  0
VISUALSTYLE
  5
2B
102
{ACAD_REACTORS
330
2A
102
}
330
2A
100
AcDbVisualStyle
  2
Flat
 70
     0
177
     2
291
     1
 71
     2
176
     1
 72
     1
176
     1
 73
     1
176
     1
 90
        2
176
     1
 40
-0.6
176
     1
 41
30.0
176
     1
 62
     5
 63
     7
421
 16777215
176
     1
 74
     0
176
     1
 91
        4
176
     1
 64
     7
176
     1
 65
   257
176
     1
 75
     1
176
     1
175
     1
176
     1
 42
1.0
176
     1
 92
        8
176
     1
 66
     7
176
     1
 43
1.0
176
     1
 76
     1
176
     1
 77
     6
176
     1
 78
     2
176
     1
 67
     7
176
     1
 79
     5
176
     1
170
     0
176
     1
171
     0
176
     1
290
     0
176
     1
 93
       13
176
     1
 44
0.0
176
     1
173
     0
176
     1
  0
VISUALSTYLE
  5
2C
102
{ACAD_REACTORS
330
2A
102
}
330
2A
100
AcDbVisualStyle
  2
FlatWithEdges
 70
     1
177
     2
291
     1
 71
     2
176
     1
 72
     1
176
     1
 73
     1
176
     1
 90
        2
176
     1
 40
-0.6
176
     1
 41
30.0
176
     1
 62
     5
 63
     7
421
 16777215
176
     1
 74
     1
176
     1
 91
        4
176
     1
 64
     7
176
     1
 65
   257
176
     1
 75
     1
176
     1
175
     1
176
     1
 42
1.0
176
     1
 92
        0
176
     1
 66
   257
176
     1
 43
1.0
176
     1
 76
     1
176
     1
 77
     6
176
     1
 78
     2
176
     1
 67
     7
176
     1
 79
     5
176
     1
170
     0
176
     1
171
     0
176
     1
290
     0
176
     1
 93
       13
176
     1
 44
0.0
176
     1
173
     0
176
     1
  0
VISUALSTYLE
  5
2D
102
{ACAD_REACTORS
330
2A
102
}
330
2A
100
AcDbVisualStyle
  2
Gouraud
 70
     2
177
     2
291
     1
 71
     2
176
     1
 72
     2
176
     1
 73
     1
176
     1
 90
        2
176
     1
 40
-0.6
176
     1
 41
30.0
176
     1
 62
     5
 63
     7
421
 16777215
176
     1
 74
     0
176
     1
 91
        4
176
     1
 64
     7
176
     1
 65
   257
176
     1
 75
     1
176
     1
175
     1
176
     1
 42
1.0
176
     1
 92
        0
176
     1
 66
     7
176
     1
 43
1.0
176
     1
 76
     1
176
     1
 77
     6
176
     1
 78
     2
176
     1
 67
     7
176
     1
 79
     5
176
     1
170
     0
176
     1
171
     0
176
     1
290
     0
176
     1
 93
       13
176
     1
 44
0.0
176
     1
173
     0
176
     1
  0
VISUALSTYLE
  5
2E
102
{ACAD_REACTORS
330
2A
102
}
330
2A
100
AcDbVisualStyle
  2
GouraudWithEdges
 70
     3
177
     2
291
     1
 71
     2
176
     1
 72
     2
176
     1
 73
     1
176
     1
 90
        2
176
     1
 40
-0.6
176
     1
 41
30.0
176
     1
 62
     5
 63
     7
421
 16777215
176
     1
 74
     1
176
     1
 91
        4
176
     1
 64
     7
176
     1
 65
   257
176
     1
 75
     1
176
     1
175
     1
176
     1
 42
1.0
176
     1
 92
        0
176
     1
 66
   257
176
     1
 43
1.0
176
     1
 76
     1
176
     1
 77
     6
176
     1
 78
     2
176
     1
 67
     7
176
     1
 79
     5
176
     1
170
     0
176
     1
171
     0
176
     1
290
     0
176
     1
 93
       13
176
     1
 44
0.0
176
     1
173
     0
176
     1
  0
VISUALSTYLE
  5
38
102
{ACAD_REACTORS
330
2A
102
}
330
2A
100
AcDbVisualStyle
  2
Linepattern
 70
    14
177
     2
291
     1
 71
     2
176
     1
 72
     2
176
     1
 73
     0
176
     1
 90
        0
176
     1
 40
-0.6
176
     1
 41
-30.0
176
     1
 62
     5
 63
     7
421
 16777215
176
     1
 74
     1
176
     1
 91
        4
176
     1
 64
     7
176
     1
 65
   257
176
     1
 75
     7
176
     1
175
     7
176
     1
 42
1.0
176
     1
 92
        8
176
     1
 66
     7
176
     1
 43
1.0
176
     1
 76
     1
176
     1
 77
     6
176
     1
 78
     2
176
     1
 67
     7
176
     1
 79
     5
176
     1
170
     0
176
     1
171
     0
176
     1
290
     0
176
     1
 93
        1
176
     1
 44
0.0
176
     1
173
     0
176
     1
  0
VISUALSTYLE
  5
33
102
{ACAD_REACTORS
330
2A
102
}
330
2A
100
AcDbVisualStyle
  2
Realistic
 70
     8
177
     2
291
     0
 71
     2
176
     1
 72
     2
176
     1
 73
     0
176
     1
 90
        0
176
     1
 40
-0.6
176
     1
 41
-30.0
176
     1
 62
     5
 63
     7
421
 16777215
176
     1
 74
     1
176
     1
 91
        0
176
     1
 64
     7
176
     1
 65
   257
176
     1
 75
     1
176
     1
175
     1
176
     1
 42
1.0
176
     1
 92
        8
176
     1
 66
     8
424
  7895160
176
     1
 43
1.0
176
     1
 76
     1
176
     1
 77
     6
176
     1
 78
     2
176
     1
 67
     7
176
     1
 79
     5
176
     1
170
     0
176
     1
171
     0
176
     1
290
     0
176
     1
 93
       13
176
     1
 44
0.0
176
     1
173
     0
176
     1
  0
VISUALSTYLE
  5
37
102
{ACAD_REACTORS
330
2A
102
}
330
2A
100
AcDbVisualStyle
  2
Thicken
 70
    13
177
     2
291
     1
 71
     2
176
     1
 72
     2
176
     1
 73
     0
176
     1
 90
        0
176
     1
 40
-0.6
176
     1
 41
-30.0
176
     1
 62
     5
 63
     7
421
 16777215
176
     1
 74
     1
176
     1
 91
        4
176
     1
 64
     7
176
     1
 65
   257
176
     1
 75
     1
176
     1
175
     1
176
     1
 42
1.0
176
     1
 92
       12
176
     1
 66
     7
176
     1
 43
1.0
176
     1
 76
     1
176
     1
 77
     6
176
     1
 78
     2
176
     1
 67
     7
176
     1
 79
     5
176
     1
170
     0
176
     1
171
     0
176
     1
290
     0
176
     1
 93
        1
176
     1
 44
0.0
176
     1
173
     0
176
     1
  0
ENDSEC
  0
EOF
