  0
SECTION
  2
HEADER
  9
$ACADVER
  1
AC1024
  9
$ACADMAINTVER
 70
     6
  9
$DWGCODEPAGE
  3
UNDEFINED
  9
$INSBASE
 10
0.0
 20
0.0
 30
0.0
  9
$EXTMIN
 10
1.000000000000000E+20
 20
1.000000000000000E+20
 30
1.000000000000000E+20
  9
$EXTMAX
 10
-1.000000000000000E+20
 20
-1.000000000000000E+20
 30
-1.000000000000000E+20
  9
$LIMMIN
 10
0.0
 20
0.0
  9
$LIMMAX
 10
12.0
 20
9.0
  9
$ORTHOMODE
 70
     0
  9
$REGENMODE
 70
     1
  9
$FILLMODE
 70
     1
  9
$QTEXTMODE
 70
     0
  9
$MIRRTEXT
 70
     1
  9
$LTSCALE
 40
1.0
  9
$ATTMODE
 70
     1
  9
$TEXTSIZE
 40
0.2
  9
$TRACEWID
 40
0.05
  9
$TEXTSTYLE
  7
Standard
  9
$CLAYER
  8
0
  9
$CELTYPE
  6
ByLayer
  9
$CECOLOR
 62
   256
  9
$CELTSCALE
 40
1.0
  9
$DISPSILH
 70
     0
  9
$DIMSCALE
 40
1.0
  9
$DIMASZ
 40
0.18
  9
$DIMEXO
 40
0.0625
  9
$DIMDLI
 40
0.38
  9
$DIMRND
 40
0.0
  9
$DIMDLE
 40
0.0
  9
$DIMEXE
 40
0.18
  9
$DIMTP
 40
0.0
  9
$DIMTM
 40
0.0
  9
$DIMTXT
 40
0.18
  9
$DIMCEN
 40
0.09
  9
$DIMTSZ
 40
0.0
  9
$DIMTOL
 70
     0
  9
$DIMLIM
 70
     0
  9
$DIMTIH
 70
     1
  9
$DIMTOH
 70
     1
  9
$DIMSE1
 70
     0
  9
$DIMSE2
 70
     0
  9
$DIMTAD
 70
     0
  9
$DIMZIN
 70
     0
  9
$DIMBLK
  1

  9
$DIMASO
 70
     1
  9
$DIMSHO
 70
     1
  9
$DIMPOST
  1

  9
$DIMAPOST
  1

  9
$DIMALT
 70
     0
  9
$DIMALTD
 70
     2
  9
$DIMALTF
 40
25.4
  9
$DIMLFAC
 40
1.0
  9
$DIMTOFL
 70
     0
  9
$DIMTVP
 40
0.0
  9
$DIMTIX
 70
     0
  9
$DIMSOXD
 70
     0
  9
$DIMSAH
 70
     0
  9
$DIMBLK1
  1

  9
$DIMBLK2
  1

  9
$DIMSTYLE
  2
Standard
  9
$DIMCLRD
 70
     0
  9
$DIMCLRE
 70
     0
  9
$DIMCLRT
 70
     0
  9
$DIMTFAC
 40
1.0
  9
$DIMGAP
 40
0.09
  9
$DIMJUST
 70
     0
  9
$DIMSD1
 70
     0
  9
$DIMSD2
 70
     0
  9
$DIMTOLJ
 70
     1
  9
$DIMTZIN
 70
     0
  9
$DIMALTZ
 70
     0
  9
$DIMALTTZ
 70
     0
  9
$DIMUPT
 70
     0
  9
$DIMDEC
 70
     4
  9
$DIMTDEC
 70
     4
  9
$DIMALTU
 70
     2
  9
$DIMALTTD
 70
     2
  9
$DIMTXSTY
  7
Standard
  9
$DIMAUNIT
 70
     0
  9
$DIMADEC
 70
     0
  9
$DIMALTRND
 40
0.0
  9
$DIMAZIN
 70
     0
  9
$DIMDSEP
 70
    46
  9
$DIMATFIT
 70
     3
  9
$DIMFRAC
 70
     0
  9
$DIMLDRBLK
  1

  9
$DIMLUNIT
 70
     2
  9
$DIMLWD
 70
    -2
  9
$DIMLWE
 70
    -2
  9
$DIMTMOVE
 70
     0
  9
$DIMFXL
 40
1.0
  9
$DIMFXLON
 70
     0
  9
$DIMJOGANG
 40
0.7853981633974483
  9
$DIMTFILL
 70
     0
  9
$DIMTFILLCLR
 70
     0
  9
$DIMARCSYM
 70
     0
  9
$DIMLTYPE
  6

  9
$DIMLTEX1
  6

  9
$DIMLTEX2
  6

  9
$DIMTXTDIRECTION
 70
     0
  9
$LUNITS
 70
     2
  9
$LUPREC
 70
     4
  9
$SKETCHINC
 40
0.1
  9
$FILLETRAD
 40
0.5
  9
$AUNITS
 70
     0
  9
$AUPREC
 70
     0
  9
$MENU
  1
.
  9
$ELEVATION
 40
0.0
  9
$PELEVATION
 40
0.0
  9
$THICKNESS
 40
0.0
  9
$LIMCHECK
 70
     0
  9
$CHAMFERA
 40
0.5
  9
$CHAMFERB
 40
0.5
  9
$CHAMFERC
 40
1.0
  9
$CHAMFERD
 40
0.0
  9
$SKPOLY
 70
     0
  9
$TDCREATE
 40
2457917.61587963
  9
$TDUCREATE
 40
2457917.24087963
  9
$TDUPDATE
 40
2457917.61587963
  9
$TDUUPDATE
 40
2457917.24087963
  9
$TDINDWG
 40
0.0000000116
  9
$TDUSRTIMER
 40
0.0000000116
  9
$USRTIMER
 70
     1
  9
$ANGBASE
 50
0.0
  9
$ANGDIR
 70
     0
  9
$PDMODE
 70
     0
  9
$PDSIZE
 40
0.0
  9
$PLINEWID
 40
0.0
  9
$SPLFRAME
 70
     0
  9
$SPLINETYPE
 70
     6
  9
$SPLINESEGS
 70
     8
  9
$HANDSEED
  5
EA
  9
$SURFTAB1
 70
     6
  9
$SURFTAB2
 70
     6
  9
$SURFTYPE
 70
     6
  9
$SURFU
 70
     6
  9
$SURFV
 70
     6
  9
$UCSBASE
  2

  9
$UCSNAME
  2

  9
$UCSORG
 10
0.0
 20
0.0
 30
0.0
  9
$UCSXDIR
 10
1.0
 20
0.0
 30
0.0
  9
$UCSYDIR
 10
0.0
 20
1.0
 30
0.0
  9
$UCSORTHOREF
  2

  9
$UCSORTHOVIEW
 70
     0
  9
$UCSORGTOP
 10
0.0
 20
0.0
 30
0.0
  9
$UCSORGBOTTOM
 10
0.0
 20
0.0
 30
0.0
  9
$UCSORGLEFT
 10
0.0
 20
0.0
 30
0.0
  9
$UCSORGRIGHT
 10
0.0
 20
0.0
 30
0.0
  9
$UCSORGFRONT
 10
0.0
 20
0.0
 30
0.0
  9
$UCSORGBACK
 10
0.0
 20
0.0
 30
0.0
  9
$PUCSBASE
  2

  9
$PUCSNAME
  2

  9
$PUCSORG
 10
0.0
 20
0.0
 30
0.0
  9
$PUCSXDIR
 10
1.0
 20
0.0
 30
0.0
  9
$PUCSYDIR
 10
0.0
 20
1.0
 30
0.0
  9
$PUCSORTHOREF
  2

  9
$PUCSORTHOVIEW
 70
     0
  9
$PUCSORGTOP
 10
0.0
 20
0.0
 30
0.0
  9
$PUCSORGBOTTOM
 10
0.0
 20
0.0
 30
0.0
  9
$PUCSORGLEFT
 10
0.0
 20
0.0
 30
0.0
  9
$PUCSORGRIGHT
 10
0.0
 20
0.0
 30
0.0
  9
$PUCSORGFRONT
 10
0.0
 20
0.0
 30
0.0
  9
$PUCSORGBACK
 10
0.0
 20
0.0
 30
0.0
  9
$USERI1
 70
     0
  9
$USERI2
 70
     0
  9
$USERI3
 70
     0
  9
$USERI4
 70
     0
  9
$USERI5
 70
     0
  9
$USERR1
 40
0.0
  9
$USERR2
 40
0.0
  9
$USERR3
 40
0.0
  9
$USERR4
 40
0.0
  9
$USERR5
 40
0.0
  9
$WORLDVIEW
 70
     1
  9
$SHADEDGE
 70
     3
  9
$SHADEDIF
 70
    70
  9
$TILEMODE
 70
     1
  9
$MAXACTVP
 70
    64
  9
$PINSBASE
 10
0.0
 20
0.0
 30
0.0
  9
$PLIMCHECK
 70
     0
  9
$PEXTMIN
 10
1.000000000000000E+20
 20
1.000000000000000E+20
 30
1.000000000000000E+20
  9
$PEXTMAX
 10
-1.000000000000000E+20
 20
-1.000000000000000E+20
 30
-1.000000000000000E+20
  9
$PLIMMIN
 10
0.0
 20
0.0
  9
$PLIMMAX
 10
12.0
 20
9.0
  9
$UNITMODE
 70
     0
  9
$VISRETAIN
 70
     1
  9
$PLINEGEN
 70
     0
  9
$PSLTSCALE
 70
     1
  9
$TREEDEPTH
 70
  3020
  9
$CMLSTYLE
  2
Standard
  9
$CMLJUST
 70
     0
  9
$CMLSCALE
 40
1.0
  9
$PROXYGRAPHICS
 70
     1
  9
$MEASUREMENT
 70
     0
  9
$CELWEIGHT
370
    -1
  9
$ENDCAPS
280
     0
  9
$JOINSTYLE
280
     0
  9
$LWDISPLAY
290
     1
  9
$INSUNITS
 70
     1
  9
$HYPERLINKBASE
  1

  9
$STYLESHEET
  1

  9
$XEDIT
290
     1
  9
$CEPSNTYPE
380
     0
  9
$PSTYLEMODE
290
     1
  9
$FINGERPRINTGUID
  2
{2D8D05AF-87AA-590D-9F01-247DF594F83A}
  9
$VERSIONGUID
  2
{FAEB1C32-E019-11D5-929B-00C0DF256EC4}
  9
$EXTNAMES
290
     1
  9
$PSVPSCALE
 40
0.0
  9
$OLESTARTUP
290
     0
  9
$SORTENTS
280
   127
  9
$INDEXCTL
280
     0
  9
$HIDETEXT
280
     1
  9
$XCLIPFRAME
280
     2
  9
$HALOGAP
280
     0
  9
$OBSCOLOR
 70
   257
  9
$OBSLTYPE
280
     0
  9
$INTERSECTIONDISPLAY
280
     0
  9
$INTERSECTIONCOLOR
 70
   257
  9
$DIMASSOC
280
     2
  9
$PROJECTNAME
  1

  9
$CAMERADISPLAY
290
     0
  9
$LENSLENGTH
 40
50.0
  9
$CAMERAHEIGHT
 40
0.0
  9
$STEPSPERSEC
 40
2.0
  9
$STEPSIZE
 40
6.0
  9
$3DDWFPREC
 40
2.0
  9
$PSOLWIDTH
 40
0.25
  9
$PSOLHEIGHT
 40
4.0
  9
$LOFTANG1
 40
1.570796326794897
  9
$LOFTANG2
 40
1.570796326794897
  9
$LOFTMAG1
 40
0.0
  9
$LOFTMAG2
 40
0.0
  9
$LOFTPARAM
 70
     7
  9
$LOFTNORMALS
280
     1
  9
$LATITUDE
 40
37.795
  9
$LONGITUDE
 40
-122.394
  9
$NORTHDIRECTION
 40
0.0
  9
$TIMEZONE
 70
 -8000
  9
$LIGHTGLYPHDISPLAY
280
     1
  9
$TILEMODELIGHTSYNCH
280
     1
  9
$CMATERIAL
347
3C
  9
$SOLIDHIST
280
     1
  9
$SHOWHIST
280
     1
  9
$DWFFRAME
280
     2
  9
$DGNFRAME
280
     2
  9
$REALWORLDSCALE
290
     1
  9
$INTERFERECOLOR
 62
   256
  9
$CSHADOW
280
     0
  9
$SHADOWPLANELOCATION
 40
0.0
  0
ENDSEC
  0
SECTION
  2
CLASSES
  0
CLASS
  1
ACDBDICTIONARYWDFLT
  2
AcDbDictionaryWithDefault
  3
ObjectDBX Classes
 90
        0
 91
        4
280
     0
281
     0
  0
CLASS
  1
VISUALSTYLE
  2
AcDbVisualStyle
  3
ObjectDBX Classes
 90
     4095
 91
        4
280
     0
281
     0
  0
CLASS
  1
MATERIAL
  2
AcDbMaterial
  3
ObjectDBX Classes
 90
     1153
 91
        4
280
     0
281
     0
  0
CLASS
  1
SUN
  2
AcDbSun
  3
SCENEOE
 90
     1024
 91
        4
280
     0
281
     0
  0
ENDSEC
  0
SECTION
  2
TABLES
  0
TABLE
  2
VPORT
  5
8
330
0
100
AcDbSymbolTable
 70
     1
  0
VPORT
  5
29
330
8
100
AcDbSymbolTableRecord
100
AcDbViewportTableRecord
  2
*Active
 70
     0
 10
0.0
 20
0.0
 11
1.0
 21
1.0
 12
0.0
 22
0.0
 13
0.0
 23
0.0
 14
0.5
 24
0.5
 15
0.5
 25
0.5
 16
0.0
 26
0.0
 36
1.0
 17
91.00082462281999
 27
-128.4993055234307
 37
0.0
 40
256.9986110468615
 41
0.7081814508812795
 42
50.0
 43
0.0
 44
0.0
 50
0.0
 51
0.0
 71
     0
 72
   100
 73
     1
 74
     3
 75
     0
 76
     0
 77
     0
 78
     0
281
     0
 65
     1
110
0.0
120
0.0
130
0.0
111
1.0
121
0.0
131
0.0
112
0.0
122
1.0
132
0.0
 79
     0
146
0.0
 60
     3
 61
     5
292
     1
282
     1
141
0.0
142
0.0
 63
   250
361
3F
  0
ENDTAB
  0
TABLE
  2
LTYPE
  5
5
330
0
100
AcDbSymbolTable
 70
     1
  0
LTYPE
  5
14
330
5
100
AcDbSymbolTableRecord
100
AcDbLinetypeTableRecord
  2
ByBlock
 70
     0
  3

 72
    65
 73
     0
 40
0.0
  0
LTYPE
  5
15
330
5
100
AcDbSymbolTableRecord
100
AcDbLinetypeTableRecord
  2
ByLayer
 70
     0
  3

 72
    65
 73
     0
 40
0.0
  0
LTYPE
  5
16
330
5
100
AcDbSymbolTableRecord
100
AcDbLinetypeTableRecord
  2
Continuous
 70
     0
  3
Solid line
 72
    65
 73
     0
 40
0.0
  0
ENDTAB
  0
TABLE
  2
LAYER
  5
2
330
0
100
AcDbSymbolTable
 70
     2
  0
LAYER
  5
10
330
2
100
AcDbSymbolTableRecord
100
AcDbLayerTableRecord
  2
0
 70
     0
 62
     7
  6
Continuous
370
    -3
390
F
347
3E
  0
LAYER
  5
40
330
2
100
AcDbSymbolTableRecord
100
AcDbLayerTableRecord
  2
_U+30EC_U+30A4_U+30E4_U+30FC 1
 70
     0
 62
     7
  6
Continuous
370
    -3
390
F
347
3E
  0
ENDTAB
  0
TABLE
  2
STYLE
  5
3
330
0
100
AcDbSymbolTable
 70
     1
  0
STYLE
  5
11
330
3
100
AcDbSymbolTableRecord
100
AcDbTextStyleTableRecord
  2
Standard
 70
     0
 40
0.0
 41
1.0
 50
0.0
 71
     0
 42
0.2
  3
txt
  4

  0
ENDTAB
  0
TABLE
  2
VIEW
  5
6
330
0
100
AcDbSymbolTable
 70
     0
  0
ENDTAB
  0
TABLE
  2
UCS
  5
7
330
0
100
AcDbSymbolTable
 70
     0
  0
ENDTAB
  0
TABLE
  2
APPID
  5
9
330
0
100
AcDbSymbolTable
 70
     1
  0
APPID
  5
12
330
9
100
AcDbSymbolTableRecord
100
AcDbRegAppTableRecord
  2
ACAD
 70
     0
  0
ENDTAB
  0
TABLE
  2
DIMSTYLE
  5
A
330
0
100
AcDbSymbolTable
 70
     1
100
AcDbDimStyleTable
  0
DIMSTYLE
105
27
330
A
100
AcDbSymbolTableRecord
100
AcDbDimStyleTableRecord
  2
Standard
 70
     0
178
     0
340
11
  0
ENDTAB
  0
TABLE
  2
BLOCK_RECORD
  5
1
330
0
100
AcDbSymbolTable
 70
     7
  0
BLOCK_RECORD
  5
1F
330
1
100
AcDbSymbolTableRecord
100
AcDbBlockTableRecord
  2
*Model_Space
340
22
 70
     0
280
     1
281
     0
  0
BLOCK_RECORD
  5
1B
330
1
100
AcDbSymbolTableRecord
100
AcDbBlockTableRecord
  2
*Paper_Space
340
1E
 70
     0
280
     1
281
     0
  0
BLOCK_RECORD
  5
23
330
1
100
AcDbSymbolTableRecord
100
AcDbBlockTableRecord
  2
*Paper_Space0
340
26
 70
     0
280
     1
281
     0
  0
BLOCK_RECORD
  5
41
330
1
100
AcDbSymbolTableRecord
100
AcDbBlockTableRecord
  2
block 2
340
0
102
{BLKREFS
331
42
102
}
 70
     0
280
     1
281
     0
  0
BLOCK_RECORD
  5
7A
330
1
100
AcDbSymbolTableRecord
100
AcDbBlockTableRecord
  2
block 3
340
0
102
{BLKREFS
331
7B
102
}
 70
     0
280
     1
281
     0
  0
BLOCK_RECORD
  5
8C
330
1
100
AcDbSymbolTableRecord
100
AcDbBlockTableRecord
  2
block 4
340
0
102
{BLKREFS
331
8D
102
}
 70
     0
280
     1
281
     0
  0
BLOCK_RECORD
  5
A1
330
1
100
AcDbSymbolTableRecord
100
AcDbBlockTableRecord
  2
block 5
340
0
102
{BLKREFS
331
A2
102
}
 70
     0
280
     1
281
     0
  0
BLOCK_RECORD
  5
B5
330
1
100
AcDbSymbolTableRecord
100
AcDbBlockTableRecord
  2
block 6
340
0
102
{BLKREFS
331
B6
102
}
 70
     0
280
     1
281
     0
  0
BLOCK_RECORD
  5
D6
330
1
100
AcDbSymbolTableRecord
100
AcDbBlockTableRecord
  2
block 7
340
0
102
{BLKREFS
331
D7
102
}
 70
     0
280
     1
281
     0
  0
ENDTAB
  0
ENDSEC
  0
SECTION
  2
BLOCKS
  0
BLOCK
  5
20
330
1F
100
AcDbEntity
  8
0
100
AcDbBlockBegin
  2
*Model_Space
 70
     0
 10
0.0
 20
0.0
 30
0.0
  3
*Model_Space
  1

  0
ENDBLK
  5
21
330
1F
100
AcDbEntity
  8
0
100
AcDbBlockEnd
  0
BLOCK
  5
1C
330
1B
100
AcDbEntity
 67
     1
  8
0
100
AcDbBlockBegin
  2
*Paper_Space
 70
     0
 10
0.0
 20
0.0
 30
0.0
  3
*Paper_Space
  1

  0
ENDBLK
  5
1D
330
1B
100
AcDbEntity
 67
     1
  8
0
100
AcDbBlockEnd
  0
BLOCK
  5
24
330
23
100
AcDbEntity
  8
0
100
AcDbBlockBegin
  2
*Paper_Space0
 70
     0
 10
0.0
 20
0.0
 30
0.0
  3
*Paper_Space0
  1

  0
ENDBLK
  5
25
330
23
100
AcDbEntity
  8
0
100
AcDbBlockEnd
  0
BLOCK
  5
43
330
41
100
AcDbEntity
  8
0
100
AcDbBlockBegin
  2
block 2
 70
     0
 10
0.0
 20
0.0
 30
0.0
  3
block 2
  1

  0
POLYLINE
  5
45
330
41
100
AcDbEntity
  8
_U+30EC_U+30A4_U+30E4_U+30FC 1
370
     0
100
AcDb2dPolyline
 66
     1
 10
0.0
 20
0.0
 30
0.0
  0
VERTEX
  5
46
330
45
100
AcDbEntity
  8
_U+30EC_U+30A4_U+30E4_U+30FC 1
370
     0
100
AcDbVertex
100
AcDb2dVertex
 10
73.61374895529013
 20
-125.6586683019186
 30
0.0
  0
VERTEX
  5
47
330
45
100
AcDbEntity
  8
_U+30EC_U+30A4_U+30E4_U+30FC 1
370
     0
100
AcDbVertex
100
AcDb2dVertex
 10
85.60166670500843
 20
-125.6586683019186
 30
0.0
  0
VERTEX
  5
48
330
45
100
AcDbEntity
  8
_U+30EC_U+30A4_U+30E4_U+30FC 1
370
     0
100
AcDbVertex
100
AcDb2dVertex
 10
85.60166670500843
 20
-134.8582660773967
 30
0.0
  0
VERTEX
  5
49
330
45
100
AcDbEntity
  8
_U+30EC_U+30A4_U+30E4_U+30FC 1
370
     0
100
AcDbVertex
100
AcDb2dVertex
 10
89.59073886649108
 20
-134.8582660773967
 30
0.0
  0
VERTEX
  5
4A
330
45
100
AcDbEntity
  8
_U+30EC_U+30A4_U+30E4_U+30FC 1
370
     0
100
AcDbVertex
100
AcDb2dVertex
 10
89.59073886649108
 20
-133.8578235776468
 30
0.0
  0
VERTEX
  5
4B
330
45
100
AcDbEntity
  8
_U+30EC_U+30A4_U+30E4_U+30FC 1
370
     0
100
AcDbVertex
100
AcDb2dVertex
 10
86.50220251536719
 20
-133.8578235776468
 30
0.0
  0
VERTEX
  5
4C
330
45
100
AcDbEntity
  8
_U+30EC_U+30A4_U+30E4_U+30FC 1
370
     0
100
AcDbVertex
100
AcDb2dVertex
 10
86.50220251536719
 20
-125.6586683019186
 30
0.0
  0
VERTEX
  5
4D
330
45
100
AcDbEntity
  8
_U+30EC_U+30A4_U+30E4_U+30FC 1
370
     0
100
AcDbVertex
100
AcDb2dVertex
 10
102.6018157157429
 20
-125.6586683019186
 30
0.0
  0
VERTEX
  5
4E
330
45
100
AcDbEntity
  8
_U+30EC_U+30A4_U+30E4_U+30FC 1
370
     0
100
AcDbVertex
100
AcDb2dVertex
 10
102.6018157157429
 20
-124.6588960799464
 30
0.0
  0
VERTEX
  5
4F
330
45
100
AcDbEntity
  8
_U+30EC_U+30A4_U+30E4_U+30FC 1
370
     0
100
AcDbVertex
100
AcDb2dVertex
 10
73.61374895529013
 20
-124.6588960799464
 30
0.0
  0
VERTEX
  5
50
330
45
100
AcDbEntity
  8
_U+30EC_U+30A4_U+30E4_U+30FC 1
370
     0
100
AcDbVertex
100
AcDb2dVertex
 10
73.61374895529013
 20
-125.6586683019186
 30
0.0
  0
SEQEND
  5
52
330
45
100
AcDbEntity
  8
_U+30EC_U+30A4_U+30E4_U+30FC 1
370
     0
  0
HATCH
  5
51
330
41
100
AcDbEntity
  8
_U+30EC_U+30A4_U+30E4_U+30FC 1
 62
   253
420
 11711154
100
AcDbHatch
 10
0.0
 20
0.0
 30
0.0
210
0.0
220
0.0
230
1.0
  2
SOLID
 70
     1
 71
     0
 91
        1
 92
        1
 93
       10
 72
     1
 10
73.61374895529013
 20
-125.6586683019186
 11
85.60166670500843
 21
-125.6586683019186
 72
     1
 10
85.60166670500843
 20
-125.6586683019186
 11
85.60166670500843
 21
-134.8582660773967
 72
     1
 10
85.60166670500843
 20
-134.8582660773967
 11
89.59073886649108
 21
-134.8582660773967
 72
     1
 10
89.59073886649108
 20
-134.8582660773967
 11
89.59073886649108
 21
-133.8578235776468
 72
     1
 10
89.59073886649108
 20
-133.8578235776468
 11
86.50220251536719
 21
-133.8578235776468
 72
     1
 10
86.50220251536719
 20
-133.8578235776468
 11
86.50220251536719
 21
-125.6586683019186
 72
     1
 10
86.50220251536719
 20
-125.6586683019186
 11
102.6018157157429
 21
-125.6586683019186
 72
     1
 10
102.6018157157429
 20
-125.6586683019186
 11
102.6018157157429
 21
-124.6588960799464
 72
     1
 10
102.6018157157429
 20
-124.6588960799464
 11
73.61374895529013
 21
-124.6588960799464
 72
     1
 10
73.61374895529013
 20
-124.6588960799464
 11
73.61374895529013
 21
-125.6586683019186
 97
        0
 75
     2
 76
     1
 98
        0
  0
POLYLINE
  5
53
330
41
100
AcDbEntity
  8
_U+30EC_U+30A4_U+30E4_U+30FC 1
 62
     7
420
 16777215
370
    25
100
AcDb2dPolyline
 66
     1
 10
0.0
 20
0.0
 30
0.0
  0
VERTEX
  5
54
330
53
100
AcDbEntity
  8
_U+30EC_U+30A4_U+30E4_U+30FC 1
 62
     7
420
 16777215
370
    25
100
AcDbVertex
100
AcDb2dVertex
 10
85.60166670500843
 20
-125.6586683019186
 30
0.0
  0
VERTEX
  5
55
330
53
100
AcDbEntity
  8
_U+30EC_U+30A4_U+30E4_U+30FC 1
 62
     7
420
 16777215
370
    25
100
AcDbVertex
100
AcDb2dVertex
 10
73.60274228890427
 20
-125.6586683019186
 30
0.0
  0
VERTEX
  5
56
330
53
100
AcDbEntity
  8
_U+30EC_U+30A4_U+30E4_U+30FC 1
 62
     7
420
 16777215
370
    25
100
AcDbVertex
100
AcDb2dVertex
 10
73.5861970115486
 20
-125.6586683019186
 30
0.0
  0
VERTEX
  5
57
330
53
100
AcDbEntity
  8
_U+30EC_U+30A4_U+30E4_U+30FC 1
 62
     7
420
 16777215
370
    25
100
AcDbVertex
100
AcDb2dVertex
 10
73.5861970115486
 20
-124.6588960799464
 30
0.0
  0
VERTEX
  5
58
330
53
100
AcDbEntity
  8
_U+30EC_U+30A4_U+30E4_U+30FC 1
 62
     7
420
 16777215
370
    25
100
AcDbVertex
100
AcDb2dVertex
 10
73.60274228890427
 20
-124.6588960799464
 30
0.0
  0
VERTEX
  5
59
330
53
100
AcDbEntity
  8
_U+30EC_U+30A4_U+30E4_U+30FC 1
 62
     7
420
 16777215
370
    25
100
AcDbVertex
100
AcDb2dVertex
 10
102.6018157157429
 20
-124.6588960799464
 30
0.0
  0
VERTEX
  5
5A
330
53
100
AcDbEntity
  8
_U+30EC_U+30A4_U+30E4_U+30FC 1
 62
     7
420
 16777215
370
    25
100
AcDbVertex
100
AcDb2dVertex
 10
102.6018157157429
 20
-125.6586683019186
 30
0.0
  0
VERTEX
  5
5B
330
53
100
AcDbEntity
  8
_U+30EC_U+30A4_U+30E4_U+30FC 1
 62
     7
420
 16777215
370
    25
100
AcDbVertex
100
AcDb2dVertex
 10
86.50220251536719
 20
-125.6586683019186
 30
0.0
  0
VERTEX
  5
5C
330
53
100
AcDbEntity
  8
_U+30EC_U+30A4_U+30E4_U+30FC 1
 62
     7
420
 16777215
370
    25
100
AcDbVertex
100
AcDb2dVertex
 10
86.50220251536719
 20
-133.8578235776468
 30
0.0
  0
VERTEX
  5
5D
330
53
100
AcDbEntity
  8
_U+30EC_U+30A4_U+30E4_U+30FC 1
 62
     7
420
 16777215
370
    25
100
AcDbVertex
100
AcDb2dVertex
 10
89.59073886649108
 20
-133.8578235776468
 30
0.0
  0
VERTEX
  5
5E
330
53
100
AcDbEntity
  8
_U+30EC_U+30A4_U+30E4_U+30FC 1
 62
     7
420
 16777215
370
    25
100
AcDbVertex
100
AcDb2dVertex
 10
89.59073886649108
 20
-134.8582660773967
 30
0.0
  0
VERTEX
  5
5F
330
53
100
AcDbEntity
  8
_U+30EC_U+30A4_U+30E4_U+30FC 1
 62
     7
420
 16777215
370
    25
100
AcDbVertex
100
AcDb2dVertex
 10
85.60166670500843
 20
-134.8582660773967
 30
0.0
  0
VERTEX
  5
60
330
53
100
AcDbEntity
  8
_U+30EC_U+30A4_U+30E4_U+30FC 1
 62
     7
420
 16777215
370
    25
100
AcDbVertex
100
AcDb2dVertex
 10
85.60166670500843
 20
-125.6586683019186
 30
0.0
  0
SEQEND
  5
61
330
53
100
AcDbEntity
  8
_U+30EC_U+30A4_U+30E4_U+30FC 1
 62
     7
420
 16777215
370
    25
  0
SPLINE
  5
62
330
41
100
AcDbEntity
  8
_U+30EC_U+30A4_U+30E4_U+30FC 1
 62
     7
420
 16777215
370
     9
100
AcDbSpline
210
0.0
220
0.0
230
1.0
 70
    11
 71
     3
 72
    17
 73
    13
 74
     0
 42
0.0000000001
 43
0.0000000001
 12
1.0
 22
0.0
 32
0.0
 13
1.0
 23
0.0
 33
0.0
 40
0.0
 40
0.0
 40
0.0
 40
0.0
 40
1.0
 40
1.0
 40
1.0
 40
2.0
 40
2.0
 40
2.0
 40
3.0
 40
3.0
 40
3.0
 40
4.0
 40
4.0
 40
4.0
 40
4.0
 10
73.68610553713395
 20
-120.6591369142795
 30
0.0
 10
73.68610553713395
 20
-120.6039977476268
 30
0.0
 10
73.64133617680855
 20
-120.5592302476379
 30
0.0
 10
73.5861970115486
 20
-120.5592302476379
 30
0.0
 10
73.53109312406553
 20
-120.5592302476379
 30
0.0
 10
73.48629034743077
 20
-120.6039977476268
 30
0.0
 10
73.48629034743077
 20
-120.6591369142795
 30
0.0
 10
73.48629034743077
 20
-120.7142408031548
 30
0.0
 10
73.53109312406553
 20
-120.7590435809215
 30
0.0
 10
73.5861970115486
 20
-120.7590435809215
 30
0.0
 10
73.64133617680855
 20
-120.7590435809215
 30
0.0
 10
73.68610553713395
 20
-120.7142408031548
 30
0.0
 10
73.68610553713395
 20
-120.6591369142795
 30
0.0
  0
SPLINE
  5
63
330
41
100
AcDbEntity
  8
_U+30EC_U+30A4_U+30E4_U+30FC 1
 62
     7
420
 16777215
370
     9
100
AcDbSpline
210
0.0
220
0.0
230
1.0
 70
    11
 71
     3
 72
    17
 73
    13
 74
     0
 42
0.0000000001
 43
0.0000000001
 12
1.0
 22
0.0
 32
0.0
 13
1.0
 23
0.0
 33
0.0
 40
0.0
 40
0.0
 40
0.0
 40
0.0
 40
1.0
 40
1.0
 40
1.0
 40
2.0
 40
2.0
 40
2.0
 40
3.0
 40
3.0
 40
3.0
 40
4.0
 40
4.0
 40
4.0
 40
4.0
 10
102.7017249743244
 20
-120.6591369142795
 30
0.0
 10
102.7017249743244
 20
-120.6039977476268
 30
0.0
 10
102.6569548810029
 20
-120.5592302476379
 30
0.0
 10
102.6018157157429
 20
-120.5592302476379
 30
0.0
 10
102.5467118282599
 20
-120.5592302476379
 30
0.0
 10
102.5019090516251
 20
-120.6039977476268
 30
0.0
 10
102.5019090516251
 20
-120.6591369142795
 30
0.0
 10
102.5019090516251
 20
-120.7142408031548
 30
0.0
 10
102.5467118282599
 20
-120.7590435809215
 30
0.0
 10
102.6018157157429
 20
-120.7590435809215
 30
0.0
 10
102.6569548810029
 20
-120.7590435809215
 30
0.0
 10
102.7017249743244
 20
-120.7142408031548
 30
0.0
 10
102.7017249743244
 20
-120.6591369142795
 30
0.0
  0
SPLINE
  5
64
330
41
100
AcDbEntity
  8
_U+30EC_U+30A4_U+30E4_U+30FC 1
 62
     7
420
 16777215
370
     9
100
AcDbSpline
210
0.0
220
0.0
230
1.0
 70
    11
 71
     3
 72
    17
 73
    13
 74
     0
 42
0.0000000001
 43
0.0000000001
 12
1.0
 22
0.0
 32
0.0
 13
1.0
 23
0.0
 33
0.0
 40
0.0
 40
0.0
 40
0.0
 40
0.0
 40
1.0
 40
1.0
 40
1.0
 40
2.0
 40
2.0
 40
2.0
 40
3.0
 40
3.0
 40
3.0
 40
4.0
 40
4.0
 40
4.0
 40
4.0
 10
106.7014814444851
 20
-125.6586683019186
 30
0.0
 10
106.7014814444851
 20
-125.6035291352659
 30
0.0
 10
106.6567166400028
 20
-125.558761635277
 30
0.0
 10
106.6015747803673
 20
-125.558761635277
 30
0.0
 10
106.5464708928842
 20
-125.558761635277
 30
0.0
 10
106.5016681162494
 20
-125.6035291352659
 30
0.0
 10
106.5016681162494
 20
-125.6586683019186
 30
0.0
 10
106.5016681162494
 20
-125.7144777463491
 30
0.0
 10
106.5464708928842
 20
-125.759245246338
 30
0.0
 10
106.6015747803673
 20
-125.759245246338
 30
0.0
 10
106.6567166400028
 20
-125.759245246338
 30
0.0
 10
106.7014814444851
 20
-125.7144777463491
 30
0.0
 10
106.7014814444851
 20
-125.6586683019186
 30
0.0
  0
SPLINE
  5
65
330
41
100
AcDbEntity
  8
_U+30EC_U+30A4_U+30E4_U+30FC 1
 62
     7
420
 16777215
370
     9
100
AcDbSpline
210
0.0
220
0.0
230
1.0
 70
    11
 71
     3
 72
    17
 73
    13
 74
     0
 42
0.0000000001
 43
0.0000000001
 12
1.0
 22
0.0
 32
0.0
 13
1.0
 23
0.0
 33
0.0
 40
0.0
 40
0.0
 40
0.0
 40
0.0
 40
1.0
 40
1.0
 40
1.0
 40
2.0
 40
2.0
 40
2.0
 40
3.0
 40
3.0
 40
3.0
 40
4.0
 40
4.0
 40
4.0
 40
4.0
 10
106.7014814444851
 20
-124.6588960799464
 30
0.0
 10
106.7014814444851
 20
-124.6037569132937
 30
0.0
 10
106.6567166400028
 20
-124.5589894133048
 30
0.0
 10
106.6015747803673
 20
-124.5589894133048
 30
0.0
 10
106.5464708928842
 20
-124.5589894133048
 30
0.0
 10
106.5016681162494
 20
-124.6037569132937
 30
0.0
 10
106.5016681162494
 20
-124.6588960799464
 30
0.0
 10
106.5016681162494
 20
-124.7139999688217
 30
0.0
 10
106.5464708928842
 20
-124.7588027465881
 30
0.0
 10
106.6015747803673
 20
-124.7588027465881
 30
0.0
 10
106.6567166400028
 20
-124.7588027465881
 30
0.0
 10
106.7014814444851
 20
-124.7139999688217
 30
0.0
 10
106.7014814444851
 20
-124.6588960799464
 30
0.0
  0
SPLINE
  5
66
330
41
100
AcDbEntity
  8
_U+30EC_U+30A4_U+30E4_U+30FC 1
 62
     7
420
 16777215
370
     9
100
AcDbSpline
210
0.0
220
0.0
230
1.0
 70
    11
 71
     3
 72
    17
 73
    13
 74
     0
 42
0.0000000001
 43
0.0000000001
 12
1.0
 22
0.0
 32
0.0
 13
1.0
 23
0.0
 33
0.0
 40
0.0
 40
0.0
 40
0.0
 40
0.0
 40
1.0
 40
1.0
 40
1.0
 40
2.0
 40
2.0
 40
2.0
 40
3.0
 40
3.0
 40
3.0
 40
4.0
 40
4.0
 40
4.0
 40
4.0
 10
106.7014814444851
 20
-133.8578235776468
 30
0.0
 10
106.7014814444851
 20
-133.8026844109937
 30
0.0
 10
106.6567166400028
 20
-133.7579169110052
 30
0.0
 10
106.6015747803673
 20
-133.7579169110052
 30
0.0
 10
106.5464708928842
 20
-133.7579169110052
 30
0.0
 10
106.5016681162494
 20
-133.8026844109937
 30
0.0
 10
106.5016681162494
 20
-133.8578235776468
 30
0.0
 10
106.5016681162494
 20
-133.9136330220772
 30
0.0
 10
106.5464708928842
 20
-133.9584005220658
 30
0.0
 10
106.6015747803673
 20
-133.9584005220658
 30
0.0
 10
106.6567166400028
 20
-133.9584005220658
 30
0.0
 10
106.7014814444851
 20
-133.9136330220772
 30
0.0
 10
106.7014814444851
 20
-133.8578235776468
 30
0.0
  0
SPLINE
  5
67
330
41
100
AcDbEntity
  8
_U+30EC_U+30A4_U+30E4_U+30FC 1
 62
     7
420
 16777215
370
     9
100
AcDbSpline
210
0.0
220
0.0
230
1.0
 70
    11
 71
     3
 72
    17
 73
    13
 74
     0
 42
0.0000000001
 43
0.0000000001
 12
1.0
 22
0.0
 32
0.0
 13
1.0
 23
0.0
 33
0.0
 40
0.0
 40
0.0
 40
0.0
 40
0.0
 40
1.0
 40
1.0
 40
1.0
 40
2.0
 40
2.0
 40
2.0
 40
3.0
 40
3.0
 40
3.0
 40
4.0
 40
4.0
 40
4.0
 40
4.0
 10
85.70224364688694
 20
-138.8580252430636
 30
0.0
 10
85.70224364688694
 20
-138.8028860764105
 30
0.0
 10
85.65747614802906
 20
-138.7581185764213
 30
0.0
 10
85.60166670500843
 20
-138.7581185764213
 30
0.0
 10
85.54652753974848
 20
-138.7581185764213
 30
0.0
 10
85.5017600408906
 20
-138.8028860764105
 30
0.0
 10
85.5017600408906
 20
-138.8580252430636
 30
0.0
 10
85.5017600408906
 20
-138.9131291319385
 30
0.0
 10
85.54652753974848
 20
-138.9579319097052
 30
0.0
 10
85.60166670500843
 20
-138.9579319097052
 30
0.0
 10
85.65747614802906
 20
-138.9579319097052
 30
0.0
 10
85.70224364688694
 20
-138.9131291319385
 30
0.0
 10
85.70224364688694
 20
-138.8580252430636
 30
0.0
  0
SPLINE
  5
68
330
41
100
AcDbEntity
  8
_U+30EC_U+30A4_U+30E4_U+30FC 1
 62
     7
420
 16777215
370
     9
100
AcDbSpline
210
0.0
220
0.0
230
1.0
 70
    11
 71
     3
 72
    17
 73
    13
 74
     0
 42
0.0000000001
 43
0.0000000001
 12
1.0
 22
0.0
 32
0.0
 13
1.0
 23
0.0
 33
0.0
 40
0.0
 40
0.0
 40
0.0
 40
0.0
 40
1.0
 40
1.0
 40
1.0
 40
2.0
 40
2.0
 40
2.0
 40
3.0
 40
3.0
 40
3.0
 40
4.0
 40
4.0
 40
4.0
 40
4.0
 10
89.67684965659741
 20
-138.8580252430636
 30
0.0
 10
89.67684965659741
 20
-138.8028860764105
 30
0.0
 10
89.63208215773952
 20
-138.7581185764213
 30
0.0
 10
89.57694299247957
 20
-138.7581185764213
 30
0.0
 10
89.5218391049965
 20
-138.7581185764213
 30
0.0
 10
89.47703632836173
 20
-138.8028860764105
 30
0.0
 10
89.47703632836173
 20
-138.8580252430636
 30
0.0
 10
89.47703632836173
 20
-138.9131291319385
 30
0.0
 10
89.5218391049965
 20
-138.9579319097052
 30
0.0
 10
89.57694299247957
 20
-138.9579319097052
 30
0.0
 10
89.63208215773952
 20
-138.9579319097052
 30
0.0
 10
89.67684965659741
 20
-138.9131291319385
 30
0.0
 10
89.67684965659741
 20
-138.8580252430636
 30
0.0
  0
SPLINE
  5
69
330
41
100
AcDbEntity
  8
_U+30EC_U+30A4_U+30E4_U+30FC 1
 62
     7
420
 16777215
370
     9
100
AcDbSpline
210
0.0
220
0.0
230
1.0
 70
    11
 71
     3
 72
    17
 73
    13
 74
     0
 42
0.0000000001
 43
0.0000000001
 12
1.0
 22
0.0
 32
0.0
 13
1.0
 23
0.0
 33
0.0
 40
0.0
 40
0.0
 40
0.0
 40
0.0
 40
1.0
 40
1.0
 40
1.0
 40
2.0
 40
2.0
 40
2.0
 40
3.0
 40
3.0
 40
3.0
 40
4.0
 40
4.0
 40
4.0
 40
4.0
 10
73.68610553713395
 20
-138.8580252430636
 30
0.0
 10
73.68610553713395
 20
-138.8028860764105
 30
0.0
 10
73.64133617680855
 20
-138.7581185764213
 30
0.0
 10
73.5861970115486
 20
-138.7581185764213
 30
0.0
 10
73.53109312406553
 20
-138.7581185764213
 30
0.0
 10
73.48629034743077
 20
-138.8028860764105
 30
0.0
 10
73.48629034743077
 20
-138.8580252430636
 30
0.0
 10
73.48629034743077
 20
-138.9131291319385
 30
0.0
 10
73.53109312406553
 20
-138.9579319097052
 30
0.0
 10
73.5861970115486
 20
-138.9579319097052
 30
0.0
 10
73.64133617680855
 20
-138.9579319097052
 30
0.0
 10
73.68610553713395
 20
-138.9131291319385
 30
0.0
 10
73.68610553713395
 20
-138.8580252430636
 30
0.0
  0
POLYLINE
  5
6A
330
41
100
AcDbEntity
  8
_U+30EC_U+30A4_U+30E4_U+30FC 1
 62
     7
420
 16777215
370
     9
100
AcDb2dPolyline
 66
     1
 10
0.0
 20
0.0
 30
0.0
  0
VERTEX
  5
6B
330
6A
100
AcDbEntity
  8
_U+30EC_U+30A4_U+30E4_U+30FC 1
 62
     7
420
 16777215
370
     9
100
AcDbVertex
100
AcDb2dVertex
 10
106.6015747803673
 20
-124.6588960799464
 30
0.0
  0
VERTEX
  5
6C
330
6A
100
AcDbEntity
  8
_U+30EC_U+30A4_U+30E4_U+30FC 1
 62
     7
420
 16777215
370
     9
100
AcDbVertex
100
AcDb2dVertex
 10
106.6015747803673
 20
-120.888583580889
 30
0.0
  0
SEQEND
  5
6D
330
6A
100
AcDbEntity
  8
_U+30EC_U+30A4_U+30E4_U+30FC 1
 62
     7
420
 16777215
370
     9
  0
POLYLINE
  5
6E
330
41
100
AcDbEntity
  8
_U+30EC_U+30A4_U+30E4_U+30FC 1
 62
     7
420
 16777215
370
     9
100
AcDb2dPolyline
 66
     1
 10
0.0
 20
0.0
 30
0.0
  0
VERTEX
  5
6F
330
6E
100
AcDbEntity
  8
_U+30EC_U+30A4_U+30E4_U+30FC 1
 62
     7
420
 16777215
370
     9
100
AcDbVertex
100
AcDb2dVertex
 10
106.6015747803673
 20
-125.6586683019186
 30
0.0
  0
VERTEX
  5
70
330
6E
100
AcDbEntity
  8
_U+30EC_U+30A4_U+30E4_U+30FC 1
 62
     7
420
 16777215
370
     9
100
AcDbVertex
100
AcDb2dVertex
 10
106.6015747803673
 20
-124.6588960799464
 30
0.0
  0
SEQEND
  5
71
330
6E
100
AcDbEntity
  8
_U+30EC_U+30A4_U+30E4_U+30FC 1
 62
     7
420
 16777215
370
     9
  0
POLYLINE
  5
72
330
41
100
AcDbEntity
  8
_U+30EC_U+30A4_U+30E4_U+30FC 1
 62
     7
420
 16777215
370
     9
100
AcDb2dPolyline
 66
     1
 10
0.0
 20
0.0
 30
0.0
  0
VERTEX
  5
73
330
72
100
AcDbEntity
  8
_U+30EC_U+30A4_U+30E4_U+30FC 1
 62
     7
420
 16777215
370
     9
100
AcDbVertex
100
AcDb2dVertex
 10
105.141568706504
 20
-125.6586683019186
 30
0.0
  0
VERTEX
  5
74
330
72
100
AcDbEntity
  8
_U+30EC_U+30A4_U+30E4_U+30FC 1
 62
     7
420
 16777215
370
     9
100
AcDbVertex
100
AcDb2dVertex
 10
107.6020525326207
 20
-125.6586683019186
 30
0.0
  0
SEQEND
  5
75
330
72
100
AcDbEntity
  8
_U+30EC_U+30A4_U+30E4_U+30FC 1
 62
     7
420
 16777215
370
     9
  0
POLYLINE
  5
76
330
41
100
AcDbEntity
  8
_U+30EC_U+30A4_U+30E4_U+30FC 1
 62
     7
420
 16777215
370
     9
100
AcDb2dPolyline
 66
     1
 10
0.0
 20
0.0
 30
0.0
  0
VERTEX
  5
77
330
76
100
AcDbEntity
  8
_U+30EC_U+30A4_U+30E4_U+30FC 1
 62
     7
420
 16777215
370
     9
100
AcDbVertex
100
AcDb2dVertex
 10
105.141568706504
 20
-124.6588960799464
 30
0.0
  0
VERTEX
  5
78
330
76
100
AcDbEntity
  8
_U+30EC_U+30A4_U+30E4_U+30FC 1
 62
     7
420
 16777215
370
     9
100
AcDbVertex
100
AcDb2dVertex
 10
107.6020525326207
 20
-124.6588960799464
 30
0.0
  0
SEQEND
  5
79
330
76
100
AcDbEntity
  8
_U+30EC_U+30A4_U+30E4_U+30FC 1
 62
     7
420
 16777215
370
     9
  0
INSERT
  5
7B
330
41
100
AcDbEntity
  8
_U+30EC_U+30A4_U+30E4_U+30FC 1
100
AcDbBlockReference
  2
block 3
 10
0.0
 20
0.0
 30
0.0
  0
POLYLINE
  5
80
330
41
100
AcDbEntity
  8
_U+30EC_U+30A4_U+30E4_U+30FC 1
 62
     7
420
 16777215
370
     9
100
AcDb2dPolyline
 66
     1
 10
0.0
 20
0.0
 30
0.0
  0
VERTEX
  5
81
330
80
100
AcDbEntity
  8
_U+30EC_U+30A4_U+30E4_U+30FC 1
 62
     7
420
 16777215
370
     9
100
AcDbVertex
100
AcDb2dVertex
 10
73.58069367835567
 20
-120.6591369142795
 30
0.0
  0
VERTEX
  5
82
330
80
100
AcDbEntity
  8
_U+30EC_U+30A4_U+30E4_U+30FC 1
 62
     7
420
 16777215
370
     9
100
AcDbVertex
100
AcDb2dVertex
 10
102.6018157157429
 20
-120.6591369142795
 30
0.0
  0
SEQEND
  5
83
330
80
100
AcDbEntity
  8
_U+30EC_U+30A4_U+30E4_U+30FC 1
 62
     7
420
 16777215
370
     9
  0
POLYLINE
  5
84
330
41
100
AcDbEntity
  8
_U+30EC_U+30A4_U+30E4_U+30FC 1
 62
     7
420
 16777215
370
     9
100
AcDb2dPolyline
 66
     1
 10
0.0
 20
0.0
 30
0.0
  0
VERTEX
  5
85
330
84
100
AcDbEntity
  8
_U+30EC_U+30A4_U+30E4_U+30FC 1
 62
     7
420
 16777215
370
     9
100
AcDbVertex
100
AcDb2dVertex
 10
73.5861970115486
 20
-122.1191783028036
 30
0.0
  0
VERTEX
  5
86
330
84
100
AcDbEntity
  8
_U+30EC_U+30A4_U+30E4_U+30FC 1
 62
     7
420
 16777215
370
     9
100
AcDbVertex
100
AcDb2dVertex
 10
73.5861970115486
 20
-119.6586591367521
 30
0.0
  0
SEQEND
  5
87
330
84
100
AcDbEntity
  8
_U+30EC_U+30A4_U+30E4_U+30FC 1
 62
     7
420
 16777215
370
     9
  0
POLYLINE
  5
88
330
41
100
AcDbEntity
  8
_U+30EC_U+30A4_U+30E4_U+30FC 1
 62
     7
420
 16777215
370
     9
100
AcDb2dPolyline
 66
     1
 10
0.0
 20
0.0
 30
0.0
  0
VERTEX
  5
89
330
88
100
AcDbEntity
  8
_U+30EC_U+30A4_U+30E4_U+30FC 1
 62
     7
420
 16777215
370
     9
100
AcDbVertex
100
AcDb2dVertex
 10
102.6018157157429
 20
-122.1191783028036
 30
0.0
  0
VERTEX
  5
8A
330
88
100
AcDbEntity
  8
_U+30EC_U+30A4_U+30E4_U+30FC 1
 62
     7
420
 16777215
370
     9
100
AcDbVertex
100
AcDb2dVertex
 10
102.6018157157429
 20
-119.6586591367521
 30
0.0
  0
SEQEND
  5
8B
330
88
100
AcDbEntity
  8
_U+30EC_U+30A4_U+30E4_U+30FC 1
 62
     7
420
 16777215
370
     9
  0
INSERT
  5
8D
330
41
100
AcDbEntity
  8
_U+30EC_U+30A4_U+30E4_U+30FC 1
100
AcDbBlockReference
  2
block 4
 10
0.0
 20
0.0
 30
0.0
  0
POLYLINE
  5
95
330
41
100
AcDbEntity
  8
_U+30EC_U+30A4_U+30E4_U+30FC 1
 62
     7
420
 16777215
370
     9
100
AcDb2dPolyline
 66
     1
 10
0.0
 20
0.0
 30
0.0
  0
VERTEX
  5
96
330
95
100
AcDbEntity
  8
_U+30EC_U+30A4_U+30E4_U+30FC 1
 62
     7
420
 16777215
370
     9
100
AcDbVertex
100
AcDb2dVertex
 10
85.60166670500843
 20
-138.8580252430636
 30
0.0
  0
VERTEX
  5
97
330
95
100
AcDbEntity
  8
_U+30EC_U+30A4_U+30E4_U+30FC 1
 62
     7
420
 16777215
370
     9
100
AcDbVertex
100
AcDb2dVertex
 10
73.62479089945288
 20
-138.8580252430636
 30
0.0
  0
SEQEND
  5
98
330
95
100
AcDbEntity
  8
_U+30EC_U+30A4_U+30E4_U+30FC 1
 62
     7
420
 16777215
370
     9
  0
POLYLINE
  5
99
330
41
100
AcDbEntity
  8
_U+30EC_U+30A4_U+30E4_U+30FC 1
 62
     7
420
 16777215
370
     9
100
AcDb2dPolyline
 66
     1
 10
0.0
 20
0.0
 30
0.0
  0
VERTEX
  5
9A
330
99
100
AcDbEntity
  8
_U+30EC_U+30A4_U+30E4_U+30FC 1
 62
     7
420
 16777215
370
     9
100
AcDbVertex
100
AcDb2dVertex
 10
85.60166670500843
 20
-137.3979838545392
 30
0.0
  0
VERTEX
  5
9B
330
99
100
AcDbEntity
  8
_U+30EC_U+30A4_U+30E4_U+30FC 1
 62
     7
420
 16777215
370
     9
100
AcDbVertex
100
AcDb2dVertex
 10
85.60166670500843
 20
-139.8584677428128
 30
0.0
  0
SEQEND
  5
9C
330
99
100
AcDbEntity
  8
_U+30EC_U+30A4_U+30E4_U+30FC 1
 62
     7
420
 16777215
370
     9
  0
POLYLINE
  5
9D
330
41
100
AcDbEntity
  8
_U+30EC_U+30A4_U+30E4_U+30FC 1
 62
     7
420
 16777215
370
     9
100
AcDb2dPolyline
 66
     1
 10
0.0
 20
0.0
 30
0.0
  0
VERTEX
  5
9E
330
9D
100
AcDbEntity
  8
_U+30EC_U+30A4_U+30E4_U+30FC 1
 62
     7
420
 16777215
370
     9
100
AcDbVertex
100
AcDb2dVertex
 10
73.5861970115486
 20
-128.1990563568392
 30
0.0
  0
VERTEX
  5
9F
330
9D
100
AcDbEntity
  8
_U+30EC_U+30A4_U+30E4_U+30FC 1
 62
     7
420
 16777215
370
     9
100
AcDbVertex
100
AcDb2dVertex
 10
73.5861970115486
 20
-139.8584677428128
 30
0.0
  0
SEQEND
  5
A0
330
9D
100
AcDbEntity
  8
_U+30EC_U+30A4_U+30E4_U+30FC 1
 62
     7
420
 16777215
370
     9
  0
INSERT
  5
A2
330
41
100
AcDbEntity
  8
_U+30EC_U+30A4_U+30E4_U+30FC 1
100
AcDbBlockReference
  2
block 5
 10
0.0
 20
0.0
 30
0.0
  0
POLYLINE
  5
A9
330
41
100
AcDbEntity
  8
_U+30EC_U+30A4_U+30E4_U+30FC 1
 62
     7
420
 16777215
370
     9
100
AcDb2dPolyline
 66
     1
 10
0.0
 20
0.0
 30
0.0
  0
VERTEX
  5
AA
330
A9
100
AcDbEntity
  8
_U+30EC_U+30A4_U+30E4_U+30FC 1
 62
     7
420
 16777215
370
     9
100
AcDbVertex
100
AcDb2dVertex
 10
85.60166670500843
 20
-138.8580252430636
 30
0.0
  0
VERTEX
  5
AB
330
A9
100
AcDbEntity
  8
_U+30EC_U+30A4_U+30E4_U+30FC 1
 62
     7
420
 16777215
370
     9
100
AcDbVertex
100
AcDb2dVertex
 10
89.57694299247957
 20
-138.8580252430636
 30
0.0
  0
SEQEND
  5
AC
330
A9
100
AcDbEntity
  8
_U+30EC_U+30A4_U+30E4_U+30FC 1
 62
     7
420
 16777215
370
     9
  0
POLYLINE
  5
AD
330
41
100
AcDbEntity
  8
_U+30EC_U+30A4_U+30E4_U+30FC 1
 62
     7
420
 16777215
370
     9
100
AcDb2dPolyline
 66
     1
 10
0.0
 20
0.0
 30
0.0
  0
VERTEX
  5
AE
330
AD
100
AcDbEntity
  8
_U+30EC_U+30A4_U+30E4_U+30FC 1
 62
     7
420
 16777215
370
     9
100
AcDbVertex
100
AcDb2dVertex
 10
85.60166670500843
 20
-137.3979838545392
 30
0.0
  0
VERTEX
  5
AF
330
AD
100
AcDbEntity
  8
_U+30EC_U+30A4_U+30E4_U+30FC 1
 62
     7
420
 16777215
370
     9
100
AcDbVertex
100
AcDb2dVertex
 10
85.60166670500843
 20
-139.8584677428128
 30
0.0
  0
SEQEND
  5
B0
330
AD
100
AcDbEntity
  8
_U+30EC_U+30A4_U+30E4_U+30FC 1
 62
     7
420
 16777215
370
     9
  0
POLYLINE
  5
B1
330
41
100
AcDbEntity
  8
_U+30EC_U+30A4_U+30E4_U+30FC 1
 62
     7
420
 16777215
370
     9
100
AcDb2dPolyline
 66
     1
 10
0.0
 20
0.0
 30
0.0
  0
VERTEX
  5
B2
330
B1
100
AcDbEntity
  8
_U+30EC_U+30A4_U+30E4_U+30FC 1
 62
     7
420
 16777215
370
     9
100
AcDbVertex
100
AcDb2dVertex
 10
89.57694299247957
 20
-137.3979838545392
 30
0.0
  0
VERTEX
  5
B3
330
B1
100
AcDbEntity
  8
_U+30EC_U+30A4_U+30E4_U+30FC 1
 62
     7
420
 16777215
370
     9
100
AcDbVertex
100
AcDb2dVertex
 10
89.57694299247957
 20
-139.8584677428128
 30
0.0
  0
SEQEND
  5
B4
330
B1
100
AcDbEntity
  8
_U+30EC_U+30A4_U+30E4_U+30FC 1
 62
     7
420
 16777215
370
     9
  0
INSERT
  5
B6
330
41
100
AcDbEntity
  8
_U+30EC_U+30A4_U+30E4_U+30FC 1
100
AcDbBlockReference
  2
block 6
 10
0.0
 20
0.0
 30
0.0
  0
POLYLINE
  5
CE
330
41
100
AcDbEntity
  8
_U+30EC_U+30A4_U+30E4_U+30FC 1
 62
     7
420
 16777215
370
     9
100
AcDb2dPolyline
 66
     1
 10
0.0
 20
0.0
 30
0.0
  0
VERTEX
  5
CF
330
CE
100
AcDbEntity
  8
_U+30EC_U+30A4_U+30E4_U+30FC 1
 62
     7
420
 16777215
370
     9
100
AcDbVertex
100
AcDb2dVertex
 10
106.6015747803673
 20
-133.8578235776468
 30
0.0
  0
VERTEX
  5
D0
330
CE
100
AcDbEntity
  8
_U+30EC_U+30A4_U+30E4_U+30FC 1
 62
     7
420
 16777215
370
     9
100
AcDbVertex
100
AcDb2dVertex
 10
106.6015747803673
 20
-125.6586683019186
 30
0.0
  0
SEQEND
  5
D1
330
CE
100
AcDbEntity
  8
_U+30EC_U+30A4_U+30E4_U+30FC 1
 62
     7
420
 16777215
370
     9
  0
POLYLINE
  5
D2
330
41
100
AcDbEntity
  8
_U+30EC_U+30A4_U+30E4_U+30FC 1
 62
     7
420
 16777215
370
     9
100
AcDb2dPolyline
 66
     1
 10
0.0
 20
0.0
 30
0.0
  0
VERTEX
  5
D3
330
D2
100
AcDbEntity
  8
_U+30EC_U+30A4_U+30E4_U+30FC 1
 62
     7
420
 16777215
370
     9
100
AcDbVertex
100
AcDb2dVertex
 10
91.1417240636698
 20
-133.8578235776468
 30
0.0
  0
VERTEX
  5
D4
330
D2
100
AcDbEntity
  8
_U+30EC_U+30A4_U+30E4_U+30FC 1
 62
     7
420
 16777215
370
     9
100
AcDbVertex
100
AcDb2dVertex
 10
107.6020525326207
 20
-133.8578235776468
 30
0.0
  0
SEQEND
  5
D5
330
D2
100
AcDbEntity
  8
_U+30EC_U+30A4_U+30E4_U+30FC 1
 62
     7
420
 16777215
370
     9
  0
INSERT
  5
D7
330
41
100
AcDbEntity
  8
_U+30EC_U+30A4_U+30E4_U+30FC 1
100
AcDbBlockReference
  2
block 7
 10
0.0
 20
0.0
 30
0.0
  0
ENDBLK
  5
44
330
41
100
AcDbEntity
  8
0
100
AcDbBlockEnd
  0
BLOCK
  5
7C
330
7A
100
AcDbEntity
  8
0
100
AcDbBlockBegin
  2
block 3
 70
     0
 10
0.0
 20
0.0
 30
0.0
  3
block 3
  1

  0
SPLINE
  5
7E
330
7A
100
AcDbEntity
  8
_U+30EC_U+30A4_U+30E4_U+30FC 1
370
     0
100
AcDbSpline
210
0.0
220
0.0
230
1.0
 70
    11
 71
     3
 72
    26
 73
    22
 74
     0
 42
0.0000000001
 43
0.0000000001
 12
1.0
 22
0.0
 32
0.0
 13
1.0
 23
0.0
 33
0.0
 40
0.0
 40
0.0
 40
0.0
 40
0.0
 40
1.0
 40
1.0
 40
1.0
 40
2.0
 40
2.0
 40
2.0
 40
3.0
 40
3.0
 40
3.0
 40
4.0
 40
4.0
 40
4.0
 40
5.0
 40
5.0
 40
5.0
 40
6.0
 40
6.0
 40
6.0
 40
7.0
 40
7.0
 40
7.0
 40
7.0
 10
105.4867567010589
 20
-125.3508327594609
 30
0.0
 10
105.4867567010589
 20
-125.3508327594609
 30
0.0
 10
104.3826035980363
 20
-125.3508327594609
 30
0.0
 10
104.3826035980363
 20
-125.3508327594609
 30
0.0
 10
104.3826035980363
 20
-125.3508327594609
 30
0.0
 10
104.3826035980363
 20
-125.6808729069478
 30
0.0
 10
104.3826035980363
 20
-125.6808729069478
 30
0.0
 10
104.3826035980363
 20
-125.6808729069478
 30
0.0
 10
104.2344644921706
 20
-125.6808729069478
 30
0.0
 10
104.2344644921706
 20
-125.6808729069478
 30
0.0
 10
104.219650581584
 20
-125.3487657021698
 30
0.0
 10
104.0566975651317
 20
-125.3022569131189
 30
0.0
 10
103.9423203950214
 20
-125.2726290919457
 30
0.0
 10
103.9423203950214
 20
-125.2726290919457
 30
0.0
 10
103.9423203950214
 20
-125.1265570433712
 30
0.0
 10
103.9423203950214
 20
-125.1265570433712
 30
0.0
 10
103.9423203950214
 20
-125.1265570433712
 30
0.0
 10
105.4867567010589
 20
-125.1265570433712
 30
0.0
 10
105.4867567010589
 20
-125.1265570433712
 30
0.0
 10
105.4867567010589
 20
-125.1265570433712
 30
0.0
 10
105.4867567010589
 20
-125.3508327594609
 30
0.0
 10
105.4867567010589
 20
-125.3508327594609
 30
0.0
  0
HATCH
  5
7F
330
7A
100
AcDbEntity
  8
_U+30EC_U+30A4_U+30E4_U+30FC 1
 62
     7
420
 16777215
100
AcDbHatch
 10
0.0
 20
0.0
 30
0.0
210
0.0
220
0.0
230
1.0
  2
SOLID
 70
     1
 71
     0
 91
        1
 92
        1
 93
        1
 72
     4
 94
        3
 73
     0
 74
     1
 95
       26
 96
       22
 40
0.0
 40
0.0
 40
0.0
 40
0.0
 40
1.0
 40
1.0
 40
1.0
 40
2.0
 40
2.0
 40
2.0
 40
3.0
 40
3.0
 40
3.0
 40
4.0
 40
4.0
 40
4.0
 40
5.0
 40
5.0
 40
5.0
 40
6.0
 40
6.0
 40
6.0
 40
7.0
 40
7.0
 40
7.0
 40
7.0
 10
105.4867567010589
 20
-125.3508327594609
 10
105.4867567010589
 20
-125.3508327594609
 10
104.3826035980363
 20
-125.3508327594609
 10
104.3826035980363
 20
-125.3508327594609
 10
104.3826035980363
 20
-125.3508327594609
 10
104.3826035980363
 20
-125.6808729069478
 10
104.3826035980363
 20
-125.6808729069478
 10
104.3826035980363
 20
-125.6808729069478
 10
104.2344644921706
 20
-125.6808729069478
 10
104.2344644921706
 20
-125.6808729069478
 10
104.219650581584
 20
-125.3487657021698
 10
104.0566975651317
 20
-125.3022569131189
 10
103.9423203950214
 20
-125.2726290919457
 10
103.9423203950214
 20
-125.2726290919457
 10
103.9423203950214
 20
-125.1265570433712
 10
103.9423203950214
 20
-125.1265570433712
 10
103.9423203950214
 20
-125.1265570433712
 10
105.4867567010589
 20
-125.1265570433712
 10
105.4867567010589
 20
-125.1265570433712
 10
105.4867567010589
 20
-125.1265570433712
 10
105.4867567010589
 20
-125.3508327594609
 10
105.4867567010589
 20
-125.3508327594609
 97
        0
 97
        0
 75
     2
 76
     1
 98
        0
  0
ENDBLK
  5
7D
330
7A
100
AcDbEntity
  8
0
100
AcDbBlockEnd
  0
BLOCK
  5
8E
330
8C
100
AcDbEntity
  8
0
100
AcDbBlockBegin
  2
block 4
 70
     0
 10
0.0
 20
0.0
 30
0.0
  3
block 4
  1

  0
SPLINE
  5
90
330
8C
100
AcDbEntity
  8
_U+30EC_U+30A4_U+30E4_U+30FC 1
370
     0
100
AcDbSpline
210
0.0
220
0.0
230
1.0
 70
    11
 71
     3
 72
    44
 73
    40
 74
     0
 42
0.0000000001
 43
0.0000000001
 12
1.0
 22
0.0
 32
0.0
 13
1.0
 23
0.0
 33
0.0
 40
0.0
 40
0.0
 40
0.0
 40
0.0
 40
1.0
 40
1.0
 40
1.0
 40
2.0
 40
2.0
 40
2.0
 40
3.0
 40
3.0
 40
3.0
 40
4.0
 40
4.0
 40
4.0
 40
5.0
 40
5.0
 40
5.0
 40
6.0
 40
6.0
 40
6.0
 40
7.0
 40
7.0
 40
7.0
 40
8.0
 40
8.0
 40
8.0
 40
9.0
 40
9.0
 40
9.0
 40
10.0
 40
10.0
 40
10.0
 40
11.0
 40
11.0
 40
11.0
 40
12.0
 40
12.0
 40
12.0
 40
13.0
 40
13.0
 40
13.0
 40
13.0
 10
87.6099839733232
 20
-119.4318142062532
 30
0.0
 10
87.39208168388114
 20
-119.5904608533489
 30
0.0
 10
87.29889185100514
 20
-119.6645304062818
 30
0.0
 10
87.25031600466312
 20
-119.808363142791
 30
0.0
 10
87.25031600466312
 20
-119.808363142791
 30
0.0
 10
88.02873532955532
 20
-119.808363142791
 30
0.0
 10
88.02873532955532
 20
-119.808363142791
 30
0.0
 10
88.02873532955532
 20
-119.808363142791
 30
0.0
 10
88.02873532955532
 20
-120.0135185789376
 30
0.0
 10
88.02873532955532
 20
-120.0135185789376
 30
0.0
 10
88.02873532955532
 20
-120.0135185789376
 30
0.0
 10
87.00071883675677
 20
-120.0135185789376
 30
0.0
 10
87.00071883675677
 20
-120.0135185789376
 30
0.0
 10
87.03241371522107
 20
-119.6559176675687
 30
0.0
 10
87.09804278421508
 20
-119.5777140000535
 30
0.0
 10
87.48303220469175
 20
-119.2793687310309
 30
0.0
 10
87.73900279924581
 20
-119.0805867215319
 30
0.0
 10
87.80445961346555
 20
-119.0128905952468
 30
0.0
 10
87.80445961346555
 20
-118.8754312853853
 30
0.0
 10
87.80445961346555
 20
-118.7569200006927
 30
0.0
 10
87.7326293725981
 20
-118.625834117479
 30
0.0
 10
87.53591442039033
 20
-118.625834117479
 30
0.0
 10
87.2756374564797
 20
-118.625834117479
 30
0.0
 10
87.26719697254084
 20
-118.8563110054422
 30
0.0
 10
87.26289060318427
 20
-118.9727552328436
 30
0.0
 10
87.26289060318427
 20
-118.9727552328436
 30
0.0
 10
87.03878714186878
 20
-118.9727552328436
 30
0.0
 10
87.03878714186878
 20
-118.9727552328436
 30
0.0
 10
87.04722762580764
 20
-118.8458034642122
 30
0.0
 10
87.05773516703765
 20
-118.7336656061673
 30
0.0
 10
87.13817814661823
 20
-118.6151543214747
 30
0.0
 10
87.2480766925977
 20
-118.4544406170878
 30
0.0
 10
87.43428410357546
 20
-118.4205064265581
 30
0.0
 10
87.55072833097691
 20
-118.4205064265581
 30
0.0
 10
87.82788626276526
 20
-118.4205064265581
 30
0.0
 10
88.03510875620303
 20
-118.6046467802447
 30
0.0
 10
88.03510875620303
 20
-118.8774983426765
 30
0.0
 10
88.03510875620303
 20
-119.1059081733485
 30
0.0
 10
87.91883678357586
 20
-119.2054714328722
 30
0.0
 10
87.6099839733232
 20
-119.4318142062532
 30
0.0
  0
HATCH
  5
91
330
8C
100
AcDbEntity
  8
_U+30EC_U+30A4_U+30E4_U+30FC 1
 62
     7
420
 16777215
100
AcDbHatch
 10
0.0
 20
0.0
 30
0.0
210
0.0
220
0.0
230
1.0
  2
SOLID
 70
     1
 71
     0
 91
        1
 92
        1
 93
        1
 72
     4
 94
        3
 73
     0
 74
     1
 95
       44
 96
       40
 40
0.0
 40
0.0
 40
0.0
 40
0.0
 40
1.0
 40
1.0
 40
1.0
 40
2.0
 40
2.0
 40
2.0
 40
3.0
 40
3.0
 40
3.0
 40
4.0
 40
4.0
 40
4.0
 40
5.0
 40
5.0
 40
5.0
 40
6.0
 40
6.0
 40
6.0
 40
7.0
 40
7.0
 40
7.0
 40
8.0
 40
8.0
 40
8.0
 40
9.0
 40
9.0
 40
9.0
 40
10.0
 40
10.0
 40
10.0
 40
11.0
 40
11.0
 40
11.0
 40
12.0
 40
12.0
 40
12.0
 40
13.0
 40
13.0
 40
13.0
 40
13.0
 10
87.6099839733232
 20
-119.4318142062532
 10
87.39208168388114
 20
-119.5904608533489
 10
87.29889185100514
 20
-119.6645304062818
 10
87.25031600466312
 20
-119.808363142791
 10
87.25031600466312
 20
-119.808363142791
 10
88.02873532955532
 20
-119.808363142791
 10
88.02873532955532
 20
-119.808363142791
 10
88.02873532955532
 20
-119.808363142791
 10
88.02873532955532
 20
-120.0135185789376
 10
88.02873532955532
 20
-120.0135185789376
 10
88.02873532955532
 20
-120.0135185789376
 10
87.00071883675677
 20
-120.0135185789376
 10
87.00071883675677
 20
-120.0135185789376
 10
87.03241371522107
 20
-119.6559176675687
 10
87.09804278421508
 20
-119.5777140000535
 10
87.48303220469175
 20
-119.2793687310309
 10
87.73900279924581
 20
-119.0805867215319
 10
87.80445961346555
 20
-119.0128905952468
 10
87.80445961346555
 20
-118.8754312853853
 10
87.80445961346555
 20
-118.7569200006927
 10
87.7326293725981
 20
-118.625834117479
 10
87.53591442039033
 20
-118.625834117479
 10
87.2756374564797
 20
-118.625834117479
 10
87.26719697254084
 20
-118.8563110054422
 10
87.26289060318427
 20
-118.9727552328436
 10
87.26289060318427
 20
-118.9727552328436
 10
87.03878714186878
 20
-118.9727552328436
 10
87.03878714186878
 20
-118.9727552328436
 10
87.04722762580764
 20
-118.8458034642122
 10
87.05773516703765
 20
-118.7336656061673
 10
87.13817814661823
 20
-118.6151543214747
 10
87.2480766925977
 20
-118.4544406170878
 10
87.43428410357546
 20
-118.4205064265581
 10
87.55072833097691
 20
-118.4205064265581
 10
87.82788626276526
 20
-118.4205064265581
 10
88.03510875620303
 20
-118.6046467802447
 10
88.03510875620303
 20
-118.8774983426765
 10
88.03510875620303
 20
-119.1059081733485
 10
87.91883678357586
 20
-119.2054714328722
 10
87.6099839733232
 20
-119.4318142062532
 97
        0
 97
        0
 75
     2
 76
     1
 98
        0
  0
SPLINE
  5
92
330
8C
100
AcDbEntity
  8
_U+30EC_U+30A4_U+30E4_U+30FC 1
370
     0
100
AcDbSpline
210
0.0
220
0.0
230
1.0
 70
    11
 71
     3
 72
    32
 73
    28
 74
     0
 42
0.0000000001
 43
0.0000000001
 12
1.0
 22
0.0
 32
0.0
 13
1.0
 23
0.0
 33
0.0
 40
0.0
 40
0.0
 40
0.0
 40
0.0
 40
1.0
 40
1.0
 40
1.0
 40
2.0
 40
2.0
 40
2.0
 40
3.0
 40
3.0
 40
3.0
 40
4.0
 40
4.0
 40
4.0
 40
5.0
 40
5.0
 40
5.0
 40
6.0
 40
6.0
 40
6.0
 40
7.0
 40
7.0
 40
7.0
 40
8.0
 40
8.0
 40
8.0
 40
9.0
 40
9.0
 40
9.0
 40
9.0
 10
88.65143633851423
 20
-120.064333737345
 30
0.0
 10
88.47780352605764
 20
-120.064333737345
 30
0.0
 10
88.23251272750785
 20
-119.9943982989945
 30
0.0
 10
88.19444442239583
 20
-119.6622910942164
 30
0.0
 10
88.19444442239583
 20
-119.6622910942164
 30
0.0
 10
88.40804034248133
 20
-119.6622910942164
 30
0.0
 10
88.40804034248133
 20
-119.6622910942164
 30
0.0
 10
88.4187201384856
 20
-119.7215467365627
 30
0.0
 10
88.4504150169499
 20
-119.8696858424284
 30
0.0
 10
88.65350339580537
 20
-119.8696858424284
 30
0.0
 10
88.94547523818031
 20
-119.8696858424284
 30
0.0
 10
88.98354354329231
 20
-119.5396456949415
 30
0.0
 10
88.99611814181347
 20
-119.3344902587949
 30
0.0
 10
88.90516762100287
 20
-119.4147609836012
 30
0.0
 10
88.83747149471772
 20
-119.4719495686563
 30
0.0
 10
88.65557045309653
 20
-119.4719495686563
 30
0.0
 10
88.47573646876648
 20
-119.4719495686563
 30
0.0
 10
88.17325708516155
 20
-119.3661851372592
 30
0.0
 10
88.17325708516155
 20
-118.9600083795482
 30
0.0
 10
88.17325708516155
 20
-118.6404757732913
 30
0.0
 10
88.37203909466047
 20
-118.4205064265581
 30
0.0
 10
88.68950464362624
 20
-118.4205064265581
 30
0.0
 10
89.20351289002552
 20
-118.4205064265581
 30
0.0
 10
89.21402043125552
 20
-118.9748222901348
 30
0.0
 10
89.21402043125552
 20
-119.1884182102203
 30
0.0
 10
89.21402043125552
 20
-119.4190673529577
 30
0.0
 10
89.19507240608665
 20
-120.064333737345
 30
0.0
 10
88.65143633851423
 20
-120.064333737345
 30
0.0
  0
SPLINE
  5
93
330
8C
100
AcDbEntity
  8
_U+30EC_U+30A4_U+30E4_U+30FC 1
370
     0
100
AcDbSpline
210
0.0
220
0.0
230
1.0
 70
    11
 71
     3
 72
    17
 73
    13
 74
     0
 42
0.0000000001
 43
0.0000000001
 12
1.0
 22
0.0
 32
0.0
 13
1.0
 23
0.0
 33
0.0
 40
0.0
 40
0.0
 40
0.0
 40
0.0
 40
1.0
 40
1.0
 40
1.0
 40
2.0
 40
2.0
 40
2.0
 40
3.0
 40
3.0
 40
3.0
 40
4.0
 40
4.0
 40
4.0
 40
4.0
 10
88.6915717009174
 20
-118.6130872641835
 30
0.0
 10
88.57306041622479
 20
-118.6130872641835
 30
0.0
 10
88.39753280125132
 20
-118.6701035944644
 30
0.0
 10
88.39753280125132
 20
-118.9557020101916
 30
0.0
 10
88.39753280125132
 20
-119.1820447835726
 30
0.0
 10
88.53705916840393
 20
-119.2773016737397
 30
0.0
 10
88.67245142097426
 20
-119.2773016737397
 30
0.0
 10
88.93479544217602
 20
-119.2773016737397
 30
0.0
 10
88.97286374728805
 20
-119.0678398682365
 30
0.0
 10
88.97286374728805
 20
-118.9515678956093
 30
0.0
 10
88.97286374728805
 20
-118.7758680258616
 30
0.0
 10
88.87777911189514
 20
-118.6130872641835
 30
0.0
 10
88.6915717009174
 20
-118.6130872641835
 30
0.0
  0
HATCH
  5
94
330
8C
100
AcDbEntity
  8
_U+30EC_U+30A4_U+30E4_U+30FC 1
 62
     7
420
 16777215
100
AcDbHatch
 10
0.0
 20
0.0
 30
0.0
210
0.0
220
0.0
230
1.0
  2
SOLID
 70
     1
 71
     0
 91
        2
 92
        1
 93
        1
 72
     4
 94
        3
 73
     0
 74
     1
 95
       32
 96
       28
 40
0.0
 40
0.0
 40
0.0
 40
0.0
 40
1.0
 40
1.0
 40
1.0
 40
2.0
 40
2.0
 40
2.0
 40
3.0
 40
3.0
 40
3.0
 40
4.0
 40
4.0
 40
4.0
 40
5.0
 40
5.0
 40
5.0
 40
6.0
 40
6.0
 40
6.0
 40
7.0
 40
7.0
 40
7.0
 40
8.0
 40
8.0
 40
8.0
 40
9.0
 40
9.0
 40
9.0
 40
9.0
 10
88.65143633851423
 20
-120.064333737345
 10
88.47780352605764
 20
-120.064333737345
 10
88.23251272750785
 20
-119.9943982989945
 10
88.19444442239583
 20
-119.6622910942164
 10
88.19444442239583
 20
-119.6622910942164
 10
88.40804034248133
 20
-119.6622910942164
 10
88.40804034248133
 20
-119.6622910942164
 10
88.4187201384856
 20
-119.7215467365627
 10
88.4504150169499
 20
-119.8696858424284
 10
88.65350339580537
 20
-119.8696858424284
 10
88.94547523818031
 20
-119.8696858424284
 10
88.98354354329231
 20
-119.5396456949415
 10
88.99611814181347
 20
-119.3344902587949
 10
88.90516762100287
 20
-119.4147609836012
 10
88.83747149471772
 20
-119.4719495686563
 10
88.65557045309653
 20
-119.4719495686563
 10
88.47573646876648
 20
-119.4719495686563
 10
88.17325708516155
 20
-119.3661851372592
 10
88.17325708516155
 20
-118.9600083795482
 10
88.17325708516155
 20
-118.6404757732913
 10
88.37203909466047
 20
-118.4205064265581
 10
88.68950464362624
 20
-118.4205064265581
 10
89.20351289002552
 20
-118.4205064265581
 10
89.21402043125552
 20
-118.9748222901348
 10
89.21402043125552
 20
-119.1884182102203
 10
89.21402043125552
 20
-119.4190673529577
 10
89.19507240608665
 20
-120.064333737345
 10
88.65143633851423
 20
-120.064333737345
 97
        0
 97
        0
 92
        1
 93
        1
 72
     4
 94
        3
 73
     0
 74
     1
 95
       17
 96
       13
 40
0.0
 40
0.0
 40
0.0
 40
0.0
 40
1.0
 40
1.0
 40
1.0
 40
2.0
 40
2.0
 40
2.0
 40
3.0
 40
3.0
 40
3.0
 40
4.0
 40
4.0
 40
4.0
 40
4.0
 10
88.6915717009174
 20
-118.6130872641835
 10
88.57306041622479
 20
-118.6130872641835
 10
88.39753280125132
 20
-118.6701035944644
 10
88.39753280125132
 20
-118.9557020101916
 10
88.39753280125132
 20
-119.1820447835726
 10
88.53705916840393
 20
-119.2773016737397
 10
88.67245142097426
 20
-119.2773016737397
 10
88.93479544217602
 20
-119.2773016737397
 10
88.97286374728805
 20
-119.0678398682365
 10
88.97286374728805
 20
-118.9515678956093
 10
88.97286374728805
 20
-118.7758680258616
 10
88.87777911189514
 20
-118.6130872641835
 10
88.6915717009174
 20
-118.6130872641835
 97
        0
 97
        0
 75
     2
 76
     1
 98
        0
  0
ENDBLK
  5
8F
330
8C
100
AcDbEntity
  8
0
100
AcDbBlockEnd
  0
BLOCK
  5
A3
330
A1
100
AcDbEntity
  8
0
100
AcDbBlockBegin
  2
block 5
 70
     0
 10
0.0
 20
0.0
 30
0.0
  3
block 5
  1

  0
SPLINE
  5
A5
330
A1
100
AcDbEntity
  8
_U+30EC_U+30A4_U+30E4_U+30FC 1
370
     0
100
AcDbSpline
210
0.0
220
0.0
230
1.0
 70
    11
 71
     3
 72
    26
 73
    22
 74
     0
 42
0.0000000001
 43
0.0000000001
 12
1.0
 22
0.0
 32
0.0
 13
1.0
 23
0.0
 33
0.0
 40
0.0
 40
0.0
 40
0.0
 40
0.0
 40
1.0
 40
1.0
 40
1.0
 40
2.0
 40
2.0
 40
2.0
 40
3.0
 40
3.0
 40
3.0
 40
4.0
 40
4.0
 40
4.0
 40
5.0
 40
5.0
 40
5.0
 40
6.0
 40
6.0
 40
6.0
 40
7.0
 40
7.0
 40
7.0
 40
7.0
 10
78.94574108269413
 20
-138.2127522440927
 30
0.0
 10
78.94574108269413
 20
-138.2127522440927
 30
0.0
 10
78.94574108269413
 20
-137.1082546315216
 30
0.0
 10
78.94574108269413
 20
-137.1082546315216
 30
0.0
 10
78.94574108269413
 20
-137.1082546315216
 30
0.0
 10
78.61570093520719
 20
-137.1082546315216
 30
0.0
 10
78.61570093520719
 20
-137.1082546315216
 30
0.0
 10
78.61570093520719
 20
-137.1082546315216
 30
0.0
 10
78.61570093520719
 20
-136.9604600352043
 30
0.0
 10
78.61570093520719
 20
-136.9604600352043
 30
0.0
 10
78.94780813998527
 20
-136.9456461246178
 30
0.0
 10
78.99431692903615
 20
-136.7826931081654
 30
0.0
 10
79.0239447502093
 20
-136.6683159380551
 30
0.0
 10
79.0239447502093
 20
-136.6683159380551
 30
0.0
 10
79.17001679878389
 20
-136.6683159380551
 30
0.0
 10
79.17001679878389
 20
-136.6683159380551
 30
0.0
 10
79.17001679878389
 20
-136.6683159380551
 30
0.0
 10
79.17001679878389
 20
-138.2127522440927
 30
0.0
 10
79.17001679878389
 20
-138.2127522440927
 30
0.0
 10
79.17001679878389
 20
-138.2127522440927
 30
0.0
 10
78.94574108269413
 20
-138.2127522440927
 30
0.0
 10
78.94574108269413
 20
-138.2127522440927
 30
0.0
  0
HATCH
  5
A6
330
A1
100
AcDbEntity
  8
_U+30EC_U+30A4_U+30E4_U+30FC 1
 62
     7
420
 16777215
100
AcDbHatch
 10
0.0
 20
0.0
 30
0.0
210
0.0
220
0.0
230
1.0
  2
SOLID
 70
     1
 71
     0
 91
        1
 92
        1
 93
        1
 72
     4
 94
        3
 73
     0
 74
     1
 95
       26
 96
       22
 40
0.0
 40
0.0
 40
0.0
 40
0.0
 40
1.0
 40
1.0
 40
1.0
 40
2.0
 40
2.0
 40
2.0
 40
3.0
 40
3.0
 40
3.0
 40
4.0
 40
4.0
 40
4.0
 40
5.0
 40
5.0
 40
5.0
 40
6.0
 40
6.0
 40
6.0
 40
7.0
 40
7.0
 40
7.0
 40
7.0
 10
78.94574108269413
 20
-138.2127522440927
 10
78.94574108269413
 20
-138.2127522440927
 10
78.94574108269413
 20
-137.1082546315216
 10
78.94574108269413
 20
-137.1082546315216
 10
78.94574108269413
 20
-137.1082546315216
 10
78.61570093520719
 20
-137.1082546315216
 10
78.61570093520719
 20
-137.1082546315216
 10
78.61570093520719
 20
-137.1082546315216
 10
78.61570093520719
 20
-136.9604600352043
 10
78.61570093520719
 20
-136.9604600352043
 10
78.94780813998527
 20
-136.9456461246178
 10
78.99431692903615
 20
-136.7826931081654
 10
79.0239447502093
 20
-136.6683159380551
 10
79.0239447502093
 20
-136.6683159380551
 10
79.17001679878389
 20
-136.6683159380551
 10
79.17001679878389
 20
-136.6683159380551
 10
79.17001679878389
 20
-136.6683159380551
 10
79.17001679878389
 20
-138.2127522440927
 10
79.17001679878389
 20
-138.2127522440927
 10
79.17001679878389
 20
-138.2127522440927
 10
78.94574108269413
 20
-138.2127522440927
 10
78.94574108269413
 20
-138.2127522440927
 97
        0
 97
        0
 75
     2
 76
     1
 98
        0
  0
SPLINE
  5
A7
330
A1
100
AcDbEntity
  8
_U+30EC_U+30A4_U+30E4_U+30FC 1
370
     0
100
AcDbSpline
210
0.0
220
0.0
230
1.0
 70
    11
 71
     3
 72
    44
 73
    40
 74
     0
 42
0.0000000001
 43
0.0000000001
 12
1.0
 22
0.0
 32
0.0
 13
1.0
 23
0.0
 33
0.0
 40
0.0
 40
0.0
 40
0.0
 40
0.0
 40
1.0
 40
1.0
 40
1.0
 40
2.0
 40
2.0
 40
2.0
 40
3.0
 40
3.0
 40
3.0
 40
4.0
 40
4.0
 40
4.0
 40
5.0
 40
5.0
 40
5.0
 40
6.0
 40
6.0
 40
6.0
 40
7.0
 40
7.0
 40
7.0
 40
8.0
 40
8.0
 40
8.0
 40
9.0
 40
9.0
 40
9.0
 40
10.0
 40
10.0
 40
10.0
 40
11.0
 40
11.0
 40
11.0
 40
12.0
 40
12.0
 40
12.0
 40
13.0
 40
13.0
 40
13.0
 40
13.0
 10
80.2643513796735
 20
-137.6308756166339
 30
0.0
 10
80.04644909023145
 20
-137.789694518504
 30
0.0
 10
79.95325925735544
 20
-137.8637640714368
 30
0.0
 10
79.90468341101342
 20
-138.0074245531718
 30
0.0
 10
79.90468341101342
 20
-138.0074245531718
 30
0.0
 10
80.68310273590562
 20
-138.0074245531718
 30
0.0
 10
80.68310273590562
 20
-138.0074245531718
 30
0.0
 10
80.68310273590562
 20
-138.0074245531718
 30
0.0
 10
80.68310273590562
 20
-138.2127522440927
 30
0.0
 10
80.68310273590562
 20
-138.2127522440927
 30
0.0
 10
80.68310273590562
 20
-138.2127522440927
 30
0.0
 10
79.65508624310706
 20
-138.2127522440927
 30
0.0
 10
79.65508624310706
 20
-138.2127522440927
 30
0.0
 10
79.68678112157136
 20
-137.8551513327237
 30
0.0
 10
79.75223793579111
 20
-137.7769476652086
 30
0.0
 10
80.13739961104204
 20
-137.4786023961859
 30
0.0
 10
80.3933702055961
 20
-137.279820386687
 30
0.0
 10
80.45882701981586
 20
-137.2119520056276
 30
0.0
 10
80.45882701981586
 20
-137.0744926957661
 30
0.0
 10
80.45882701981586
 20
-136.9559814110735
 30
0.0
 10
80.38699677894839
 20
-136.825067782634
 30
0.0
 10
80.19028182674063
 20
-136.825067782634
 30
0.0
 10
79.93000486283
 20
-136.825067782634
 30
0.0
 10
79.92156437889113
 20
-137.0555446705972
 30
0.0
 10
79.91725800953458
 20
-137.1719888979987
 30
0.0
 10
79.91725800953458
 20
-137.1719888979987
 30
0.0
 10
79.69315454821907
 20
-137.1719888979987
 30
0.0
 10
79.69315454821907
 20
-137.1719888979987
 30
0.0
 10
79.70159503215794
 20
-137.0448648745929
 30
0.0
 10
79.71210257338795
 20
-136.9328992713223
 30
0.0
 10
79.79254555296853
 20
-136.8143879866298
 30
0.0
 10
79.90244409894801
 20
-136.6535020274686
 30
0.0
 10
80.08865150992575
 20
-136.6197400917131
 30
0.0
 10
80.2050957373272
 20
-136.6197400917131
 30
0.0
 10
80.48225366911555
 20
-136.6197400917131
 30
0.0
 10
80.68947616255333
 20
-136.8037081906255
 30
0.0
 10
80.68947616255333
 20
-137.0765597530573
 30
0.0
 10
80.68947616255333
 20
-137.3049695837293
 30
0.0
 10
80.57320418992614
 20
-137.404532843253
 30
0.0
 10
80.2643513796735
 20
-137.6308756166339
 30
0.0
  0
HATCH
  5
A8
330
A1
100
AcDbEntity
  8
_U+30EC_U+30A4_U+30E4_U+30FC 1
 62
     7
420
 16777215
100
AcDbHatch
 10
0.0
 20
0.0
 30
0.0
210
0.0
220
0.0
230
1.0
  2
SOLID
 70
     1
 71
     0
 91
        1
 92
        1
 93
        1
 72
     4
 94
        3
 73
     0
 74
     1
 95
       44
 96
       40
 40
0.0
 40
0.0
 40
0.0
 40
0.0
 40
1.0
 40
1.0
 40
1.0
 40
2.0
 40
2.0
 40
2.0
 40
3.0
 40
3.0
 40
3.0
 40
4.0
 40
4.0
 40
4.0
 40
5.0
 40
5.0
 40
5.0
 40
6.0
 40
6.0
 40
6.0
 40
7.0
 40
7.0
 40
7.0
 40
8.0
 40
8.0
 40
8.0
 40
9.0
 40
9.0
 40
9.0
 40
10.0
 40
10.0
 40
10.0
 40
11.0
 40
11.0
 40
11.0
 40
12.0
 40
12.0
 40
12.0
 40
13.0
 40
13.0
 40
13.0
 40
13.0
 10
80.2643513796735
 20
-137.6308756166339
 10
80.04644909023145
 20
-137.789694518504
 10
79.95325925735544
 20
-137.8637640714368
 10
79.90468341101342
 20
-138.0074245531718
 10
79.90468341101342
 20
-138.0074245531718
 10
80.68310273590562
 20
-138.0074245531718
 10
80.68310273590562
 20
-138.0074245531718
 10
80.68310273590562
 20
-138.0074245531718
 10
80.68310273590562
 20
-138.2127522440927
 10
80.68310273590562
 20
-138.2127522440927
 10
80.68310273590562
 20
-138.2127522440927
 10
79.65508624310706
 20
-138.2127522440927
 10
79.65508624310706
 20
-138.2127522440927
 10
79.68678112157136
 20
-137.8551513327237
 10
79.75223793579111
 20
-137.7769476652086
 10
80.13739961104204
 20
-137.4786023961859
 10
80.3933702055961
 20
-137.279820386687
 10
80.45882701981586
 20
-137.2119520056276
 10
80.45882701981586
 20
-137.0744926957661
 10
80.45882701981586
 20
-136.9559814110735
 10
80.38699677894839
 20
-136.825067782634
 10
80.19028182674063
 20
-136.825067782634
 10
79.93000486283
 20
-136.825067782634
 10
79.92156437889113
 20
-137.0555446705972
 10
79.91725800953458
 20
-137.1719888979987
 10
79.91725800953458
 20
-137.1719888979987
 10
79.69315454821907
 20
-137.1719888979987
 10
79.69315454821907
 20
-137.1719888979987
 10
79.70159503215794
 20
-137.0448648745929
 10
79.71210257338795
 20
-136.9328992713223
 10
79.79254555296853
 20
-136.8143879866298
 10
79.90244409894801
 20
-136.6535020274686
 10
80.08865150992575
 20
-136.6197400917131
 10
80.2050957373272
 20
-136.6197400917131
 10
80.48225366911555
 20
-136.6197400917131
 10
80.68947616255333
 20
-136.8037081906255
 10
80.68947616255333
 20
-137.0765597530573
 10
80.68947616255333
 20
-137.3049695837293
 10
80.57320418992614
 20
-137.404532843253
 10
80.2643513796735
 20
-137.6308756166339
 97
        0
 97
        0
 75
     2
 76
     1
 98
        0
  0
ENDBLK
  5
A4
330
A1
100
AcDbEntity
  8
0
100
AcDbBlockEnd
  0
BLOCK
  5
B7
330
B5
100
AcDbEntity
  8
0
100
AcDbBlockBegin
  2
block 6
 70
     0
 10
0.0
 20
0.0
 30
0.0
  3
block 6
  1

  0
POLYLINE
  5
B9
330
B5
100
AcDbEntity
  8
_U+30EC_U+30A4_U+30E4_U+30FC 1
370
     0
100
AcDb2dPolyline
 66
     1
 10
0.0
 20
0.0
 30
0.0
  0
VERTEX
  5
BA
330
B9
100
AcDbEntity
  8
_U+30EC_U+30A4_U+30E4_U+30FC 1
370
     0
100
AcDbVertex
100
AcDb2dVertex
 10
87.9222818790611
 20
-137.865831128728
 30
0.0
  0
VERTEX
  5
BB
330
B9
100
AcDbEntity
  8
_U+30EC_U+30A4_U+30E4_U+30FC 1
370
     0
100
AcDbVertex
100
AcDb2dVertex
 10
87.9222818790611
 20
-138.2127522440927
 30
0.0
  0
VERTEX
  5
BC
330
B9
100
AcDbEntity
  8
_U+30EC_U+30A4_U+30E4_U+30FC 1
370
     0
100
AcDbVertex
100
AcDb2dVertex
 10
87.70437958961905
 20
-138.2127522440927
 30
0.0
  0
VERTEX
  5
BD
330
B9
100
AcDbEntity
  8
_U+30EC_U+30A4_U+30E4_U+30FC 1
370
     0
100
AcDbVertex
100
AcDb2dVertex
 10
87.70437958961905
 20
-137.865831128728
 30
0.0
  0
VERTEX
  5
BE
330
B9
100
AcDbEntity
  8
_U+30EC_U+30A4_U+30E4_U+30FC 1
370
     0
100
AcDbVertex
100
AcDb2dVertex
 10
87.04860566400174
 20
-137.865831128728
 30
0.0
  0
VERTEX
  5
BF
330
B9
100
AcDbEntity
  8
_U+30EC_U+30A4_U+30E4_U+30FC 1
370
     0
100
AcDbVertex
100
AcDb2dVertex
 10
87.04860566400174
 20
-137.6415554126382
 30
0.0
  0
VERTEX
  5
C0
330
B9
100
AcDbEntity
  8
_U+30EC_U+30A4_U+30E4_U+30FC 1
370
     0
100
AcDbVertex
100
AcDb2dVertex
 10
87.72763398414449
 20
-136.6683159380551
 30
0.0
  0
VERTEX
  5
C1
330
B9
100
AcDbEntity
  8
_U+30EC_U+30A4_U+30E4_U+30FC 1
370
     0
100
AcDbVertex
100
AcDb2dVertex
 10
87.9222818790611
 20
-136.6683159380551
 30
0.0
  0
VERTEX
  5
C2
330
B9
100
AcDbEntity
  8
_U+30EC_U+30A4_U+30E4_U+30FC 1
370
     0
100
AcDbVertex
100
AcDb2dVertex
 10
87.9222818790611
 20
-137.6667046096806
 30
0.0
  0
VERTEX
  5
C3
330
B9
100
AcDbEntity
  8
_U+30EC_U+30A4_U+30E4_U+30FC 1
370
     0
100
AcDbVertex
100
AcDb2dVertex
 10
88.12967662727314
 20
-137.6667046096806
 30
0.0
  0
VERTEX
  5
C4
330
B9
100
AcDbEntity
  8
_U+30EC_U+30A4_U+30E4_U+30FC 1
370
     0
100
AcDbVertex
100
AcDb2dVertex
 10
88.12967662727314
 20
-137.865831128728
 30
0.0
  0
VERTEX
  5
C5
330
B9
100
AcDbEntity
  8
_U+30EC_U+30A4_U+30E4_U+30FC 1
370
     0
100
AcDbVertex
100
AcDb2dVertex
 10
87.9222818790611
 20
-137.865831128728
 30
0.0
  0
SEQEND
  5
C6
330
B9
100
AcDbEntity
  8
_U+30EC_U+30A4_U+30E4_U+30FC 1
370
     0
  0
POLYLINE
  5
C7
330
B5
100
AcDbEntity
  8
_U+30EC_U+30A4_U+30E4_U+30FC 1
370
     0
100
AcDb2dPolyline
 66
     1
 10
0.0
 20
0.0
 30
0.0
  0
VERTEX
  5
C8
330
C7
100
AcDbEntity
  8
_U+30EC_U+30A4_U+30E4_U+30FC 1
370
     0
100
AcDbVertex
100
AcDb2dVertex
 10
87.70437958961905
 20
-137.0111029388375
 30
0.0
  0
VERTEX
  5
C9
330
C7
100
AcDbEntity
  8
_U+30EC_U+30A4_U+30E4_U+30FC 1
370
     0
100
AcDbVertex
100
AcDb2dVertex
 10
87.24755992827492
 20
-137.6667046096806
 30
0.0
  0
VERTEX
  5
CA
330
C7
100
AcDbEntity
  8
_U+30EC_U+30A4_U+30E4_U+30FC 1
370
     0
100
AcDbVertex
100
AcDb2dVertex
 10
87.70437958961905
 20
-137.6667046096806
 30
0.0
  0
VERTEX
  5
CB
330
C7
100
AcDbEntity
  8
_U+30EC_U+30A4_U+30E4_U+30FC 1
370
     0
100
AcDbVertex
100
AcDb2dVertex
 10
87.70437958961905
 20
-137.0111029388375
 30
0.0
  0
SEQEND
  5
CC
330
C7
100
AcDbEntity
  8
_U+30EC_U+30A4_U+30E4_U+30FC 1
370
     0
  0
HATCH
  5
CD
330
B5
100
AcDbEntity
  8
_U+30EC_U+30A4_U+30E4_U+30FC 1
 62
     7
420
 16777215
100
AcDbHatch
 10
0.0
 20
0.0
 30
0.0
210
0.0
220
0.0
230
1.0
  2
SOLID
 70
     1
 71
     0
 91
        2
 92
        1
 93
       11
 72
     1
 10
87.9222818790611
 20
-137.865831128728
 11
87.9222818790611
 21
-138.2127522440927
 72
     1
 10
87.9222818790611
 20
-138.2127522440927
 11
87.70437958961905
 21
-138.2127522440927
 72
     1
 10
87.70437958961905
 20
-138.2127522440927
 11
87.70437958961905
 21
-137.865831128728
 72
     1
 10
87.70437958961905
 20
-137.865831128728
 11
87.04860566400174
 21
-137.865831128728
 72
     1
 10
87.04860566400174
 20
-137.865831128728
 11
87.04860566400174
 21
-137.6415554126382
 72
     1
 10
87.04860566400174
 20
-137.6415554126382
 11
87.72763398414449
 21
-136.6683159380551
 72
     1
 10
87.72763398414449
 20
-136.6683159380551
 11
87.9222818790611
 21
-136.6683159380551
 72
     1
 10
87.9222818790611
 20
-136.6683159380551
 11
87.9222818790611
 21
-137.6667046096806
 72
     1
 10
87.9222818790611
 20
-137.6667046096806
 11
88.12967662727314
 21
-137.6667046096806
 72
     1
 10
88.12967662727314
 20
-137.6667046096806
 11
88.12967662727314
 21
-137.865831128728
 72
     1
 10
88.12967662727314
 20
-137.865831128728
 11
87.9222818790611
 21
-137.865831128728
 97
        0
 92
        1
 93
        3
 72
     1
 10
87.70437958961905
 20
-137.0111029388375
 11
87.24755992827492
 21
-137.6667046096806
 72
     1
 10
87.24755992827492
 20
-137.6667046096806
 11
87.70437958961905
 21
-137.6667046096806
 72
     1
 10
87.70437958961905
 20
-137.6667046096806
 11
87.70437958961905
 21
-137.0111029388375
 97
        0
 75
     2
 76
     1
 98
        0
  0
ENDBLK
  5
B8
330
B5
100
AcDbEntity
  8
0
100
AcDbBlockEnd
  0
BLOCK
  5
D8
330
D6
100
AcDbEntity
  8
0
100
AcDbBlockBegin
  2
block 7
 70
     0
 10
0.0
 20
0.0
 30
0.0
  3
block 7
  1

  0
SPLINE
  5
DA
330
D6
100
AcDbEntity
  8
_U+30EC_U+30A4_U+30E4_U+30FC 1
370
     0
100
AcDbSpline
210
0.0
220
0.0
230
1.0
 70
    11
 71
     3
 72
    29
 73
    25
 74
     0
 42
0.0000000001
 43
0.0000000001
 12
1.0
 22
0.0
 32
0.0
 13
1.0
 23
0.0
 33
0.0
 40
0.0
 40
0.0
 40
0.0
 40
0.0
 40
1.0
 40
1.0
 40
1.0
 40
2.0
 40
2.0
 40
2.0
 40
3.0
 40
3.0
 40
3.0
 40
4.0
 40
4.0
 40
4.0
 40
5.0
 40
5.0
 40
5.0
 40
6.0
 40
6.0
 40
6.0
 40
7.0
 40
7.0
 40
7.0
 40
8.0
 40
8.0
 40
8.0
 40
8.0
 10
106.0069661193316
 20
-130.6194172850535
 30
0.0
 10
106.0069661193316
 20
-130.8860676756118
 30
0.0
 10
105.8695068094701
 20
-131.1396267033262
 30
0.0
 10
105.5205186368143
 20
-131.1396267033262
 30
0.0
 10
105.2645480422603
 20
-131.1396267033262
 30
0.0
 10
105.1694634068674
 20
-130.9980332788824
 30
0.0
 10
105.1081407072299
 20
-130.8922688474853
 30
0.0
 10
105.0488850648836
 20
-131.0169813040513
 30
0.0
 10
104.9345078947733
 20
-131.0931179142753
 30
0.0
 10
104.7736219356122
 20
-131.0931179142753
 30
0.0
 10
104.4987033158892
 20
-131.0931179142753
 30
0.0
 10
104.3633110633189
 20
-130.8943359047764
 30
0.0
 10
104.3633110633189
 20
-130.6194172850535
 30
0.0
 10
104.3633110633189
 20
-130.3358859266174
 30
0.0
 10
104.5073160546023
 20
-130.1453721462831
 30
0.0
 10
104.7736219356122
 20
-130.1453721462831
 30
0.0
 10
104.9345078947733
 20
-130.1453721462831
 30
0.0
 10
105.0488850648836
 20
-130.2239203233468
 30
0.0
 10
105.1081407072299
 20
-130.3486327799129
 30
0.0
 10
105.1587836108631
 20
-130.2597493163934
 30
0.0
 10
105.253868246256
 20
-130.1009304145234
 30
0.0
 10
105.516384522232
 20
-130.1009304145234
 30
0.0
 10
105.8908664014787
 20
-130.1009304145234
 30
0.0
 10
106.0069661193316
 20
-130.3803276583772
 30
0.0
 10
106.0069661193316
 20
-130.6194172850535
 30
0.0
  0
SPLINE
  5
DB
330
D6
100
AcDbEntity
  8
_U+30EC_U+30A4_U+30E4_U+30FC 1
370
     0
100
AcDbSpline
210
0.0
220
0.0
230
1.0
 70
    11
 71
     3
 72
    17
 73
    13
 74
     0
 42
0.0000000001
 43
0.0000000001
 12
1.0
 22
0.0
 32
0.0
 13
1.0
 23
0.0
 33
0.0
 40
0.0
 40
0.0
 40
0.0
 40
0.0
 40
1.0
 40
1.0
 40
1.0
 40
2.0
 40
2.0
 40
2.0
 40
3.0
 40
3.0
 40
3.0
 40
4.0
 40
4.0
 40
4.0
 40
4.0
 10
104.5558919009444
 20
-130.6194172850535
 30
0.0
 10
104.5558919009444
 20
-130.784437358797
 30
0.0
 10
104.6509765363373
 20
-130.8688421981856
 30
0.0
 10
104.7863687889076
 20
-130.8688421981856
 30
0.0
 10
104.9090141881825
 20
-130.8688421981856
 30
0.0
 10
105.0275254728751
 20
-130.7971842120924
 30
0.0
 10
105.0275254728751
 20
-130.6194172850535
 30
0.0
 10
105.0275254728751
 20
-130.4416503580146
 30
0.0
 10
104.9090141881825
 20
-130.3696478623729
 30
0.0
 10
104.7863687889076
 20
-130.3696478623729
 30
0.0
 10
104.6509765363373
 20
-130.3696478623729
 30
0.0
 10
104.5558919009444
 20
-130.4564642686012
 30
0.0
 10
104.5558919009444
 20
-130.6194172850535
 30
0.0
  0
SPLINE
  5
DC
330
D6
100
AcDbEntity
  8
_U+30EC_U+30A4_U+30E4_U+30FC 1
370
     0
100
AcDbSpline
210
0.0
220
0.0
230
1.0
 70
    11
 71
     3
 72
    17
 73
    13
 74
     0
 42
0.0000000001
 43
0.0000000001
 12
1.0
 22
0.0
 32
0.0
 13
1.0
 23
0.0
 33
0.0
 40
0.0
 40
0.0
 40
0.0
 40
0.0
 40
1.0
 40
1.0
 40
1.0
 40
2.0
 40
2.0
 40
2.0
 40
3.0
 40
3.0
 40
3.0
 40
4.0
 40
4.0
 40
4.0
 40
4.0
 10
105.2159721959182
 20
-130.6194172850535
 30
0.0
 10
105.2159721959182
 20
-130.7630777667884
 30
0.0
 10
105.3027886021465
 20
-130.915695496785
 30
0.0
 10
105.5057047262277
 20
-130.915695496785
 30
0.0
 10
105.7110324171486
 20
-130.915695496785
 30
0.0
 10
105.812318224415
 20
-130.7885714733792
 30
0.0
 10
105.812318224415
 20
-130.6194172850535
 30
0.0
 10
105.812318224415
 20
-130.43338212885
 30
0.0
 10
105.6896728251401
 20
-130.323139073322
 30
0.0
 10
105.5119058981012
 20
-130.323139073322
 30
0.0
 10
105.2900417488511
 20
-130.323139073322
 30
0.0
 10
105.2159721959182
 20
-130.4860920897743
 30
0.0
 10
105.2159721959182
 20
-130.6194172850535
 30
0.0
  0
HATCH
  5
DD
330
D6
100
AcDbEntity
  8
_U+30EC_U+30A4_U+30E4_U+30FC 1
 62
     7
420
 16777215
100
AcDbHatch
 10
0.0
 20
0.0
 30
0.0
210
0.0
220
0.0
230
1.0
  2
SOLID
 70
     1
 71
     0
 91
        3
 92
        1
 93
        1
 72
     4
 94
        3
 73
     0
 74
     1
 95
       29
 96
       25
 40
0.0
 40
0.0
 40
0.0
 40
0.0
 40
1.0
 40
1.0
 40
1.0
 40
2.0
 40
2.0
 40
2.0
 40
3.0
 40
3.0
 40
3.0
 40
4.0
 40
4.0
 40
4.0
 40
5.0
 40
5.0
 40
5.0
 40
6.0
 40
6.0
 40
6.0
 40
7.0
 40
7.0
 40
7.0
 40
8.0
 40
8.0
 40
8.0
 40
8.0
 10
106.0069661193316
 20
-130.6194172850535
 10
106.0069661193316
 20
-130.8860676756118
 10
105.8695068094701
 20
-131.1396267033262
 10
105.5205186368143
 20
-131.1396267033262
 10
105.2645480422603
 20
-131.1396267033262
 10
105.1694634068674
 20
-130.9980332788824
 10
105.1081407072299
 20
-130.8922688474853
 10
105.0488850648836
 20
-131.0169813040513
 10
104.9345078947733
 20
-131.0931179142753
 10
104.7736219356122
 20
-131.0931179142753
 10
104.4987033158892
 20
-131.0931179142753
 10
104.3633110633189
 20
-130.8943359047764
 10
104.3633110633189
 20
-130.6194172850535
 10
104.3633110633189
 20
-130.3358859266174
 10
104.5073160546023
 20
-130.1453721462831
 10
104.7736219356122
 20
-130.1453721462831
 10
104.9345078947733
 20
-130.1453721462831
 10
105.0488850648836
 20
-130.2239203233468
 10
105.1081407072299
 20
-130.3486327799129
 10
105.1587836108631
 20
-130.2597493163934
 10
105.253868246256
 20
-130.1009304145234
 10
105.516384522232
 20
-130.1009304145234
 10
105.8908664014787
 20
-130.1009304145234
 10
106.0069661193316
 20
-130.3803276583772
 10
106.0069661193316
 20
-130.6194172850535
 97
        0
 97
        0
 92
        1
 93
        1
 72
     4
 94
        3
 73
     0
 74
     1
 95
       17
 96
       13
 40
0.0
 40
0.0
 40
0.0
 40
0.0
 40
1.0
 40
1.0
 40
1.0
 40
2.0
 40
2.0
 40
2.0
 40
3.0
 40
3.0
 40
3.0
 40
4.0
 40
4.0
 40
4.0
 40
4.0
 10
104.5558919009444
 20
-130.6194172850535
 10
104.5558919009444
 20
-130.784437358797
 10
104.6509765363373
 20
-130.8688421981856
 10
104.7863687889076
 20
-130.8688421981856
 10
104.9090141881825
 20
-130.8688421981856
 10
105.0275254728751
 20
-130.7971842120924
 10
105.0275254728751
 20
-130.6194172850535
 10
105.0275254728751
 20
-130.4416503580146
 10
104.9090141881825
 20
-130.3696478623729
 10
104.7863687889076
 20
-130.3696478623729
 10
104.6509765363373
 20
-130.3696478623729
 10
104.5558919009444
 20
-130.4564642686012
 10
104.5558919009444
 20
-130.6194172850535
 97
        0
 97
        0
 92
        1
 93
        1
 72
     4
 94
        3
 73
     0
 74
     1
 95
       17
 96
       13
 40
0.0
 40
0.0
 40
0.0
 40
0.0
 40
1.0
 40
1.0
 40
1.0
 40
2.0
 40
2.0
 40
2.0
 40
3.0
 40
3.0
 40
3.0
 40
4.0
 40
4.0
 40
4.0
 40
4.0
 10
105.2159721959182
 20
-130.6194172850535
 10
105.2159721959182
 20
-130.7630777667884
 10
105.3027886021465
 20
-130.915695496785
 10
105.5057047262277
 20
-130.915695496785
 10
105.7110324171486
 20
-130.915695496785
 10
105.812318224415
 20
-130.7885714733792
 10
105.812318224415
 20
-130.6194172850535
 10
105.812318224415
 20
-130.43338212885
 10
105.6896728251401
 20
-130.323139073322
 10
105.5119058981012
 20
-130.323139073322
 10
105.2900417488511
 20
-130.323139073322
 10
105.2159721959182
 20
-130.4860920897743
 10
105.2159721959182
 20
-130.6194172850535
 97
        0
 97
        0
 75
     2
 76
     1
 98
        0
  0
POLYLINE
  5
DE
330
D6
100
AcDbEntity
  8
_U+30EC_U+30A4_U+30E4_U+30FC 1
370
     0
100
AcDb2dPolyline
 66
     1
 10
0.0
 20
0.0
 30
0.0
  0
VERTEX
  5
DF
330
DE
100
AcDbEntity
  8
_U+30EC_U+30A4_U+30E4_U+30FC 1
370
     0
100
AcDbVertex
100
AcDb2dVertex
 10
105.9563232156984
 20
-129.8825113607585
 30
0.0
  0
VERTEX
  5
E0
330
DE
100
AcDbEntity
  8
_U+30EC_U+30A4_U+30E4_U+30FC 1
370
     0
100
AcDbVertex
100
AcDb2dVertex
 10
105.7044867357267
 20
-129.8825113607585
 30
0.0
  0
VERTEX
  5
E1
330
DE
100
AcDbEntity
  8
_U+30EC_U+30A4_U+30E4_U+30FC 1
370
     0
100
AcDbVertex
100
AcDb2dVertex
 10
105.7044867357267
 20
-129.6306748807868
 30
0.0
  0
VERTEX
  5
E2
330
DE
100
AcDbEntity
  8
_U+30EC_U+30A4_U+30E4_U+30FC 1
370
     0
100
AcDbVertex
100
AcDb2dVertex
 10
105.9563232156984
 20
-129.6306748807868
 30
0.0
  0
VERTEX
  5
E3
330
DE
100
AcDbEntity
  8
_U+30EC_U+30A4_U+30E4_U+30FC 1
370
     0
100
AcDbVertex
100
AcDb2dVertex
 10
105.9563232156984
 20
-129.8825113607585
 30
0.0
  0
SEQEND
  5
E4
330
DE
100
AcDbEntity
  8
_U+30EC_U+30A4_U+30E4_U+30FC 1
370
     0
  0
HATCH
  5
E5
330
D6
100
AcDbEntity
  8
_U+30EC_U+30A4_U+30E4_U+30FC 1
 62
     7
420
 16777215
100
AcDbHatch
 10
0.0
 20
0.0
 30
0.0
210
0.0
220
0.0
230
1.0
  2
SOLID
 70
     1
 71
     0
 91
        1
 92
        1
 93
        4
 72
     1
 10
105.9563232156984
 20
-129.8825113607585
 11
105.7044867357267
 21
-129.8825113607585
 72
     1
 10
105.7044867357267
 20
-129.8825113607585
 11
105.7044867357267
 21
-129.6306748807868
 72
     1
 10
105.7044867357267
 20
-129.6306748807868
 11
105.9563232156984
 21
-129.6306748807868
 72
     1
 10
105.9563232156984
 20
-129.6306748807868
 11
105.9563232156984
 21
-129.8825113607585
 97
        0
 75
     2
 76
     1
 98
        0
  0
SPLINE
  5
E6
330
D6
100
AcDbEntity
  8
_U+30EC_U+30A4_U+30E4_U+30FC 1
370
     0
100
AcDbSpline
210
0.0
220
0.0
230
1.0
 70
    11
 71
     3
 72
    44
 73
    40
 74
     0
 42
0.0000000001
 43
0.0000000001
 12
1.0
 22
0.0
 32
0.0
 13
1.0
 23
0.0
 33
0.0
 40
0.0
 40
0.0
 40
0.0
 40
0.0
 40
1.0
 40
1.0
 40
1.0
 40
2.0
 40
2.0
 40
2.0
 40
3.0
 40
3.0
 40
3.0
 40
4.0
 40
4.0
 40
4.0
 40
5.0
 40
5.0
 40
5.0
 40
6.0
 40
6.0
 40
6.0
 40
7.0
 40
7.0
 40
7.0
 40
8.0
 40
8.0
 40
8.0
 40
9.0
 40
9.0
 40
9.0
 40
10.0
 40
10.0
 40
10.0
 40
11.0
 40
11.0
 40
11.0
 40
12.0
 40
12.0
 40
12.0
 40
13.0
 40
13.0
 40
13.0
 40
13.0
 10
105.3744465882397
 20
-128.8014403974871
 30
0.0
 10
105.5332654901097
 20
-129.0191704321549
 30
0.0
 10
105.6073350430426
 20
-129.1121880102567
 30
0.0
 10
105.7509955247775
 20
-129.1611083661472
 30
0.0
 10
105.7509955247775
 20
-129.1611083661472
 30
0.0
 10
105.7509955247775
 20
-128.3825167864808
 30
0.0
 10
105.7509955247775
 20
-128.3825167864808
 30
0.0
 10
105.7509955247775
 20
-128.3825167864808
 30
0.0
 10
105.9563232156984
 20
-128.3825167864808
 30
0.0
 10
105.9563232156984
 20
-128.3825167864808
 30
0.0
 10
105.9563232156984
 20
-128.3825167864808
 30
0.0
 10
105.9563232156984
 20
-129.4105332792793
 30
0.0
 10
105.9563232156984
 20
-129.4105332792793
 30
0.0
 10
105.5987223043295
 20
-129.378838400815
 30
0.0
 10
105.5205186368143
 20
-129.3133815865953
 30
0.0
 10
105.2221733677917
 20
-128.9282199113443
 30
0.0
 10
105.0233913582928
 20
-128.6722493167903
 30
0.0
 10
104.9555229772333
 20
-128.6067925025705
 30
0.0
 10
104.8180636673719
 20
-128.6067925025705
 30
0.0
 10
104.6995523826793
 20
-128.6067925025705
 30
0.0
 10
104.5686387542398
 20
-128.6787949982123
 30
0.0
 10
104.5686387542398
 20
-128.87550995042
 30
0.0
 10
104.5686387542398
 20
-129.1356146595564
 30
0.0
 10
104.799115642203
 20
-129.1442273982695
 30
0.0
 10
104.9155598696045
 20
-129.1483615128518
 30
0.0
 10
104.9155598696045
 20
-129.1483615128518
 30
0.0
 10
104.9155598696045
 20
-129.3726372289416
 30
0.0
 10
104.9155598696045
 20
-129.3726372289416
 30
0.0
 10
104.7884358461987
 20
-129.3640244902284
 30
0.0
 10
104.6764702429281
 20
-129.3533446942242
 30
0.0
 10
104.5579589582355
 20
-129.2730739694179
 30
0.0
 10
104.3970729990744
 20
-129.1631754234384
 30
0.0
 10
104.3633110633189
 20
-128.9767957576864
 30
0.0
 10
104.3633110633189
 20
-128.8606960398334
 30
0.0
 10
104.3633110633189
 20
-128.5833658532708
 30
0.0
 10
104.5472791622312
 20
-128.3759711050588
 30
0.0
 10
104.820130724663
 20
-128.3759711050588
 30
0.0
 10
105.0488850648836
 20
-128.3759711050588
 30
0.0
 10
105.1481038148588
 20
-128.4924153324602
 30
0.0
 10
105.3744465882397
 20
-128.8014403974871
 30
0.0
  0
HATCH
  5
E7
330
D6
100
AcDbEntity
  8
_U+30EC_U+30A4_U+30E4_U+30FC 1
 62
     7
420
 16777215
100
AcDbHatch
 10
0.0
 20
0.0
 30
0.0
210
0.0
220
0.0
230
1.0
  2
SOLID
 70
     1
 71
     0
 91
        1
 92
        1
 93
        1
 72
     4
 94
        3
 73
     0
 74
     1
 95
       44
 96
       40
 40
0.0
 40
0.0
 40
0.0
 40
0.0
 40
1.0
 40
1.0
 40
1.0
 40
2.0
 40
2.0
 40
2.0
 40
3.0
 40
3.0
 40
3.0
 40
4.0
 40
4.0
 40
4.0
 40
5.0
 40
5.0
 40
5.0
 40
6.0
 40
6.0
 40
6.0
 40
7.0
 40
7.0
 40
7.0
 40
8.0
 40
8.0
 40
8.0
 40
9.0
 40
9.0
 40
9.0
 40
10.0
 40
10.0
 40
10.0
 40
11.0
 40
11.0
 40
11.0
 40
12.0
 40
12.0
 40
12.0
 40
13.0
 40
13.0
 40
13.0
 40
13.0
 10
105.3744465882397
 20
-128.8014403974871
 10
105.5332654901097
 20
-129.0191704321549
 10
105.6073350430426
 20
-129.1121880102567
 10
105.7509955247775
 20
-129.1611083661472
 10
105.7509955247775
 20
-129.1611083661472
 10
105.7509955247775
 20
-128.3825167864808
 10
105.7509955247775
 20
-128.3825167864808
 10
105.7509955247775
 20
-128.3825167864808
 10
105.9563232156984
 20
-128.3825167864808
 10
105.9563232156984
 20
-128.3825167864808
 10
105.9563232156984
 20
-128.3825167864808
 10
105.9563232156984
 20
-129.4105332792793
 10
105.9563232156984
 20
-129.4105332792793
 10
105.5987223043295
 20
-129.378838400815
 10
105.5205186368143
 20
-129.3133815865953
 10
105.2221733677917
 20
-128.9282199113443
 10
105.0233913582928
 20
-128.6722493167903
 10
104.9555229772333
 20
-128.6067925025705
 10
104.8180636673719
 20
-128.6067925025705
 10
104.6995523826793
 20
-128.6067925025705
 10
104.5686387542398
 20
-128.6787949982123
 10
104.5686387542398
 20
-128.87550995042
 10
104.5686387542398
 20
-129.1356146595564
 10
104.799115642203
 20
-129.1442273982695
 10
104.9155598696045
 20
-129.1483615128518
 10
104.9155598696045
 20
-129.1483615128518
 10
104.9155598696045
 20
-129.3726372289416
 10
104.9155598696045
 20
-129.3726372289416
 10
104.7884358461987
 20
-129.3640244902284
 10
104.6764702429281
 20
-129.3533446942242
 10
104.5579589582355
 20
-129.2730739694179
 10
104.3970729990744
 20
-129.1631754234384
 10
104.3633110633189
 20
-128.9767957576864
 10
104.3633110633189
 20
-128.8606960398334
 10
104.3633110633189
 20
-128.5833658532708
 10
104.5472791622312
 20
-128.3759711050588
 10
104.820130724663
 20
-128.3759711050588
 10
105.0488850648836
 20
-128.3759711050588
 10
105.1481038148588
 20
-128.4924153324602
 10
105.3744465882397
 20
-128.8014403974871
 97
        0
 97
        0
 75
     2
 76
     1
 98
        0
  0
ENDBLK
  5
D9
330
D6
100
AcDbEntity
  8
0
100
AcDbBlockEnd
  0
ENDSEC
  0
SECTION
  2
ENTITIES
  0
INSERT
  5
42
330
1F
100
AcDbEntity
  8
_U+30EC_U+30A4_U+30E4_U+30FC 1
100
AcDbBlockReference
  2
block 2
 10
0.0
 20
0.0
 30
0.0
  0
ENDSEC
  0
SECTION
  2
OBJECTS
  0
DICTIONARY
  5
C
330
0
100
AcDbDictionary
281
     1
  3
ACAD_GROUP
350
D
  3
ACAD_LAYOUT
350
1A
  3
ACAD_MATERIAL
350
3B
  3
ACAD_MLEADERSTYLE
350
E9
  3
ACAD_MLINESTYLE
350
17
  3
ACAD_PLOTSETTINGS
350
19
  3
ACAD_PLOTSTYLENAME
350
E
  3
ACAD_TABLESTYLE
350
E8
  3
ACAD_VISUALSTYLE
350
2A
  0
SUN
  5
3F
330
29
100
AcDbSun
 90
        1
290
     0
 63
     7
421
 16777215
 40
1.0
291
     1
 91
  2455826
 92
 54000000
292
     0
 70
     2
 71
   256
280
     1
  0
DICTIONARY
  5
D
102
{ACAD_REACTORS
330
C
102
}
330
C
100
AcDbDictionary
281
     1
  0
DICTIONARY
  5
1A
102
{ACAD_REACTORS
330
C
102
}
330
C
100
AcDbDictionary
281
     1
  3
Layout1
350
1E
  3
Layout2
350
26
  3
Model
350
22
  0
DICTIONARY
  5
3B
102
{ACAD_REACTORS
330
C
102
}
330
C
100
AcDbDictionary
281
     1
  3
ByBlock
350
3D
  3
ByLayer
350
3C
  3
Global
350
3E
  0
DICTIONARY
  5
E9
102
{ACAD_REACTORS
330
C
102
}
330
C
100
AcDbDictionary
281
     1
  0
DICTIONARY
  5
17
102
{ACAD_REACTORS
330
C
102
}
330
C
100
AcDbDictionary
281
     1
  3
Standard
350
18
  0
DICTIONARY
  5
19
102
{ACAD_REACTORS
330
C
102
}
330
C
100
AcDbDictionary
281
     1
  0
ACDBDICTIONARYWDFLT
  5
E
102
{ACAD_REACTORS
330
C
102
}
330
C
100
AcDbDictionary
281
     1
  3
Normal
350
F
100
AcDbDictionaryWithDefault
340
F
  0
DICTIONARY
  5
E8
102
{ACAD_REACTORS
330
C
102
}
330
C
100
AcDbDictionary
281
     1
  0
DICTIONARY
  5
2A
102
{ACAD_REACTORS
330
C
102
}
330
C
100
AcDbDictionary
281
     1
  3
2dWireframe
350
2F
  3
3D Hidden
350
31
  3
3dWireframe
350
30
  3
Basic
350
32
  3
Brighten
350
36
  3
ColorChange
350
3A
  3
Conceptual
350
34
  3
Dim
350
35
  3
Facepattern
350
39
  3
Flat
350
2B
  3
FlatWithEdges
350
2C
  3
Gouraud
350
2D
  3
GouraudWithEdges
350
2E
  3
Linepattern
350
38
  3
Realistic
350
33
  3
Thicken
350
37
  0
LAYOUT
  5
1E
102
{ACAD_REACTORS
330
1A
102
}
330
1A
100
AcDbPlotSettings
  1

  2
none_device
  4

  6

 40
0.0
 41
0.0
 42
0.0
 43
0.0
 44
0.0
 45
0.0
 46
0.0
 47
0.0
 48
0.0
 49
0.0
140
0.0
141
0.0
142
1.0
143
1.0
 70
   688
 72
     0
 73
     0
 74
     5
  7

 75
    16
 76
     0
 77
     2
 78
   300
147
1.0
148
0.0
149
0.0
100
AcDbLayout
  1
Layout1
 70
     1
 71
     1
 10
0.0
 20
0.0
 11
12.0
 21
9.0
 12
0.0
 22
0.0
 32
0.0
 14
1.000000000000000E+20
 24
1.000000000000000E+20
 34
1.000000000000000E+20
 15
-1.000000000000000E+20
 25
-1.000000000000000E+20
 35
-1.000000000000000E+20
146
0.0
 13
0.0
 23
0.0
 33
0.0
 16
1.0
 26
0.0
 36
0.0
 17
0.0
 27
1.0
 37
0.0
 76
     0
330
1B
  0
LAYOUT
  5
26
102
{ACAD_REACTORS
330
1A
102
}
330
1A
100
AcDbPlotSettings
  1

  2
none_device
  4

  6

 40
0.0
 41
0.0
 42
0.0
 43
0.0
 44
0.0
 45
0.0
 46
0.0
 47
0.0
 48
0.0
 49
0.0
140
0.0
141
0.0
142
1.0
143
1.0
 70
   688
 72
     0
 73
     0
 74
     5
  7

 75
    16
 76
     0
 77
     2
 78
   300
147
1.0
148
0.0
149
0.0
100
AcDbLayout
  1
Layout2
 70
     1
 71
     2
 10
0.0
 20
0.0
 11
0.0
 21
0.0
 12
0.0
 22
0.0
 32
0.0
 14
0.0
 24
0.0
 34
0.0
 15
0.0
 25
0.0
 35
0.0
146
0.0
 13
0.0
 23
0.0
 33
0.0
 16
1.0
 26
0.0
 36
0.0
 17
0.0
 27
1.0
 37
0.0
 76
     0
330
23
  0
LAYOUT
  5
22
102
{ACAD_REACTORS
330
1A
102
}
330
1A
100
AcDbPlotSettings
  1

  2
none_device
  4

  6

 40
0.0
 41
0.0
 42
0.0
 43
0.0
 44
0.0
 45
0.0
 46
0.0
 47
0.0
 48
0.0
 49
0.0
140
0.0
141
0.0
142
1.0
143
1.0
 70
  1712
 72
     0
 73
     0
 74
     0
  7

 75
     0
 76
     0
 77
     2
 78
   300
147
1.0
148
0.0
149
0.0
100
AcDbLayout
  1
Model
 70
     1
 71
     0
 10
0.0
 20
0.0
 11
12.0
 21
9.0
 12
0.0
 22
0.0
 32
0.0
 14
1.000000000000000E+20
 24
1.000000000000000E+20
 34
1.000000000000000E+20
 15
-1.000000000000000E+20
 25
-1.000000000000000E+20
 35
-1.000000000000000E+20
146
0.0
 13
0.0
 23
0.0
 33
0.0
 16
1.0
 26
0.0
 36
0.0
 17
0.0
 27
1.0
 37
0.0
 76
     0
330
1F
331
29
  0
MATERIAL
  5
3D
102
{ACAD_REACTORS
330
3B
102
}
330
3B
100
AcDbMaterial
  1
ByBlock
 72
     1
 94
      127
  0
MATERIAL
  5
3C
102
{ACAD_REACTORS
330
3B
102
}
330
3B
100
AcDbMaterial
  1
ByLayer
 72
     1
 94
      127
  0
MATERIAL
  5
3E
102
{ACAD_REACTORS
330
3B
102
}
330
3B
100
AcDbMaterial
  1
Global
 72
     1
 94
      127
  0
MLINESTYLE
  5
18
102
{ACAD_REACTORS
330
17
102
}
330
17
100
AcDbMlineStyle
  2
Standard
 70
     0
  3

 62
   256
 51
90.0
 52
90.0
 71
     2
 49
0.5
 62
   256
  6
BYLAYER
 49
-0.5
 62
   256
  6
BYLAYER
  0
ACDBPLACEHOLDER
  5
F
102
{ACAD_REACTORS
330
E
102
}
330
E
  0
VISUALSTYLE
  5
2F
102
{ACAD_REACTORS
330
2A
102
}
330
2A
100
AcDbVisualStyle
  2
2dWireframe
 70
     4
177
     2
291
     0
 71
     0
176
     1
 72
     2
176
     1
 73
     0
176
     1
 90
        0
176
     1
 40
-0.6
176
     1
 41
-30.0
176
     1
 62
     5
 63
     7
421
 16777215
176
     1
 74
     1
176
     1
 91
        4
176
     1
 64
     7
176
     1
 65
   257
176
     1
 75
     1
176
     1
175
     1
176
     1
 42
1.0
176
     1
 92
        0
176
     1
 66
   257
176
     1
 43
1.0
176
     1
 76
     1
176
     1
 77
     6
176
     1
 78
     2
176
     1
 67
     7
176
     1
 79
     5
176
     1
170
     0
176
     1
171
     0
176
     1
290
     0
176
     1
 93
        1
176
     1
 44
0.0
176
     1
173
     0
176
     1
  0
VISUALSTYLE
  5
31
102
{ACAD_REACTORS
330
2A
102
}
330
2A
100
AcDbVisualStyle
  2
3D Hidden
 70
     6
177
     2
291
     0
 71
     1
176
     1
 72
     2
176
     1
 73
     2
176
     1
 90
        0
176
     1
 40
-0.6
176
     1
 41
-30.0
176
     1
 62
     5
 63
     7
421
 16777215
176
     1
 74
     2
176
     1
 91
        2
176
     1
 64
     7
176
     1
 65
   257
176
     1
 75
     2
176
     1
175
     1
176
     1
 42
40.0
176
     1
 92
        0
176
     1
 66
   257
176
     1
 43
1.0
176
     1
 76
     1
176
     1
 77
     6
176
     1
 78
     2
176
     1
 67
     7
176
     1
 79
     3
176
     1
170
     0
176
     1
171
     0
176
     1
290
     0
176
     1
 93
        1
176
     1
 44
0.0
176
     1
173
     0
176
     1
  0
VISUALSTYLE
  5
30
102
{ACAD_REACTORS
330
2A
102
}
330
2A
100
AcDbVisualStyle
  2
3dWireframe
 70
     5
177
     2
291
     0
 71
     0
176
     1
 72
     2
176
     1
 73
     0
176
     1
 90
        0
176
     1
 40
-0.6
176
     1
 41
-30.0
176
     1
 62
     5
 63
     7
421
 16777215
176
     1
 74
     1
176
     1
 91
        4
176
     1
 64
     7
176
     1
 65
   257
176
     1
 75
     1
176
     1
175
     1
176
     1
 42
1.0
176
     1
 92
        0
176
     1
 66
   257
176
     1
 43
1.0
176
     1
 76
     1
176
     1
 77
     6
176
     1
 78
     2
176
     1
 67
     7
176
     1
 79
     5
176
     1
170
     0
176
     1
171
     0
176
     1
290
     0
176
     1
 93
        1
176
     1
 44
0.0
176
     1
173
     0
176
     1
  0
VISUALSTYLE
  5
32
102
{ACAD_REACTORS
330
2A
102
}
330
2A
100
AcDbVisualStyle
  2
Basic
 70
     7
177
     2
291
     1
 71
     1
176
     1
 72
     0
176
     1
 73
     1
176
     1
 90
        0
176
     1
 40
-0.6
176
     1
 41
-30.0
176
     1
 62
     5
 63
     7
421
 16777215
176
     1
 74
     0
176
     1
 91
        4
176
     1
 64
     7
176
     1
 65
   257
176
     1
 75
     1
176
     1
175
     1
176
     1
 42
1.0
176
     1
 92
        8
176
     1
 66
     7
176
     1
 43
1.0
176
     1
 76
     1
176
     1
 77
     6
176
     1
 78
     2
176
     1
 67
     7
176
     1
 79
     5
176
     1
170
     0
176
     1
171
     0
176
     1
290
     0
176
     1
 93
        1
176
     1
 44
0.0
176
     1
173
     0
176
     1
  0
VISUALSTYLE
  5
36
102
{ACAD_REACTORS
330
2A
102
}
330
2A
100
AcDbVisualStyle
  2
Brighten
 70
    12
177
     2
291
     1
 71
     2
176
     1
 72
     2
176
     1
 73
     0
176
     1
 90
        0
176
     1
 40
-0.6
176
     1
 41
-30.0
176
     1
 62
     5
 63
     7
421
 16777215
176
     1
 74
     1
176
     1
 91
        4
176
     1
 64
     7
176
     1
 65
   257
176
     1
 75
     1
176
     1
175
     1
176
     1
 42
1.0
176
     1
 92
        8
176
     1
 66
     7
176
     1
 43
1.0
176
     1
 76
     1
176
     1
 77
     6
176
     1
 78
     2
176
     1
 67
     7
176
     1
 79
     5
176
     1
170
     0
176
     1
171
     0
176
     1
290
     0
176
     1
 93
        1
176
     1
 44
50.0
176
     1
173
     0
176
     1
  0
VISUALSTYLE
  5
3A
102
{ACAD_REACTORS
330
2A
102
}
330
2A
100
AcDbVisualStyle
  2
ColorChange
 70
    16
177
     2
291
     1
 71
     2
176
     1
 72
     2
176
     1
 73
     3
176
     1
 90
        0
176
     1
 40
-0.6
176
     1
 41
-30.0
176
     1
 62
     5
 63
     8
421
  8421504
176
     1
 74
     1
176
     1
 91
        4
176
     1
 64
     7
176
     1
 65
   257
176
     1
 75
     1
176
     1
175
     1
176
     1
 42
1.0
176
     1
 92
        8
176
     1
 66
     8
424
  8421504
176
     1
 43
1.0
176
     1
 76
     1
176
     1
 77
     6
176
     1
 78
     2
176
     1
 67
     7
176
     1
 79
     5
176
     1
170
     0
176
     1
171
     0
176
     1
290
     0
176
     1
 93
        1
176
     1
 44
0.0
176
     1
173
     0
176
     1
  0
VISUALSTYLE
  5
34
102
{ACAD_REACTORS
330
2A
102
}
330
2A
100
AcDbVisualStyle
  2
Conceptual
 70
     9
177
     2
291
     0
 71
     3
176
     1
 72
     2
176
     1
 73
     0
176
     1
 90
        0
176
     1
 40
-0.6
176
     1
 41
-30.0
176
     1
 62
     5
 63
     7
421
 16777215
176
     1
 74
     2
176
     1
 91
        2
176
     1
 64
     7
176
     1
 65
   257
176
     1
 75
     1
176
     1
175
     1
176
     1
 42
40.0
176
     1
 92
        8
176
     1
 66
     7
176
     1
 43
1.0
176
     1
 76
     1
176
     1
 77
     6
176
     1
 78
     2
176
     1
 67
     7
176
     1
 79
     3
176
     1
170
     0
176
     1
171
     0
176
     1
290
     0
176
     1
 93
        1
176
     1
 44
0.0
176
     1
173
     0
176
     1
  0
VISUALSTYLE
  5
35
102
{ACAD_REACTORS
330
2A
102
}
330
2A
100
AcDbVisualStyle
  2
Dim
 70
    11
177
     2
291
     1
 71
     2
176
     1
 72
     2
176
     1
 73
     0
176
     1
 90
        0
176
     1
 40
-0.6
176
     1
 41
-30.0
176
     1
 62
     5
 63
     7
421
 16777215
176
     1
 74
     1
176
     1
 91
        4
176
     1
 64
     7
176
     1
 65
   257
176
     1
 75
     1
176
     1
175
     1
176
     1
 42
1.0
176
     1
 92
        8
176
     1
 66
     7
176
     1
 43
1.0
176
     1
 76
     1
176
     1
 77
     6
176
     1
 78
     2
176
     1
 67
     7
176
     1
 79
     5
176
     1
170
     0
176
     1
171
     0
176
     1
290
     0
176
     1
 93
        1
176
     1
 44
-50.0
176
     1
173
     0
176
     1
  0
VISUALSTYLE
  5
39
102
{ACAD_REACTORS
330
2A
102
}
330
2A
100
AcDbVisualStyle
  2
Facepattern
 70
    15
177
     2
291
     1
 71
     2
176
     1
 72
     2
176
     1
 73
     0
176
     1
 90
        0
176
     1
 40
-0.6
176
     1
 41
-30.0
176
     1
 62
     5
 63
     7
421
 16777215
176
     1
 74
     1
176
     1
 91
        4
176
     1
 64
     7
176
     1
 65
   257
176
     1
 75
     1
176
     1
175
     1
176
     1
 42
1.0
176
     1
 92
        8
176
     1
 66
     7
176
     1
 43
1.0
176
     1
 76
     1
176
     1
 77
     6
176
     1
 78
     2
176
     1
 67
     7
176
     1
 79
     5
176
     1
170
     0
176
     1
171
     0
176
     1
290
     0
176
     1
 93
        1
176
     1
 44
0.0
176
     1
173
     0
176
     1
  0
VISUALSTYLE
  5
2B
102
{ACAD_REACTORS
330
2A
102
}
330
2A
100
AcDbVisualStyle
  2
Flat
 70
     0
177
     2
291
     1
 71
     2
176
     1
 72
     1
176
     1
 73
     1
176
     1
 90
        2
176
     1
 40
-0.6
176
     1
 41
30.0
176
     1
 62
     5
 63
     7
421
 16777215
176
     1
 74
     0
176
     1
 91
        4
176
     1
 64
     7
176
     1
 65
   257
176
     1
 75
     1
176
     1
175
     1
176
     1
 42
1.0
176
     1
 92
        8
176
     1
 66
     7
176
     1
 43
1.0
176
     1
 76
     1
176
     1
 77
     6
176
     1
 78
     2
176
     1
 67
     7
176
     1
 79
     5
176
     1
170
     0
176
     1
171
     0
176
     1
290
     0
176
     1
 93
       13
176
     1
 44
0.0
176
     1
173
     0
176
     1
  0
VISUALSTYLE
  5
2C
102
{ACAD_REACTORS
330
2A
102
}
330
2A
100
AcDbVisualStyle
  2
FlatWithEdges
 70
     1
177
     2
291
     1
 71
     2
176
     1
 72
     1
176
     1
 73
     1
176
     1
 90
        2
176
     1
 40
-0.6
176
     1
 41
30.0
176
     1
 62
     5
 63
     7
421
 16777215
176
     1
 74
     1
176
     1
 91
        4
176
     1
 64
     7
176
     1
 65
   257
176
     1
 75
     1
176
     1
175
     1
176
     1
 42
1.0
176
     1
 92
        0
176
     1
 66
   257
176
     1
 43
1.0
176
     1
 76
     1
176
     1
 77
     6
176
     1
 78
     2
176
     1
 67
     7
176
     1
 79
     5
176
     1
170
     0
176
     1
171
     0
176
     1
290
     0
176
     1
 93
       13
176
     1
 44
0.0
176
     1
173
     0
176
     1
  0
VISUALSTYLE
  5
2D
102
{ACAD_REACTORS
330
2A
102
}
330
2A
100
AcDbVisualStyle
  2
Gouraud
 70
     2
177
     2
291
     1
 71
     2
176
     1
 72
     2
176
     1
 73
     1
176
     1
 90
        2
176
     1
 40
-0.6
176
     1
 41
30.0
176
     1
 62
     5
 63
     7
421
 16777215
176
     1
 74
     0
176
     1
 91
        4
176
     1
 64
     7
176
     1
 65
   257
176
     1
 75
     1
176
     1
175
     1
176
     1
 42
1.0
176
     1
 92
        0
176
     1
 66
     7
176
     1
 43
1.0
176
     1
 76
     1
176
     1
 77
     6
176
     1
 78
     2
176
     1
 67
     7
176
     1
 79
     5
176
     1
170
     0
176
     1
171
     0
176
     1
290
     0
176
     1
 93
       13
176
     1
 44
0.0
176
     1
173
     0
176
     1
  0
VISUALSTYLE
  5
2E
102
{ACAD_REACTORS
330
2A
102
}
330
2A
100
AcDbVisualStyle
  2
GouraudWithEdges
 70
     3
177
     2
291
     1
 71
     2
176
     1
 72
     2
176
     1
 73
     1
176
     1
 90
        2
176
     1
 40
-0.6
176
     1
 41
30.0
176
     1
 62
     5
 63
     7
421
 16777215
176
     1
 74
     1
176
     1
 91
        4
176
     1
 64
     7
176
     1
 65
   257
176
     1
 75
     1
176
     1
175
     1
176
     1
 42
1.0
176
     1
 92
        0
176
     1
 66
   257
176
     1
 43
1.0
176
     1
 76
     1
176
     1
 77
     6
176
     1
 78
     2
176
     1
 67
     7
176
     1
 79
     5
176
     1
170
     0
176
     1
171
     0
176
     1
290
     0
176
     1
 93
       13
176
     1
 44
0.0
176
     1
173
     0
176
     1
  0
VISUALSTYLE
  5
38
102
{ACAD_REACTORS
330
2A
102
}
330
2A
100
AcDbVisualStyle
  2
Linepattern
 70
    14
177
     2
291
     1
 71
     2
176
     1
 72
     2
176
     1
 73
     0
176
     1
 90
        0
176
     1
 40
-0.6
176
     1
 41
-30.0
176
     1
 62
     5
 63
     7
421
 16777215
176
     1
 74
     1
176
     1
 91
        4
176
     1
 64
     7
176
     1
 65
   257
176
     1
 75
     7
176
     1
175
     7
176
     1
 42
1.0
176
     1
 92
        8
176
     1
 66
     7
176
     1
 43
1.0
176
     1
 76
     1
176
     1
 77
     6
176
     1
 78
     2
176
     1
 67
     7
176
     1
 79
     5
176
     1
170
     0
176
     1
171
     0
176
     1
290
     0
176
     1
 93
        1
176
     1
 44
0.0
176
     1
173
     0
176
     1
  0
VISUALSTYLE
  5
33
102
{ACAD_REACTORS
330
2A
102
}
330
2A
100
AcDbVisualStyle
  2
Realistic
 70
     8
177
     2
291
     0
 71
     2
176
     1
 72
     2
176
     1
 73
     0
176
     1
 90
        0
176
     1
 40
-0.6
176
     1
 41
-30.0
176
     1
 62
     5
 63
     7
421
 16777215
176
     1
 74
     1
176
     1
 91
        0
176
     1
 64
     7
176
     1
 65
   257
176
     1
 75
     1
176
     1
175
     1
176
     1
 42
1.0
176
     1
 92
        8
176
     1
 66
     8
424
  7895160
176
     1
 43
1.0
176
     1
 76
     1
176
     1
 77
     6
176
     1
 78
     2
176
     1
 67
     7
176
     1
 79
     5
176
     1
170
     0
176
     1
171
     0
176
     1
290
     0
176
     1
 93
       13
176
     1
 44
0.0
176
     1
173
     0
176
     1
  0
VISUALSTYLE
  5
37
102
{ACAD_REACTORS
330
2A
102
}
330
2A
100
AcDbVisualStyle
  2
Thicken
 70
    13
177
     2
291
     1
 71
     2
176
     1
 72
     2
176
     1
 73
     0
176
     1
 90
        0
176
     1
 40
-0.6
176
     1
 41
-30.0
176
     1
 62
     5
 63
     7
421
 16777215
176
     1
 74
     1
176
     1
 91
        4
176
     1
 64
     7
176
     1
 65
   257
176
     1
 75
     1
176
     1
175
     1
176
     1
 42
1.0
176
     1
 92
       12
176
     1
 66
     7
176
     1
 43
1.0
176
     1
 76
     1
176
     1
 77
     6
176
     1
 78
     2
176
     1
 67
     7
176
     1
 79
     5
176
     1
170
     0
176
     1
171
     0
176
     1
290
     0
176
     1
 93
        1
176
     1
 44
0.0
176
     1
173
     0
176
     1
  0
ENDSEC
  0
EOF
