  0
SECTION
  2
HEADER
  9
$ACADVER
  1
AC1024
  9
$ACADMAINTVER
 70
     6
  9
$DWGCODEPAGE
  3
UNDEFINED
  9
$INSBASE
 10
0.0
 20
0.0
 30
0.0
  9
$EXTMIN
 10
1.000000000000000E+20
 20
1.000000000000000E+20
 30
1.000000000000000E+20
  9
$EXTMAX
 10
-1.000000000000000E+20
 20
-1.000000000000000E+20
 30
-1.000000000000000E+20
  9
$LIMMIN
 10
0.0
 20
0.0
  9
$LIMMAX
 10
12.0
 20
9.0
  9
$ORTHOMODE
 70
     0
  9
$REGENMODE
 70
     1
  9
$FILLMODE
 70
     1
  9
$QTEXTMODE
 70
     0
  9
$MIRRTEXT
 70
     1
  9
$LTSCALE
 40
1.0
  9
$ATTMODE
 70
     1
  9
$TEXTSIZE
 40
0.2
  9
$TRACEWID
 40
0.05
  9
$TEXTSTYLE
  7
Standard
  9
$CLAYER
  8
0
  9
$CELTYPE
  6
ByLayer
  9
$CECOLOR
 62
   256
  9
$CELTSCALE
 40
1.0
  9
$DISPSILH
 70
     0
  9
$DIMSCALE
 40
1.0
  9
$DIMASZ
 40
0.18
  9
$DIMEXO
 40
0.0625
  9
$DIMDLI
 40
0.38
  9
$DIMRND
 40
0.0
  9
$DIMDLE
 40
0.0
  9
$DIMEXE
 40
0.18
  9
$DIMTP
 40
0.0
  9
$DIMTM
 40
0.0
  9
$DIMTXT
 40
0.18
  9
$DIMCEN
 40
0.09
  9
$DIMTSZ
 40
0.0
  9
$DIMTOL
 70
     0
  9
$DIMLIM
 70
     0
  9
$DIMTIH
 70
     1
  9
$DIMTOH
 70
     1
  9
$DIMSE1
 70
     0
  9
$DIMSE2
 70
     0
  9
$DIMTAD
 70
     0
  9
$DIMZIN
 70
     0
  9
$DIMBLK
  1

  9
$DIMASO
 70
     1
  9
$DIMSHO
 70
     1
  9
$DIMPOST
  1

  9
$DIMAPOST
  1

  9
$DIMALT
 70
     0
  9
$DIMALTD
 70
     2
  9
$DIMALTF
 40
25.4
  9
$DIMLFAC
 40
1.0
  9
$DIMTOFL
 70
     0
  9
$DIMTVP
 40
0.0
  9
$DIMTIX
 70
     0
  9
$DIMSOXD
 70
     0
  9
$DIMSAH
 70
     0
  9
$DIMBLK1
  1

  9
$DIMBLK2
  1

  9
$DIMSTYLE
  2
Standard
  9
$DIMCLRD
 70
     0
  9
$DIMCLRE
 70
     0
  9
$DIMCLRT
 70
     0
  9
$DIMTFAC
 40
1.0
  9
$DIMGAP
 40
0.09
  9
$DIMJUST
 70
     0
  9
$DIMSD1
 70
     0
  9
$DIMSD2
 70
     0
  9
$DIMTOLJ
 70
     1
  9
$DIMTZIN
 70
     0
  9
$DIMALTZ
 70
     0
  9
$DIMALTTZ
 70
     0
  9
$DIMUPT
 70
     0
  9
$DIMDEC
 70
     4
  9
$DIMTDEC
 70
     4
  9
$DIMALTU
 70
     2
  9
$DIMALTTD
 70
     2
  9
$DIMTXSTY
  7
Standard
  9
$DIMAUNIT
 70
     0
  9
$DIMADEC
 70
     0
  9
$DIMALTRND
 40
0.0
  9
$DIMAZIN
 70
     0
  9
$DIMDSEP
 70
    46
  9
$DIMATFIT
 70
     3
  9
$DIMFRAC
 70
     0
  9
$DIMLDRBLK
  1

  9
$DIMLUNIT
 70
     2
  9
$DIMLWD
 70
    -2
  9
$DIMLWE
 70
    -2
  9
$DIMTMOVE
 70
     0
  9
$DIMFXL
 40
1.0
  9
$DIMFXLON
 70
     0
  9
$DIMJOGANG
 40
0.7853981633974483
  9
$DIMTFILL
 70
     0
  9
$DIMTFILLCLR
 70
     0
  9
$DIMARCSYM
 70
     0
  9
$DIMLTYPE
  6

  9
$DIMLTEX1
  6

  9
$DIMLTEX2
  6

  9
$DIMTXTDIRECTION
 70
     0
  9
$LUNITS
 70
     2
  9
$LUPREC
 70
     4
  9
$SKETCHINC
 40
0.1
  9
$FILLETRAD
 40
0.5
  9
$AUNITS
 70
     0
  9
$AUPREC
 70
     0
  9
$MENU
  1
.
  9
$ELEVATION
 40
0.0
  9
$PELEVATION
 40
0.0
  9
$THICKNESS
 40
0.0
  9
$LIMCHECK
 70
     0
  9
$CHAMFERA
 40
0.5
  9
$CHAMFERB
 40
0.5
  9
$CHAMFERC
 40
1.0
  9
$CHAMFERD
 40
0.0
  9
$SKPOLY
 70
     0
  9
$TDCREATE
 40
2457917.61585647
  9
$TDUCREATE
 40
2457917.240856481
  9
$TDUPDATE
 40
2457917.61585647
  9
$TDUUPDATE
 40
2457917.240856481
  9
$TDINDWG
 40
0.0000000116
  9
$TDUSRTIMER
 40
0.0000000116
  9
$USRTIMER
 70
     1
  9
$ANGBASE
 50
0.0
  9
$ANGDIR
 70
     0
  9
$PDMODE
 70
     0
  9
$PDSIZE
 40
0.0
  9
$PLINEWID
 40
0.0
  9
$SPLFRAME
 70
     0
  9
$SPLINETYPE
 70
     6
  9
$SPLINESEGS
 70
     8
  9
$HANDSEED
  5
EA
  9
$SURFTAB1
 70
     6
  9
$SURFTAB2
 70
     6
  9
$SURFTYPE
 70
     6
  9
$SURFU
 70
     6
  9
$SURFV
 70
     6
  9
$UCSBASE
  2

  9
$UCSNAME
  2

  9
$UCSORG
 10
0.0
 20
0.0
 30
0.0
  9
$UCSXDIR
 10
1.0
 20
0.0
 30
0.0
  9
$UCSYDIR
 10
0.0
 20
1.0
 30
0.0
  9
$UCSORTHOREF
  2

  9
$UCSORTHOVIEW
 70
     0
  9
$UCSORGTOP
 10
0.0
 20
0.0
 30
0.0
  9
$UCSORGBOTTOM
 10
0.0
 20
0.0
 30
0.0
  9
$UCSORGLEFT
 10
0.0
 20
0.0
 30
0.0
  9
$UCSORGRIGHT
 10
0.0
 20
0.0
 30
0.0
  9
$UCSORGFRONT
 10
0.0
 20
0.0
 30
0.0
  9
$UCSORGBACK
 10
0.0
 20
0.0
 30
0.0
  9
$PUCSBASE
  2

  9
$PUCSNAME
  2

  9
$PUCSORG
 10
0.0
 20
0.0
 30
0.0
  9
$PUCSXDIR
 10
1.0
 20
0.0
 30
0.0
  9
$PUCSYDIR
 10
0.0
 20
1.0
 30
0.0
  9
$PUCSORTHOREF
  2

  9
$PUCSORTHOVIEW
 70
     0
  9
$PUCSORGTOP
 10
0.0
 20
0.0
 30
0.0
  9
$PUCSORGBOTTOM
 10
0.0
 20
0.0
 30
0.0
  9
$PUCSORGLEFT
 10
0.0
 20
0.0
 30
0.0
  9
$PUCSORGRIGHT
 10
0.0
 20
0.0
 30
0.0
  9
$PUCSORGFRONT
 10
0.0
 20
0.0
 30
0.0
  9
$PUCSORGBACK
 10
0.0
 20
0.0
 30
0.0
  9
$USERI1
 70
     0
  9
$USERI2
 70
     0
  9
$USERI3
 70
     0
  9
$USERI4
 70
     0
  9
$USERI5
 70
     0
  9
$USERR1
 40
0.0
  9
$USERR2
 40
0.0
  9
$USERR3
 40
0.0
  9
$USERR4
 40
0.0
  9
$USERR5
 40
0.0
  9
$WORLDVIEW
 70
     1
  9
$SHADEDGE
 70
     3
  9
$SHADEDIF
 70
    70
  9
$TILEMODE
 70
     1
  9
$MAXACTVP
 70
    64
  9
$PINSBASE
 10
0.0
 20
0.0
 30
0.0
  9
$PLIMCHECK
 70
     0
  9
$PEXTMIN
 10
1.000000000000000E+20
 20
1.000000000000000E+20
 30
1.000000000000000E+20
  9
$PEXTMAX
 10
-1.000000000000000E+20
 20
-1.000000000000000E+20
 30
-1.000000000000000E+20
  9
$PLIMMIN
 10
0.0
 20
0.0
  9
$PLIMMAX
 10
12.0
 20
9.0
  9
$UNITMODE
 70
     0
  9
$VISRETAIN
 70
     1
  9
$PLINEGEN
 70
     0
  9
$PSLTSCALE
 70
     1
  9
$TREEDEPTH
 70
  3020
  9
$CMLSTYLE
  2
Standard
  9
$CMLJUST
 70
     0
  9
$CMLSCALE
 40
1.0
  9
$PROXYGRAPHICS
 70
     1
  9
$MEASUREMENT
 70
     0
  9
$CELWEIGHT
370
    -1
  9
$ENDCAPS
280
     0
  9
$JOINSTYLE
280
     0
  9
$LWDISPLAY
290
     1
  9
$INSUNITS
 70
     1
  9
$HYPERLINKBASE
  1

  9
$STYLESHEET
  1

  9
$XEDIT
290
     1
  9
$CEPSNTYPE
380
     0
  9
$PSTYLEMODE
290
     1
  9
$FINGERPRINTGUID
  2
{FAEC4079-5428-EAC8-C9B5-DDBC5243403C}
  9
$VERSIONGUID
  2
{FAEB1C32-E019-11D5-929B-00C0DF256EC4}
  9
$EXTNAMES
290
     1
  9
$PSVPSCALE
 40
0.0
  9
$OLESTARTUP
290
     0
  9
$SORTENTS
280
   127
  9
$INDEXCTL
280
     0
  9
$HIDETEXT
280
     1
  9
$XCLIPFRAME
280
     2
  9
$HALOGAP
280
     0
  9
$OBSCOLOR
 70
   257
  9
$OBSLTYPE
280
     0
  9
$INTERSECTIONDISPLAY
280
     0
  9
$INTERSECTIONCOLOR
 70
   257
  9
$DIMASSOC
280
     2
  9
$PROJECTNAME
  1

  9
$CAMERADISPLAY
290
     0
  9
$LENSLENGTH
 40
50.0
  9
$CAMERAHEIGHT
 40
0.0
  9
$STEPSPERSEC
 40
2.0
  9
$STEPSIZE
 40
6.0
  9
$3DDWFPREC
 40
2.0
  9
$PSOLWIDTH
 40
0.25
  9
$PSOLHEIGHT
 40
4.0
  9
$LOFTANG1
 40
1.570796326794897
  9
$LOFTANG2
 40
1.570796326794897
  9
$LOFTMAG1
 40
0.0
  9
$LOFTMAG2
 40
0.0
  9
$LOFTPARAM
 70
     7
  9
$LOFTNORMALS
280
     1
  9
$LATITUDE
 40
37.795
  9
$LONGITUDE
 40
-122.394
  9
$NORTHDIRECTION
 40
0.0
  9
$TIMEZONE
 70
 -8000
  9
$LIGHTGLYPHDISPLAY
280
     1
  9
$TILEMODELIGHTSYNCH
280
     1
  9
$CMATERIAL
347
3C
  9
$SOLIDHIST
280
     1
  9
$SHOWHIST
280
     1
  9
$DWFFRAME
280
     2
  9
$DGNFRAME
280
     2
  9
$REALWORLDSCALE
290
     1
  9
$INTERFERECOLOR
 62
   256
  9
$CSHADOW
280
     0
  9
$SHADOWPLANELOCATION
 40
0.0
  0
ENDSEC
  0
SECTION
  2
CLASSES
  0
CLASS
  1
ACDBDICTIONARYWDFLT
  2
AcDbDictionaryWithDefault
  3
ObjectDBX Classes
 90
        0
 91
        4
280
     0
281
     0
  0
CLASS
  1
VISUALSTYLE
  2
AcDbVisualStyle
  3
ObjectDBX Classes
 90
     4095
 91
        4
280
     0
281
     0
  0
CLASS
  1
MATERIAL
  2
AcDbMaterial
  3
ObjectDBX Classes
 90
     1153
 91
        4
280
     0
281
     0
  0
CLASS
  1
SUN
  2
AcDbSun
  3
SCENEOE
 90
     1024
 91
        4
280
     0
281
     0
  0
ENDSEC
  0
SECTION
  2
TABLES
  0
TABLE
  2
VPORT
  5
8
330
0
100
AcDbSymbolTable
 70
     1
  0
VPORT
  5
29
330
8
100
AcDbSymbolTableRecord
100
AcDbViewportTableRecord
  2
*Active
 70
     0
 10
0.0
 20
0.0
 11
1.0
 21
1.0
 12
0.0
 22
0.0
 13
0.0
 23
0.0
 14
0.5
 24
0.5
 15
0.5
 25
0.5
 16
0.0
 26
0.0
 36
1.0
 17
91.00082462281999
 27
-128.4993055234307
 37
0.0
 40
256.9986110468615
 41
0.7081814508812795
 42
50.0
 43
0.0
 44
0.0
 50
0.0
 51
0.0
 71
     0
 72
   100
 73
     1
 74
     3
 75
     0
 76
     0
 77
     0
 78
     0
281
     0
 65
     1
110
0.0
120
0.0
130
0.0
111
1.0
121
0.0
131
0.0
112
0.0
122
1.0
132
0.0
 79
     0
146
0.0
 60
     3
 61
     5
292
     1
282
     1
141
0.0
142
0.0
 63
   250
361
3F
  0
ENDTAB
  0
TABLE
  2
LTYPE
  5
5
330
0
100
AcDbSymbolTable
 70
     1
  0
LTYPE
  5
14
330
5
100
AcDbSymbolTableRecord
100
AcDbLinetypeTableRecord
  2
ByBlock
 70
     0
  3

 72
    65
 73
     0
 40
0.0
  0
LTYPE
  5
15
330
5
100
AcDbSymbolTableRecord
100
AcDbLinetypeTableRecord
  2
ByLayer
 70
     0
  3

 72
    65
 73
     0
 40
0.0
  0
LTYPE
  5
16
330
5
100
AcDbSymbolTableRecord
100
AcDbLinetypeTableRecord
  2
Continuous
 70
     0
  3
Solid line
 72
    65
 73
     0
 40
0.0
  0
ENDTAB
  0
TABLE
  2
LAYER
  5
2
330
0
100
AcDbSymbolTable
 70
     2
  0
LAYER
  5
10
330
2
100
AcDbSymbolTableRecord
100
AcDbLayerTableRecord
  2
0
 70
     0
 62
     7
  6
Continuous
370
    -3
390
F
347
3E
  0
LAYER
  5
40
330
2
100
AcDbSymbolTableRecord
100
AcDbLayerTableRecord
  2
_U+30EC_U+30A4_U+30E4_U+30FC 1
 70
     0
 62
     7
  6
Continuous
370
    -3
390
F
347
3E
  0
ENDTAB
  0
TABLE
  2
STYLE
  5
3
330
0
100
AcDbSymbolTable
 70
     1
  0
STYLE
  5
11
330
3
100
AcDbSymbolTableRecord
100
AcDbTextStyleTableRecord
  2
Standard
 70
     0
 40
0.0
 41
1.0
 50
0.0
 71
     0
 42
0.2
  3
txt
  4

  0
ENDTAB
  0
TABLE
  2
VIEW
  5
6
330
0
100
AcDbSymbolTable
 70
     0
  0
ENDTAB
  0
TABLE
  2
UCS
  5
7
330
0
100
AcDbSymbolTable
 70
     0
  0
ENDTAB
  0
TABLE
  2
APPID
  5
9
330
0
100
AcDbSymbolTable
 70
     1
  0
APPID
  5
12
330
9
100
AcDbSymbolTableRecord
100
AcDbRegAppTableRecord
  2
ACAD
 70
     0
  0
ENDTAB
  0
TABLE
  2
DIMSTYLE
  5
A
330
0
100
AcDbSymbolTable
 70
     1
100
AcDbDimStyleTable
  0
DIMSTYLE
105
27
330
A
100
AcDbSymbolTableRecord
100
AcDbDimStyleTableRecord
  2
Standard
 70
     0
178
     0
340
11
  0
ENDTAB
  0
TABLE
  2
BLOCK_RECORD
  5
1
330
0
100
AcDbSymbolTable
 70
     7
  0
BLOCK_RECORD
  5
1F
330
1
100
AcDbSymbolTableRecord
100
AcDbBlockTableRecord
  2
*Model_Space
340
22
 70
     0
280
     1
281
     0
  0
BLOCK_RECORD
  5
1B
330
1
100
AcDbSymbolTableRecord
100
AcDbBlockTableRecord
  2
*Paper_Space
340
1E
 70
     0
280
     1
281
     0
  0
BLOCK_RECORD
  5
23
330
1
100
AcDbSymbolTableRecord
100
AcDbBlockTableRecord
  2
*Paper_Space0
340
26
 70
     0
280
     1
281
     0
  0
BLOCK_RECORD
  5
41
330
1
100
AcDbSymbolTableRecord
100
AcDbBlockTableRecord
  2
block 2
340
0
102
{BLKREFS
331
42
102
}
 70
     0
280
     1
281
     0
  0
BLOCK_RECORD
  5
7A
330
1
100
AcDbSymbolTableRecord
100
AcDbBlockTableRecord
  2
block 3
340
0
102
{BLKREFS
331
7B
102
}
 70
     0
280
     1
281
     0
  0
BLOCK_RECORD
  5
8C
330
1
100
AcDbSymbolTableRecord
100
AcDbBlockTableRecord
  2
block 4
340
0
102
{BLKREFS
331
8D
102
}
 70
     0
280
     1
281
     0
  0
BLOCK_RECORD
  5
A0
330
1
100
AcDbSymbolTableRecord
100
AcDbBlockTableRecord
  2
block 5
340
0
102
{BLKREFS
331
A1
102
}
 70
     0
280
     1
281
     0
  0
BLOCK_RECORD
  5
B5
330
1
100
AcDbSymbolTableRecord
100
AcDbBlockTableRecord
  2
block 6
340
0
102
{BLKREFS
331
B6
102
}
 70
     0
280
     1
281
     0
  0
BLOCK_RECORD
  5
D6
330
1
100
AcDbSymbolTableRecord
100
AcDbBlockTableRecord
  2
block 7
340
0
102
{BLKREFS
331
D7
102
}
 70
     0
280
     1
281
     0
  0
ENDTAB
  0
ENDSEC
  0
SECTION
  2
BLOCKS
  0
BLOCK
  5
20
330
1F
100
AcDbEntity
  8
0
100
AcDbBlockBegin
  2
*Model_Space
 70
     0
 10
0.0
 20
0.0
 30
0.0
  3
*Model_Space
  1

  0
ENDBLK
  5
21
330
1F
100
AcDbEntity
  8
0
100
AcDbBlockEnd
  0
BLOCK
  5
1C
330
1B
100
AcDbEntity
 67
     1
  8
0
100
AcDbBlockBegin
  2
*Paper_Space
 70
     0
 10
0.0
 20
0.0
 30
0.0
  3
*Paper_Space
  1

  0
ENDBLK
  5
1D
330
1B
100
AcDbEntity
 67
     1
  8
0
100
AcDbBlockEnd
  0
BLOCK
  5
24
330
23
100
AcDbEntity
  8
0
100
AcDbBlockBegin
  2
*Paper_Space0
 70
     0
 10
0.0
 20
0.0
 30
0.0
  3
*Paper_Space0
  1

  0
ENDBLK
  5
25
330
23
100
AcDbEntity
  8
0
100
AcDbBlockEnd
  0
BLOCK
  5
43
330
41
100
AcDbEntity
  8
0
100
AcDbBlockBegin
  2
block 2
 70
     0
 10
0.0
 20
0.0
 30
0.0
  3
block 2
  1

  0
POLYLINE
  5
45
330
41
100
AcDbEntity
  8
_U+30EC_U+30A4_U+30E4_U+30FC 1
370
     0
100
AcDb2dPolyline
 66
     1
 10
0.0
 20
0.0
 30
0.0
  0
VERTEX
  5
46
330
45
100
AcDbEntity
  8
_U+30EC_U+30A4_U+30E4_U+30FC 1
370
     0
100
AcDbVertex
100
AcDb2dVertex
 10
74.72203559368205
 20
-125.6193688574841
 30
0.0
  0
VERTEX
  5
47
330
45
100
AcDbEntity
  8
_U+30EC_U+30A4_U+30E4_U+30FC 1
370
     0
100
AcDbVertex
100
AcDb2dVertex
 10
84.71005831215568
 20
-125.6193688574841
 30
0.0
  0
VERTEX
  5
48
330
45
100
AcDbEntity
  8
_U+30EC_U+30A4_U+30E4_U+30FC 1
370
     0
100
AcDbVertex
100
AcDb2dVertex
 10
84.71005831215568
 20
-134.8190019107397
 30
0.0
  0
VERTEX
  5
49
330
45
100
AcDbEntity
  8
_U+30EC_U+30A4_U+30E4_U+30FC 1
370
     0
100
AcDbVertex
100
AcDb2dVertex
 10
88.7070635702276
 20
-134.8190019107397
 30
0.0
  0
VERTEX
  5
4A
330
45
100
AcDbEntity
  8
_U+30EC_U+30A4_U+30E4_U+30FC 1
370
     0
100
AcDbVertex
100
AcDb2dVertex
 10
88.7070635702276
 20
-133.8185241332123
 30
0.0
  0
VERTEX
  5
4B
330
45
100
AcDbEntity
  8
_U+30EC_U+30A4_U+30E4_U+30FC 1
370
     0
100
AcDbVertex
100
AcDb2dVertex
 10
85.61062726033538
 20
-133.8185241332123
 30
0.0
  0
VERTEX
  5
4C
330
45
100
AcDbEntity
  8
_U+30EC_U+30A4_U+30E4_U+30FC 1
370
     0
100
AcDbVertex
100
AcDb2dVertex
 10
85.61062726033538
 20
-125.6193688574841
 30
0.0
  0
VERTEX
  5
4D
330
45
100
AcDbEntity
  8
_U+30EC_U+30A4_U+30E4_U+30FC 1
370
     0
100
AcDbVertex
100
AcDb2dVertex
 10
101.7102404607111
 20
-125.6193688574841
 30
0.0
  0
VERTEX
  5
4E
330
45
100
AcDbEntity
  8
_U+30EC_U+30A4_U+30E4_U+30FC 1
370
     0
100
AcDbVertex
100
AcDb2dVertex
 10
101.7102404607111
 20
-124.6195966355119
 30
0.0
  0
VERTEX
  5
4F
330
45
100
AcDbEntity
  8
_U+30EC_U+30A4_U+30E4_U+30FC 1
370
     0
100
AcDbVertex
100
AcDb2dVertex
 10
74.72203559368205
 20
-124.6195966355119
 30
0.0
  0
VERTEX
  5
50
330
45
100
AcDbEntity
  8
_U+30EC_U+30A4_U+30E4_U+30FC 1
370
     0
100
AcDbVertex
100
AcDb2dVertex
 10
74.72203559368205
 20
-125.6193688574841
 30
0.0
  0
SEQEND
  5
52
330
45
100
AcDbEntity
  8
_U+30EC_U+30A4_U+30E4_U+30FC 1
370
     0
  0
HATCH
  5
51
330
41
100
AcDbEntity
  8
_U+30EC_U+30A4_U+30E4_U+30FC 1
 62
   253
420
 11711154
100
AcDbHatch
 10
0.0
 20
0.0
 30
0.0
210
0.0
220
0.0
230
1.0
  2
SOLID
 70
     1
 71
     0
 91
        1
 92
        1
 93
       10
 72
     1
 10
74.72203559368205
 20
-125.6193688574841
 11
84.71005831215568
 21
-125.6193688574841
 72
     1
 10
84.71005831215568
 20
-125.6193688574841
 11
84.71005831215568
 21
-134.8190019107397
 72
     1
 10
84.71005831215568
 20
-134.8190019107397
 11
88.7070635702276
 21
-134.8190019107397
 72
     1
 10
88.7070635702276
 20
-134.8190019107397
 11
88.7070635702276
 21
-133.8185241332123
 72
     1
 10
88.7070635702276
 20
-133.8185241332123
 11
85.61062726033538
 21
-133.8185241332123
 72
     1
 10
85.61062726033538
 20
-133.8185241332123
 11
85.61062726033538
 21
-125.6193688574841
 72
     1
 10
85.61062726033538
 20
-125.6193688574841
 11
101.7102404607111
 21
-125.6193688574841
 72
     1
 10
101.7102404607111
 20
-125.6193688574841
 11
101.7102404607111
 21
-124.6195966355119
 72
     1
 10
101.7102404607111
 20
-124.6195966355119
 11
74.72203559368205
 21
-124.6195966355119
 72
     1
 10
74.72203559368205
 20
-124.6195966355119
 11
74.72203559368205
 21
-125.6193688574841
 97
        0
 75
     2
 76
     1
 98
        0
  0
POLYLINE
  5
53
330
41
100
AcDbEntity
  8
_U+30EC_U+30A4_U+30E4_U+30FC 1
 62
     7
420
 16777215
370
    25
100
AcDb2dPolyline
 66
     1
 10
0.0
 20
0.0
 30
0.0
  0
VERTEX
  5
54
330
53
100
AcDbEntity
  8
_U+30EC_U+30A4_U+30E4_U+30FC 1
 62
     7
420
 16777215
370
    25
100
AcDbVertex
100
AcDb2dVertex
 10
84.71005831215568
 20
-125.6193688574841
 30
0.0
  0
VERTEX
  5
55
330
53
100
AcDbEntity
  8
_U+30EC_U+30A4_U+30E4_U+30FC 1
 62
     7
420
 16777215
370
    25
100
AcDbVertex
100
AcDb2dVertex
 10
74.7110289272962
 20
-125.6193688574841
 30
0.0
  0
VERTEX
  5
56
330
53
100
AcDbEntity
  8
_U+30EC_U+30A4_U+30E4_U+30FC 1
 62
     7
420
 16777215
370
    25
100
AcDbVertex
100
AcDb2dVertex
 10
74.69448364994052
 20
-125.6193688574841
 30
0.0
  0
VERTEX
  5
57
330
53
100
AcDbEntity
  8
_U+30EC_U+30A4_U+30E4_U+30FC 1
 62
     7
420
 16777215
370
    25
100
AcDbVertex
100
AcDb2dVertex
 10
74.69448364994052
 20
-124.6195966355119
 30
0.0
  0
VERTEX
  5
58
330
53
100
AcDbEntity
  8
_U+30EC_U+30A4_U+30E4_U+30FC 1
 62
     7
420
 16777215
370
    25
100
AcDbVertex
100
AcDb2dVertex
 10
74.7110289272962
 20
-124.6195966355119
 30
0.0
  0
VERTEX
  5
59
330
53
100
AcDbEntity
  8
_U+30EC_U+30A4_U+30E4_U+30FC 1
 62
     7
420
 16777215
370
    25
100
AcDbVertex
100
AcDb2dVertex
 10
101.7102404607111
 20
-124.6195966355119
 30
0.0
  0
VERTEX
  5
5A
330
53
100
AcDbEntity
  8
_U+30EC_U+30A4_U+30E4_U+30FC 1
 62
     7
420
 16777215
370
    25
100
AcDbVertex
100
AcDb2dVertex
 10
101.7102404607111
 20
-125.6193688574841
 30
0.0
  0
VERTEX
  5
5B
330
53
100
AcDbEntity
  8
_U+30EC_U+30A4_U+30E4_U+30FC 1
 62
     7
420
 16777215
370
    25
100
AcDbVertex
100
AcDb2dVertex
 10
85.61062726033538
 20
-125.6193688574841
 30
0.0
  0
VERTEX
  5
5C
330
53
100
AcDbEntity
  8
_U+30EC_U+30A4_U+30E4_U+30FC 1
 62
     7
420
 16777215
370
    25
100
AcDbVertex
100
AcDb2dVertex
 10
85.61062726033538
 20
-133.8185241332123
 30
0.0
  0
VERTEX
  5
5D
330
53
100
AcDbEntity
  8
_U+30EC_U+30A4_U+30E4_U+30FC 1
 62
     7
420
 16777215
370
    25
100
AcDbVertex
100
AcDb2dVertex
 10
88.7070635702276
 20
-133.8185241332123
 30
0.0
  0
VERTEX
  5
5E
330
53
100
AcDbEntity
  8
_U+30EC_U+30A4_U+30E4_U+30FC 1
 62
     7
420
 16777215
370
    25
100
AcDbVertex
100
AcDb2dVertex
 10
88.7070635702276
 20
-134.8190019107397
 30
0.0
  0
VERTEX
  5
5F
330
53
100
AcDbEntity
  8
_U+30EC_U+30A4_U+30E4_U+30FC 1
 62
     7
420
 16777215
370
    25
100
AcDbVertex
100
AcDb2dVertex
 10
84.71005831215568
 20
-134.8190019107397
 30
0.0
  0
VERTEX
  5
60
330
53
100
AcDbEntity
  8
_U+30EC_U+30A4_U+30E4_U+30FC 1
 62
     7
420
 16777215
370
    25
100
AcDbVertex
100
AcDb2dVertex
 10
84.71005831215568
 20
-125.6193688574841
 30
0.0
  0
SEQEND
  5
61
330
53
100
AcDbEntity
  8
_U+30EC_U+30A4_U+30E4_U+30FC 1
 62
     7
420
 16777215
370
    25
  0
SPLINE
  5
62
330
41
100
AcDbEntity
  8
_U+30EC_U+30A4_U+30E4_U+30FC 1
 62
     7
420
 16777215
370
     9
100
AcDbSpline
210
0.0
220
0.0
230
1.0
 70
    11
 71
     3
 72
    17
 73
    13
 74
     0
 42
0.0000000001
 43
0.0000000001
 12
1.0
 22
0.0
 32
0.0
 13
1.0
 23
0.0
 33
0.0
 40
0.0
 40
0.0
 40
0.0
 40
0.0
 40
1.0
 40
1.0
 40
1.0
 40
2.0
 40
2.0
 40
2.0
 40
3.0
 40
3.0
 40
3.0
 40
4.0
 40
4.0
 40
4.0
 40
4.0
 10
74.81093559141402
 20
-120.6198727476228
 30
0.0
 10
74.81093559141402
 20
-120.5647335809701
 30
0.0
 10
74.76613281477927
 20
-120.5199308032034
 30
0.0
 10
74.7110289272962
 20
-120.5199308032034
 30
0.0
 10
74.65589164800255
 20
-120.5199308032034
 30
0.0
 10
74.61112226317836
 20
-120.5647335809701
 30
0.0
 10
74.61112226317836
 20
-120.6198727476228
 30
0.0
 10
74.61112226317836
 20
-120.6749766364981
 30
0.0
 10
74.65589164800255
 20
-120.7197794142645
 30
0.0
 10
74.7110289272962
 20
-120.7197794142645
 30
0.0
 10
74.76613281477927
 20
-120.7197794142645
 30
0.0
 10
74.81093559141402
 20
-120.6749766364981
 30
0.0
 10
74.81093559141402
 20
-120.6198727476228
 30
0.0
  0
SPLINE
  5
63
330
41
100
AcDbEntity
  8
_U+30EC_U+30A4_U+30E4_U+30FC 1
 62
     7
420
 16777215
370
     9
100
AcDbSpline
210
0.0
220
0.0
230
1.0
 70
    11
 71
     3
 72
    17
 73
    13
 74
     0
 42
0.0000000001
 43
0.0000000001
 12
1.0
 22
0.0
 32
0.0
 13
1.0
 23
0.0
 33
0.0
 40
0.0
 40
0.0
 40
0.0
 40
0.0
 40
1.0
 40
1.0
 40
1.0
 40
2.0
 40
2.0
 40
2.0
 40
3.0
 40
3.0
 40
3.0
 40
4.0
 40
4.0
 40
4.0
 40
4.0
 10
101.810147124829
 20
-120.6198727476228
 30
0.0
 10
101.810147124829
 20
-120.5647335809701
 30
0.0
 10
101.7653796259711
 20
-120.5199308032034
 30
0.0
 10
101.7102404607111
 20
-120.5199308032034
 30
0.0
 10
101.6551365732281
 20
-120.5199308032034
 30
0.0
 10
101.6103337965933
 20
-120.5647335809701
 30
0.0
 10
101.6103337965933
 20
-120.6198727476228
 30
0.0
 10
101.6103337965933
 20
-120.6749766364981
 30
0.0
 10
101.6551365732281
 20
-120.7197794142645
 30
0.0
 10
101.7102404607111
 20
-120.7197794142645
 30
0.0
 10
101.7653796259711
 20
-120.7197794142645
 30
0.0
 10
101.810147124829
 20
-120.6749766364981
 30
0.0
 10
101.810147124829
 20
-120.6198727476228
 30
0.0
  0
SPLINE
  5
64
330
41
100
AcDbEntity
  8
_U+30EC_U+30A4_U+30E4_U+30FC 1
 62
     7
420
 16777215
370
     9
100
AcDbSpline
210
0.0
220
0.0
230
1.0
 70
    11
 71
     3
 72
    17
 73
    13
 74
     0
 42
0.0000000001
 43
0.0000000001
 12
1.0
 22
0.0
 32
0.0
 13
1.0
 23
0.0
 33
0.0
 40
0.0
 40
0.0
 40
0.0
 40
0.0
 40
1.0
 40
1.0
 40
1.0
 40
2.0
 40
2.0
 40
2.0
 40
3.0
 40
3.0
 40
3.0
 40
4.0
 40
4.0
 40
4.0
 40
4.0
 10
105.8099061894533
 20
-125.6193688574841
 30
0.0
 10
105.8099061894533
 20
-125.5642649686089
 30
0.0
 10
105.7651034128185
 20
-125.5194621908425
 30
0.0
 10
105.7099995253354
 20
-125.5194621908425
 30
0.0
 10
105.6548603600755
 20
-125.5194621908425
 30
0.0
 10
105.6100928612176
 20
-125.5642649686089
 30
0.0
 10
105.6100928612176
 20
-125.6193688574841
 30
0.0
 10
105.6100928612176
 20
-125.6751783019145
 30
0.0
 10
105.6548603600755
 20
-125.7199810796813
 30
0.0
 10
105.7099995253354
 20
-125.7199810796813
 30
0.0
 10
105.7651034128185
 20
-125.7199810796813
 30
0.0
 10
105.8099061894533
 20
-125.6751783019145
 30
0.0
 10
105.8099061894533
 20
-125.6193688574841
 30
0.0
  0
SPLINE
  5
65
330
41
100
AcDbEntity
  8
_U+30EC_U+30A4_U+30E4_U+30FC 1
 62
     7
420
 16777215
370
     9
100
AcDbSpline
210
0.0
220
0.0
230
1.0
 70
    11
 71
     3
 72
    17
 73
    13
 74
     0
 42
0.0000000001
 43
0.0000000001
 12
1.0
 22
0.0
 32
0.0
 13
1.0
 23
0.0
 33
0.0
 40
0.0
 40
0.0
 40
0.0
 40
0.0
 40
1.0
 40
1.0
 40
1.0
 40
2.0
 40
2.0
 40
2.0
 40
3.0
 40
3.0
 40
3.0
 40
4.0
 40
4.0
 40
4.0
 40
4.0
 10
105.8099061894533
 20
-124.6195966355119
 30
0.0
 10
105.8099061894533
 20
-124.5644927466366
 30
0.0
 10
105.7651034128185
 20
-124.5196899688699
 30
0.0
 10
105.7099995253354
 20
-124.5196899688699
 30
0.0
 10
105.6548603600755
 20
-124.5196899688699
 30
0.0
 10
105.6100928612176
 20
-124.5644927466366
 30
0.0
 10
105.6100928612176
 20
-124.6195966355119
 30
0.0
 10
105.6100928612176
 20
-124.6747358021646
 30
0.0
 10
105.6548603600755
 20
-124.7195033021535
 30
0.0
 10
105.7099995253354
 20
-124.7195033021535
 30
0.0
 10
105.7651034128185
 20
-124.7195033021535
 30
0.0
 10
105.8099061894533
 20
-124.6747358021646
 30
0.0
 10
105.8099061894533
 20
-124.6195966355119
 30
0.0
  0
SPLINE
  5
66
330
41
100
AcDbEntity
  8
_U+30EC_U+30A4_U+30E4_U+30FC 1
 62
     7
420
 16777215
370
     9
100
AcDbSpline
210
0.0
220
0.0
230
1.0
 70
    11
 71
     3
 72
    17
 73
    13
 74
     0
 42
0.0000000001
 43
0.0000000001
 12
1.0
 22
0.0
 32
0.0
 13
1.0
 23
0.0
 33
0.0
 40
0.0
 40
0.0
 40
0.0
 40
0.0
 40
1.0
 40
1.0
 40
1.0
 40
2.0
 40
2.0
 40
2.0
 40
3.0
 40
3.0
 40
3.0
 40
4.0
 40
4.0
 40
4.0
 40
4.0
 10
105.8099061894533
 20
-133.8185241332123
 30
0.0
 10
105.8099061894533
 20
-133.7634202443367
 30
0.0
 10
105.7651034128185
 20
-133.7186174665706
 30
0.0
 10
105.7099995253354
 20
-133.7186174665706
 30
0.0
 10
105.6548603600755
 20
-133.7186174665706
 30
0.0
 10
105.6100928612176
 20
-133.7634202443367
 30
0.0
 10
105.6100928612176
 20
-133.8185241332123
 30
0.0
 10
105.6100928612176
 20
-133.8743335776427
 30
0.0
 10
105.6548603600755
 20
-133.9191363554094
 30
0.0
 10
105.7099995253354
 20
-133.9191363554094
 30
0.0
 10
105.7651034128185
 20
-133.9191363554094
 30
0.0
 10
105.8099061894533
 20
-133.8743335776427
 30
0.0
 10
105.8099061894533
 20
-133.8185241332123
 30
0.0
  0
SPLINE
  5
67
330
41
100
AcDbEntity
  8
_U+30EC_U+30A4_U+30E4_U+30FC 1
 62
     7
420
 16777215
370
     9
100
AcDbSpline
210
0.0
220
0.0
230
1.0
 70
    11
 71
     3
 72
    17
 73
    13
 74
     0
 42
0.0000000001
 43
0.0000000001
 12
1.0
 22
0.0
 32
0.0
 13
1.0
 23
0.0
 33
0.0
 40
0.0
 40
0.0
 40
0.0
 40
0.0
 40
1.0
 40
1.0
 40
1.0
 40
2.0
 40
2.0
 40
2.0
 40
3.0
 40
3.0
 40
3.0
 40
4.0
 40
4.0
 40
4.0
 40
4.0
 10
84.81066839185515
 20
-138.8187610764066
 30
0.0
 10
84.81066839185515
 20
-138.7636219097535
 30
0.0
 10
84.76590089299727
 20
-138.7188544097649
 30
0.0
 10
84.71005831215568
 20
-138.7188544097649
 30
0.0
 10
84.65495228471669
 20
-138.7188544097649
 30
0.0
 10
84.61014950808192
 20
-138.7636219097535
 30
0.0
 10
84.61014950808192
 20
-138.8187610764066
 30
0.0
 10
84.61014950808192
 20
-138.8738649652815
 30
0.0
 10
84.65495228471669
 20
-138.9186677430482
 30
0.0
 10
84.71005831215568
 20
-138.9186677430482
 30
0.0
 10
84.76590089299727
 20
-138.9186677430482
 30
0.0
 10
84.81066839185515
 20
-138.8738649652815
 30
0.0
 10
84.81066839185515
 20
-138.8187610764066
 30
0.0
  0
SPLINE
  5
68
330
41
100
AcDbEntity
  8
_U+30EC_U+30A4_U+30E4_U+30FC 1
 62
     7
420
 16777215
370
     9
100
AcDbSpline
210
0.0
220
0.0
230
1.0
 70
    11
 71
     3
 72
    17
 73
    13
 74
     0
 42
0.0000000001
 43
0.0000000001
 12
1.0
 22
0.0
 32
0.0
 13
1.0
 23
0.0
 33
0.0
 40
0.0
 40
0.0
 40
0.0
 40
0.0
 40
1.0
 40
1.0
 40
1.0
 40
2.0
 40
2.0
 40
2.0
 40
3.0
 40
3.0
 40
3.0
 40
4.0
 40
4.0
 40
4.0
 40
4.0
 10
88.81251108890812
 20
-138.8187610764066
 30
0.0
 10
88.81251108890812
 20
-138.7636219097535
 30
0.0
 10
88.7677083111414
 20
-138.7188544097649
 30
0.0
 10
88.71260218119741
 20
-138.7188544097649
 30
0.0
 10
88.65746301593747
 20
-138.7188544097649
 30
0.0
 10
88.6126602393027
 20
-138.7636219097535
 30
0.0
 10
88.6126602393027
 20
-138.8187610764066
 30
0.0
 10
88.6126602393027
 20
-138.8738649652815
 30
0.0
 10
88.65746301593747
 20
-138.9186677430482
 30
0.0
 10
88.71260218119741
 20
-138.9186677430482
 30
0.0
 10
88.7677083111414
 20
-138.9186677430482
 30
0.0
 10
88.81251108890812
 20
-138.8738649652815
 30
0.0
 10
88.81251108890812
 20
-138.8187610764066
 30
0.0
  0
SPLINE
  5
69
330
41
100
AcDbEntity
  8
_U+30EC_U+30A4_U+30E4_U+30FC 1
 62
     7
420
 16777215
370
     9
100
AcDbSpline
210
0.0
220
0.0
230
1.0
 70
    11
 71
     3
 72
    17
 73
    13
 74
     0
 42
0.0000000001
 43
0.0000000001
 12
1.0
 22
0.0
 32
0.0
 13
1.0
 23
0.0
 33
0.0
 40
0.0
 40
0.0
 40
0.0
 40
0.0
 40
1.0
 40
1.0
 40
1.0
 40
2.0
 40
2.0
 40
2.0
 40
3.0
 40
3.0
 40
3.0
 40
4.0
 40
4.0
 40
4.0
 40
4.0
 10
74.81093559141402
 20
-138.8187610764066
 30
0.0
 10
74.81093559141402
 20
-138.7636219097535
 30
0.0
 10
74.76613281477927
 20
-138.7188544097649
 30
0.0
 10
74.7110289272962
 20
-138.7188544097649
 30
0.0
 10
74.65589164800255
 20
-138.7188544097649
 30
0.0
 10
74.61112226317836
 20
-138.7636219097535
 30
0.0
 10
74.61112226317836
 20
-138.8187610764066
 30
0.0
 10
74.61112226317836
 20
-138.8738649652815
 30
0.0
 10
74.65589164800255
 20
-138.9186677430482
 30
0.0
 10
74.7110289272962
 20
-138.9186677430482
 30
0.0
 10
74.76613281477927
 20
-138.9186677430482
 30
0.0
 10
74.81093559141402
 20
-138.8738649652815
 30
0.0
 10
74.81093559141402
 20
-138.8187610764066
 30
0.0
  0
POLYLINE
  5
6A
330
41
100
AcDbEntity
  8
_U+30EC_U+30A4_U+30E4_U+30FC 1
 62
     7
420
 16777215
370
     9
100
AcDb2dPolyline
 66
     1
 10
0.0
 20
0.0
 30
0.0
  0
VERTEX
  5
6B
330
6A
100
AcDbEntity
  8
_U+30EC_U+30A4_U+30E4_U+30FC 1
 62
     7
420
 16777215
370
     9
100
AcDbVertex
100
AcDb2dVertex
 10
105.7099995253354
 20
-124.6195966355119
 30
0.0
  0
VERTEX
  5
6C
330
6A
100
AcDbEntity
  8
_U+30EC_U+30A4_U+30E4_U+30FC 1
 62
     7
420
 16777215
370
     9
100
AcDbVertex
100
AcDb2dVertex
 10
105.7099995253354
 20
-120.8492841364545
 30
0.0
  0
SEQEND
  5
6D
330
6A
100
AcDbEntity
  8
_U+30EC_U+30A4_U+30E4_U+30FC 1
 62
     7
420
 16777215
370
     9
  0
POLYLINE
  5
6E
330
41
100
AcDbEntity
  8
_U+30EC_U+30A4_U+30E4_U+30FC 1
 62
     7
420
 16777215
370
     9
100
AcDb2dPolyline
 66
     1
 10
0.0
 20
0.0
 30
0.0
  0
VERTEX
  5
6F
330
6E
100
AcDbEntity
  8
_U+30EC_U+30A4_U+30E4_U+30FC 1
 62
     7
420
 16777215
370
     9
100
AcDbVertex
100
AcDb2dVertex
 10
105.7099995253354
 20
-125.6193688574841
 30
0.0
  0
VERTEX
  5
70
330
6E
100
AcDbEntity
  8
_U+30EC_U+30A4_U+30E4_U+30FC 1
 62
     7
420
 16777215
370
     9
100
AcDbVertex
100
AcDb2dVertex
 10
105.7099995253354
 20
-124.6195966355119
 30
0.0
  0
SEQEND
  5
71
330
6E
100
AcDbEntity
  8
_U+30EC_U+30A4_U+30E4_U+30FC 1
 62
     7
420
 16777215
370
     9
  0
POLYLINE
  5
72
330
41
100
AcDbEntity
  8
_U+30EC_U+30A4_U+30E4_U+30FC 1
 62
     7
420
 16777215
370
     9
100
AcDb2dPolyline
 66
     1
 10
0.0
 20
0.0
 30
0.0
  0
VERTEX
  5
73
330
72
100
AcDbEntity
  8
_U+30EC_U+30A4_U+30E4_U+30FC 1
 62
     7
420
 16777215
370
     9
100
AcDbVertex
100
AcDb2dVertex
 10
104.2499581736953
 20
-125.6193688574841
 30
0.0
  0
VERTEX
  5
74
330
72
100
AcDbEntity
  8
_U+30EC_U+30A4_U+30E4_U+30FC 1
 62
     7
420
 16777215
370
     9
100
AcDbVertex
100
AcDb2dVertex
 10
106.710441999812
 20
-125.6193688574841
 30
0.0
  0
SEQEND
  5
75
330
72
100
AcDbEntity
  8
_U+30EC_U+30A4_U+30E4_U+30FC 1
 62
     7
420
 16777215
370
     9
  0
POLYLINE
  5
76
330
41
100
AcDbEntity
  8
_U+30EC_U+30A4_U+30E4_U+30FC 1
 62
     7
420
 16777215
370
     9
100
AcDb2dPolyline
 66
     1
 10
0.0
 20
0.0
 30
0.0
  0
VERTEX
  5
77
330
76
100
AcDbEntity
  8
_U+30EC_U+30A4_U+30E4_U+30FC 1
 62
     7
420
 16777215
370
     9
100
AcDbVertex
100
AcDb2dVertex
 10
104.2499581736953
 20
-124.6195966355119
 30
0.0
  0
VERTEX
  5
78
330
76
100
AcDbEntity
  8
_U+30EC_U+30A4_U+30E4_U+30FC 1
 62
     7
420
 16777215
370
     9
100
AcDbVertex
100
AcDb2dVertex
 10
106.710441999812
 20
-124.6195966355119
 30
0.0
  0
SEQEND
  5
79
330
76
100
AcDbEntity
  8
_U+30EC_U+30A4_U+30E4_U+30FC 1
 62
     7
420
 16777215
370
     9
  0
INSERT
  5
7B
330
41
100
AcDbEntity
  8
_U+30EC_U+30A4_U+30E4_U+30FC 1
100
AcDbBlockReference
  2
block 3
 10
0.0
 20
0.0
 30
0.0
  0
POLYLINE
  5
80
330
41
100
AcDbEntity
  8
_U+30EC_U+30A4_U+30E4_U+30FC 1
 62
     7
420
 16777215
370
     9
100
AcDb2dPolyline
 66
     1
 10
0.0
 20
0.0
 30
0.0
  0
VERTEX
  5
81
330
80
100
AcDbEntity
  8
_U+30EC_U+30A4_U+30E4_U+30FC 1
 62
     7
420
 16777215
370
     9
100
AcDbVertex
100
AcDb2dVertex
 10
74.70552559410326
 20
-120.6198727476228
 30
0.0
  0
VERTEX
  5
82
330
80
100
AcDbEntity
  8
_U+30EC_U+30A4_U+30E4_U+30FC 1
 62
     7
420
 16777215
370
     9
100
AcDbVertex
100
AcDb2dVertex
 10
101.7102404607111
 20
-120.6198727476228
 30
0.0
  0
SEQEND
  5
83
330
80
100
AcDbEntity
  8
_U+30EC_U+30A4_U+30E4_U+30FC 1
 62
     7
420
 16777215
370
     9
  0
POLYLINE
  5
84
330
41
100
AcDbEntity
  8
_U+30EC_U+30A4_U+30E4_U+30FC 1
 62
     7
420
 16777215
370
     9
100
AcDb2dPolyline
 66
     1
 10
0.0
 20
0.0
 30
0.0
  0
VERTEX
  5
85
330
84
100
AcDbEntity
  8
_U+30EC_U+30A4_U+30E4_U+30FC 1
 62
     7
420
 16777215
370
     9
100
AcDbVertex
100
AcDb2dVertex
 10
74.7110289272962
 20
-122.079878858369
 30
0.0
  0
VERTEX
  5
86
330
84
100
AcDbEntity
  8
_U+30EC_U+30A4_U+30E4_U+30FC 1
 62
     7
420
 16777215
370
     9
100
AcDbVertex
100
AcDb2dVertex
 10
74.7110289272962
 20
-119.6193949700951
 30
0.0
  0
SEQEND
  5
87
330
84
100
AcDbEntity
  8
_U+30EC_U+30A4_U+30E4_U+30FC 1
 62
     7
420
 16777215
370
     9
  0
POLYLINE
  5
88
330
41
100
AcDbEntity
  8
_U+30EC_U+30A4_U+30E4_U+30FC 1
 62
     7
420
 16777215
370
     9
100
AcDb2dPolyline
 66
     1
 10
0.0
 20
0.0
 30
0.0
  0
VERTEX
  5
89
330
88
100
AcDbEntity
  8
_U+30EC_U+30A4_U+30E4_U+30FC 1
 62
     7
420
 16777215
370
     9
100
AcDbVertex
100
AcDb2dVertex
 10
101.7102404607111
 20
-122.079878858369
 30
0.0
  0
VERTEX
  5
8A
330
88
100
AcDbEntity
  8
_U+30EC_U+30A4_U+30E4_U+30FC 1
 62
     7
420
 16777215
370
     9
100
AcDbVertex
100
AcDb2dVertex
 10
101.7102404607111
 20
-119.6193949700951
 30
0.0
  0
SEQEND
  5
8B
330
88
100
AcDbEntity
  8
_U+30EC_U+30A4_U+30E4_U+30FC 1
 62
     7
420
 16777215
370
     9
  0
INSERT
  5
8D
330
41
100
AcDbEntity
  8
_U+30EC_U+30A4_U+30E4_U+30FC 1
100
AcDbBlockReference
  2
block 4
 10
0.0
 20
0.0
 30
0.0
  0
POLYLINE
  5
94
330
41
100
AcDbEntity
  8
_U+30EC_U+30A4_U+30E4_U+30FC 1
 62
     7
420
 16777215
370
     9
100
AcDb2dPolyline
 66
     1
 10
0.0
 20
0.0
 30
0.0
  0
VERTEX
  5
95
330
94
100
AcDbEntity
  8
_U+30EC_U+30A4_U+30E4_U+30FC 1
 62
     7
420
 16777215
370
     9
100
AcDbVertex
100
AcDb2dVertex
 10
84.71005831215568
 20
-138.8187610764066
 30
0.0
  0
VERTEX
  5
96
330
94
100
AcDbEntity
  8
_U+30EC_U+30A4_U+30E4_U+30FC 1
 62
     7
420
 16777215
370
     9
100
AcDbVertex
100
AcDb2dVertex
 10
74.74962281520047
 20
-138.8187610764066
 30
0.0
  0
SEQEND
  5
97
330
94
100
AcDbEntity
  8
_U+30EC_U+30A4_U+30E4_U+30FC 1
 62
     7
420
 16777215
370
     9
  0
POLYLINE
  5
98
330
41
100
AcDbEntity
  8
_U+30EC_U+30A4_U+30E4_U+30FC 1
 62
     7
420
 16777215
370
     9
100
AcDb2dPolyline
 66
     1
 10
0.0
 20
0.0
 30
0.0
  0
VERTEX
  5
99
330
98
100
AcDbEntity
  8
_U+30EC_U+30A4_U+30E4_U+30FC 1
 62
     7
420
 16777215
370
     9
100
AcDbVertex
100
AcDb2dVertex
 10
84.71005831215568
 20
-137.3587196878829
 30
0.0
  0
VERTEX
  5
9A
330
98
100
AcDbEntity
  8
_U+30EC_U+30A4_U+30E4_U+30FC 1
 62
     7
420
 16777215
370
     9
100
AcDbVertex
100
AcDb2dVertex
 10
84.71005831215568
 20
-139.8192035761565
 30
0.0
  0
SEQEND
  5
9B
330
98
100
AcDbEntity
  8
_U+30EC_U+30A4_U+30E4_U+30FC 1
 62
     7
420
 16777215
370
     9
  0
POLYLINE
  5
9C
330
41
100
AcDbEntity
  8
_U+30EC_U+30A4_U+30E4_U+30FC 1
 62
     7
420
 16777215
370
     9
100
AcDb2dPolyline
 66
     1
 10
0.0
 20
0.0
 30
0.0
  0
VERTEX
  5
9D
330
9C
100
AcDbEntity
  8
_U+30EC_U+30A4_U+30E4_U+30FC 1
 62
     7
420
 16777215
370
     9
100
AcDbVertex
100
AcDb2dVertex
 10
74.7110289272962
 20
-128.1597921901821
 30
0.0
  0
VERTEX
  5
9E
330
9C
100
AcDbEntity
  8
_U+30EC_U+30A4_U+30E4_U+30FC 1
 62
     7
420
 16777215
370
     9
100
AcDbVertex
100
AcDb2dVertex
 10
74.7110289272962
 20
-139.8192035761565
 30
0.0
  0
SEQEND
  5
9F
330
9C
100
AcDbEntity
  8
_U+30EC_U+30A4_U+30E4_U+30FC 1
 62
     7
420
 16777215
370
     9
  0
INSERT
  5
A1
330
41
100
AcDbEntity
  8
_U+30EC_U+30A4_U+30E4_U+30FC 1
100
AcDbBlockReference
  2
block 5
 10
0.0
 20
0.0
 30
0.0
  0
POLYLINE
  5
A9
330
41
100
AcDbEntity
  8
_U+30EC_U+30A4_U+30E4_U+30FC 1
 62
     7
420
 16777215
370
     9
100
AcDb2dPolyline
 66
     1
 10
0.0
 20
0.0
 30
0.0
  0
VERTEX
  5
AA
330
A9
100
AcDbEntity
  8
_U+30EC_U+30A4_U+30E4_U+30FC 1
 62
     7
420
 16777215
370
     9
100
AcDbVertex
100
AcDb2dVertex
 10
84.71005831215568
 20
-138.8187610764066
 30
0.0
  0
VERTEX
  5
AB
330
A9
100
AcDbEntity
  8
_U+30EC_U+30A4_U+30E4_U+30FC 1
 62
     7
420
 16777215
370
     9
100
AcDbVertex
100
AcDb2dVertex
 10
88.71260218119741
 20
-138.8187610764066
 30
0.0
  0
SEQEND
  5
AC
330
A9
100
AcDbEntity
  8
_U+30EC_U+30A4_U+30E4_U+30FC 1
 62
     7
420
 16777215
370
     9
  0
POLYLINE
  5
AD
330
41
100
AcDbEntity
  8
_U+30EC_U+30A4_U+30E4_U+30FC 1
 62
     7
420
 16777215
370
     9
100
AcDb2dPolyline
 66
     1
 10
0.0
 20
0.0
 30
0.0
  0
VERTEX
  5
AE
330
AD
100
AcDbEntity
  8
_U+30EC_U+30A4_U+30E4_U+30FC 1
 62
     7
420
 16777215
370
     9
100
AcDbVertex
100
AcDb2dVertex
 10
84.71005831215568
 20
-137.3587196878829
 30
0.0
  0
VERTEX
  5
AF
330
AD
100
AcDbEntity
  8
_U+30EC_U+30A4_U+30E4_U+30FC 1
 62
     7
420
 16777215
370
     9
100
AcDbVertex
100
AcDb2dVertex
 10
84.71005831215568
 20
-139.8192035761565
 30
0.0
  0
SEQEND
  5
B0
330
AD
100
AcDbEntity
  8
_U+30EC_U+30A4_U+30E4_U+30FC 1
 62
     7
420
 16777215
370
     9
  0
POLYLINE
  5
B1
330
41
100
AcDbEntity
  8
_U+30EC_U+30A4_U+30E4_U+30FC 1
 62
     7
420
 16777215
370
     9
100
AcDb2dPolyline
 66
     1
 10
0.0
 20
0.0
 30
0.0
  0
VERTEX
  5
B2
330
B1
100
AcDbEntity
  8
_U+30EC_U+30A4_U+30E4_U+30FC 1
 62
     7
420
 16777215
370
     9
100
AcDbVertex
100
AcDb2dVertex
 10
88.71260218119741
 20
-137.3587196878829
 30
0.0
  0
VERTEX
  5
B3
330
B1
100
AcDbEntity
  8
_U+30EC_U+30A4_U+30E4_U+30FC 1
 62
     7
420
 16777215
370
     9
100
AcDbVertex
100
AcDb2dVertex
 10
88.71260218119741
 20
-139.8192035761565
 30
0.0
  0
SEQEND
  5
B4
330
B1
100
AcDbEntity
  8
_U+30EC_U+30A4_U+30E4_U+30FC 1
 62
     7
420
 16777215
370
     9
  0
INSERT
  5
B6
330
41
100
AcDbEntity
  8
_U+30EC_U+30A4_U+30E4_U+30FC 1
100
AcDbBlockReference
  2
block 6
 10
0.0
 20
0.0
 30
0.0
  0
POLYLINE
  5
CE
330
41
100
AcDbEntity
  8
_U+30EC_U+30A4_U+30E4_U+30FC 1
 62
     7
420
 16777215
370
     9
100
AcDb2dPolyline
 66
     1
 10
0.0
 20
0.0
 30
0.0
  0
VERTEX
  5
CF
330
CE
100
AcDbEntity
  8
_U+30EC_U+30A4_U+30E4_U+30FC 1
 62
     7
420
 16777215
370
     9
100
AcDbVertex
100
AcDb2dVertex
 10
105.7099995253354
 20
-133.8185241332123
 30
0.0
  0
VERTEX
  5
D0
330
CE
100
AcDbEntity
  8
_U+30EC_U+30A4_U+30E4_U+30FC 1
 62
     7
420
 16777215
370
     9
100
AcDbVertex
100
AcDb2dVertex
 10
105.7099995253354
 20
-125.6193688574841
 30
0.0
  0
SEQEND
  5
D1
330
CE
100
AcDbEntity
  8
_U+30EC_U+30A4_U+30E4_U+30FC 1
 62
     7
420
 16777215
370
     9
  0
POLYLINE
  5
D2
330
41
100
AcDbEntity
  8
_U+30EC_U+30A4_U+30E4_U+30FC 1
 62
     7
420
 16777215
370
     9
100
AcDb2dPolyline
 66
     1
 10
0.0
 20
0.0
 30
0.0
  0
VERTEX
  5
D3
330
D2
100
AcDbEntity
  8
_U+30EC_U+30A4_U+30E4_U+30FC 1
 62
     7
420
 16777215
370
     9
100
AcDbVertex
100
AcDb2dVertex
 10
90.25011353086111
 20
-133.8185241332123
 30
0.0
  0
VERTEX
  5
D4
330
D2
100
AcDbEntity
  8
_U+30EC_U+30A4_U+30E4_U+30FC 1
 62
     7
420
 16777215
370
     9
100
AcDbVertex
100
AcDb2dVertex
 10
106.710441999812
 20
-133.8185241332123
 30
0.0
  0
SEQEND
  5
D5
330
D2
100
AcDbEntity
  8
_U+30EC_U+30A4_U+30E4_U+30FC 1
 62
     7
420
 16777215
370
     9
  0
INSERT
  5
D7
330
41
100
AcDbEntity
  8
_U+30EC_U+30A4_U+30E4_U+30FC 1
100
AcDbBlockReference
  2
block 7
 10
0.0
 20
0.0
 30
0.0
  0
ENDBLK
  5
44
330
41
100
AcDbEntity
  8
0
100
AcDbBlockEnd
  0
BLOCK
  5
7C
330
7A
100
AcDbEntity
  8
0
100
AcDbBlockBegin
  2
block 3
 70
     0
 10
0.0
 20
0.0
 30
0.0
  3
block 3
  1

  0
SPLINE
  5
7E
330
7A
100
AcDbEntity
  8
_U+30EC_U+30A4_U+30E4_U+30FC 1
370
     0
100
AcDbSpline
210
0.0
220
0.0
230
1.0
 70
    11
 71
     3
 72
    26
 73
    22
 74
     0
 42
0.0000000001
 43
0.0000000001
 12
1.0
 22
0.0
 32
0.0
 13
1.0
 23
0.0
 33
0.0
 40
0.0
 40
0.0
 40
0.0
 40
0.0
 40
1.0
 40
1.0
 40
1.0
 40
2.0
 40
2.0
 40
2.0
 40
3.0
 40
3.0
 40
3.0
 40
4.0
 40
4.0
 40
4.0
 40
5.0
 40
5.0
 40
5.0
 40
6.0
 40
6.0
 40
6.0
 40
7.0
 40
7.0
 40
7.0
 40
7.0
 10
104.5948214799277
 20
-125.3136257282202
 30
0.0
 10
104.5948214799277
 20
-125.3136257282202
 30
0.0
 10
103.4906683769051
 20
-125.3136257282202
 30
0.0
 10
103.4906683769051
 20
-125.3136257282202
 30
0.0
 10
103.4906683769051
 20
-125.3136257282202
 30
0.0
 10
103.4906683769051
 20
-125.6436658757071
 30
0.0
 10
103.4906683769051
 20
-125.6436658757071
 30
0.0
 10
103.4906683769051
 20
-125.6436658757071
 30
0.0
 10
103.3425292710394
 20
-125.6436658757071
 30
0.0
 10
103.3425292710394
 20
-125.6436658757071
 30
0.0
 10
103.3277153604528
 20
-125.3115586709291
 30
0.0
 10
103.1647623440005
 20
-125.2650498818782
 30
0.0
 10
103.0503851738902
 20
-125.235422060705
 30
0.0
 10
103.0503851738902
 20
-125.235422060705
 30
0.0
 10
103.0503851738902
 20
-125.0893500121305
 30
0.0
 10
103.0503851738902
 20
-125.0893500121305
 30
0.0
 10
103.0503851738902
 20
-125.0893500121305
 30
0.0
 10
104.5948214799277
 20
-125.0893500121305
 30
0.0
 10
104.5948214799277
 20
-125.0893500121305
 30
0.0
 10
104.5948214799277
 20
-125.0893500121305
 30
0.0
 10
104.5948214799277
 20
-125.3136257282202
 30
0.0
 10
104.5948214799277
 20
-125.3136257282202
 30
0.0
  0
HATCH
  5
7F
330
7A
100
AcDbEntity
  8
_U+30EC_U+30A4_U+30E4_U+30FC 1
 62
     7
420
 16777215
100
AcDbHatch
 10
0.0
 20
0.0
 30
0.0
210
0.0
220
0.0
230
1.0
  2
SOLID
 70
     1
 71
     0
 91
        1
 92
        1
 93
        1
 72
     4
 94
        3
 73
     0
 74
     1
 95
       26
 96
       22
 40
0.0
 40
0.0
 40
0.0
 40
0.0
 40
1.0
 40
1.0
 40
1.0
 40
2.0
 40
2.0
 40
2.0
 40
3.0
 40
3.0
 40
3.0
 40
4.0
 40
4.0
 40
4.0
 40
5.0
 40
5.0
 40
5.0
 40
6.0
 40
6.0
 40
6.0
 40
7.0
 40
7.0
 40
7.0
 40
7.0
 10
104.5948214799277
 20
-125.3136257282202
 10
104.5948214799277
 20
-125.3136257282202
 10
103.4906683769051
 20
-125.3136257282202
 10
103.4906683769051
 20
-125.3136257282202
 10
103.4906683769051
 20
-125.3136257282202
 10
103.4906683769051
 20
-125.6436658757071
 10
103.4906683769051
 20
-125.6436658757071
 10
103.4906683769051
 20
-125.6436658757071
 10
103.3425292710394
 20
-125.6436658757071
 10
103.3425292710394
 20
-125.6436658757071
 10
103.3277153604528
 20
-125.3115586709291
 10
103.1647623440005
 20
-125.2650498818782
 10
103.0503851738902
 20
-125.235422060705
 10
103.0503851738902
 20
-125.235422060705
 10
103.0503851738902
 20
-125.0893500121305
 10
103.0503851738902
 20
-125.0893500121305
 10
103.0503851738902
 20
-125.0893500121305
 10
104.5948214799277
 20
-125.0893500121305
 10
104.5948214799277
 20
-125.0893500121305
 10
104.5948214799277
 20
-125.0893500121305
 10
104.5948214799277
 20
-125.3136257282202
 10
104.5948214799277
 20
-125.3136257282202
 97
        0
 97
        0
 75
     2
 76
     1
 98
        0
  0
ENDBLK
  5
7D
330
7A
100
AcDbEntity
  8
0
100
AcDbBlockEnd
  0
BLOCK
  5
8E
330
8C
100
AcDbEntity
  8
0
100
AcDbBlockBegin
  2
block 4
 70
     0
 10
0.0
 20
0.0
 30
0.0
  3
block 4
  1

  0
SPLINE
  5
90
330
8C
100
AcDbEntity
  8
_U+30EC_U+30A4_U+30E4_U+30FC 1
370
     0
100
AcDbSpline
210
0.0
220
0.0
230
1.0
 70
    11
 71
     3
 72
    44
 73
    40
 74
     0
 42
0.0000000001
 43
0.0000000001
 12
1.0
 22
0.0
 32
0.0
 13
1.0
 23
0.0
 33
0.0
 40
0.0
 40
0.0
 40
0.0
 40
0.0
 40
1.0
 40
1.0
 40
1.0
 40
2.0
 40
2.0
 40
2.0
 40
3.0
 40
3.0
 40
3.0
 40
4.0
 40
4.0
 40
4.0
 40
5.0
 40
5.0
 40
5.0
 40
6.0
 40
6.0
 40
6.0
 40
7.0
 40
7.0
 40
7.0
 40
8.0
 40
8.0
 40
8.0
 40
9.0
 40
9.0
 40
9.0
 40
10.0
 40
10.0
 40
10.0
 40
11.0
 40
11.0
 40
11.0
 40
12.0
 40
12.0
 40
12.0
 40
13.0
 40
13.0
 40
13.0
 40
13.0
 10
87.71833222633431
 20
-119.3921956081728
 30
0.0
 10
87.50042993689226
 20
-119.5508422552685
 30
0.0
 10
87.40724010401625
 20
-119.6249118082014
 30
0.0
 10
87.35866425767422
 20
-119.7687445447106
 30
0.0
 10
87.35866425767422
 20
-119.7687445447106
 30
0.0
 10
88.13708358256643
 20
-119.7687445447106
 30
0.0
 10
88.13708358256643
 20
-119.7687445447106
 30
0.0
 10
88.13708358256643
 20
-119.7687445447106
 30
0.0
 10
88.13708358256643
 20
-119.9738999808572
 30
0.0
 10
88.13708358256643
 20
-119.9738999808572
 30
0.0
 10
88.13708358256643
 20
-119.9738999808572
 30
0.0
 10
87.10906708976788
 20
-119.9738999808572
 30
0.0
 10
87.10906708976788
 20
-119.9738999808572
 30
0.0
 10
87.14076196823217
 20
-119.6162990694883
 30
0.0
 10
87.20639103722618
 20
-119.5380954019731
 30
0.0
 10
87.59138045770285
 20
-119.2397501329505
 30
0.0
 10
87.84735105225691
 20
-119.0409681234516
 30
0.0
 10
87.91280786647667
 20
-118.9732719971664
 30
0.0
 10
87.91280786647667
 20
-118.8358126873049
 30
0.0
 10
87.91280786647667
 20
-118.7173014026123
 30
0.0
 10
87.8409776256092
 20
-118.5862155193986
 30
0.0
 10
87.64426267340144
 20
-118.5862155193986
 30
0.0
 10
87.38398570949082
 20
-118.5862155193986
 30
0.0
 10
87.37554522555195
 20
-118.8166924073618
 30
0.0
 10
87.37123885619539
 20
-118.9331366347632
 30
0.0
 10
87.37123885619539
 20
-118.9331366347632
 30
0.0
 10
87.14713539487988
 20
-118.9331366347632
 30
0.0
 10
87.14713539487988
 20
-118.9331366347632
 30
0.0
 10
87.15557587881875
 20
-118.8061848661318
 30
0.0
 10
87.16608342004876
 20
-118.6940470080869
 30
0.0
 10
87.24652639962935
 20
-118.5755357233943
 30
0.0
 10
87.35642494560881
 20
-118.4148220190074
 30
0.0
 10
87.54263235658657
 20
-118.3808878284777
 30
0.0
 10
87.65907658398801
 20
-118.3808878284777
 30
0.0
 10
87.93623451577636
 20
-118.3808878284777
 30
0.0
 10
88.14345700921415
 20
-118.5650281821643
 30
0.0
 10
88.14345700921415
 20
-118.8378797445961
 30
0.0
 10
88.14345700921415
 20
-119.0662895752682
 30
0.0
 10
88.02718503658696
 20
-119.1658528347919
 30
0.0
 10
87.71833222633431
 20
-119.3921956081728
 30
0.0
  0
HATCH
  5
91
330
8C
100
AcDbEntity
  8
_U+30EC_U+30A4_U+30E4_U+30FC 1
 62
     7
420
 16777215
100
AcDbHatch
 10
0.0
 20
0.0
 30
0.0
210
0.0
220
0.0
230
1.0
  2
SOLID
 70
     1
 71
     0
 91
        1
 92
        1
 93
        1
 72
     4
 94
        3
 73
     0
 74
     1
 95
       44
 96
       40
 40
0.0
 40
0.0
 40
0.0
 40
0.0
 40
1.0
 40
1.0
 40
1.0
 40
2.0
 40
2.0
 40
2.0
 40
3.0
 40
3.0
 40
3.0
 40
4.0
 40
4.0
 40
4.0
 40
5.0
 40
5.0
 40
5.0
 40
6.0
 40
6.0
 40
6.0
 40
7.0
 40
7.0
 40
7.0
 40
8.0
 40
8.0
 40
8.0
 40
9.0
 40
9.0
 40
9.0
 40
10.0
 40
10.0
 40
10.0
 40
11.0
 40
11.0
 40
11.0
 40
12.0
 40
12.0
 40
12.0
 40
13.0
 40
13.0
 40
13.0
 40
13.0
 10
87.71833222633431
 20
-119.3921956081728
 10
87.50042993689226
 20
-119.5508422552685
 10
87.40724010401625
 20
-119.6249118082014
 10
87.35866425767422
 20
-119.7687445447106
 10
87.35866425767422
 20
-119.7687445447106
 10
88.13708358256643
 20
-119.7687445447106
 10
88.13708358256643
 20
-119.7687445447106
 10
88.13708358256643
 20
-119.7687445447106
 10
88.13708358256643
 20
-119.9738999808572
 10
88.13708358256643
 20
-119.9738999808572
 10
88.13708358256643
 20
-119.9738999808572
 10
87.10906708976788
 20
-119.9738999808572
 10
87.10906708976788
 20
-119.9738999808572
 10
87.14076196823217
 20
-119.6162990694883
 10
87.20639103722618
 20
-119.5380954019731
 10
87.59138045770285
 20
-119.2397501329505
 10
87.84735105225691
 20
-119.0409681234516
 10
87.91280786647667
 20
-118.9732719971664
 10
87.91280786647667
 20
-118.8358126873049
 10
87.91280786647667
 20
-118.7173014026123
 10
87.8409776256092
 20
-118.5862155193986
 10
87.64426267340144
 20
-118.5862155193986
 10
87.38398570949082
 20
-118.5862155193986
 10
87.37554522555195
 20
-118.8166924073618
 10
87.37123885619539
 20
-118.9331366347632
 10
87.37123885619539
 20
-118.9331366347632
 10
87.14713539487988
 20
-118.9331366347632
 10
87.14713539487988
 20
-118.9331366347632
 10
87.15557587881875
 20
-118.8061848661318
 10
87.16608342004876
 20
-118.6940470080869
 10
87.24652639962935
 20
-118.5755357233943
 10
87.35642494560881
 20
-118.4148220190074
 10
87.54263235658657
 20
-118.3808878284777
 10
87.65907658398801
 20
-118.3808878284777
 10
87.93623451577636
 20
-118.3808878284777
 10
88.14345700921415
 20
-118.5650281821643
 10
88.14345700921415
 20
-118.8378797445961
 10
88.14345700921415
 20
-119.0662895752682
 10
88.02718503658696
 20
-119.1658528347919
 10
87.71833222633431
 20
-119.3921956081728
 97
        0
 97
        0
 75
     2
 76
     1
 98
        0
  0
SPLINE
  5
92
330
8C
100
AcDbEntity
  8
_U+30EC_U+30A4_U+30E4_U+30FC 1
370
     0
100
AcDbSpline
210
0.0
220
0.0
230
1.0
 70
    11
 71
     3
 72
    26
 73
    22
 74
     0
 42
0.0000000001
 43
0.0000000001
 12
1.0
 22
0.0
 32
0.0
 13
1.0
 23
0.0
 33
0.0
 40
0.0
 40
0.0
 40
0.0
 40
0.0
 40
1.0
 40
1.0
 40
1.0
 40
2.0
 40
2.0
 40
2.0
 40
3.0
 40
3.0
 40
3.0
 40
4.0
 40
4.0
 40
4.0
 40
5.0
 40
5.0
 40
5.0
 40
6.0
 40
6.0
 40
6.0
 40
7.0
 40
7.0
 40
7.0
 40
7.0
 10
88.7131035477002
 20
-119.9738999808572
 30
0.0
 10
88.7131035477002
 20
-119.9738999808572
 30
0.0
 10
88.47625323308928
 20
-119.9738999808572
 30
0.0
 10
88.47625323308928
 20
-119.9738999808572
 30
0.0
 10
88.50157468490586
 20
-119.6650471706046
 30
0.0
 10
88.69415552253133
 20
-119.1467325548487
 30
0.0
 10
89.10033228024228
 20
-118.6411647923883
 30
0.0
 10
89.10033228024228
 20
-118.6411647923883
 30
0.0
 10
88.26248505822952
 20
-118.6411647923883
 30
0.0
 10
88.26248505822952
 20
-118.6411647923883
 30
0.0
 10
88.26248505822952
 20
-118.6411647923883
 30
0.0
 10
88.26248505822952
 20
-118.429635929594
 30
0.0
 10
88.26248505822952
 20
-118.429635929594
 30
0.0
 10
88.26248505822952
 20
-118.429635929594
 30
0.0
 10
89.3371825948532
 20
-118.429635929594
 30
0.0
 10
89.3371825948532
 20
-118.429635929594
 30
0.0
 10
89.3371825948532
 20
-118.429635929594
 30
0.0
 10
89.3371825948532
 20
-118.6411647923883
 30
0.0
 10
89.3371825948532
 20
-118.6411647923883
 30
0.0
 10
89.01351587401399
 20
-118.9308973226978
 30
0.0
 10
88.7470377382299
 20
-119.5232814913865
 30
0.0
 10
88.7131035477002
 20
-119.9738999808572
 30
0.0
  0
HATCH
  5
93
330
8C
100
AcDbEntity
  8
_U+30EC_U+30A4_U+30E4_U+30FC 1
 62
     7
420
 16777215
100
AcDbHatch
 10
0.0
 20
0.0
 30
0.0
210
0.0
220
0.0
230
1.0
  2
SOLID
 70
     1
 71
     0
 91
        1
 92
        1
 93
        1
 72
     4
 94
        3
 73
     0
 74
     1
 95
       26
 96
       22
 40
0.0
 40
0.0
 40
0.0
 40
0.0
 40
1.0
 40
1.0
 40
1.0
 40
2.0
 40
2.0
 40
2.0
 40
3.0
 40
3.0
 40
3.0
 40
4.0
 40
4.0
 40
4.0
 40
5.0
 40
5.0
 40
5.0
 40
6.0
 40
6.0
 40
6.0
 40
7.0
 40
7.0
 40
7.0
 40
7.0
 10
88.7131035477002
 20
-119.9738999808572
 10
88.7131035477002
 20
-119.9738999808572
 10
88.47625323308928
 20
-119.9738999808572
 10
88.47625323308928
 20
-119.9738999808572
 10
88.50157468490586
 20
-119.6650471706046
 10
88.69415552253133
 20
-119.1467325548487
 10
89.10033228024228
 20
-118.6411647923883
 10
89.10033228024228
 20
-118.6411647923883
 10
88.26248505822952
 20
-118.6411647923883
 10
88.26248505822952
 20
-118.6411647923883
 10
88.26248505822952
 20
-118.6411647923883
 10
88.26248505822952
 20
-118.429635929594
 10
88.26248505822952
 20
-118.429635929594
 10
88.26248505822952
 20
-118.429635929594
 10
89.3371825948532
 20
-118.429635929594
 10
89.3371825948532
 20
-118.429635929594
 10
89.3371825948532
 20
-118.429635929594
 10
89.3371825948532
 20
-118.6411647923883
 10
89.3371825948532
 20
-118.6411647923883
 10
89.01351587401399
 20
-118.9308973226978
 10
88.7470377382299
 20
-119.5232814913865
 10
88.7131035477002
 20
-119.9738999808572
 97
        0
 97
        0
 75
     2
 76
     1
 98
        0
  0
ENDBLK
  5
8F
330
8C
100
AcDbEntity
  8
0
100
AcDbBlockEnd
  0
BLOCK
  5
A2
330
A0
100
AcDbEntity
  8
0
100
AcDbBlockBegin
  2
block 5
 70
     0
 10
0.0
 20
0.0
 30
0.0
  3
block 5
  1

  0
SPLINE
  5
A4
330
A0
100
AcDbEntity
  8
_U+30EC_U+30A4_U+30E4_U+30FC 1
370
     0
100
AcDbSpline
210
0.0
220
0.0
230
1.0
 70
    11
 71
     3
 72
    26
 73
    22
 74
     0
 42
0.0000000001
 43
0.0000000001
 12
1.0
 22
0.0
 32
0.0
 13
1.0
 23
0.0
 33
0.0
 40
0.0
 40
0.0
 40
0.0
 40
0.0
 40
1.0
 40
1.0
 40
1.0
 40
2.0
 40
2.0
 40
2.0
 40
3.0
 40
3.0
 40
3.0
 40
4.0
 40
4.0
 40
4.0
 40
5.0
 40
5.0
 40
5.0
 40
6.0
 40
6.0
 40
6.0
 40
7.0
 40
7.0
 40
7.0
 40
7.0
 10
79.05408933570523
 20
-138.1727891364638
 30
0.0
 10
79.05408933570523
 20
-138.1727891364638
 30
0.0
 10
79.05408933570523
 20
-137.0686360334412
 30
0.0
 10
79.05408933570523
 20
-137.0686360334412
 30
0.0
 10
79.05408933570523
 20
-137.0686360334412
 30
0.0
 10
78.7240491882183
 20
-137.0686360334412
 30
0.0
 10
78.7240491882183
 20
-137.0686360334412
 30
0.0
 10
78.7240491882183
 20
-137.0686360334412
 30
0.0
 10
78.7240491882183
 20
-136.9204969275754
 30
0.0
 10
78.7240491882183
 20
-136.9204969275754
 30
0.0
 10
79.05615639299639
 20
-136.9056830169889
 30
0.0
 10
79.10266518204726
 20
-136.7427300005365
 30
0.0
 10
79.1322930032204
 20
-136.6286973399748
 30
0.0
 10
79.1322930032204
 20
-136.6286973399748
 30
0.0
 10
79.27836505179499
 20
-136.6286973399748
 30
0.0
 10
79.27836505179499
 20
-136.6286973399748
 30
0.0
 10
79.27836505179499
 20
-136.6286973399748
 30
0.0
 10
79.27836505179499
 20
-138.1727891364638
 30
0.0
 10
79.27836505179499
 20
-138.1727891364638
 30
0.0
 10
79.27836505179499
 20
-138.1727891364638
 30
0.0
 10
79.05408933570523
 20
-138.1727891364638
 30
0.0
 10
79.05408933570523
 20
-138.1727891364638
 30
0.0
  0
HATCH
  5
A5
330
A0
100
AcDbEntity
  8
_U+30EC_U+30A4_U+30E4_U+30FC 1
 62
     7
420
 16777215
100
AcDbHatch
 10
0.0
 20
0.0
 30
0.0
210
0.0
220
0.0
230
1.0
  2
SOLID
 70
     1
 71
     0
 91
        1
 92
        1
 93
        1
 72
     4
 94
        3
 73
     0
 74
     1
 95
       26
 96
       22
 40
0.0
 40
0.0
 40
0.0
 40
0.0
 40
1.0
 40
1.0
 40
1.0
 40
2.0
 40
2.0
 40
2.0
 40
3.0
 40
3.0
 40
3.0
 40
4.0
 40
4.0
 40
4.0
 40
5.0
 40
5.0
 40
5.0
 40
6.0
 40
6.0
 40
6.0
 40
7.0
 40
7.0
 40
7.0
 40
7.0
 10
79.05408933570523
 20
-138.1727891364638
 10
79.05408933570523
 20
-138.1727891364638
 10
79.05408933570523
 20
-137.0686360334412
 10
79.05408933570523
 20
-137.0686360334412
 10
79.05408933570523
 20
-137.0686360334412
 10
78.7240491882183
 20
-137.0686360334412
 10
78.7240491882183
 20
-137.0686360334412
 10
78.7240491882183
 20
-137.0686360334412
 10
78.7240491882183
 20
-136.9204969275754
 10
78.7240491882183
 20
-136.9204969275754
 10
79.05615639299639
 20
-136.9056830169889
 10
79.10266518204726
 20
-136.7427300005365
 10
79.1322930032204
 20
-136.6286973399748
 10
79.1322930032204
 20
-136.6286973399748
 10
79.27836505179499
 20
-136.6286973399748
 10
79.27836505179499
 20
-136.6286973399748
 10
79.27836505179499
 20
-136.6286973399748
 10
79.27836505179499
 20
-138.1727891364638
 10
79.27836505179499
 20
-138.1727891364638
 10
79.27836505179499
 20
-138.1727891364638
 10
79.05408933570523
 20
-138.1727891364638
 10
79.05408933570523
 20
-138.1727891364638
 97
        0
 97
        0
 75
     2
 76
     1
 98
        0
  0
SPLINE
  5
A6
330
A0
100
AcDbEntity
  8
_U+30EC_U+30A4_U+30E4_U+30FC 1
370
     0
100
AcDbSpline
210
0.0
220
0.0
230
1.0
 70
    11
 71
     3
 72
    29
 73
    25
 74
     0
 42
0.0000000001
 43
0.0000000001
 12
1.0
 22
0.0
 32
0.0
 13
1.0
 23
0.0
 33
0.0
 40
0.0
 40
0.0
 40
0.0
 40
0.0
 40
1.0
 40
1.0
 40
1.0
 40
2.0
 40
2.0
 40
2.0
 40
3.0
 40
3.0
 40
3.0
 40
4.0
 40
4.0
 40
4.0
 40
5.0
 40
5.0
 40
5.0
 40
6.0
 40
6.0
 40
6.0
 40
7.0
 40
7.0
 40
7.0
 40
8.0
 40
8.0
 40
8.0
 40
8.0
 10
80.67724607358069
 20
-137.9950222094249
 30
0.0
 10
80.56941458489237
 20
-138.2044840149281
 30
0.0
 10
80.39595402721004
 20
-138.2237765496455
 30
0.0
 10
80.2795097998086
 20
-138.2237765496455
 30
0.0
 10
80.1187960954217
 20
-138.2237765496455
 30
0.0
 10
79.97703041620366
 20
-138.1772677605946
 30
0.0
 10
79.88177352603651
 20
-137.9950222094249
 30
0.0
 10
79.77824840670475
 20
-137.8003743145082
 30
0.0
 10
79.75912812676161
 20
-137.5636962546716
 30
0.0
 10
79.75912812676161
 20
-137.4007432382193
 30
0.0
 10
79.75912812676161
 20
-137.2567382469358
 30
0.0
 10
79.77600909463933
 20
-137.0052462765126
 30
0.0
 10
79.88177352603651
 20
-136.8061197574652
 30
0.0
 10
79.98977726949909
 20
-136.6032036333839
 30
0.0
 10
80.150490973886
 20
-136.5797769840842
 30
0.0
 10
80.2795097998086
 20
-136.5797769840842
 30
0.0
 10
80.43815644690436
 20
-136.5797769840842
 30
0.0
 10
80.58198918341354
 20
-136.6242187158439
 30
0.0
 10
80.67724607358069
 20
-136.8061197574652
 30
0.0
 10
80.77663707833015
 20
-136.9987005950906
 30
0.0
 10
80.79989147285559
 20
-137.2271104257627
 30
0.0
 10
80.79989147285559
 20
-137.4007432382193
 30
0.0
 10
80.79989147285559
 20
-137.5719644838362
 30
0.0
 10
80.77887639039557
 20
-137.8027858813479
 30
0.0
 10
80.67724607358069
 20
-137.9950222094249
 30
0.0
  0
SPLINE
  5
A7
330
A0
100
AcDbEntity
  8
_U+30EC_U+30A4_U+30E4_U+30FC 1
370
     0
100
AcDbSpline
210
0.0
220
0.0
230
1.0
 70
    11
 71
     3
 72
    17
 73
    13
 74
     0
 42
0.0000000001
 43
0.0000000001
 12
1.0
 22
0.0
 32
0.0
 13
1.0
 23
0.0
 33
0.0
 40
0.0
 40
0.0
 40
0.0
 40
0.0
 40
1.0
 40
1.0
 40
1.0
 40
2.0
 40
2.0
 40
2.0
 40
3.0
 40
3.0
 40
3.0
 40
4.0
 40
4.0
 40
4.0
 40
4.0
 10
80.2795097998086
 20
-136.7723578217097
 30
0.0
 10
80.02991263190225
 20
-136.7723578217097
 30
0.0
 10
79.98340384285137
 20
-137.0558891801458
 30
0.0
 10
79.98340384285137
 20
-137.4007432382193
 30
0.0
 10
79.98340384285137
 20
-137.7201035897019
 30
0.0
 10
80.01940509067224
 20
-138.0291286547288
 30
0.0
 10
80.2795097998086
 20
-138.0291286547288
 30
0.0
 10
80.5270399104238
 20
-138.0291286547288
 30
0.0
 10
80.57578801154008
 20
-137.7476643535839
 30
0.0
 10
80.57578801154008
 20
-137.4007432382193
 30
0.0
 10
80.57578801154008
 20
-137.0813828867366
 30
0.0
 10
80.53754745165381
 20
-136.7723578217097
 30
0.0
 10
80.2795097998086
 20
-136.7723578217097
 30
0.0
  0
HATCH
  5
A8
330
A0
100
AcDbEntity
  8
_U+30EC_U+30A4_U+30E4_U+30FC 1
 62
     7
420
 16777215
100
AcDbHatch
 10
0.0
 20
0.0
 30
0.0
210
0.0
220
0.0
230
1.0
  2
SOLID
 70
     1
 71
     0
 91
        2
 92
        1
 93
        1
 72
     4
 94
        3
 73
     0
 74
     1
 95
       29
 96
       25
 40
0.0
 40
0.0
 40
0.0
 40
0.0
 40
1.0
 40
1.0
 40
1.0
 40
2.0
 40
2.0
 40
2.0
 40
3.0
 40
3.0
 40
3.0
 40
4.0
 40
4.0
 40
4.0
 40
5.0
 40
5.0
 40
5.0
 40
6.0
 40
6.0
 40
6.0
 40
7.0
 40
7.0
 40
7.0
 40
8.0
 40
8.0
 40
8.0
 40
8.0
 10
80.67724607358069
 20
-137.9950222094249
 10
80.56941458489237
 20
-138.2044840149281
 10
80.39595402721004
 20
-138.2237765496455
 10
80.2795097998086
 20
-138.2237765496455
 10
80.1187960954217
 20
-138.2237765496455
 10
79.97703041620366
 20
-138.1772677605946
 10
79.88177352603651
 20
-137.9950222094249
 10
79.77824840670475
 20
-137.8003743145082
 10
79.75912812676161
 20
-137.5636962546716
 10
79.75912812676161
 20
-137.4007432382193
 10
79.75912812676161
 20
-137.2567382469358
 10
79.77600909463933
 20
-137.0052462765126
 10
79.88177352603651
 20
-136.8061197574652
 10
79.98977726949909
 20
-136.6032036333839
 10
80.150490973886
 20
-136.5797769840842
 10
80.2795097998086
 20
-136.5797769840842
 10
80.43815644690436
 20
-136.5797769840842
 10
80.58198918341354
 20
-136.6242187158439
 10
80.67724607358069
 20
-136.8061197574652
 10
80.77663707833015
 20
-136.9987005950906
 10
80.79989147285559
 20
-137.2271104257627
 10
80.79989147285559
 20
-137.4007432382193
 10
80.79989147285559
 20
-137.5719644838362
 10
80.77887639039557
 20
-137.8027858813479
 10
80.67724607358069
 20
-137.9950222094249
 97
        0
 97
        0
 92
        1
 93
        1
 72
     4
 94
        3
 73
     0
 74
     1
 95
       17
 96
       13
 40
0.0
 40
0.0
 40
0.0
 40
0.0
 40
1.0
 40
1.0
 40
1.0
 40
2.0
 40
2.0
 40
2.0
 40
3.0
 40
3.0
 40
3.0
 40
4.0
 40
4.0
 40
4.0
 40
4.0
 10
80.2795097998086
 20
-136.7723578217097
 10
80.02991263190225
 20
-136.7723578217097
 10
79.98340384285137
 20
-137.0558891801458
 10
79.98340384285137
 20
-137.4007432382193
 10
79.98340384285137
 20
-137.7201035897019
 10
80.01940509067224
 20
-138.0291286547288
 10
80.2795097998086
 20
-138.0291286547288
 10
80.5270399104238
 20
-138.0291286547288
 10
80.57578801154008
 20
-137.7476643535839
 10
80.57578801154008
 20
-137.4007432382193
 10
80.57578801154008
 20
-137.0813828867366
 10
80.53754745165381
 20
-136.7723578217097
 10
80.2795097998086
 20
-136.7723578217097
 97
        0
 97
        0
 75
     2
 76
     1
 98
        0
  0
ENDBLK
  5
A3
330
A0
100
AcDbEntity
  8
0
100
AcDbBlockEnd
  0
BLOCK
  5
B7
330
B5
100
AcDbEntity
  8
0
100
AcDbBlockBegin
  2
block 6
 70
     0
 10
0.0
 20
0.0
 30
0.0
  3
block 6
  1

  0
POLYLINE
  5
B9
330
B5
100
AcDbEntity
  8
_U+30EC_U+30A4_U+30E4_U+30FC 1
370
     0
100
AcDb2dPolyline
 66
     1
 10
0.0
 20
0.0
 30
0.0
  0
VERTEX
  5
BA
330
B9
100
AcDbEntity
  8
_U+30EC_U+30A4_U+30E4_U+30FC 1
370
     0
100
AcDbVertex
100
AcDb2dVertex
 10
87.04309351122534
 20
-137.8258680210991
 30
0.0
  0
VERTEX
  5
BB
330
B9
100
AcDbEntity
  8
_U+30EC_U+30A4_U+30E4_U+30FC 1
370
     0
100
AcDbVertex
100
AcDb2dVertex
 10
87.04309351122534
 20
-138.1727891364638
 30
0.0
  0
VERTEX
  5
BC
330
B9
100
AcDbEntity
  8
_U+30EC_U+30A4_U+30E4_U+30FC 1
370
     0
100
AcDbVertex
100
AcDb2dVertex
 10
86.82519122178329
 20
-138.1727891364638
 30
0.0
  0
VERTEX
  5
BD
330
B9
100
AcDbEntity
  8
_U+30EC_U+30A4_U+30E4_U+30FC 1
370
     0
100
AcDbVertex
100
AcDb2dVertex
 10
86.82519122178329
 20
-137.8258680210991
 30
0.0
  0
VERTEX
  5
BE
330
B9
100
AcDbEntity
  8
_U+30EC_U+30A4_U+30E4_U+30FC 1
370
     0
100
AcDbVertex
100
AcDb2dVertex
 10
86.16941729616599
 20
-137.8258680210991
 30
0.0
  0
VERTEX
  5
BF
330
B9
100
AcDbEntity
  8
_U+30EC_U+30A4_U+30E4_U+30FC 1
370
     0
100
AcDbVertex
100
AcDb2dVertex
 10
86.16941729616599
 20
-137.6015923050093
 30
0.0
  0
VERTEX
  5
C0
330
B9
100
AcDbEntity
  8
_U+30EC_U+30A4_U+30E4_U+30FC 1
370
     0
100
AcDbVertex
100
AcDb2dVertex
 10
86.84844561630872
 20
-136.6286973399748
 30
0.0
  0
VERTEX
  5
C1
330
B9
100
AcDbEntity
  8
_U+30EC_U+30A4_U+30E4_U+30FC 1
370
     0
100
AcDbVertex
100
AcDb2dVertex
 10
87.04309351122534
 20
-136.6286973399748
 30
0.0
  0
VERTEX
  5
C2
330
B9
100
AcDbEntity
  8
_U+30EC_U+30A4_U+30E4_U+30FC 1
370
     0
100
AcDbVertex
100
AcDb2dVertex
 10
87.04309351122534
 20
-137.6270860116002
 30
0.0
  0
VERTEX
  5
C3
330
B9
100
AcDbEntity
  8
_U+30EC_U+30A4_U+30E4_U+30FC 1
370
     0
100
AcDbVertex
100
AcDb2dVertex
 10
87.25048825943738
 20
-137.6270860116002
 30
0.0
  0
VERTEX
  5
C4
330
B9
100
AcDbEntity
  8
_U+30EC_U+30A4_U+30E4_U+30FC 1
370
     0
100
AcDbVertex
100
AcDb2dVertex
 10
87.25048825943738
 20
-137.8258680210991
 30
0.0
  0
VERTEX
  5
C5
330
B9
100
AcDbEntity
  8
_U+30EC_U+30A4_U+30E4_U+30FC 1
370
     0
100
AcDbVertex
100
AcDb2dVertex
 10
87.04309351122534
 20
-137.8258680210991
 30
0.0
  0
SEQEND
  5
C6
330
B9
100
AcDbEntity
  8
_U+30EC_U+30A4_U+30E4_U+30FC 1
370
     0
  0
POLYLINE
  5
C7
330
B5
100
AcDbEntity
  8
_U+30EC_U+30A4_U+30E4_U+30FC 1
370
     0
100
AcDb2dPolyline
 66
     1
 10
0.0
 20
0.0
 30
0.0
  0
VERTEX
  5
C8
330
C7
100
AcDbEntity
  8
_U+30EC_U+30A4_U+30E4_U+30FC 1
370
     0
100
AcDbVertex
100
AcDb2dVertex
 10
86.82519122178329
 20
-136.9711398312086
 30
0.0
  0
VERTEX
  5
C9
330
C7
100
AcDbEntity
  8
_U+30EC_U+30A4_U+30E4_U+30FC 1
370
     0
100
AcDbVertex
100
AcDb2dVertex
 10
86.36837156043916
 20
-137.6270860116002
 30
0.0
  0
VERTEX
  5
CA
330
C7
100
AcDbEntity
  8
_U+30EC_U+30A4_U+30E4_U+30FC 1
370
     0
100
AcDbVertex
100
AcDb2dVertex
 10
86.82519122178329
 20
-137.6270860116002
 30
0.0
  0
VERTEX
  5
CB
330
C7
100
AcDbEntity
  8
_U+30EC_U+30A4_U+30E4_U+30FC 1
370
     0
100
AcDbVertex
100
AcDb2dVertex
 10
86.82519122178329
 20
-136.9711398312086
 30
0.0
  0
SEQEND
  5
CC
330
C7
100
AcDbEntity
  8
_U+30EC_U+30A4_U+30E4_U+30FC 1
370
     0
  0
HATCH
  5
CD
330
B5
100
AcDbEntity
  8
_U+30EC_U+30A4_U+30E4_U+30FC 1
 62
     7
420
 16777215
100
AcDbHatch
 10
0.0
 20
0.0
 30
0.0
210
0.0
220
0.0
230
1.0
  2
SOLID
 70
     1
 71
     0
 91
        2
 92
        1
 93
       11
 72
     1
 10
87.04309351122534
 20
-137.8258680210991
 11
87.04309351122534
 21
-138.1727891364638
 72
     1
 10
87.04309351122534
 20
-138.1727891364638
 11
86.82519122178329
 21
-138.1727891364638
 72
     1
 10
86.82519122178329
 20
-138.1727891364638
 11
86.82519122178329
 21
-137.8258680210991
 72
     1
 10
86.82519122178329
 20
-137.8258680210991
 11
86.16941729616599
 21
-137.8258680210991
 72
     1
 10
86.16941729616599
 20
-137.8258680210991
 11
86.16941729616599
 21
-137.6015923050093
 72
     1
 10
86.16941729616599
 20
-137.6015923050093
 11
86.84844561630872
 21
-136.6286973399748
 72
     1
 10
86.84844561630872
 20
-136.6286973399748
 11
87.04309351122534
 21
-136.6286973399748
 72
     1
 10
87.04309351122534
 20
-136.6286973399748
 11
87.04309351122534
 21
-137.6270860116002
 72
     1
 10
87.04309351122534
 20
-137.6270860116002
 11
87.25048825943738
 21
-137.6270860116002
 72
     1
 10
87.25048825943738
 20
-137.6270860116002
 11
87.25048825943738
 21
-137.8258680210991
 72
     1
 10
87.25048825943738
 20
-137.8258680210991
 11
87.04309351122534
 21
-137.8258680210991
 97
        0
 92
        1
 93
        3
 72
     1
 10
86.82519122178329
 20
-136.9711398312086
 11
86.36837156043916
 21
-137.6270860116002
 72
     1
 10
86.36837156043916
 20
-137.6270860116002
 11
86.82519122178329
 21
-137.6270860116002
 72
     1
 10
86.82519122178329
 20
-137.6270860116002
 11
86.82519122178329
 21
-136.9711398312086
 97
        0
 75
     2
 76
     1
 98
        0
  0
ENDBLK
  5
B8
330
B5
100
AcDbEntity
  8
0
100
AcDbBlockEnd
  0
BLOCK
  5
D8
330
D6
100
AcDbEntity
  8
0
100
AcDbBlockBegin
  2
block 7
 70
     0
 10
0.0
 20
0.0
 30
0.0
  3
block 7
  1

  0
SPLINE
  5
DA
330
D6
100
AcDbEntity
  8
_U+30EC_U+30A4_U+30E4_U+30FC 1
370
     0
100
AcDbSpline
210
0.0
220
0.0
230
1.0
 70
    11
 71
     3
 72
    29
 73
    25
 74
     0
 42
0.0000000001
 43
0.0000000001
 12
1.0
 22
0.0
 32
0.0
 13
1.0
 23
0.0
 33
0.0
 40
0.0
 40
0.0
 40
0.0
 40
0.0
 40
1.0
 40
1.0
 40
1.0
 40
2.0
 40
2.0
 40
2.0
 40
3.0
 40
3.0
 40
3.0
 40
4.0
 40
4.0
 40
4.0
 40
5.0
 40
5.0
 40
5.0
 40
6.0
 40
6.0
 40
6.0
 40
7.0
 40
7.0
 40
7.0
 40
8.0
 40
8.0
 40
8.0
 40
8.0
 10
105.1150308982004
 20
-130.5822102538128
 30
0.0
 10
105.1150308982004
 20
-130.8488606443711
 30
0.0
 10
104.9775715883389
 20
-131.1024196720855
 30
0.0
 10
104.6285834156831
 20
-131.1024196720855
 30
0.0
 10
104.3726128211291
 20
-131.1024196720855
 30
0.0
 10
104.2775281857362
 20
-130.9608262476417
 30
0.0
 10
104.2162054860987
 20
-130.8550618162446
 30
0.0
 10
104.1569498437524
 20
-130.9797742728106
 30
0.0
 10
104.0425726736421
 20
-131.0559108830346
 30
0.0
 10
103.881686714481
 20
-131.0559108830346
 30
0.0
 10
103.606768094758
 20
-131.0559108830346
 30
0.0
 10
103.4713758421877
 20
-130.8571288735357
 30
0.0
 10
103.4713758421877
 20
-130.5822102538128
 30
0.0
 10
103.4713758421877
 20
-130.2986788953767
 30
0.0
 10
103.6153808334712
 20
-130.1081651150424
 30
0.0
 10
103.881686714481
 20
-130.1081651150424
 30
0.0
 10
104.0425726736421
 20
-130.1081651150424
 30
0.0
 10
104.1569498437524
 20
-130.1867132921061
 30
0.0
 10
104.2162054860987
 20
-130.3114257486721
 30
0.0
 10
104.2668483897319
 20
-130.2225422851527
 30
0.0
 10
104.3619330251248
 20
-130.0637233832827
 30
0.0
 10
104.6244493011008
 20
-130.0637233832827
 30
0.0
 10
104.9989311803475
 20
-130.0637233832827
 30
0.0
 10
105.1150308982004
 20
-130.3431206271364
 30
0.0
 10
105.1150308982004
 20
-130.5822102538128
 30
0.0
  0
SPLINE
  5
DB
330
D6
100
AcDbEntity
  8
_U+30EC_U+30A4_U+30E4_U+30FC 1
370
     0
100
AcDbSpline
210
0.0
220
0.0
230
1.0
 70
    11
 71
     3
 72
    17
 73
    13
 74
     0
 42
0.0000000001
 43
0.0000000001
 12
1.0
 22
0.0
 32
0.0
 13
1.0
 23
0.0
 33
0.0
 40
0.0
 40
0.0
 40
0.0
 40
0.0
 40
1.0
 40
1.0
 40
1.0
 40
2.0
 40
2.0
 40
2.0
 40
3.0
 40
3.0
 40
3.0
 40
4.0
 40
4.0
 40
4.0
 40
4.0
 10
103.6639566798132
 20
-130.5822102538128
 30
0.0
 10
103.6639566798132
 20
-130.7472303275563
 30
0.0
 10
103.7590413152061
 20
-130.8316351669449
 30
0.0
 10
103.8944335677764
 20
-130.8316351669449
 30
0.0
 10
104.0170789670513
 20
-130.8316351669449
 30
0.0
 10
104.1355902517439
 20
-130.7599771808517
 30
0.0
 10
104.1355902517439
 20
-130.5822102538128
 30
0.0
 10
104.1355902517439
 20
-130.4044433267739
 30
0.0
 10
104.0170789670513
 20
-130.3324408311322
 30
0.0
 10
103.8944335677764
 20
-130.3324408311322
 30
0.0
 10
103.7590413152061
 20
-130.3324408311322
 30
0.0
 10
103.6639566798132
 20
-130.4192572373605
 30
0.0
 10
103.6639566798132
 20
-130.5822102538128
 30
0.0
  0
SPLINE
  5
DC
330
D6
100
AcDbEntity
  8
_U+30EC_U+30A4_U+30E4_U+30FC 1
370
     0
100
AcDbSpline
210
0.0
220
0.0
230
1.0
 70
    11
 71
     3
 72
    17
 73
    13
 74
     0
 42
0.0000000001
 43
0.0000000001
 12
1.0
 22
0.0
 32
0.0
 13
1.0
 23
0.0
 33
0.0
 40
0.0
 40
0.0
 40
0.0
 40
0.0
 40
1.0
 40
1.0
 40
1.0
 40
2.0
 40
2.0
 40
2.0
 40
3.0
 40
3.0
 40
3.0
 40
4.0
 40
4.0
 40
4.0
 40
4.0
 10
104.324036974787
 20
-130.5822102538128
 30
0.0
 10
104.324036974787
 20
-130.7258707355477
 30
0.0
 10
104.4108533810153
 20
-130.8784884655443
 30
0.0
 10
104.6137695050966
 20
-130.8784884655443
 30
0.0
 10
104.8190971960175
 20
-130.8784884655443
 30
0.0
 10
104.9203830032838
 20
-130.7513644421386
 30
0.0
 10
104.9203830032838
 20
-130.5822102538128
 30
0.0
 10
104.9203830032838
 20
-130.3961750976093
 30
0.0
 10
104.7977376040089
 20
-130.2859320420813
 30
0.0
 10
104.61997067697
 20
-130.2859320420813
 30
0.0
 10
104.3981065277199
 20
-130.2859320420813
 30
0.0
 10
104.324036974787
 20
-130.4488850585336
 30
0.0
 10
104.324036974787
 20
-130.5822102538128
 30
0.0
  0
HATCH
  5
DD
330
D6
100
AcDbEntity
  8
_U+30EC_U+30A4_U+30E4_U+30FC 1
 62
     7
420
 16777215
100
AcDbHatch
 10
0.0
 20
0.0
 30
0.0
210
0.0
220
0.0
230
1.0
  2
SOLID
 70
     1
 71
     0
 91
        3
 92
        1
 93
        1
 72
     4
 94
        3
 73
     0
 74
     1
 95
       29
 96
       25
 40
0.0
 40
0.0
 40
0.0
 40
0.0
 40
1.0
 40
1.0
 40
1.0
 40
2.0
 40
2.0
 40
2.0
 40
3.0
 40
3.0
 40
3.0
 40
4.0
 40
4.0
 40
4.0
 40
5.0
 40
5.0
 40
5.0
 40
6.0
 40
6.0
 40
6.0
 40
7.0
 40
7.0
 40
7.0
 40
8.0
 40
8.0
 40
8.0
 40
8.0
 10
105.1150308982004
 20
-130.5822102538128
 10
105.1150308982004
 20
-130.8488606443711
 10
104.9775715883389
 20
-131.1024196720855
 10
104.6285834156831
 20
-131.1024196720855
 10
104.3726128211291
 20
-131.1024196720855
 10
104.2775281857362
 20
-130.9608262476417
 10
104.2162054860987
 20
-130.8550618162446
 10
104.1569498437524
 20
-130.9797742728106
 10
104.0425726736421
 20
-131.0559108830346
 10
103.881686714481
 20
-131.0559108830346
 10
103.606768094758
 20
-131.0559108830346
 10
103.4713758421877
 20
-130.8571288735357
 10
103.4713758421877
 20
-130.5822102538128
 10
103.4713758421877
 20
-130.2986788953767
 10
103.6153808334712
 20
-130.1081651150424
 10
103.881686714481
 20
-130.1081651150424
 10
104.0425726736421
 20
-130.1081651150424
 10
104.1569498437524
 20
-130.1867132921061
 10
104.2162054860987
 20
-130.3114257486721
 10
104.2668483897319
 20
-130.2225422851527
 10
104.3619330251248
 20
-130.0637233832827
 10
104.6244493011008
 20
-130.0637233832827
 10
104.9989311803475
 20
-130.0637233832827
 10
105.1150308982004
 20
-130.3431206271364
 10
105.1150308982004
 20
-130.5822102538128
 97
        0
 97
        0
 92
        1
 93
        1
 72
     4
 94
        3
 73
     0
 74
     1
 95
       17
 96
       13
 40
0.0
 40
0.0
 40
0.0
 40
0.0
 40
1.0
 40
1.0
 40
1.0
 40
2.0
 40
2.0
 40
2.0
 40
3.0
 40
3.0
 40
3.0
 40
4.0
 40
4.0
 40
4.0
 40
4.0
 10
103.6639566798132
 20
-130.5822102538128
 10
103.6639566798132
 20
-130.7472303275563
 10
103.7590413152061
 20
-130.8316351669449
 10
103.8944335677764
 20
-130.8316351669449
 10
104.0170789670513
 20
-130.8316351669449
 10
104.1355902517439
 20
-130.7599771808517
 10
104.1355902517439
 20
-130.5822102538128
 10
104.1355902517439
 20
-130.4044433267739
 10
104.0170789670513
 20
-130.3324408311322
 10
103.8944335677764
 20
-130.3324408311322
 10
103.7590413152061
 20
-130.3324408311322
 10
103.6639566798132
 20
-130.4192572373605
 10
103.6639566798132
 20
-130.5822102538128
 97
        0
 97
        0
 92
        1
 93
        1
 72
     4
 94
        3
 73
     0
 74
     1
 95
       17
 96
       13
 40
0.0
 40
0.0
 40
0.0
 40
0.0
 40
1.0
 40
1.0
 40
1.0
 40
2.0
 40
2.0
 40
2.0
 40
3.0
 40
3.0
 40
3.0
 40
4.0
 40
4.0
 40
4.0
 40
4.0
 10
104.324036974787
 20
-130.5822102538128
 10
104.324036974787
 20
-130.7258707355477
 10
104.4108533810153
 20
-130.8784884655443
 10
104.6137695050966
 20
-130.8784884655443
 10
104.8190971960175
 20
-130.8784884655443
 10
104.9203830032838
 20
-130.7513644421386
 10
104.9203830032838
 20
-130.5822102538128
 10
104.9203830032838
 20
-130.3961750976093
 10
104.7977376040089
 20
-130.2859320420813
 10
104.61997067697
 20
-130.2859320420813
 10
104.3981065277199
 20
-130.2859320420813
 10
104.324036974787
 20
-130.4488850585336
 10
104.324036974787
 20
-130.5822102538128
 97
        0
 97
        0
 75
     2
 76
     1
 98
        0
  0
POLYLINE
  5
DE
330
D6
100
AcDbEntity
  8
_U+30EC_U+30A4_U+30E4_U+30FC 1
370
     0
100
AcDb2dPolyline
 66
     1
 10
0.0
 20
0.0
 30
0.0
  0
VERTEX
  5
DF
330
DE
100
AcDbEntity
  8
_U+30EC_U+30A4_U+30E4_U+30FC 1
370
     0
100
AcDbVertex
100
AcDb2dVertex
 10
105.0643879945672
 20
-129.8453043295179
 30
0.0
  0
VERTEX
  5
E0
330
DE
100
AcDbEntity
  8
_U+30EC_U+30A4_U+30E4_U+30FC 1
370
     0
100
AcDbVertex
100
AcDb2dVertex
 10
104.8125515145955
 20
-129.8453043295179
 30
0.0
  0
VERTEX
  5
E1
330
DE
100
AcDbEntity
  8
_U+30EC_U+30A4_U+30E4_U+30FC 1
370
     0
100
AcDbVertex
100
AcDb2dVertex
 10
104.8125515145955
 20
-129.5934678495461
 30
0.0
  0
VERTEX
  5
E2
330
DE
100
AcDbEntity
  8
_U+30EC_U+30A4_U+30E4_U+30FC 1
370
     0
100
AcDbVertex
100
AcDb2dVertex
 10
105.0643879945672
 20
-129.5934678495461
 30
0.0
  0
VERTEX
  5
E3
330
DE
100
AcDbEntity
  8
_U+30EC_U+30A4_U+30E4_U+30FC 1
370
     0
100
AcDbVertex
100
AcDb2dVertex
 10
105.0643879945672
 20
-129.8453043295179
 30
0.0
  0
SEQEND
  5
E4
330
DE
100
AcDbEntity
  8
_U+30EC_U+30A4_U+30E4_U+30FC 1
370
     0
  0
HATCH
  5
E5
330
D6
100
AcDbEntity
  8
_U+30EC_U+30A4_U+30E4_U+30FC 1
 62
     7
420
 16777215
100
AcDbHatch
 10
0.0
 20
0.0
 30
0.0
210
0.0
220
0.0
230
1.0
  2
SOLID
 70
     1
 71
     0
 91
        1
 92
        1
 93
        4
 72
     1
 10
105.0643879945672
 20
-129.8453043295179
 11
104.8125515145955
 21
-129.8453043295179
 72
     1
 10
104.8125515145955
 20
-129.8453043295179
 11
104.8125515145955
 21
-129.5934678495461
 72
     1
 10
104.8125515145955
 20
-129.5934678495461
 11
105.0643879945672
 21
-129.5934678495461
 72
     1
 10
105.0643879945672
 20
-129.5934678495461
 11
105.0643879945672
 21
-129.8453043295179
 97
        0
 75
     2
 76
     1
 98
        0
  0
SPLINE
  5
E6
330
D6
100
AcDbEntity
  8
_U+30EC_U+30A4_U+30E4_U+30FC 1
370
     0
100
AcDbSpline
210
0.0
220
0.0
230
1.0
 70
    11
 71
     3
 72
    44
 73
    40
 74
     0
 42
0.0000000001
 43
0.0000000001
 12
1.0
 22
0.0
 32
0.0
 13
1.0
 23
0.0
 33
0.0
 40
0.0
 40
0.0
 40
0.0
 40
0.0
 40
1.0
 40
1.0
 40
1.0
 40
2.0
 40
2.0
 40
2.0
 40
3.0
 40
3.0
 40
3.0
 40
4.0
 40
4.0
 40
4.0
 40
5.0
 40
5.0
 40
5.0
 40
6.0
 40
6.0
 40
6.0
 40
7.0
 40
7.0
 40
7.0
 40
8.0
 40
8.0
 40
8.0
 40
9.0
 40
9.0
 40
9.0
 40
10.0
 40
10.0
 40
10.0
 40
11.0
 40
11.0
 40
11.0
 40
12.0
 40
12.0
 40
12.0
 40
13.0
 40
13.0
 40
13.0
 40
13.0
 10
104.4825113671085
 20
-128.7642333662465
 30
0.0
 10
104.6413302689786
 20
-128.9819634009142
 30
0.0
 10
104.7153998219114
 20
-129.074980979016
 30
0.0
 10
104.8590603036463
 20
-129.1239013349065
 30
0.0
 10
104.8590603036463
 20
-129.1239013349065
 30
0.0
 10
104.8590603036463
 20
-128.3453097552401
 30
0.0
 10
104.8590603036463
 20
-128.3453097552401
 30
0.0
 10
104.8590603036463
 20
-128.3453097552401
 30
0.0
 10
105.0643879945672
 20
-128.3453097552401
 30
0.0
 10
105.0643879945672
 20
-128.3453097552401
 30
0.0
 10
105.0643879945672
 20
-128.3453097552401
 30
0.0
 10
105.0643879945672
 20
-129.3733262480386
 30
0.0
 10
105.0643879945672
 20
-129.3733262480386
 30
0.0
 10
104.7067870831983
 20
-129.3416313695743
 30
0.0
 10
104.6285834156831
 20
-129.2761745553546
 30
0.0
 10
104.3302381466605
 20
-128.8910128801036
 30
0.0
 10
104.1314561371616
 20
-128.6350422855496
 30
0.0
 10
104.0635877561022
 20
-128.5695854713298
 30
0.0
 10
103.9261284462407
 20
-128.5695854713298
 30
0.0
 10
103.8076171615481
 20
-128.5695854713298
 30
0.0
 10
103.6767035331086
 20
-128.6415879669715
 30
0.0
 10
103.6767035331086
 20
-128.8383029191793
 30
0.0
 10
103.6767035331086
 20
-129.0984076283157
 30
0.0
 10
103.9071804210718
 20
-129.1070203670288
 30
0.0
 10
104.0236246484733
 20
-129.1111544816111
 30
0.0
 10
104.0236246484733
 20
-129.1111544816111
 30
0.0
 10
104.0236246484733
 20
-129.3354301977009
 30
0.0
 10
104.0236246484733
 20
-129.3354301977009
 30
0.0
 10
103.8965006250675
 20
-129.3268174589877
 30
0.0
 10
103.7845350217969
 20
-129.3161376629835
 30
0.0
 10
103.6660237371043
 20
-129.2358669381771
 30
0.0
 10
103.5051377779432
 20
-129.1259683921977
 30
0.0
 10
103.4713758421877
 20
-128.9395887264457
 30
0.0
 10
103.4713758421877
 20
-128.8234890085928
 30
0.0
 10
103.4713758421877
 20
-128.5461588220301
 30
0.0
 10
103.6553439411001
 20
-128.3387640738181
 30
0.0
 10
103.9281955035318
 20
-128.3387640738181
 30
0.0
 10
104.1569498437524
 20
-128.3387640738181
 30
0.0
 10
104.2561685937276
 20
-128.4552083012195
 30
0.0
 10
104.4825113671085
 20
-128.7642333662465
 30
0.0
  0
HATCH
  5
E7
330
D6
100
AcDbEntity
  8
_U+30EC_U+30A4_U+30E4_U+30FC 1
 62
     7
420
 16777215
100
AcDbHatch
 10
0.0
 20
0.0
 30
0.0
210
0.0
220
0.0
230
1.0
  2
SOLID
 70
     1
 71
     0
 91
        1
 92
        1
 93
        1
 72
     4
 94
        3
 73
     0
 74
     1
 95
       44
 96
       40
 40
0.0
 40
0.0
 40
0.0
 40
0.0
 40
1.0
 40
1.0
 40
1.0
 40
2.0
 40
2.0
 40
2.0
 40
3.0
 40
3.0
 40
3.0
 40
4.0
 40
4.0
 40
4.0
 40
5.0
 40
5.0
 40
5.0
 40
6.0
 40
6.0
 40
6.0
 40
7.0
 40
7.0
 40
7.0
 40
8.0
 40
8.0
 40
8.0
 40
9.0
 40
9.0
 40
9.0
 40
10.0
 40
10.0
 40
10.0
 40
11.0
 40
11.0
 40
11.0
 40
12.0
 40
12.0
 40
12.0
 40
13.0
 40
13.0
 40
13.0
 40
13.0
 10
104.4825113671085
 20
-128.7642333662465
 10
104.6413302689786
 20
-128.9819634009142
 10
104.7153998219114
 20
-129.074980979016
 10
104.8590603036463
 20
-129.1239013349065
 10
104.8590603036463
 20
-129.1239013349065
 10
104.8590603036463
 20
-128.3453097552401
 10
104.8590603036463
 20
-128.3453097552401
 10
104.8590603036463
 20
-128.3453097552401
 10
105.0643879945672
 20
-128.3453097552401
 10
105.0643879945672
 20
-128.3453097552401
 10
105.0643879945672
 20
-128.3453097552401
 10
105.0643879945672
 20
-129.3733262480386
 10
105.0643879945672
 20
-129.3733262480386
 10
104.7067870831983
 20
-129.3416313695743
 10
104.6285834156831
 20
-129.2761745553546
 10
104.3302381466605
 20
-128.8910128801036
 10
104.1314561371616
 20
-128.6350422855496
 10
104.0635877561022
 20
-128.5695854713298
 10
103.9261284462407
 20
-128.5695854713298
 10
103.8076171615481
 20
-128.5695854713298
 10
103.6767035331086
 20
-128.6415879669715
 10
103.6767035331086
 20
-128.8383029191793
 10
103.6767035331086
 20
-129.0984076283157
 10
103.9071804210718
 20
-129.1070203670288
 10
104.0236246484733
 20
-129.1111544816111
 10
104.0236246484733
 20
-129.1111544816111
 10
104.0236246484733
 20
-129.3354301977009
 10
104.0236246484733
 20
-129.3354301977009
 10
103.8965006250675
 20
-129.3268174589877
 10
103.7845350217969
 20
-129.3161376629835
 10
103.6660237371043
 20
-129.2358669381771
 10
103.5051377779432
 20
-129.1259683921977
 10
103.4713758421877
 20
-128.9395887264457
 10
103.4713758421877
 20
-128.8234890085928
 10
103.4713758421877
 20
-128.5461588220301
 10
103.6553439411001
 20
-128.3387640738181
 10
103.9281955035318
 20
-128.3387640738181
 10
104.1569498437524
 20
-128.3387640738181
 10
104.2561685937276
 20
-128.4552083012195
 10
104.4825113671085
 20
-128.7642333662465
 97
        0
 97
        0
 75
     2
 76
     1
 98
        0
  0
ENDBLK
  5
D9
330
D6
100
AcDbEntity
  8
0
100
AcDbBlockEnd
  0
ENDSEC
  0
SECTION
  2
ENTITIES
  0
INSERT
  5
42
330
1F
100
AcDbEntity
  8
_U+30EC_U+30A4_U+30E4_U+30FC 1
100
AcDbBlockReference
  2
block 2
 10
0.0
 20
0.0
 30
0.0
  0
ENDSEC
  0
SECTION
  2
OBJECTS
  0
DICTIONARY
  5
C
330
0
100
AcDbDictionary
281
     1
  3
ACAD_GROUP
350
D
  3
ACAD_LAYOUT
350
1A
  3
ACAD_MATERIAL
350
3B
  3
ACAD_MLEADERSTYLE
350
E9
  3
ACAD_MLINESTYLE
350
17
  3
ACAD_PLOTSETTINGS
350
19
  3
ACAD_PLOTSTYLENAME
350
E
  3
ACAD_TABLESTYLE
350
E8
  3
ACAD_VISUALSTYLE
350
2A
  0
SUN
  5
3F
330
29
100
AcDbSun
 90
        1
290
     0
 63
     7
421
 16777215
 40
1.0
291
     1
 91
  2455826
 92
 54000000
292
     0
 70
     2
 71
   256
280
     1
  0
DICTIONARY
  5
D
102
{ACAD_REACTORS
330
C
102
}
330
C
100
AcDbDictionary
281
     1
  0
DICTIONARY
  5
1A
102
{ACAD_REACTORS
330
C
102
}
330
C
100
AcDbDictionary
281
     1
  3
Layout1
350
1E
  3
Layout2
350
26
  3
Model
350
22
  0
DICTIONARY
  5
3B
102
{ACAD_REACTORS
330
C
102
}
330
C
100
AcDbDictionary
281
     1
  3
ByBlock
350
3D
  3
ByLayer
350
3C
  3
Global
350
3E
  0
DICTIONARY
  5
E9
102
{ACAD_REACTORS
330
C
102
}
330
C
100
AcDbDictionary
281
     1
  0
DICTIONARY
  5
17
102
{ACAD_REACTORS
330
C
102
}
330
C
100
AcDbDictionary
281
     1
  3
Standard
350
18
  0
DICTIONARY
  5
19
102
{ACAD_REACTORS
330
C
102
}
330
C
100
AcDbDictionary
281
     1
  0
ACDBDICTIONARYWDFLT
  5
E
102
{ACAD_REACTORS
330
C
102
}
330
C
100
AcDbDictionary
281
     1
  3
Normal
350
F
100
AcDbDictionaryWithDefault
340
F
  0
DICTIONARY
  5
E8
102
{ACAD_REACTORS
330
C
102
}
330
C
100
AcDbDictionary
281
     1
  0
DICTIONARY
  5
2A
102
{ACAD_REACTORS
330
C
102
}
330
C
100
AcDbDictionary
281
     1
  3
2dWireframe
350
2F
  3
3D Hidden
350
31
  3
3dWireframe
350
30
  3
Basic
350
32
  3
Brighten
350
36
  3
ColorChange
350
3A
  3
Conceptual
350
34
  3
Dim
350
35
  3
Facepattern
350
39
  3
Flat
350
2B
  3
FlatWithEdges
350
2C
  3
Gouraud
350
2D
  3
GouraudWithEdges
350
2E
  3
Linepattern
350
38
  3
Realistic
350
33
  3
Thicken
350
37
  0
LAYOUT
  5
1E
102
{ACAD_REACTORS
330
1A
102
}
330
1A
100
AcDbPlotSettings
  1

  2
none_device
  4

  6

 40
0.0
 41
0.0
 42
0.0
 43
0.0
 44
0.0
 45
0.0
 46
0.0
 47
0.0
 48
0.0
 49
0.0
140
0.0
141
0.0
142
1.0
143
1.0
 70
   688
 72
     0
 73
     0
 74
     5
  7

 75
    16
 76
     0
 77
     2
 78
   300
147
1.0
148
0.0
149
0.0
100
AcDbLayout
  1
Layout1
 70
     1
 71
     1
 10
0.0
 20
0.0
 11
12.0
 21
9.0
 12
0.0
 22
0.0
 32
0.0
 14
1.000000000000000E+20
 24
1.000000000000000E+20
 34
1.000000000000000E+20
 15
-1.000000000000000E+20
 25
-1.000000000000000E+20
 35
-1.000000000000000E+20
146
0.0
 13
0.0
 23
0.0
 33
0.0
 16
1.0
 26
0.0
 36
0.0
 17
0.0
 27
1.0
 37
0.0
 76
     0
330
1B
  0
LAYOUT
  5
26
102
{ACAD_REACTORS
330
1A
102
}
330
1A
100
AcDbPlotSettings
  1

  2
none_device
  4

  6

 40
0.0
 41
0.0
 42
0.0
 43
0.0
 44
0.0
 45
0.0
 46
0.0
 47
0.0
 48
0.0
 49
0.0
140
0.0
141
0.0
142
1.0
143
1.0
 70
   688
 72
     0
 73
     0
 74
     5
  7

 75
    16
 76
     0
 77
     2
 78
   300
147
1.0
148
0.0
149
0.0
100
AcDbLayout
  1
Layout2
 70
     1
 71
     2
 10
0.0
 20
0.0
 11
0.0
 21
0.0
 12
0.0
 22
0.0
 32
0.0
 14
0.0
 24
0.0
 34
0.0
 15
0.0
 25
0.0
 35
0.0
146
0.0
 13
0.0
 23
0.0
 33
0.0
 16
1.0
 26
0.0
 36
0.0
 17
0.0
 27
1.0
 37
0.0
 76
     0
330
23
  0
LAYOUT
  5
22
102
{ACAD_REACTORS
330
1A
102
}
330
1A
100
AcDbPlotSettings
  1

  2
none_device
  4

  6

 40
0.0
 41
0.0
 42
0.0
 43
0.0
 44
0.0
 45
0.0
 46
0.0
 47
0.0
 48
0.0
 49
0.0
140
0.0
141
0.0
142
1.0
143
1.0
 70
  1712
 72
     0
 73
     0
 74
     0
  7

 75
     0
 76
     0
 77
     2
 78
   300
147
1.0
148
0.0
149
0.0
100
AcDbLayout
  1
Model
 70
     1
 71
     0
 10
0.0
 20
0.0
 11
12.0
 21
9.0
 12
0.0
 22
0.0
 32
0.0
 14
1.000000000000000E+20
 24
1.000000000000000E+20
 34
1.000000000000000E+20
 15
-1.000000000000000E+20
 25
-1.000000000000000E+20
 35
-1.000000000000000E+20
146
0.0
 13
0.0
 23
0.0
 33
0.0
 16
1.0
 26
0.0
 36
0.0
 17
0.0
 27
1.0
 37
0.0
 76
     0
330
1F
331
29
  0
MATERIAL
  5
3D
102
{ACAD_REACTORS
330
3B
102
}
330
3B
100
AcDbMaterial
  1
ByBlock
 72
     1
 94
      127
  0
MATERIAL
  5
3C
102
{ACAD_REACTORS
330
3B
102
}
330
3B
100
AcDbMaterial
  1
ByLayer
 72
     1
 94
      127
  0
MATERIAL
  5
3E
102
{ACAD_REACTORS
330
3B
102
}
330
3B
100
AcDbMaterial
  1
Global
 72
     1
 94
      127
  0
MLINESTYLE
  5
18
102
{ACAD_REACTORS
330
17
102
}
330
17
100
AcDbMlineStyle
  2
Standard
 70
     0
  3

 62
   256
 51
90.0
 52
90.0
 71
     2
 49
0.5
 62
   256
  6
BYLAYER
 49
-0.5
 62
   256
  6
BYLAYER
  0
ACDBPLACEHOLDER
  5
F
102
{ACAD_REACTORS
330
E
102
}
330
E
  0
VISUALSTYLE
  5
2F
102
{ACAD_REACTORS
330
2A
102
}
330
2A
100
AcDbVisualStyle
  2
2dWireframe
 70
     4
177
     2
291
     0
 71
     0
176
     1
 72
     2
176
     1
 73
     0
176
     1
 90
        0
176
     1
 40
-0.6
176
     1
 41
-30.0
176
     1
 62
     5
 63
     7
421
 16777215
176
     1
 74
     1
176
     1
 91
        4
176
     1
 64
     7
176
     1
 65
   257
176
     1
 75
     1
176
     1
175
     1
176
     1
 42
1.0
176
     1
 92
        0
176
     1
 66
   257
176
     1
 43
1.0
176
     1
 76
     1
176
     1
 77
     6
176
     1
 78
     2
176
     1
 67
     7
176
     1
 79
     5
176
     1
170
     0
176
     1
171
     0
176
     1
290
     0
176
     1
 93
        1
176
     1
 44
0.0
176
     1
173
     0
176
     1
  0
VISUALSTYLE
  5
31
102
{ACAD_REACTORS
330
2A
102
}
330
2A
100
AcDbVisualStyle
  2
3D Hidden
 70
     6
177
     2
291
     0
 71
     1
176
     1
 72
     2
176
     1
 73
     2
176
     1
 90
        0
176
     1
 40
-0.6
176
     1
 41
-30.0
176
     1
 62
     5
 63
     7
421
 16777215
176
     1
 74
     2
176
     1
 91
        2
176
     1
 64
     7
176
     1
 65
   257
176
     1
 75
     2
176
     1
175
     1
176
     1
 42
40.0
176
     1
 92
        0
176
     1
 66
   257
176
     1
 43
1.0
176
     1
 76
     1
176
     1
 77
     6
176
     1
 78
     2
176
     1
 67
     7
176
     1
 79
     3
176
     1
170
     0
176
     1
171
     0
176
     1
290
     0
176
     1
 93
        1
176
     1
 44
0.0
176
     1
173
     0
176
     1
  0
VISUALSTYLE
  5
30
102
{ACAD_REACTORS
330
2A
102
}
330
2A
100
AcDbVisualStyle
  2
3dWireframe
 70
     5
177
     2
291
     0
 71
     0
176
     1
 72
     2
176
     1
 73
     0
176
     1
 90
        0
176
     1
 40
-0.6
176
     1
 41
-30.0
176
     1
 62
     5
 63
     7
421
 16777215
176
     1
 74
     1
176
     1
 91
        4
176
     1
 64
     7
176
     1
 65
   257
176
     1
 75
     1
176
     1
175
     1
176
     1
 42
1.0
176
     1
 92
        0
176
     1
 66
   257
176
     1
 43
1.0
176
     1
 76
     1
176
     1
 77
     6
176
     1
 78
     2
176
     1
 67
     7
176
     1
 79
     5
176
     1
170
     0
176
     1
171
     0
176
     1
290
     0
176
     1
 93
        1
176
     1
 44
0.0
176
     1
173
     0
176
     1
  0
VISUALSTYLE
  5
32
102
{ACAD_REACTORS
330
2A
102
}
330
2A
100
AcDbVisualStyle
  2
Basic
 70
     7
177
     2
291
     1
 71
     1
176
     1
 72
     0
176
     1
 73
     1
176
     1
 90
        0
176
     1
 40
-0.6
176
     1
 41
-30.0
176
     1
 62
     5
 63
     7
421
 16777215
176
     1
 74
     0
176
     1
 91
        4
176
     1
 64
     7
176
     1
 65
   257
176
     1
 75
     1
176
     1
175
     1
176
     1
 42
1.0
176
     1
 92
        8
176
     1
 66
     7
176
     1
 43
1.0
176
     1
 76
     1
176
     1
 77
     6
176
     1
 78
     2
176
     1
 67
     7
176
     1
 79
     5
176
     1
170
     0
176
     1
171
     0
176
     1
290
     0
176
     1
 93
        1
176
     1
 44
0.0
176
     1
173
     0
176
     1
  0
VISUALSTYLE
  5
36
102
{ACAD_REACTORS
330
2A
102
}
330
2A
100
AcDbVisualStyle
  2
Brighten
 70
    12
177
     2
291
     1
 71
     2
176
     1
 72
     2
176
     1
 73
     0
176
     1
 90
        0
176
     1
 40
-0.6
176
     1
 41
-30.0
176
     1
 62
     5
 63
     7
421
 16777215
176
     1
 74
     1
176
     1
 91
        4
176
     1
 64
     7
176
     1
 65
   257
176
     1
 75
     1
176
     1
175
     1
176
     1
 42
1.0
176
     1
 92
        8
176
     1
 66
     7
176
     1
 43
1.0
176
     1
 76
     1
176
     1
 77
     6
176
     1
 78
     2
176
     1
 67
     7
176
     1
 79
     5
176
     1
170
     0
176
     1
171
     0
176
     1
290
     0
176
     1
 93
        1
176
     1
 44
50.0
176
     1
173
     0
176
     1
  0
VISUALSTYLE
  5
3A
102
{ACAD_REACTORS
330
2A
102
}
330
2A
100
AcDbVisualStyle
  2
ColorChange
 70
    16
177
     2
291
     1
 71
     2
176
     1
 72
     2
176
     1
 73
     3
176
     1
 90
        0
176
     1
 40
-0.6
176
     1
 41
-30.0
176
     1
 62
     5
 63
     8
421
  8421504
176
     1
 74
     1
176
     1
 91
        4
176
     1
 64
     7
176
     1
 65
   257
176
     1
 75
     1
176
     1
175
     1
176
     1
 42
1.0
176
     1
 92
        8
176
     1
 66
     8
424
  8421504
176
     1
 43
1.0
176
     1
 76
     1
176
     1
 77
     6
176
     1
 78
     2
176
     1
 67
     7
176
     1
 79
     5
176
     1
170
     0
176
     1
171
     0
176
     1
290
     0
176
     1
 93
        1
176
     1
 44
0.0
176
     1
173
     0
176
     1
  0
VISUALSTYLE
  5
34
102
{ACAD_REACTORS
330
2A
102
}
330
2A
100
AcDbVisualStyle
  2
Conceptual
 70
     9
177
     2
291
     0
 71
     3
176
     1
 72
     2
176
     1
 73
     0
176
     1
 90
        0
176
     1
 40
-0.6
176
     1
 41
-30.0
176
     1
 62
     5
 63
     7
421
 16777215
176
     1
 74
     2
176
     1
 91
        2
176
     1
 64
     7
176
     1
 65
   257
176
     1
 75
     1
176
     1
175
     1
176
     1
 42
40.0
176
     1
 92
        8
176
     1
 66
     7
176
     1
 43
1.0
176
     1
 76
     1
176
     1
 77
     6
176
     1
 78
     2
176
     1
 67
     7
176
     1
 79
     3
176
     1
170
     0
176
     1
171
     0
176
     1
290
     0
176
     1
 93
        1
176
     1
 44
0.0
176
     1
173
     0
176
     1
  0
VISUALSTYLE
  5
35
102
{ACAD_REACTORS
330
2A
102
}
330
2A
100
AcDbVisualStyle
  2
Dim
 70
    11
177
     2
291
     1
 71
     2
176
     1
 72
     2
176
     1
 73
     0
176
     1
 90
        0
176
     1
 40
-0.6
176
     1
 41
-30.0
176
     1
 62
     5
 63
     7
421
 16777215
176
     1
 74
     1
176
     1
 91
        4
176
     1
 64
     7
176
     1
 65
   257
176
     1
 75
     1
176
     1
175
     1
176
     1
 42
1.0
176
     1
 92
        8
176
     1
 66
     7
176
     1
 43
1.0
176
     1
 76
     1
176
     1
 77
     6
176
     1
 78
     2
176
     1
 67
     7
176
     1
 79
     5
176
     1
170
     0
176
     1
171
     0
176
     1
290
     0
176
     1
 93
        1
176
     1
 44
-50.0
176
     1
173
     0
176
     1
  0
VISUALSTYLE
  5
39
102
{ACAD_REACTORS
330
2A
102
}
330
2A
100
AcDbVisualStyle
  2
Facepattern
 70
    15
177
     2
291
     1
 71
     2
176
     1
 72
     2
176
     1
 73
     0
176
     1
 90
        0
176
     1
 40
-0.6
176
     1
 41
-30.0
176
     1
 62
     5
 63
     7
421
 16777215
176
     1
 74
     1
176
     1
 91
        4
176
     1
 64
     7
176
     1
 65
   257
176
     1
 75
     1
176
     1
175
     1
176
     1
 42
1.0
176
     1
 92
        8
176
     1
 66
     7
176
     1
 43
1.0
176
     1
 76
     1
176
     1
 77
     6
176
     1
 78
     2
176
     1
 67
     7
176
     1
 79
     5
176
     1
170
     0
176
     1
171
     0
176
     1
290
     0
176
     1
 93
        1
176
     1
 44
0.0
176
     1
173
     0
176
     1
  0
VISUALSTYLE
  5
2B
102
{ACAD_REACTORS
330
2A
102
}
330
2A
100
AcDbVisualStyle
  2
Flat
 70
     0
177
     2
291
     1
 71
     2
176
     1
 72
     1
176
     1
 73
     1
176
     1
 90
        2
176
     1
 40
-0.6
176
     1
 41
30.0
176
     1
 62
     5
 63
     7
421
 16777215
176
     1
 74
     0
176
     1
 91
        4
176
     1
 64
     7
176
     1
 65
   257
176
     1
 75
     1
176
     1
175
     1
176
     1
 42
1.0
176
     1
 92
        8
176
     1
 66
     7
176
     1
 43
1.0
176
     1
 76
     1
176
     1
 77
     6
176
     1
 78
     2
176
     1
 67
     7
176
     1
 79
     5
176
     1
170
     0
176
     1
171
     0
176
     1
290
     0
176
     1
 93
       13
176
     1
 44
0.0
176
     1
173
     0
176
     1
  0
VISUALSTYLE
  5
2C
102
{ACAD_REACTORS
330
2A
102
}
330
2A
100
AcDbVisualStyle
  2
FlatWithEdges
 70
     1
177
     2
291
     1
 71
     2
176
     1
 72
     1
176
     1
 73
     1
176
     1
 90
        2
176
     1
 40
-0.6
176
     1
 41
30.0
176
     1
 62
     5
 63
     7
421
 16777215
176
     1
 74
     1
176
     1
 91
        4
176
     1
 64
     7
176
     1
 65
   257
176
     1
 75
     1
176
     1
175
     1
176
     1
 42
1.0
176
     1
 92
        0
176
     1
 66
   257
176
     1
 43
1.0
176
     1
 76
     1
176
     1
 77
     6
176
     1
 78
     2
176
     1
 67
     7
176
     1
 79
     5
176
     1
170
     0
176
     1
171
     0
176
     1
290
     0
176
     1
 93
       13
176
     1
 44
0.0
176
     1
173
     0
176
     1
  0
VISUALSTYLE
  5
2D
102
{ACAD_REACTORS
330
2A
102
}
330
2A
100
AcDbVisualStyle
  2
Gouraud
 70
     2
177
     2
291
     1
 71
     2
176
     1
 72
     2
176
     1
 73
     1
176
     1
 90
        2
176
     1
 40
-0.6
176
     1
 41
30.0
176
     1
 62
     5
 63
     7
421
 16777215
176
     1
 74
     0
176
     1
 91
        4
176
     1
 64
     7
176
     1
 65
   257
176
     1
 75
     1
176
     1
175
     1
176
     1
 42
1.0
176
     1
 92
        0
176
     1
 66
     7
176
     1
 43
1.0
176
     1
 76
     1
176
     1
 77
     6
176
     1
 78
     2
176
     1
 67
     7
176
     1
 79
     5
176
     1
170
     0
176
     1
171
     0
176
     1
290
     0
176
     1
 93
       13
176
     1
 44
0.0
176
     1
173
     0
176
     1
  0
VISUALSTYLE
  5
2E
102
{ACAD_REACTORS
330
2A
102
}
330
2A
100
AcDbVisualStyle
  2
GouraudWithEdges
 70
     3
177
     2
291
     1
 71
     2
176
     1
 72
     2
176
     1
 73
     1
176
     1
 90
        2
176
     1
 40
-0.6
176
     1
 41
30.0
176
     1
 62
     5
 63
     7
421
 16777215
176
     1
 74
     1
176
     1
 91
        4
176
     1
 64
     7
176
     1
 65
   257
176
     1
 75
     1
176
     1
175
     1
176
     1
 42
1.0
176
     1
 92
        0
176
     1
 66
   257
176
     1
 43
1.0
176
     1
 76
     1
176
     1
 77
     6
176
     1
 78
     2
176
     1
 67
     7
176
     1
 79
     5
176
     1
170
     0
176
     1
171
     0
176
     1
290
     0
176
     1
 93
       13
176
     1
 44
0.0
176
     1
173
     0
176
     1
  0
VISUALSTYLE
  5
38
102
{ACAD_REACTORS
330
2A
102
}
330
2A
100
AcDbVisualStyle
  2
Linepattern
 70
    14
177
     2
291
     1
 71
     2
176
     1
 72
     2
176
     1
 73
     0
176
     1
 90
        0
176
     1
 40
-0.6
176
     1
 41
-30.0
176
     1
 62
     5
 63
     7
421
 16777215
176
     1
 74
     1
176
     1
 91
        4
176
     1
 64
     7
176
     1
 65
   257
176
     1
 75
     7
176
     1
175
     7
176
     1
 42
1.0
176
     1
 92
        8
176
     1
 66
     7
176
     1
 43
1.0
176
     1
 76
     1
176
     1
 77
     6
176
     1
 78
     2
176
     1
 67
     7
176
     1
 79
     5
176
     1
170
     0
176
     1
171
     0
176
     1
290
     0
176
     1
 93
        1
176
     1
 44
0.0
176
     1
173
     0
176
     1
  0
VISUALSTYLE
  5
33
102
{ACAD_REACTORS
330
2A
102
}
330
2A
100
AcDbVisualStyle
  2
Realistic
 70
     8
177
     2
291
     0
 71
     2
176
     1
 72
     2
176
     1
 73
     0
176
     1
 90
        0
176
     1
 40
-0.6
176
     1
 41
-30.0
176
     1
 62
     5
 63
     7
421
 16777215
176
     1
 74
     1
176
     1
 91
        0
176
     1
 64
     7
176
     1
 65
   257
176
     1
 75
     1
176
     1
175
     1
176
     1
 42
1.0
176
     1
 92
        8
176
     1
 66
     8
424
  7895160
176
     1
 43
1.0
176
     1
 76
     1
176
     1
 77
     6
176
     1
 78
     2
176
     1
 67
     7
176
     1
 79
     5
176
     1
170
     0
176
     1
171
     0
176
     1
290
     0
176
     1
 93
       13
176
     1
 44
0.0
176
     1
173
     0
176
     1
  0
VISUALSTYLE
  5
37
102
{ACAD_REACTORS
330
2A
102
}
330
2A
100
AcDbVisualStyle
  2
Thicken
 70
    13
177
     2
291
     1
 71
     2
176
     1
 72
     2
176
     1
 73
     0
176
     1
 90
        0
176
     1
 40
-0.6
176
     1
 41
-30.0
176
     1
 62
     5
 63
     7
421
 16777215
176
     1
 74
     1
176
     1
 91
        4
176
     1
 64
     7
176
     1
 65
   257
176
     1
 75
     1
176
     1
175
     1
176
     1
 42
1.0
176
     1
 92
       12
176
     1
 66
     7
176
     1
 43
1.0
176
     1
 76
     1
176
     1
 77
     6
176
     1
 78
     2
176
     1
 67
     7
176
     1
 79
     5
176
     1
170
     0
176
     1
171
     0
176
     1
290
     0
176
     1
 93
        1
176
     1
 44
0.0
176
     1
173
     0
176
     1
  0
ENDSEC
  0
EOF
