  0
SECTION
  2
HEADER
  9
$ACADVER
  1
AC1024
  9
$ACADMAINTVER
 70
     6
  9
$DWGCODEPAGE
  3
UNDEFINED
  9
$INSBASE
 10
0.0
 20
0.0
 30
0.0
  9
$EXTMIN
 10
1.000000000000000E+20
 20
1.000000000000000E+20
 30
1.000000000000000E+20
  9
$EXTMAX
 10
-1.000000000000000E+20
 20
-1.000000000000000E+20
 30
-1.000000000000000E+20
  9
$LIMMIN
 10
0.0
 20
0.0
  9
$LIMMAX
 10
12.0
 20
9.0
  9
$ORTHOMODE
 70
     0
  9
$REGENMODE
 70
     1
  9
$FILLMODE
 70
     1
  9
$QTEXTMODE
 70
     0
  9
$MIRRTEXT
 70
     1
  9
$LTSCALE
 40
1.0
  9
$ATTMODE
 70
     1
  9
$TEXTSIZE
 40
0.2
  9
$TRACEWID
 40
0.05
  9
$TEXTSTYLE
  7
Standard
  9
$CLAYER
  8
0
  9
$CELTYPE
  6
ByLayer
  9
$CECOLOR
 62
   256
  9
$CELTSCALE
 40
1.0
  9
$DISPSILH
 70
     0
  9
$DIMSCALE
 40
1.0
  9
$DIMASZ
 40
0.18
  9
$DIMEXO
 40
0.0625
  9
$DIMDLI
 40
0.38
  9
$DIMRND
 40
0.0
  9
$DIMDLE
 40
0.0
  9
$DIMEXE
 40
0.18
  9
$DIMTP
 40
0.0
  9
$DIMTM
 40
0.0
  9
$DIMTXT
 40
0.18
  9
$DIMCEN
 40
0.09
  9
$DIMTSZ
 40
0.0
  9
$DIMTOL
 70
     0
  9
$DIMLIM
 70
     0
  9
$DIMTIH
 70
     1
  9
$DIMTOH
 70
     1
  9
$DIMSE1
 70
     0
  9
$DIMSE2
 70
     0
  9
$DIMTAD
 70
     0
  9
$DIMZIN
 70
     0
  9
$DIMBLK
  1

  9
$DIMASO
 70
     1
  9
$DIMSHO
 70
     1
  9
$DIMPOST
  1

  9
$DIMAPOST
  1

  9
$DIMALT
 70
     0
  9
$DIMALTD
 70
     2
  9
$DIMALTF
 40
25.4
  9
$DIMLFAC
 40
1.0
  9
$DIMTOFL
 70
     0
  9
$DIMTVP
 40
0.0
  9
$DIMTIX
 70
     0
  9
$DIMSOXD
 70
     0
  9
$DIMSAH
 70
     0
  9
$DIMBLK1
  1

  9
$DIMBLK2
  1

  9
$DIMSTYLE
  2
Standard
  9
$DIMCLRD
 70
     0
  9
$DIMCLRE
 70
     0
  9
$DIMCLRT
 70
     0
  9
$DIMTFAC
 40
1.0
  9
$DIMGAP
 40
0.09
  9
$DIMJUST
 70
     0
  9
$DIMSD1
 70
     0
  9
$DIMSD2
 70
     0
  9
$DIMTOLJ
 70
     1
  9
$DIMTZIN
 70
     0
  9
$DIMALTZ
 70
     0
  9
$DIMALTTZ
 70
     0
  9
$DIMUPT
 70
     0
  9
$DIMDEC
 70
     4
  9
$DIMTDEC
 70
     4
  9
$DIMALTU
 70
     2
  9
$DIMALTTD
 70
     2
  9
$DIMTXSTY
  7
Standard
  9
$DIMAUNIT
 70
     0
  9
$DIMADEC
 70
     0
  9
$DIMALTRND
 40
0.0
  9
$DIMAZIN
 70
     0
  9
$DIMDSEP
 70
    46
  9
$DIMATFIT
 70
     3
  9
$DIMFRAC
 70
     0
  9
$DIMLDRBLK
  1

  9
$DIMLUNIT
 70
     2
  9
$DIMLWD
 70
    -2
  9
$DIMLWE
 70
    -2
  9
$DIMTMOVE
 70
     0
  9
$DIMFXL
 40
1.0
  9
$DIMFXLON
 70
     0
  9
$DIMJOGANG
 40
0.7853981633974483
  9
$DIMTFILL
 70
     0
  9
$DIMTFILLCLR
 70
     0
  9
$DIMARCSYM
 70
     0
  9
$DIMLTYPE
  6

  9
$DIMLTEX1
  6

  9
$DIMLTEX2
  6

  9
$DIMTXTDIRECTION
 70
     0
  9
$LUNITS
 70
     2
  9
$LUPREC
 70
     4
  9
$SKETCHINC
 40
0.1
  9
$FILLETRAD
 40
0.5
  9
$AUNITS
 70
     0
  9
$AUPREC
 70
     0
  9
$MENU
  1
.
  9
$ELEVATION
 40
0.0
  9
$PELEVATION
 40
0.0
  9
$THICKNESS
 40
0.0
  9
$LIMCHECK
 70
     0
  9
$CHAMFERA
 40
0.5
  9
$CHAMFERB
 40
0.5
  9
$CHAMFERC
 40
1.0
  9
$CHAMFERD
 40
0.0
  9
$SKPOLY
 70
     0
  9
$TDCREATE
 40
2457917.615833322
  9
$TDUCREATE
 40
2457917.240833333
  9
$TDUPDATE
 40
2457917.615833322
  9
$TDUUPDATE
 40
2457917.240833333
  9
$TDINDWG
 40
0.0000000116
  9
$TDUSRTIMER
 40
0.0000000116
  9
$USRTIMER
 70
     1
  9
$ANGBASE
 50
0.0
  9
$ANGDIR
 70
     0
  9
$PDMODE
 70
     0
  9
$PDSIZE
 40
0.0
  9
$PLINEWID
 40
0.0
  9
$SPLFRAME
 70
     0
  9
$SPLINETYPE
 70
     6
  9
$SPLINESEGS
 70
     8
  9
$HANDSEED
  5
E5
  9
$SURFTAB1
 70
     6
  9
$SURFTAB2
 70
     6
  9
$SURFTYPE
 70
     6
  9
$SURFU
 70
     6
  9
$SURFV
 70
     6
  9
$UCSBASE
  2

  9
$UCSNAME
  2

  9
$UCSORG
 10
0.0
 20
0.0
 30
0.0
  9
$UCSXDIR
 10
1.0
 20
0.0
 30
0.0
  9
$UCSYDIR
 10
0.0
 20
1.0
 30
0.0
  9
$UCSORTHOREF
  2

  9
$UCSORTHOVIEW
 70
     0
  9
$UCSORGTOP
 10
0.0
 20
0.0
 30
0.0
  9
$UCSORGBOTTOM
 10
0.0
 20
0.0
 30
0.0
  9
$UCSORGLEFT
 10
0.0
 20
0.0
 30
0.0
  9
$UCSORGRIGHT
 10
0.0
 20
0.0
 30
0.0
  9
$UCSORGFRONT
 10
0.0
 20
0.0
 30
0.0
  9
$UCSORGBACK
 10
0.0
 20
0.0
 30
0.0
  9
$PUCSBASE
  2

  9
$PUCSNAME
  2

  9
$PUCSORG
 10
0.0
 20
0.0
 30
0.0
  9
$PUCSXDIR
 10
1.0
 20
0.0
 30
0.0
  9
$PUCSYDIR
 10
0.0
 20
1.0
 30
0.0
  9
$PUCSORTHOREF
  2

  9
$PUCSORTHOVIEW
 70
     0
  9
$PUCSORGTOP
 10
0.0
 20
0.0
 30
0.0
  9
$PUCSORGBOTTOM
 10
0.0
 20
0.0
 30
0.0
  9
$PUCSORGLEFT
 10
0.0
 20
0.0
 30
0.0
  9
$PUCSORGRIGHT
 10
0.0
 20
0.0
 30
0.0
  9
$PUCSORGFRONT
 10
0.0
 20
0.0
 30
0.0
  9
$PUCSORGBACK
 10
0.0
 20
0.0
 30
0.0
  9
$USERI1
 70
     0
  9
$USERI2
 70
     0
  9
$USERI3
 70
     0
  9
$USERI4
 70
     0
  9
$USERI5
 70
     0
  9
$USERR1
 40
0.0
  9
$USERR2
 40
0.0
  9
$USERR3
 40
0.0
  9
$USERR4
 40
0.0
  9
$USERR5
 40
0.0
  9
$WORLDVIEW
 70
     1
  9
$SHADEDGE
 70
     3
  9
$SHADEDIF
 70
    70
  9
$TILEMODE
 70
     1
  9
$MAXACTVP
 70
    64
  9
$PINSBASE
 10
0.0
 20
0.0
 30
0.0
  9
$PLIMCHECK
 70
     0
  9
$PEXTMIN
 10
1.000000000000000E+20
 20
1.000000000000000E+20
 30
1.000000000000000E+20
  9
$PEXTMAX
 10
-1.000000000000000E+20
 20
-1.000000000000000E+20
 30
-1.000000000000000E+20
  9
$PLIMMIN
 10
0.0
 20
0.0
  9
$PLIMMAX
 10
12.0
 20
9.0
  9
$UNITMODE
 70
     0
  9
$VISRETAIN
 70
     1
  9
$PLINEGEN
 70
     0
  9
$PSLTSCALE
 70
     1
  9
$TREEDEPTH
 70
  3020
  9
$CMLSTYLE
  2
Standard
  9
$CMLJUST
 70
     0
  9
$CMLSCALE
 40
1.0
  9
$PROXYGRAPHICS
 70
     1
  9
$MEASUREMENT
 70
     0
  9
$CELWEIGHT
370
    -1
  9
$ENDCAPS
280
     0
  9
$JOINSTYLE
280
     0
  9
$LWDISPLAY
290
     1
  9
$INSUNITS
 70
     1
  9
$HYPERLINKBASE
  1

  9
$STYLESHEET
  1

  9
$XEDIT
290
     1
  9
$CEPSNTYPE
380
     0
  9
$PSTYLEMODE
290
     1
  9
$FINGERPRINTGUID
  2
{D8F7290B-C224-E41A-CEB0-F568A1501643}
  9
$VERSIONGUID
  2
{FAEB1C32-E019-11D5-929B-00C0DF256EC4}
  9
$EXTNAMES
290
     1
  9
$PSVPSCALE
 40
0.0
  9
$OLESTARTUP
290
     0
  9
$SORTENTS
280
   127
  9
$INDEXCTL
280
     0
  9
$HIDETEXT
280
     1
  9
$XCLIPFRAME
280
     2
  9
$HALOGAP
280
     0
  9
$OBSCOLOR
 70
   257
  9
$OBSLTYPE
280
     0
  9
$INTERSECTIONDISPLAY
280
     0
  9
$INTERSECTIONCOLOR
 70
   257
  9
$DIMASSOC
280
     2
  9
$PROJECTNAME
  1

  9
$CAMERADISPLAY
290
     0
  9
$LENSLENGTH
 40
50.0
  9
$CAMERAHEIGHT
 40
0.0
  9
$STEPSPERSEC
 40
2.0
  9
$STEPSIZE
 40
6.0
  9
$3DDWFPREC
 40
2.0
  9
$PSOLWIDTH
 40
0.25
  9
$PSOLHEIGHT
 40
4.0
  9
$LOFTANG1
 40
1.570796326794897
  9
$LOFTANG2
 40
1.570796326794897
  9
$LOFTMAG1
 40
0.0
  9
$LOFTMAG2
 40
0.0
  9
$LOFTPARAM
 70
     7
  9
$LOFTNORMALS
280
     1
  9
$LATITUDE
 40
37.795
  9
$LONGITUDE
 40
-122.394
  9
$NORTHDIRECTION
 40
0.0
  9
$TIMEZONE
 70
 -8000
  9
$LIGHTGLYPHDISPLAY
280
     1
  9
$TILEMODELIGHTSYNCH
280
     1
  9
$CMATERIAL
347
3C
  9
$SOLIDHIST
280
     1
  9
$SHOWHIST
280
     1
  9
$DWFFRAME
280
     2
  9
$DGNFRAME
280
     2
  9
$REALWORLDSCALE
290
     1
  9
$INTERFERECOLOR
 62
   256
  9
$CSHADOW
280
     0
  9
$SHADOWPLANELOCATION
 40
0.0
  0
ENDSEC
  0
SECTION
  2
CLASSES
  0
CLASS
  1
ACDBDICTIONARYWDFLT
  2
AcDbDictionaryWithDefault
  3
ObjectDBX Classes
 90
        0
 91
        4
280
     0
281
     0
  0
CLASS
  1
VISUALSTYLE
  2
AcDbVisualStyle
  3
ObjectDBX Classes
 90
     4095
 91
        4
280
     0
281
     0
  0
CLASS
  1
MATERIAL
  2
AcDbMaterial
  3
ObjectDBX Classes
 90
     1153
 91
        4
280
     0
281
     0
  0
CLASS
  1
SUN
  2
AcDbSun
  3
SCENEOE
 90
     1024
 91
        4
280
     0
281
     0
  0
ENDSEC
  0
SECTION
  2
TABLES
  0
TABLE
  2
VPORT
  5
8
330
0
100
AcDbSymbolTable
 70
     1
  0
VPORT
  5
29
330
8
100
AcDbSymbolTableRecord
100
AcDbViewportTableRecord
  2
*Active
 70
     0
 10
0.0
 20
0.0
 11
1.0
 21
1.0
 12
0.0
 22
0.0
 13
0.0
 23
0.0
 14
0.5
 24
0.5
 15
0.5
 25
0.5
 16
0.0
 26
0.0
 36
1.0
 17
91.00082462281999
 27
-128.4993055234307
 37
0.0
 40
256.9986110468615
 41
0.7081814508812795
 42
50.0
 43
0.0
 44
0.0
 50
0.0
 51
0.0
 71
     0
 72
   100
 73
     1
 74
     3
 75
     0
 76
     0
 77
     0
 78
     0
281
     0
 65
     1
110
0.0
120
0.0
130
0.0
111
1.0
121
0.0
131
0.0
112
0.0
122
1.0
132
0.0
 79
     0
146
0.0
 60
     3
 61
     5
292
     1
282
     1
141
0.0
142
0.0
 63
   250
361
3F
  0
ENDTAB
  0
TABLE
  2
LTYPE
  5
5
330
0
100
AcDbSymbolTable
 70
     1
  0
LTYPE
  5
14
330
5
100
AcDbSymbolTableRecord
100
AcDbLinetypeTableRecord
  2
ByBlock
 70
     0
  3

 72
    65
 73
     0
 40
0.0
  0
LTYPE
  5
15
330
5
100
AcDbSymbolTableRecord
100
AcDbLinetypeTableRecord
  2
ByLayer
 70
     0
  3

 72
    65
 73
     0
 40
0.0
  0
LTYPE
  5
16
330
5
100
AcDbSymbolTableRecord
100
AcDbLinetypeTableRecord
  2
Continuous
 70
     0
  3
Solid line
 72
    65
 73
     0
 40
0.0
  0
ENDTAB
  0
TABLE
  2
LAYER
  5
2
330
0
100
AcDbSymbolTable
 70
     2
  0
LAYER
  5
10
330
2
100
AcDbSymbolTableRecord
100
AcDbLayerTableRecord
  2
0
 70
     0
 62
     7
  6
Continuous
370
    -3
390
F
347
3E
  0
LAYER
  5
40
330
2
100
AcDbSymbolTableRecord
100
AcDbLayerTableRecord
  2
_U+30EC_U+30A4_U+30E4_U+30FC 1
 70
     0
 62
     7
  6
Continuous
370
    -3
390
F
347
3E
  0
ENDTAB
  0
TABLE
  2
STYLE
  5
3
330
0
100
AcDbSymbolTable
 70
     1
  0
STYLE
  5
11
330
3
100
AcDbSymbolTableRecord
100
AcDbTextStyleTableRecord
  2
Standard
 70
     0
 40
0.0
 41
1.0
 50
0.0
 71
     0
 42
0.2
  3
txt
  4

  0
ENDTAB
  0
TABLE
  2
VIEW
  5
6
330
0
100
AcDbSymbolTable
 70
     0
  0
ENDTAB
  0
TABLE
  2
UCS
  5
7
330
0
100
AcDbSymbolTable
 70
     0
  0
ENDTAB
  0
TABLE
  2
APPID
  5
9
330
0
100
AcDbSymbolTable
 70
     1
  0
APPID
  5
12
330
9
100
AcDbSymbolTableRecord
100
AcDbRegAppTableRecord
  2
ACAD
 70
     0
  0
ENDTAB
  0
TABLE
  2
DIMSTYLE
  5
A
330
0
100
AcDbSymbolTable
 70
     1
100
AcDbDimStyleTable
  0
DIMSTYLE
105
27
330
A
100
AcDbSymbolTableRecord
100
AcDbDimStyleTableRecord
  2
Standard
 70
     0
178
     0
340
11
  0
ENDTAB
  0
TABLE
  2
BLOCK_RECORD
  5
1
330
0
100
AcDbSymbolTable
 70
     6
  0
BLOCK_RECORD
  5
1F
330
1
100
AcDbSymbolTableRecord
100
AcDbBlockTableRecord
  2
*Model_Space
340
22
 70
     0
280
     1
281
     0
  0
BLOCK_RECORD
  5
1B
330
1
100
AcDbSymbolTableRecord
100
AcDbBlockTableRecord
  2
*Paper_Space
340
1E
 70
     0
280
     1
281
     0
  0
BLOCK_RECORD
  5
23
330
1
100
AcDbSymbolTableRecord
100
AcDbBlockTableRecord
  2
*Paper_Space0
340
26
 70
     0
280
     1
281
     0
  0
BLOCK_RECORD
  5
76
330
1
100
AcDbSymbolTableRecord
100
AcDbBlockTableRecord
  2
block 2
340
0
102
{BLKREFS
331
77
102
}
 70
     0
280
     1
281
     0
  0
BLOCK_RECORD
  5
88
330
1
100
AcDbSymbolTableRecord
100
AcDbBlockTableRecord
  2
block 3
340
0
102
{BLKREFS
331
89
102
}
 70
     0
280
     1
281
     0
  0
BLOCK_RECORD
  5
9C
330
1
100
AcDbSymbolTableRecord
100
AcDbBlockTableRecord
  2
block 4
340
0
102
{BLKREFS
331
9D
102
}
 70
     0
280
     1
281
     0
  0
BLOCK_RECORD
  5
B0
330
1
100
AcDbSymbolTableRecord
100
AcDbBlockTableRecord
  2
block 5
340
0
102
{BLKREFS
331
B1
102
}
 70
     0
280
     1
281
     0
  0
BLOCK_RECORD
  5
D1
330
1
100
AcDbSymbolTableRecord
100
AcDbBlockTableRecord
  2
block 6
340
0
102
{BLKREFS
331
D2
102
}
 70
     0
280
     1
281
     0
  0
ENDTAB
  0
ENDSEC
  0
SECTION
  2
BLOCKS
  0
BLOCK
  5
20
330
1F
100
AcDbEntity
  8
0
100
AcDbBlockBegin
  2
*Model_Space
 70
     0
 10
0.0
 20
0.0
 30
0.0
  3
*Model_Space
  1

  0
ENDBLK
  5
21
330
1F
100
AcDbEntity
  8
0
100
AcDbBlockEnd
  0
BLOCK
  5
1C
330
1B
100
AcDbEntity
 67
     1
  8
0
100
AcDbBlockBegin
  2
*Paper_Space
 70
     0
 10
0.0
 20
0.0
 30
0.0
  3
*Paper_Space
  1

  0
ENDBLK
  5
1D
330
1B
100
AcDbEntity
 67
     1
  8
0
100
AcDbBlockEnd
  0
BLOCK
  5
24
330
23
100
AcDbEntity
  8
0
100
AcDbBlockBegin
  2
*Paper_Space0
 70
     0
 10
0.0
 20
0.0
 30
0.0
  3
*Paper_Space0
  1

  0
ENDBLK
  5
25
330
23
100
AcDbEntity
  8
0
100
AcDbBlockEnd
  0
BLOCK
  5
78
330
76
100
AcDbEntity
  8
0
100
AcDbBlockBegin
  2
block 2
 70
     0
 10
0.0
 20
0.0
 30
0.0
  3
block 2
  1

  0
SPLINE
  5
7A
330
76
100
AcDbEntity
  8
_U+30EC_U+30A4_U+30E4_U+30FC 1
370
     0
100
AcDbSpline
210
0.0
220
0.0
230
1.0
 70
    11
 71
     3
 72
    26
 73
    22
 74
     0
 42
0.0000000001
 43
0.0000000001
 12
1.0
 22
0.0
 32
0.0
 13
1.0
 23
0.0
 33
0.0
 40
0.0
 40
0.0
 40
0.0
 40
0.0
 40
1.0
 40
1.0
 40
1.0
 40
2.0
 40
2.0
 40
2.0
 40
3.0
 40
3.0
 40
3.0
 40
4.0
 40
4.0
 40
4.0
 40
5.0
 40
5.0
 40
5.0
 40
6.0
 40
6.0
 40
6.0
 40
7.0
 40
7.0
 40
7.0
 40
7.0
 10
103.6832492145306
 20
-125.4831244260945
 30
0.0
 10
103.6832492145306
 20
-125.4831244260945
 30
0.0
 10
102.579096111508
 20
-125.4831244260945
 30
0.0
 10
102.579096111508
 20
-125.4831244260945
 30
0.0
 10
102.579096111508
 20
-125.4831244260945
 30
0.0
 10
102.579096111508
 20
-125.8131645735814
 30
0.0
 10
102.579096111508
 20
-125.8131645735814
 30
0.0
 10
102.579096111508
 20
-125.8131645735814
 30
0.0
 10
102.4309570056423
 20
-125.8131645735814
 30
0.0
 10
102.4309570056423
 20
-125.8131645735814
 30
0.0
 10
102.4161430950557
 20
-125.4810573688033
 30
0.0
 10
102.2531900786034
 20
-125.4345485797525
 30
0.0
 10
102.1388129084931
 20
-125.4049207585793
 30
0.0
 10
102.1388129084931
 20
-125.4049207585793
 30
0.0
 10
102.1388129084931
 20
-125.2588487100047
 30
0.0
 10
102.1388129084931
 20
-125.2588487100047
 30
0.0
 10
102.1388129084931
 20
-125.2588487100047
 30
0.0
 10
103.6832492145306
 20
-125.2588487100047
 30
0.0
 10
103.6832492145306
 20
-125.2588487100047
 30
0.0
 10
103.6832492145306
 20
-125.2588487100047
 30
0.0
 10
103.6832492145306
 20
-125.4831244260945
 30
0.0
 10
103.6832492145306
 20
-125.4831244260945
 30
0.0
  0
HATCH
  5
7B
330
76
100
AcDbEntity
  8
_U+30EC_U+30A4_U+30E4_U+30FC 1
 62
     7
420
 16777215
100
AcDbHatch
 10
0.0
 20
0.0
 30
0.0
210
0.0
220
0.0
230
1.0
  2
SOLID
 70
     1
 71
     0
 91
        1
 92
        1
 93
        1
 72
     4
 94
        3
 73
     0
 74
     1
 95
       26
 96
       22
 40
0.0
 40
0.0
 40
0.0
 40
0.0
 40
1.0
 40
1.0
 40
1.0
 40
2.0
 40
2.0
 40
2.0
 40
3.0
 40
3.0
 40
3.0
 40
4.0
 40
4.0
 40
4.0
 40
5.0
 40
5.0
 40
5.0
 40
6.0
 40
6.0
 40
6.0
 40
7.0
 40
7.0
 40
7.0
 40
7.0
 10
103.6832492145306
 20
-125.4831244260945
 10
103.6832492145306
 20
-125.4831244260945
 10
102.579096111508
 20
-125.4831244260945
 10
102.579096111508
 20
-125.4831244260945
 10
102.579096111508
 20
-125.4831244260945
 10
102.579096111508
 20
-125.8131645735814
 10
102.579096111508
 20
-125.8131645735814
 10
102.579096111508
 20
-125.8131645735814
 10
102.4309570056423
 20
-125.8131645735814
 10
102.4309570056423
 20
-125.8131645735814
 10
102.4161430950557
 20
-125.4810573688033
 10
102.2531900786034
 20
-125.4345485797525
 10
102.1388129084931
 20
-125.4049207585793
 10
102.1388129084931
 20
-125.4049207585793
 10
102.1388129084931
 20
-125.2588487100047
 10
102.1388129084931
 20
-125.2588487100047
 10
102.1388129084931
 20
-125.2588487100047
 10
103.6832492145306
 20
-125.2588487100047
 10
103.6832492145306
 20
-125.2588487100047
 10
103.6832492145306
 20
-125.2588487100047
 10
103.6832492145306
 20
-125.4831244260945
 10
103.6832492145306
 20
-125.4831244260945
 97
        0
 97
        0
 75
     2
 76
     1
 98
        0
  0
ENDBLK
  5
79
330
76
100
AcDbEntity
  8
0
100
AcDbBlockEnd
  0
BLOCK
  5
8A
330
88
100
AcDbEntity
  8
0
100
AcDbBlockBegin
  2
block 3
 70
     0
 10
0.0
 20
0.0
 30
0.0
  3
block 3
  1

  0
SPLINE
  5
8C
330
88
100
AcDbEntity
  8
_U+30EC_U+30A4_U+30E4_U+30FC 1
370
     0
100
AcDbSpline
210
0.0
220
0.0
230
1.0
 70
    11
 71
     3
 72
    44
 73
    40
 74
     0
 42
0.0000000001
 43
0.0000000001
 12
1.0
 22
0.0
 32
0.0
 13
1.0
 23
0.0
 33
0.0
 40
0.0
 40
0.0
 40
0.0
 40
0.0
 40
1.0
 40
1.0
 40
1.0
 40
2.0
 40
2.0
 40
2.0
 40
3.0
 40
3.0
 40
3.0
 40
4.0
 40
4.0
 40
4.0
 40
5.0
 40
5.0
 40
5.0
 40
6.0
 40
6.0
 40
6.0
 40
7.0
 40
7.0
 40
7.0
 40
8.0
 40
8.0
 40
8.0
 40
9.0
 40
9.0
 40
9.0
 40
10.0
 40
10.0
 40
10.0
 40
11.0
 40
11.0
 40
11.0
 40
12.0
 40
12.0
 40
12.0
 40
13.0
 40
13.0
 40
13.0
 40
13.0
 10
87.80756019940227
 20
-119.5616943060471
 30
0.0
 10
87.58965790996022
 20
-119.7203409531428
 30
0.0
 10
87.49646807708422
 20
-119.7944105060757
 30
0.0
 10
87.4478922307422
 20
-119.9382432425849
 30
0.0
 10
87.4478922307422
 20
-119.9382432425849
 30
0.0
 10
88.2263115556344
 20
-119.9382432425849
 30
0.0
 10
88.2263115556344
 20
-119.9382432425849
 30
0.0
 10
88.2263115556344
 20
-119.9382432425849
 30
0.0
 10
88.2263115556344
 20
-120.1433986787315
 30
0.0
 10
88.2263115556344
 20
-120.1433986787315
 30
0.0
 10
88.2263115556344
 20
-120.1433986787315
 30
0.0
 10
87.19829506283585
 20
-120.1433986787315
 30
0.0
 10
87.19829506283585
 20
-120.1433986787315
 30
0.0
 10
87.22998994130015
 20
-119.7857977673626
 30
0.0
 10
87.29561901029416
 20
-119.7075940998474
 30
0.0
 10
87.68060843077082
 20
-119.4092488308248
 30
0.0
 10
87.93657902532489
 20
-119.2104668213259
 30
0.0
 10
88.00203583954463
 20
-119.1427706950407
 30
0.0
 10
88.00203583954463
 20
-119.0053113851792
 30
0.0
 10
88.00203583954463
 20
-118.8868001004866
 30
0.0
 10
87.93020559867718
 20
-118.7557142172729
 30
0.0
 10
87.7334906464694
 20
-118.7557142172729
 30
0.0
 10
87.47321368255878
 20
-118.7557142172729
 30
0.0
 10
87.46477319861992
 20
-118.9861911052361
 30
0.0
 10
87.46046682926335
 20
-119.1026353326375
 30
0.0
 10
87.46046682926335
 20
-119.1026353326375
 30
0.0
 10
87.23636336794786
 20
-119.1026353326375
 30
0.0
 10
87.23636336794786
 20
-119.1026353326375
 30
0.0
 10
87.24480385188672
 20
-118.9756835640061
 30
0.0
 10
87.25531139311673
 20
-118.8635457059612
 30
0.0
 10
87.33575437269731
 20
-118.7450344212686
 30
0.0
 10
87.44565291867679
 20
-118.5843207168817
 30
0.0
 10
87.63186032965454
 20
-118.550386526352
 30
0.0
 10
87.74830455705599
 20
-118.550386526352
 30
0.0
 10
88.02546248884433
 20
-118.550386526352
 30
0.0
 10
88.23268498228211
 20
-118.7345268800386
 30
0.0
 10
88.23268498228211
 20
-119.0073784424704
 30
0.0
 10
88.23268498228211
 20
-119.2357882731424
 30
0.0
 10
88.11641300965493
 20
-119.3353515326662
 30
0.0
 10
87.80756019940227
 20
-119.5616943060471
 30
0.0
  0
HATCH
  5
8D
330
88
100
AcDbEntity
  8
_U+30EC_U+30A4_U+30E4_U+30FC 1
 62
     7
420
 16777215
100
AcDbHatch
 10
0.0
 20
0.0
 30
0.0
210
0.0
220
0.0
230
1.0
  2
SOLID
 70
     1
 71
     0
 91
        1
 92
        1
 93
        1
 72
     4
 94
        3
 73
     0
 74
     1
 95
       44
 96
       40
 40
0.0
 40
0.0
 40
0.0
 40
0.0
 40
1.0
 40
1.0
 40
1.0
 40
2.0
 40
2.0
 40
2.0
 40
3.0
 40
3.0
 40
3.0
 40
4.0
 40
4.0
 40
4.0
 40
5.0
 40
5.0
 40
5.0
 40
6.0
 40
6.0
 40
6.0
 40
7.0
 40
7.0
 40
7.0
 40
8.0
 40
8.0
 40
8.0
 40
9.0
 40
9.0
 40
9.0
 40
10.0
 40
10.0
 40
10.0
 40
11.0
 40
11.0
 40
11.0
 40
12.0
 40
12.0
 40
12.0
 40
13.0
 40
13.0
 40
13.0
 40
13.0
 10
87.80756019940227
 20
-119.5616943060471
 10
87.58965790996022
 20
-119.7203409531428
 10
87.49646807708422
 20
-119.7944105060757
 10
87.4478922307422
 20
-119.9382432425849
 10
87.4478922307422
 20
-119.9382432425849
 10
88.2263115556344
 20
-119.9382432425849
 10
88.2263115556344
 20
-119.9382432425849
 10
88.2263115556344
 20
-119.9382432425849
 10
88.2263115556344
 20
-120.1433986787315
 10
88.2263115556344
 20
-120.1433986787315
 10
88.2263115556344
 20
-120.1433986787315
 10
87.19829506283585
 20
-120.1433986787315
 10
87.19829506283585
 20
-120.1433986787315
 10
87.22998994130015
 20
-119.7857977673626
 10
87.29561901029416
 20
-119.7075940998474
 10
87.68060843077082
 20
-119.4092488308248
 10
87.93657902532489
 20
-119.2104668213259
 10
88.00203583954463
 20
-119.1427706950407
 10
88.00203583954463
 20
-119.0053113851792
 10
88.00203583954463
 20
-118.8868001004866
 10
87.93020559867718
 20
-118.7557142172729
 10
87.7334906464694
 20
-118.7557142172729
 10
87.47321368255878
 20
-118.7557142172729
 10
87.46477319861992
 20
-118.9861911052361
 10
87.46046682926335
 20
-119.1026353326375
 10
87.46046682926335
 20
-119.1026353326375
 10
87.23636336794786
 20
-119.1026353326375
 10
87.23636336794786
 20
-119.1026353326375
 10
87.24480385188672
 20
-118.9756835640061
 10
87.25531139311673
 20
-118.8635457059612
 10
87.33575437269731
 20
-118.7450344212686
 10
87.44565291867679
 20
-118.5843207168817
 10
87.63186032965454
 20
-118.550386526352
 10
87.74830455705599
 20
-118.550386526352
 10
88.02546248884433
 20
-118.550386526352
 10
88.23268498228211
 20
-118.7345268800386
 10
88.23268498228211
 20
-119.0073784424704
 10
88.23268498228211
 20
-119.2357882731424
 10
88.11641300965493
 20
-119.3353515326662
 10
87.80756019940227
 20
-119.5616943060471
 97
        0
 97
        0
 75
     2
 76
     1
 98
        0
  0
SPLINE
  5
8E
330
88
100
AcDbEntity
  8
_U+30EC_U+30A4_U+30E4_U+30FC 1
370
     0
100
AcDbSpline
210
0.0
220
0.0
230
1.0
 70
    11
 71
     3
 72
    53
 73
    49
 74
     0
 42
0.0000000001
 43
0.0000000001
 12
1.0
 22
0.0
 32
0.0
 13
1.0
 23
0.0
 33
0.0
 40
0.0
 40
0.0
 40
0.0
 40
0.0
 40
1.0
 40
1.0
 40
1.0
 40
2.0
 40
2.0
 40
2.0
 40
3.0
 40
3.0
 40
3.0
 40
4.0
 40
4.0
 40
4.0
 40
5.0
 40
5.0
 40
5.0
 40
6.0
 40
6.0
 40
6.0
 40
7.0
 40
7.0
 40
7.0
 40
8.0
 40
8.0
 40
8.0
 40
9.0
 40
9.0
 40
9.0
 40
10.0
 40
10.0
 40
10.0
 40
11.0
 40
11.0
 40
11.0
 40
12.0
 40
12.0
 40
12.0
 40
13.0
 40
13.0
 40
13.0
 40
14.0
 40
14.0
 40
14.0
 40
15.0
 40
15.0
 40
15.0
 40
16.0
 40
16.0
 40
16.0
 40
16.0
 10
88.87226695911875
 20
-120.1942138371389
 30
0.0
 10
88.79389103682931
 20
-120.1942138371389
 30
0.0
 10
88.6924329747887
 20
-120.177160614487
 30
0.0
 10
88.59080265797382
 20
-120.1137708575584
 30
0.0
 10
88.4173421002915
 20
-120.0037000568046
 30
0.0
 10
88.39615476305721
 20
-119.8726141735909
 30
0.0
 10
88.37720673788834
 20
-119.7647826849026
 30
0.0
 10
88.37720673788834
 20
-119.7647826849026
 30
0.0
 10
88.5992431419127
 20
-119.7647826849026
 30
0.0
 10
88.5992431419127
 20
-119.7647826849026
 30
0.0
 10
88.6543646696767
 20
-119.9635646944015
 30
0.0
 10
88.78131643830815
 20
-119.9931925155746
 30
0.0
 10
88.87433401640989
 20
-119.9931925155746
 30
0.0
 10
89.01403263833677
 20
-119.9931925155746
 30
0.0
 10
89.16630585878481
 20
-119.8938015108252
 30
0.0
 10
89.16630585878481
 20
-119.6610853107965
 30
0.0
 10
89.16630585878481
 20
-119.4051147162425
 30
0.0
 10
88.98647187445478
 20
-119.3353515326662
 30
0.0
 10
88.86589353247103
 20
-119.3353515326662
 30
0.0
 10
88.83419865400673
 20
-119.3353515326662
 30
0.0
 10
88.6924329747887
 20
-119.3353515326662
 30
0.0
 10
88.60354951126925
 20
-119.4643703585888
 30
0.0
 10
88.60354951126925
 20
-119.4643703585888
 30
0.0
 10
88.42802189629577
 20
-119.4452500786456
 30
0.0
 10
88.42802189629577
 20
-119.4452500786456
 30
0.0
 10
88.42802189629577
 20
-119.4452500786456
 30
0.0
 10
88.54860023827952
 20
-118.5991346274683
 30
0.0
 10
88.54860023827952
 20
-118.5991346274683
 30
0.0
 10
88.54860023827952
 20
-118.5991346274683
 30
0.0
 10
89.32701956317172
 20
-118.5991346274683
 30
0.0
 10
89.32701956317172
 20
-118.5991346274683
 30
0.0
 10
89.32701956317172
 20
-118.5991346274683
 30
0.0
 10
89.32701956317172
 20
-118.7937825223849
 30
0.0
 10
89.32701956317172
 20
-118.7937825223849
 30
0.0
 10
89.32701956317172
 20
-118.7937825223849
 30
0.0
 10
88.71138099995757
 20
-118.7937825223849
 30
0.0
 10
88.71138099995757
 20
-118.7937825223849
 30
0.0
 10
88.71138099995757
 20
-118.7937825223849
 30
0.0
 10
88.64592418573783
 20
-119.2168402479736
 30
0.0
 10
88.64592418573783
 20
-119.2168402479736
 30
0.0
 10
88.70724688537527
 20
-119.1829060574439
 30
0.0
 10
88.78975692224701
 20
-119.1427706950407
 30
0.0
 10
88.90809595216534
 20
-119.1427706950407
 30
0.0
 10
89.16199948942825
 20
-119.1427706950407
 30
0.0
 10
89.39902205881344
 20
-119.3289781060185
 30
0.0
 10
89.39902205881344
 20
-119.6419650308534
 30
0.0
 10
89.39902205881344
 20
-119.9594305798192
 30
0.0
 10
89.17474634272368
 20
-120.1942138371389
 30
0.0
 10
88.87226695911875
 20
-120.1942138371389
 30
0.0
  0
HATCH
  5
8F
330
88
100
AcDbEntity
  8
_U+30EC_U+30A4_U+30E4_U+30FC 1
 62
     7
420
 16777215
100
AcDbHatch
 10
0.0
 20
0.0
 30
0.0
210
0.0
220
0.0
230
1.0
  2
SOLID
 70
     1
 71
     0
 91
        1
 92
        1
 93
        1
 72
     4
 94
        3
 73
     0
 74
     1
 95
       53
 96
       49
 40
0.0
 40
0.0
 40
0.0
 40
0.0
 40
1.0
 40
1.0
 40
1.0
 40
2.0
 40
2.0
 40
2.0
 40
3.0
 40
3.0
 40
3.0
 40
4.0
 40
4.0
 40
4.0
 40
5.0
 40
5.0
 40
5.0
 40
6.0
 40
6.0
 40
6.0
 40
7.0
 40
7.0
 40
7.0
 40
8.0
 40
8.0
 40
8.0
 40
9.0
 40
9.0
 40
9.0
 40
10.0
 40
10.0
 40
10.0
 40
11.0
 40
11.0
 40
11.0
 40
12.0
 40
12.0
 40
12.0
 40
13.0
 40
13.0
 40
13.0
 40
14.0
 40
14.0
 40
14.0
 40
15.0
 40
15.0
 40
15.0
 40
16.0
 40
16.0
 40
16.0
 40
16.0
 10
88.87226695911875
 20
-120.1942138371389
 10
88.79389103682931
 20
-120.1942138371389
 10
88.6924329747887
 20
-120.177160614487
 10
88.59080265797382
 20
-120.1137708575584
 10
88.4173421002915
 20
-120.0037000568046
 10
88.39615476305721
 20
-119.8726141735909
 10
88.37720673788834
 20
-119.7647826849026
 10
88.37720673788834
 20
-119.7647826849026
 10
88.5992431419127
 20
-119.7647826849026
 10
88.5992431419127
 20
-119.7647826849026
 10
88.6543646696767
 20
-119.9635646944015
 10
88.78131643830815
 20
-119.9931925155746
 10
88.87433401640989
 20
-119.9931925155746
 10
89.01403263833677
 20
-119.9931925155746
 10
89.16630585878481
 20
-119.8938015108252
 10
89.16630585878481
 20
-119.6610853107965
 10
89.16630585878481
 20
-119.4051147162425
 10
88.98647187445478
 20
-119.3353515326662
 10
88.86589353247103
 20
-119.3353515326662
 10
88.83419865400673
 20
-119.3353515326662
 10
88.6924329747887
 20
-119.3353515326662
 10
88.60354951126925
 20
-119.4643703585888
 10
88.60354951126925
 20
-119.4643703585888
 10
88.42802189629577
 20
-119.4452500786456
 10
88.42802189629577
 20
-119.4452500786456
 10
88.42802189629577
 20
-119.4452500786456
 10
88.54860023827952
 20
-118.5991346274683
 10
88.54860023827952
 20
-118.5991346274683
 10
88.54860023827952
 20
-118.5991346274683
 10
89.32701956317172
 20
-118.5991346274683
 10
89.32701956317172
 20
-118.5991346274683
 10
89.32701956317172
 20
-118.5991346274683
 10
89.32701956317172
 20
-118.7937825223849
 10
89.32701956317172
 20
-118.7937825223849
 10
89.32701956317172
 20
-118.7937825223849
 10
88.71138099995757
 20
-118.7937825223849
 10
88.71138099995757
 20
-118.7937825223849
 10
88.71138099995757
 20
-118.7937825223849
 10
88.64592418573783
 20
-119.2168402479736
 10
88.64592418573783
 20
-119.2168402479736
 10
88.70724688537527
 20
-119.1829060574439
 10
88.78975692224701
 20
-119.1427706950407
 10
88.90809595216534
 20
-119.1427706950407
 10
89.16199948942825
 20
-119.1427706950407
 10
89.39902205881344
 20
-119.3289781060185
 10
89.39902205881344
 20
-119.6419650308534
 10
89.39902205881344
 20
-119.9594305798192
 10
89.17474634272368
 20
-120.1942138371389
 10
88.87226695911875
 20
-120.1942138371389
 97
        0
 97
        0
 75
     2
 76
     1
 98
        0
  0
ENDBLK
  5
8B
330
88
100
AcDbEntity
  8
0
100
AcDbBlockEnd
  0
BLOCK
  5
9E
330
9C
100
AcDbEntity
  8
0
100
AcDbBlockBegin
  2
block 4
 70
     0
 10
0.0
 20
0.0
 30
0.0
  3
block 4
  1

  0
SPLINE
  5
A0
330
9C
100
AcDbEntity
  8
_U+30EC_U+30A4_U+30E4_U+30FC 1
370
     0
100
AcDbSpline
210
0.0
220
0.0
230
1.0
 70
    11
 71
     3
 72
    29
 73
    25
 74
     0
 42
0.0000000001
 43
0.0000000001
 12
1.0
 22
0.0
 32
0.0
 13
1.0
 23
0.0
 33
0.0
 40
0.0
 40
0.0
 40
0.0
 40
0.0
 40
1.0
 40
1.0
 40
1.0
 40
2.0
 40
2.0
 40
2.0
 40
3.0
 40
3.0
 40
3.0
 40
4.0
 40
4.0
 40
4.0
 40
5.0
 40
5.0
 40
5.0
 40
6.0
 40
6.0
 40
6.0
 40
7.0
 40
7.0
 40
7.0
 40
8.0
 40
8.0
 40
8.0
 40
8.0
 10
79.78048771877016
 20
-138.3932752475197
 30
0.0
 10
79.51400958298609
 20
-138.3932752475197
 30
0.0
 10
79.26010604572318
 20
-138.2558159376583
 30
0.0
 10
79.26010604572318
 20
-137.9064832554539
 30
0.0
 10
79.26010604572318
 20
-137.6508571704484
 30
0.0
 10
79.4018717249412
 20
-137.555428025507
 30
0.0
 10
79.50763615633838
 20
-137.4941053258695
 30
0.0
 10
79.38275144499806
 20
-137.4348496835232
 30
0.0
 10
79.30661483477404
 20
-137.3208170229615
 30
0.0
 10
79.30661483477404
 20
-137.1599310638003
 30
0.0
 10
79.30661483477404
 20
-136.8846679345288
 30
0.0
 10
79.50556909904722
 20
-136.749620191507
 30
0.0
 10
79.78048771877016
 20
-136.749620191507
 30
0.0
 10
80.06401907720623
 20
-136.749620191507
 30
0.0
 10
80.25436060276627
 20
-136.893280673242
 30
0.0
 10
80.25436060276627
 20
-137.1599310638003
 30
0.0
 10
80.25436060276627
 20
-137.3208170229615
 30
0.0
 10
80.1761569352511
 20
-137.4348496835232
 30
0.0
 10
80.0512722239108
 20
-137.4941053258695
 30
0.0
 10
80.14015568743024
 20
-137.5447482295027
 30
0.0
 10
80.298802334526
 20
-137.6401773744441
 30
0.0
 10
80.298802334526
 20
-137.9023491408716
 30
0.0
 10
80.298802334526
 20
-138.2768310201183
 30
0.0
 10
80.01957734544649
 20
-138.3932752475197
 30
0.0
 10
79.78048771877016
 20
-138.3932752475197
 30
0.0
  0
SPLINE
  5
A1
330
9C
100
AcDbEntity
  8
_U+30EC_U+30A4_U+30E4_U+30FC 1
370
     0
100
AcDbSpline
210
0.0
220
0.0
230
1.0
 70
    11
 71
     3
 72
    17
 73
    13
 74
     0
 42
0.0000000001
 43
0.0000000001
 12
1.0
 22
0.0
 32
0.0
 13
1.0
 23
0.0
 33
0.0
 40
0.0
 40
0.0
 40
0.0
 40
0.0
 40
1.0
 40
1.0
 40
1.0
 40
2.0
 40
2.0
 40
2.0
 40
3.0
 40
3.0
 40
3.0
 40
4.0
 40
4.0
 40
4.0
 40
4.0
 10
79.78048771877016
 20
-137.6019368145579
 30
0.0
 10
79.63665498226098
 20
-137.6019368145579
 30
0.0
 10
79.48438176181294
 20
-137.6887532207861
 30
0.0
 10
79.48438176181294
 20
-137.8920138544159
 30
0.0
 10
79.48438176181294
 20
-138.0969970357883
 30
0.0
 10
79.6113335304444
 20
-138.1986273526031
 30
0.0
 10
79.78048771877016
 20
-138.1986273526031
 30
0.0
 10
79.96669512974792
 20
-138.1986273526031
 30
0.0
 10
80.07676593050165
 20
-138.0759819533282
 30
0.0
 10
80.07676593050165
 20
-137.8982150262893
 30
0.0
 10
80.07676593050165
 20
-137.6760063674907
 30
0.0
 10
79.91381291404933
 20
-137.6019368145579
 30
0.0
 10
79.78048771877016
 20
-137.6019368145579
 30
0.0
  0
SPLINE
  5
A2
330
9C
100
AcDbEntity
  8
_U+30EC_U+30A4_U+30E4_U+30FC 1
370
     0
100
AcDbSpline
210
0.0
220
0.0
230
1.0
 70
    11
 71
     3
 72
    17
 73
    13
 74
     0
 42
0.0000000001
 43
0.0000000001
 12
1.0
 22
0.0
 32
0.0
 13
1.0
 23
0.0
 33
0.0
 40
0.0
 40
0.0
 40
0.0
 40
0.0
 40
1.0
 40
1.0
 40
1.0
 40
2.0
 40
2.0
 40
2.0
 40
3.0
 40
3.0
 40
3.0
 40
4.0
 40
4.0
 40
4.0
 40
4.0
 10
79.78048771877016
 20
-136.941856519584
 30
0.0
 10
79.6154676450267
 20
-136.941856519584
 30
0.0
 10
79.5308905508638
 20
-137.0369411549769
 30
0.0
 10
79.5308905508638
 20
-137.1726779170957
 30
0.0
 10
79.5308905508638
 20
-137.2953233163706
 30
0.0
 10
79.60289304650553
 20
-137.4138346010632
 30
0.0
 10
79.78048771877016
 20
-137.4138346010632
 30
0.0
 10
79.95825464580905
 20
-137.4138346010632
 30
0.0
 10
80.0300848866765
 20
-137.2953233163706
 30
0.0
 10
80.0300848866765
 20
-137.1726779170957
 30
0.0
 10
80.0300848866765
 20
-137.0369411549769
 30
0.0
 10
79.94344073522248
 20
-136.941856519584
 30
0.0
 10
79.78048771877016
 20
-136.941856519584
 30
0.0
  0
HATCH
  5
A3
330
9C
100
AcDbEntity
  8
_U+30EC_U+30A4_U+30E4_U+30FC 1
 62
     7
420
 16777215
100
AcDbHatch
 10
0.0
 20
0.0
 30
0.0
210
0.0
220
0.0
230
1.0
  2
SOLID
 70
     1
 71
     0
 91
        3
 92
        1
 93
        1
 72
     4
 94
        3
 73
     0
 74
     1
 95
       29
 96
       25
 40
0.0
 40
0.0
 40
0.0
 40
0.0
 40
1.0
 40
1.0
 40
1.0
 40
2.0
 40
2.0
 40
2.0
 40
3.0
 40
3.0
 40
3.0
 40
4.0
 40
4.0
 40
4.0
 40
5.0
 40
5.0
 40
5.0
 40
6.0
 40
6.0
 40
6.0
 40
7.0
 40
7.0
 40
7.0
 40
8.0
 40
8.0
 40
8.0
 40
8.0
 10
79.78048771877016
 20
-138.3932752475197
 10
79.51400958298609
 20
-138.3932752475197
 10
79.26010604572318
 20
-138.2558159376583
 10
79.26010604572318
 20
-137.9064832554539
 10
79.26010604572318
 20
-137.6508571704484
 10
79.4018717249412
 20
-137.555428025507
 10
79.50763615633838
 20
-137.4941053258695
 10
79.38275144499806
 20
-137.4348496835232
 10
79.30661483477404
 20
-137.3208170229615
 10
79.30661483477404
 20
-137.1599310638003
 10
79.30661483477404
 20
-136.8846679345288
 10
79.50556909904722
 20
-136.749620191507
 10
79.78048771877016
 20
-136.749620191507
 10
80.06401907720623
 20
-136.749620191507
 10
80.25436060276627
 20
-136.893280673242
 10
80.25436060276627
 20
-137.1599310638003
 10
80.25436060276627
 20
-137.3208170229615
 10
80.1761569352511
 20
-137.4348496835232
 10
80.0512722239108
 20
-137.4941053258695
 10
80.14015568743024
 20
-137.5447482295027
 10
80.298802334526
 20
-137.6401773744441
 10
80.298802334526
 20
-137.9023491408716
 10
80.298802334526
 20
-138.2768310201183
 10
80.01957734544649
 20
-138.3932752475197
 10
79.78048771877016
 20
-138.3932752475197
 97
        0
 97
        0
 92
        1
 93
        1
 72
     4
 94
        3
 73
     0
 74
     1
 95
       17
 96
       13
 40
0.0
 40
0.0
 40
0.0
 40
0.0
 40
1.0
 40
1.0
 40
1.0
 40
2.0
 40
2.0
 40
2.0
 40
3.0
 40
3.0
 40
3.0
 40
4.0
 40
4.0
 40
4.0
 40
4.0
 10
79.78048771877016
 20
-137.6019368145579
 10
79.63665498226098
 20
-137.6019368145579
 10
79.48438176181294
 20
-137.6887532207861
 10
79.48438176181294
 20
-137.8920138544159
 10
79.48438176181294
 20
-138.0969970357883
 10
79.6113335304444
 20
-138.1986273526031
 10
79.78048771877016
 20
-138.1986273526031
 10
79.96669512974792
 20
-138.1986273526031
 10
80.07676593050165
 20
-138.0759819533282
 10
80.07676593050165
 20
-137.8982150262893
 10
80.07676593050165
 20
-137.6760063674907
 10
79.91381291404933
 20
-137.6019368145579
 10
79.78048771877016
 20
-137.6019368145579
 97
        0
 97
        0
 92
        1
 93
        1
 72
     4
 94
        3
 73
     0
 74
     1
 95
       17
 96
       13
 40
0.0
 40
0.0
 40
0.0
 40
0.0
 40
1.0
 40
1.0
 40
1.0
 40
2.0
 40
2.0
 40
2.0
 40
3.0
 40
3.0
 40
3.0
 40
4.0
 40
4.0
 40
4.0
 40
4.0
 10
79.78048771877016
 20
-136.941856519584
 10
79.6154676450267
 20
-136.941856519584
 10
79.5308905508638
 20
-137.0369411549769
 10
79.5308905508638
 20
-137.1726779170957
 10
79.5308905508638
 20
-137.2953233163706
 10
79.60289304650553
 20
-137.4138346010632
 10
79.78048771877016
 20
-137.4138346010632
 10
79.95825464580905
 20
-137.4138346010632
 10
80.0300848866765
 20
-137.2953233163706
 10
80.0300848866765
 20
-137.1726779170957
 10
80.0300848866765
 20
-137.0369411549769
 10
79.94344073522248
 20
-136.941856519584
 10
79.78048771877016
 20
-136.941856519584
 97
        0
 97
        0
 75
     2
 76
     1
 98
        0
  0
ENDBLK
  5
9F
330
9C
100
AcDbEntity
  8
0
100
AcDbBlockEnd
  0
BLOCK
  5
B2
330
B0
100
AcDbEntity
  8
0
100
AcDbBlockBegin
  2
block 5
 70
     0
 10
0.0
 20
0.0
 30
0.0
  3
block 5
  1

  0
POLYLINE
  5
B4
330
B0
100
AcDbEntity
  8
_U+30EC_U+30A4_U+30E4_U+30FC 1
370
     0
100
AcDb2dPolyline
 66
     1
 10
0.0
 20
0.0
 30
0.0
  0
VERTEX
  5
B5
330
B4
100
AcDbEntity
  8
_U+30EC_U+30A4_U+30E4_U+30FC 1
370
     0
100
AcDbVertex
100
AcDb2dVertex
 10
86.12359752621217
 20
-137.9953667189734
 30
0.0
  0
VERTEX
  5
B6
330
B4
100
AcDbEntity
  8
_U+30EC_U+30A4_U+30E4_U+30FC 1
370
     0
100
AcDbVertex
100
AcDb2dVertex
 10
86.12359752621217
 20
-138.3426323438866
 30
0.0
  0
VERTEX
  5
B7
330
B4
100
AcDbEntity
  8
_U+30EC_U+30A4_U+30E4_U+30FC 1
370
     0
100
AcDbVertex
100
AcDb2dVertex
 10
85.90569523677011
 20
-138.3426323438866
 30
0.0
  0
VERTEX
  5
B8
330
B4
100
AcDbEntity
  8
_U+30EC_U+30A4_U+30E4_U+30FC 1
370
     0
100
AcDbVertex
100
AcDb2dVertex
 10
85.90569523677011
 20
-137.9953667189734
 30
0.0
  0
VERTEX
  5
B9
330
B4
100
AcDbEntity
  8
_U+30EC_U+30A4_U+30E4_U+30FC 1
370
     0
100
AcDbVertex
100
AcDb2dVertex
 10
85.2499213111528
 20
-137.9953667189734
 30
0.0
  0
VERTEX
  5
BA
330
B4
100
AcDbEntity
  8
_U+30EC_U+30A4_U+30E4_U+30FC 1
370
     0
100
AcDbVertex
100
AcDb2dVertex
 10
85.2499213111528
 20
-137.7714355124321
 30
0.0
  0
VERTEX
  5
BB
330
B4
100
AcDbEntity
  8
_U+30EC_U+30A4_U+30E4_U+30FC 1
370
     0
100
AcDbVertex
100
AcDb2dVertex
 10
85.92894963129554
 20
-136.7981960378491
 30
0.0
  0
VERTEX
  5
BC
330
B4
100
AcDbEntity
  8
_U+30EC_U+30A4_U+30E4_U+30FC 1
370
     0
100
AcDbVertex
100
AcDb2dVertex
 10
86.12359752621217
 20
-136.7981960378491
 30
0.0
  0
VERTEX
  5
BD
330
B4
100
AcDbEntity
  8
_U+30EC_U+30A4_U+30E4_U+30FC 1
370
     0
100
AcDbVertex
100
AcDb2dVertex
 10
86.12359752621217
 20
-137.7965847094745
 30
0.0
  0
VERTEX
  5
BE
330
B4
100
AcDbEntity
  8
_U+30EC_U+30A4_U+30E4_U+30FC 1
370
     0
100
AcDbVertex
100
AcDb2dVertex
 10
86.3309922744242
 20
-137.7965847094745
 30
0.0
  0
VERTEX
  5
BF
330
B4
100
AcDbEntity
  8
_U+30EC_U+30A4_U+30E4_U+30FC 1
370
     0
100
AcDbVertex
100
AcDb2dVertex
 10
86.3309922744242
 20
-137.9953667189734
 30
0.0
  0
VERTEX
  5
C0
330
B4
100
AcDbEntity
  8
_U+30EC_U+30A4_U+30E4_U+30FC 1
370
     0
100
AcDbVertex
100
AcDb2dVertex
 10
86.12359752621217
 20
-137.9953667189734
 30
0.0
  0
SEQEND
  5
C1
330
B4
100
AcDbEntity
  8
_U+30EC_U+30A4_U+30E4_U+30FC 1
370
     0
  0
POLYLINE
  5
C2
330
B0
100
AcDbEntity
  8
_U+30EC_U+30A4_U+30E4_U+30FC 1
370
     0
100
AcDb2dPolyline
 66
     1
 10
0.0
 20
0.0
 30
0.0
  0
VERTEX
  5
C3
330
C2
100
AcDbEntity
  8
_U+30EC_U+30A4_U+30E4_U+30FC 1
370
     0
100
AcDbVertex
100
AcDb2dVertex
 10
85.90569523677011
 20
-137.1409830386314
 30
0.0
  0
VERTEX
  5
C4
330
C2
100
AcDbEntity
  8
_U+30EC_U+30A4_U+30E4_U+30FC 1
370
     0
100
AcDbVertex
100
AcDb2dVertex
 10
85.44887557542597
 20
-137.7965847094745
 30
0.0
  0
VERTEX
  5
C5
330
C2
100
AcDbEntity
  8
_U+30EC_U+30A4_U+30E4_U+30FC 1
370
     0
100
AcDbVertex
100
AcDb2dVertex
 10
85.90569523677011
 20
-137.7965847094745
 30
0.0
  0
VERTEX
  5
C6
330
C2
100
AcDbEntity
  8
_U+30EC_U+30A4_U+30E4_U+30FC 1
370
     0
100
AcDbVertex
100
AcDb2dVertex
 10
85.90569523677011
 20
-137.1409830386314
 30
0.0
  0
SEQEND
  5
C7
330
C2
100
AcDbEntity
  8
_U+30EC_U+30A4_U+30E4_U+30FC 1
370
     0
  0
HATCH
  5
C8
330
B0
100
AcDbEntity
  8
_U+30EC_U+30A4_U+30E4_U+30FC 1
 62
     7
420
 16777215
100
AcDbHatch
 10
0.0
 20
0.0
 30
0.0
210
0.0
220
0.0
230
1.0
  2
SOLID
 70
     1
 71
     0
 91
        2
 92
        1
 93
       11
 72
     1
 10
86.12359752621217
 20
-137.9953667189734
 11
86.12359752621217
 21
-138.3426323438866
 72
     1
 10
86.12359752621217
 20
-138.3426323438866
 11
85.90569523677011
 21
-138.3426323438866
 72
     1
 10
85.90569523677011
 20
-138.3426323438866
 11
85.90569523677011
 21
-137.9953667189734
 72
     1
 10
85.90569523677011
 20
-137.9953667189734
 11
85.2499213111528
 21
-137.9953667189734
 72
     1
 10
85.2499213111528
 20
-137.9953667189734
 11
85.2499213111528
 21
-137.7714355124321
 72
     1
 10
85.2499213111528
 20
-137.7714355124321
 11
85.92894963129554
 21
-136.7981960378491
 72
     1
 10
85.92894963129554
 20
-136.7981960378491
 11
86.12359752621217
 21
-136.7981960378491
 72
     1
 10
86.12359752621217
 20
-136.7981960378491
 11
86.12359752621217
 21
-137.7965847094745
 72
     1
 10
86.12359752621217
 20
-137.7965847094745
 11
86.3309922744242
 21
-137.7965847094745
 72
     1
 10
86.3309922744242
 20
-137.7965847094745
 11
86.3309922744242
 21
-137.9953667189734
 72
     1
 10
86.3309922744242
 20
-137.9953667189734
 11
86.12359752621217
 21
-137.9953667189734
 97
        0
 92
        1
 93
        3
 72
     1
 10
85.90569523677011
 20
-137.1409830386314
 11
85.44887557542597
 21
-137.7965847094745
 72
     1
 10
85.44887557542597
 20
-137.7965847094745
 11
85.90569523677011
 21
-137.7965847094745
 72
     1
 10
85.90569523677011
 20
-137.7965847094745
 11
85.90569523677011
 21
-137.1409830386314
 97
        0
 75
     2
 76
     1
 98
        0
  0
ENDBLK
  5
B3
330
B0
100
AcDbEntity
  8
0
100
AcDbBlockEnd
  0
BLOCK
  5
D3
330
D1
100
AcDbEntity
  8
0
100
AcDbBlockBegin
  2
block 6
 70
     0
 10
0.0
 20
0.0
 30
0.0
  3
block 6
  1

  0
SPLINE
  5
D5
330
D1
100
AcDbEntity
  8
_U+30EC_U+30A4_U+30E4_U+30FC 1
370
     0
100
AcDbSpline
210
0.0
220
0.0
230
1.0
 70
    11
 71
     3
 72
    29
 73
    25
 74
     0
 42
0.0000000001
 43
0.0000000001
 12
1.0
 22
0.0
 32
0.0
 13
1.0
 23
0.0
 33
0.0
 40
0.0
 40
0.0
 40
0.0
 40
0.0
 40
1.0
 40
1.0
 40
1.0
 40
2.0
 40
2.0
 40
2.0
 40
3.0
 40
3.0
 40
3.0
 40
4.0
 40
4.0
 40
4.0
 40
5.0
 40
5.0
 40
5.0
 40
6.0
 40
6.0
 40
6.0
 40
7.0
 40
7.0
 40
7.0
 40
8.0
 40
8.0
 40
8.0
 40
8.0
 10
104.2034586328033
 20
-130.7517089516871
 30
0.0
 10
104.2034586328033
 20
-131.0183593422454
 30
0.0
 10
104.0659993229418
 20
-131.2719183699598
 30
0.0
 10
103.717011150286
 20
-131.2719183699598
 30
0.0
 10
103.461040555732
 20
-131.2719183699598
 30
0.0
 10
103.3659559203391
 20
-131.130324945516
 30
0.0
 10
103.3046332207016
 20
-131.0245605141189
 30
0.0
 10
103.2453775783553
 20
-131.1492729706849
 30
0.0
 10
103.131000408245
 20
-131.2254095809089
 30
0.0
 10
102.9701144490839
 20
-131.2254095809089
 30
0.0
 10
102.6951958293609
 20
-131.2254095809089
 30
0.0
 10
102.5598035767906
 20
-131.02662757141
 30
0.0
 10
102.5598035767906
 20
-130.7517089516871
 30
0.0
 10
102.5598035767906
 20
-130.468177593251
 30
0.0
 10
102.7038085680741
 20
-130.2776638129167
 30
0.0
 10
102.9701144490839
 20
-130.2776638129167
 30
0.0
 10
103.131000408245
 20
-130.2776638129167
 30
0.0
 10
103.2453775783553
 20
-130.3562119899804
 30
0.0
 10
103.3046332207016
 20
-130.4809244465465
 30
0.0
 10
103.3552761243348
 20
-130.392040983027
 30
0.0
 10
103.4503607597277
 20
-130.233222081157
 30
0.0
 10
103.7128770357037
 20
-130.233222081157
 30
0.0
 10
104.0873589149504
 20
-130.233222081157
 30
0.0
 10
104.2034586328033
 20
-130.5126193250107
 30
0.0
 10
104.2034586328033
 20
-130.7517089516871
 30
0.0
  0
SPLINE
  5
D6
330
D1
100
AcDbEntity
  8
_U+30EC_U+30A4_U+30E4_U+30FC 1
370
     0
100
AcDbSpline
210
0.0
220
0.0
230
1.0
 70
    11
 71
     3
 72
    17
 73
    13
 74
     0
 42
0.0000000001
 43
0.0000000001
 12
1.0
 22
0.0
 32
0.0
 13
1.0
 23
0.0
 33
0.0
 40
0.0
 40
0.0
 40
0.0
 40
0.0
 40
1.0
 40
1.0
 40
1.0
 40
2.0
 40
2.0
 40
2.0
 40
3.0
 40
3.0
 40
3.0
 40
4.0
 40
4.0
 40
4.0
 40
4.0
 10
102.7523844144161
 20
-130.7517089516871
 30
0.0
 10
102.7523844144161
 20
-130.9167290254306
 30
0.0
 10
102.847469049809
 20
-131.0011338648192
 30
0.0
 10
102.9828613023793
 20
-131.0011338648192
 30
0.0
 10
103.1055067016542
 20
-131.0011338648192
 30
0.0
 10
103.2240179863468
 20
-130.929475878726
 30
0.0
 10
103.2240179863468
 20
-130.7517089516871
 30
0.0
 10
103.2240179863468
 20
-130.5739420246482
 30
0.0
 10
103.1055067016542
 20
-130.5019395290065
 30
0.0
 10
102.9828613023793
 20
-130.5019395290065
 30
0.0
 10
102.847469049809
 20
-130.5019395290065
 30
0.0
 10
102.7523844144161
 20
-130.5887559352348
 30
0.0
 10
102.7523844144161
 20
-130.7517089516871
 30
0.0
  0
SPLINE
  5
D7
330
D1
100
AcDbEntity
  8
_U+30EC_U+30A4_U+30E4_U+30FC 1
370
     0
100
AcDbSpline
210
0.0
220
0.0
230
1.0
 70
    11
 71
     3
 72
    17
 73
    13
 74
     0
 42
0.0000000001
 43
0.0000000001
 12
1.0
 22
0.0
 32
0.0
 13
1.0
 23
0.0
 33
0.0
 40
0.0
 40
0.0
 40
0.0
 40
0.0
 40
1.0
 40
1.0
 40
1.0
 40
2.0
 40
2.0
 40
2.0
 40
3.0
 40
3.0
 40
3.0
 40
4.0
 40
4.0
 40
4.0
 40
4.0
 10
103.41246470939
 20
-130.7517089516871
 30
0.0
 10
103.41246470939
 20
-130.895369433422
 30
0.0
 10
103.4992811156182
 20
-131.0479871634186
 30
0.0
 10
103.7021972396995
 20
-131.0479871634186
 30
0.0
 10
103.9075249306203
 20
-131.0479871634186
 30
0.0
 10
104.0088107378867
 20
-130.9208631400128
 30
0.0
 10
104.0088107378867
 20
-130.7517089516871
 30
0.0
 10
104.0088107378867
 20
-130.5656737954836
 30
0.0
 10
103.8861653386118
 20
-130.4554307399556
 30
0.0
 10
103.7083984115729
 20
-130.4554307399556
 30
0.0
 10
103.4865342623228
 20
-130.4554307399556
 30
0.0
 10
103.41246470939
 20
-130.6183837564079
 30
0.0
 10
103.41246470939
 20
-130.7517089516871
 30
0.0
  0
HATCH
  5
D8
330
D1
100
AcDbEntity
  8
_U+30EC_U+30A4_U+30E4_U+30FC 1
 62
     7
420
 16777215
100
AcDbHatch
 10
0.0
 20
0.0
 30
0.0
210
0.0
220
0.0
230
1.0
  2
SOLID
 70
     1
 71
     0
 91
        3
 92
        1
 93
        1
 72
     4
 94
        3
 73
     0
 74
     1
 95
       29
 96
       25
 40
0.0
 40
0.0
 40
0.0
 40
0.0
 40
1.0
 40
1.0
 40
1.0
 40
2.0
 40
2.0
 40
2.0
 40
3.0
 40
3.0
 40
3.0
 40
4.0
 40
4.0
 40
4.0
 40
5.0
 40
5.0
 40
5.0
 40
6.0
 40
6.0
 40
6.0
 40
7.0
 40
7.0
 40
7.0
 40
8.0
 40
8.0
 40
8.0
 40
8.0
 10
104.2034586328033
 20
-130.7517089516871
 10
104.2034586328033
 20
-131.0183593422454
 10
104.0659993229418
 20
-131.2719183699598
 10
103.717011150286
 20
-131.2719183699598
 10
103.461040555732
 20
-131.2719183699598
 10
103.3659559203391
 20
-131.130324945516
 10
103.3046332207016
 20
-131.0245605141189
 10
103.2453775783553
 20
-131.1492729706849
 10
103.131000408245
 20
-131.2254095809089
 10
102.9701144490839
 20
-131.2254095809089
 10
102.6951958293609
 20
-131.2254095809089
 10
102.5598035767906
 20
-131.02662757141
 10
102.5598035767906
 20
-130.7517089516871
 10
102.5598035767906
 20
-130.468177593251
 10
102.7038085680741
 20
-130.2776638129167
 10
102.9701144490839
 20
-130.2776638129167
 10
103.131000408245
 20
-130.2776638129167
 10
103.2453775783553
 20
-130.3562119899804
 10
103.3046332207016
 20
-130.4809244465465
 10
103.3552761243348
 20
-130.392040983027
 10
103.4503607597277
 20
-130.233222081157
 10
103.7128770357037
 20
-130.233222081157
 10
104.0873589149504
 20
-130.233222081157
 10
104.2034586328033
 20
-130.5126193250107
 10
104.2034586328033
 20
-130.7517089516871
 97
        0
 97
        0
 92
        1
 93
        1
 72
     4
 94
        3
 73
     0
 74
     1
 95
       17
 96
       13
 40
0.0
 40
0.0
 40
0.0
 40
0.0
 40
1.0
 40
1.0
 40
1.0
 40
2.0
 40
2.0
 40
2.0
 40
3.0
 40
3.0
 40
3.0
 40
4.0
 40
4.0
 40
4.0
 40
4.0
 10
102.7523844144161
 20
-130.7517089516871
 10
102.7523844144161
 20
-130.9167290254306
 10
102.847469049809
 20
-131.0011338648192
 10
102.9828613023793
 20
-131.0011338648192
 10
103.1055067016542
 20
-131.0011338648192
 10
103.2240179863468
 20
-130.929475878726
 10
103.2240179863468
 20
-130.7517089516871
 10
103.2240179863468
 20
-130.5739420246482
 10
103.1055067016542
 20
-130.5019395290065
 10
102.9828613023793
 20
-130.5019395290065
 10
102.847469049809
 20
-130.5019395290065
 10
102.7523844144161
 20
-130.5887559352348
 10
102.7523844144161
 20
-130.7517089516871
 97
        0
 97
        0
 92
        1
 93
        1
 72
     4
 94
        3
 73
     0
 74
     1
 95
       17
 96
       13
 40
0.0
 40
0.0
 40
0.0
 40
0.0
 40
1.0
 40
1.0
 40
1.0
 40
2.0
 40
2.0
 40
2.0
 40
3.0
 40
3.0
 40
3.0
 40
4.0
 40
4.0
 40
4.0
 40
4.0
 10
103.41246470939
 20
-130.7517089516871
 10
103.41246470939
 20
-130.895369433422
 10
103.4992811156182
 20
-131.0479871634186
 10
103.7021972396995
 20
-131.0479871634186
 10
103.9075249306203
 20
-131.0479871634186
 10
104.0088107378867
 20
-130.9208631400128
 10
104.0088107378867
 20
-130.7517089516871
 10
104.0088107378867
 20
-130.5656737954836
 10
103.8861653386118
 20
-130.4554307399556
 10
103.7083984115729
 20
-130.4554307399556
 10
103.4865342623228
 20
-130.4554307399556
 10
103.41246470939
 20
-130.6183837564079
 10
103.41246470939
 20
-130.7517089516871
 97
        0
 97
        0
 75
     2
 76
     1
 98
        0
  0
POLYLINE
  5
D9
330
D1
100
AcDbEntity
  8
_U+30EC_U+30A4_U+30E4_U+30FC 1
370
     0
100
AcDb2dPolyline
 66
     1
 10
0.0
 20
0.0
 30
0.0
  0
VERTEX
  5
DA
330
D9
100
AcDbEntity
  8
_U+30EC_U+30A4_U+30E4_U+30FC 1
370
     0
100
AcDbVertex
100
AcDb2dVertex
 10
104.1528157291701
 20
-130.0148030273921
 30
0.0
  0
VERTEX
  5
DB
330
D9
100
AcDbEntity
  8
_U+30EC_U+30A4_U+30E4_U+30FC 1
370
     0
100
AcDbVertex
100
AcDb2dVertex
 10
103.9009792491984
 20
-130.0148030273921
 30
0.0
  0
VERTEX
  5
DC
330
D9
100
AcDbEntity
  8
_U+30EC_U+30A4_U+30E4_U+30FC 1
370
     0
100
AcDbVertex
100
AcDb2dVertex
 10
103.9009792491984
 20
-129.7629665474204
 30
0.0
  0
VERTEX
  5
DD
330
D9
100
AcDbEntity
  8
_U+30EC_U+30A4_U+30E4_U+30FC 1
370
     0
100
AcDbVertex
100
AcDb2dVertex
 10
104.1528157291701
 20
-129.7629665474204
 30
0.0
  0
VERTEX
  5
DE
330
D9
100
AcDbEntity
  8
_U+30EC_U+30A4_U+30E4_U+30FC 1
370
     0
100
AcDbVertex
100
AcDb2dVertex
 10
104.1528157291701
 20
-130.0148030273921
 30
0.0
  0
SEQEND
  5
DF
330
D9
100
AcDbEntity
  8
_U+30EC_U+30A4_U+30E4_U+30FC 1
370
     0
  0
HATCH
  5
E0
330
D1
100
AcDbEntity
  8
_U+30EC_U+30A4_U+30E4_U+30FC 1
 62
     7
420
 16777215
100
AcDbHatch
 10
0.0
 20
0.0
 30
0.0
210
0.0
220
0.0
230
1.0
  2
SOLID
 70
     1
 71
     0
 91
        1
 92
        1
 93
        4
 72
     1
 10
104.1528157291701
 20
-130.0148030273921
 11
103.9009792491984
 21
-130.0148030273921
 72
     1
 10
103.9009792491984
 20
-130.0148030273921
 11
103.9009792491984
 21
-129.7629665474204
 72
     1
 10
103.9009792491984
 20
-129.7629665474204
 11
104.1528157291701
 21
-129.7629665474204
 72
     1
 10
104.1528157291701
 20
-129.7629665474204
 11
104.1528157291701
 21
-130.0148030273921
 97
        0
 75
     2
 76
     1
 98
        0
  0
SPLINE
  5
E1
330
D1
100
AcDbEntity
  8
_U+30EC_U+30A4_U+30E4_U+30FC 1
370
     0
100
AcDbSpline
210
0.0
220
0.0
230
1.0
 70
    11
 71
     3
 72
    44
 73
    40
 74
     0
 42
0.0000000001
 43
0.0000000001
 12
1.0
 22
0.0
 32
0.0
 13
1.0
 23
0.0
 33
0.0
 40
0.0
 40
0.0
 40
0.0
 40
0.0
 40
1.0
 40
1.0
 40
1.0
 40
2.0
 40
2.0
 40
2.0
 40
3.0
 40
3.0
 40
3.0
 40
4.0
 40
4.0
 40
4.0
 40
5.0
 40
5.0
 40
5.0
 40
6.0
 40
6.0
 40
6.0
 40
7.0
 40
7.0
 40
7.0
 40
8.0
 40
8.0
 40
8.0
 40
9.0
 40
9.0
 40
9.0
 40
10.0
 40
10.0
 40
10.0
 40
11.0
 40
11.0
 40
11.0
 40
12.0
 40
12.0
 40
12.0
 40
13.0
 40
13.0
 40
13.0
 40
13.0
 10
103.5709391017114
 20
-128.9337320641207
 30
0.0
 10
103.7297580035815
 20
-129.1514620987885
 30
0.0
 10
103.8038275565143
 20
-129.2444796768903
 30
0.0
 10
103.9474880382492
 20
-129.2934000327808
 30
0.0
 10
103.9474880382492
 20
-129.2934000327808
 30
0.0
 10
103.9474880382492
 20
-128.5148084531144
 30
0.0
 10
103.9474880382492
 20
-128.5148084531144
 30
0.0
 10
103.9474880382492
 20
-128.5148084531144
 30
0.0
 10
104.1528157291701
 20
-128.5148084531144
 30
0.0
 10
104.1528157291701
 20
-128.5148084531144
 30
0.0
 10
104.1528157291701
 20
-128.5148084531144
 30
0.0
 10
104.1528157291701
 20
-129.5428249459129
 30
0.0
 10
104.1528157291701
 20
-129.5428249459129
 30
0.0
 10
103.7952148178012
 20
-129.5111300674486
 30
0.0
 10
103.717011150286
 20
-129.4456732532289
 30
0.0
 10
103.4186658812634
 20
-129.0605115779779
 30
0.0
 10
103.2198838717645
 20
-128.8045409834239
 30
0.0
 10
103.1520154907051
 20
-128.7390841692041
 30
0.0
 10
103.0145561808436
 20
-128.7390841692041
 30
0.0
 10
102.896044896151
 20
-128.7390841692041
 30
0.0
 10
102.7651312677115
 20
-128.8110866648458
 30
0.0
 10
102.7651312677115
 20
-129.0078016170536
 30
0.0
 10
102.7651312677115
 20
-129.26790632619
 30
0.0
 10
102.9956081556747
 20
-129.2765190649031
 30
0.0
 10
103.1120523830762
 20
-129.2806531794854
 30
0.0
 10
103.1120523830762
 20
-129.2806531794854
 30
0.0
 10
103.1120523830762
 20
-129.5049288955752
 30
0.0
 10
103.1120523830762
 20
-129.5049288955752
 30
0.0
 10
102.9849283596704
 20
-129.496316156862
 30
0.0
 10
102.8729627563998
 20
-129.4856363608578
 30
0.0
 10
102.7544514717072
 20
-129.4053656360514
 30
0.0
 10
102.5935655125461
 20
-129.295467090072
 30
0.0
 10
102.5598035767906
 20
-129.10908742432
 30
0.0
 10
102.5598035767906
 20
-128.992987706467
 30
0.0
 10
102.5598035767906
 20
-128.7156575199044
 30
0.0
 10
102.7437716757029
 20
-128.5082627716924
 30
0.0
 10
103.0166232381347
 20
-128.5082627716924
 30
0.0
 10
103.2453775783553
 20
-128.5082627716924
 30
0.0
 10
103.3445963283305
 20
-128.6247069990938
 30
0.0
 10
103.5709391017114
 20
-128.9337320641207
 30
0.0
  0
HATCH
  5
E2
330
D1
100
AcDbEntity
  8
_U+30EC_U+30A4_U+30E4_U+30FC 1
 62
     7
420
 16777215
100
AcDbHatch
 10
0.0
 20
0.0
 30
0.0
210
0.0
220
0.0
230
1.0
  2
SOLID
 70
     1
 71
     0
 91
        1
 92
        1
 93
        1
 72
     4
 94
        3
 73
     0
 74
     1
 95
       44
 96
       40
 40
0.0
 40
0.0
 40
0.0
 40
0.0
 40
1.0
 40
1.0
 40
1.0
 40
2.0
 40
2.0
 40
2.0
 40
3.0
 40
3.0
 40
3.0
 40
4.0
 40
4.0
 40
4.0
 40
5.0
 40
5.0
 40
5.0
 40
6.0
 40
6.0
 40
6.0
 40
7.0
 40
7.0
 40
7.0
 40
8.0
 40
8.0
 40
8.0
 40
9.0
 40
9.0
 40
9.0
 40
10.0
 40
10.0
 40
10.0
 40
11.0
 40
11.0
 40
11.0
 40
12.0
 40
12.0
 40
12.0
 40
13.0
 40
13.0
 40
13.0
 40
13.0
 10
103.5709391017114
 20
-128.9337320641207
 10
103.7297580035815
 20
-129.1514620987885
 10
103.8038275565143
 20
-129.2444796768903
 10
103.9474880382492
 20
-129.2934000327808
 10
103.9474880382492
 20
-129.2934000327808
 10
103.9474880382492
 20
-128.5148084531144
 10
103.9474880382492
 20
-128.5148084531144
 10
103.9474880382492
 20
-128.5148084531144
 10
104.1528157291701
 20
-128.5148084531144
 10
104.1528157291701
 20
-128.5148084531144
 10
104.1528157291701
 20
-128.5148084531144
 10
104.1528157291701
 20
-129.5428249459129
 10
104.1528157291701
 20
-129.5428249459129
 10
103.7952148178012
 20
-129.5111300674486
 10
103.717011150286
 20
-129.4456732532289
 10
103.4186658812634
 20
-129.0605115779779
 10
103.2198838717645
 20
-128.8045409834239
 10
103.1520154907051
 20
-128.7390841692041
 10
103.0145561808436
 20
-128.7390841692041
 10
102.896044896151
 20
-128.7390841692041
 10
102.7651312677115
 20
-128.8110866648458
 10
102.7651312677115
 20
-129.0078016170536
 10
102.7651312677115
 20
-129.26790632619
 10
102.9956081556747
 20
-129.2765190649031
 10
103.1120523830762
 20
-129.2806531794854
 10
103.1120523830762
 20
-129.2806531794854
 10
103.1120523830762
 20
-129.5049288955752
 10
103.1120523830762
 20
-129.5049288955752
 10
102.9849283596704
 20
-129.496316156862
 10
102.8729627563998
 20
-129.4856363608578
 10
102.7544514717072
 20
-129.4053656360514
 10
102.5935655125461
 20
-129.295467090072
 10
102.5598035767906
 20
-129.10908742432
 10
102.5598035767906
 20
-128.992987706467
 10
102.5598035767906
 20
-128.7156575199044
 10
102.7437716757029
 20
-128.5082627716924
 10
103.0166232381347
 20
-128.5082627716924
 10
103.2453775783553
 20
-128.5082627716924
 10
103.3445963283305
 20
-128.6247069990938
 10
103.5709391017114
 20
-128.9337320641207
 97
        0
 97
        0
 75
     2
 76
     1
 98
        0
  0
ENDBLK
  5
D4
330
D1
100
AcDbEntity
  8
0
100
AcDbBlockEnd
  0
ENDSEC
  0
SECTION
  2
ENTITIES
  0
POLYLINE
  5
41
330
1F
100
AcDbEntity
  8
_U+30EC_U+30A4_U+30E4_U+30FC 1
370
     0
100
AcDb2dPolyline
 66
     1
 10
0.0
 20
0.0
 30
0.0
  0
VERTEX
  5
42
330
41
100
AcDbEntity
  8
_U+30EC_U+30A4_U+30E4_U+30FC 1
370
     0
100
AcDbVertex
100
AcDb2dVertex
 10
75.81106056589871
 20
-125.7890549685527
 30
0.0
  0
VERTEX
  5
43
330
41
100
AcDbEntity
  8
_U+30EC_U+30A4_U+30E4_U+30FC 1
370
     0
100
AcDbVertex
100
AcDb2dVertex
 10
83.79918609016137
 20
-125.7890549685527
 30
0.0
  0
VERTEX
  5
44
330
41
100
AcDbEntity
  8
_U+30EC_U+30A4_U+30E4_U+30FC 1
370
     0
100
AcDbVertex
100
AcDb2dVertex
 10
83.79918609016137
 20
-134.9888291329196
 30
0.0
  0
VERTEX
  5
45
330
41
100
AcDbEntity
  8
_U+30EC_U+30A4_U+30E4_U+30FC 1
370
     0
100
AcDbVertex
100
AcDb2dVertex
 10
87.78514942708092
 20
-134.9888291329196
 30
0.0
  0
VERTEX
  5
46
330
41
100
AcDbEntity
  8
_U+30EC_U+30A4_U+30E4_U+30FC 1
370
     0
100
AcDbVertex
100
AcDb2dVertex
 10
87.78514942708092
 20
-133.9883866331697
 30
0.0
  0
VERTEX
  5
47
330
41
100
AcDbEntity
  8
_U+30EC_U+30A4_U+30E4_U+30FC 1
370
     0
100
AcDbVertex
100
AcDb2dVertex
 10
84.69975506135145
 20
-133.9883866331697
 30
0.0
  0
VERTEX
  5
48
330
41
100
AcDbEntity
  8
_U+30EC_U+30A4_U+30E4_U+30FC 1
370
     0
100
AcDbVertex
100
AcDb2dVertex
 10
84.69975506135145
 20
-125.7890549685527
 30
0.0
  0
VERTEX
  5
49
330
41
100
AcDbEntity
  8
_U+30EC_U+30A4_U+30E4_U+30FC 1
370
     0
100
AcDbVertex
100
AcDb2dVertex
 10
100.7993682617272
 20
-125.7890549685527
 30
0.0
  0
VERTEX
  5
4A
330
41
100
AcDbEntity
  8
_U+30EC_U+30A4_U+30E4_U+30FC 1
370
     0
100
AcDbVertex
100
AcDb2dVertex
 10
100.7993682617272
 20
-124.7892827465805
 30
0.0
  0
VERTEX
  5
4B
330
41
100
AcDbEntity
  8
_U+30EC_U+30A4_U+30E4_U+30FC 1
370
     0
100
AcDbVertex
100
AcDb2dVertex
 10
75.81106056589871
 20
-124.7892827465805
 30
0.0
  0
VERTEX
  5
4C
330
41
100
AcDbEntity
  8
_U+30EC_U+30A4_U+30E4_U+30FC 1
370
     0
100
AcDbVertex
100
AcDb2dVertex
 10
75.81106056589871
 20
-125.7890549685527
 30
0.0
  0
SEQEND
  5
4E
330
41
100
AcDbEntity
  8
_U+30EC_U+30A4_U+30E4_U+30FC 1
370
     0
  0
HATCH
  5
4D
330
1F
100
AcDbEntity
  8
_U+30EC_U+30A4_U+30E4_U+30FC 1
 62
   253
420
 11711154
100
AcDbHatch
 10
0.0
 20
0.0
 30
0.0
210
0.0
220
0.0
230
1.0
  2
SOLID
 70
     1
 71
     0
 91
        1
 92
        1
 93
       10
 72
     1
 10
75.81106056589871
 20
-125.7890549685527
 11
83.79918609016137
 21
-125.7890549685527
 72
     1
 10
83.79918609016137
 20
-125.7890549685527
 11
83.79918609016137
 21
-134.9888291329196
 72
     1
 10
83.79918609016137
 20
-134.9888291329196
 11
87.78514942708092
 21
-134.9888291329196
 72
     1
 10
87.78514942708092
 20
-134.9888291329196
 11
87.78514942708092
 21
-133.9883866331697
 72
     1
 10
87.78514942708092
 20
-133.9883866331697
 11
84.69975506135145
 21
-133.9883866331697
 72
     1
 10
84.69975506135145
 20
-133.9883866331697
 11
84.69975506135145
 21
-125.7890549685527
 72
     1
 10
84.69975506135145
 20
-125.7890549685527
 11
100.7993682617272
 21
-125.7890549685527
 72
     1
 10
100.7993682617272
 20
-125.7890549685527
 11
100.7993682617272
 21
-124.7892827465805
 72
     1
 10
100.7993682617272
 20
-124.7892827465805
 11
75.81106056589871
 21
-124.7892827465805
 72
     1
 10
75.81106056589871
 20
-124.7892827465805
 11
75.81106056589871
 21
-125.7890549685527
 97
        0
 75
     2
 76
     1
 98
        0
  0
POLYLINE
  5
4F
330
1F
100
AcDbEntity
  8
_U+30EC_U+30A4_U+30E4_U+30FC 1
 62
     7
420
 16777215
370
    25
100
AcDb2dPolyline
 66
     1
 10
0.0
 20
0.0
 30
0.0
  0
VERTEX
  5
50
330
4F
100
AcDbEntity
  8
_U+30EC_U+30A4_U+30E4_U+30FC 1
 62
     7
420
 16777215
370
    25
100
AcDbVertex
100
AcDb2dVertex
 10
83.79918609016137
 20
-125.7890549685527
 30
0.0
  0
VERTEX
  5
51
330
4F
100
AcDbEntity
  8
_U+30EC_U+30A4_U+30E4_U+30FC 1
 62
     7
420
 16777215
370
    25
100
AcDbVertex
100
AcDb2dVertex
 10
75.80001862173597
 20
-125.7890549685527
 30
0.0
  0
VERTEX
  5
52
330
4F
100
AcDbEntity
  8
_U+30EC_U+30A4_U+30E4_U+30FC 1
 62
     7
420
 16777215
370
    25
100
AcDbVertex
100
AcDb2dVertex
 10
75.7834733443803
 20
-125.7890549685527
 30
0.0
  0
VERTEX
  5
53
330
4F
100
AcDbEntity
  8
_U+30EC_U+30A4_U+30E4_U+30FC 1
 62
     7
420
 16777215
370
    25
100
AcDbVertex
100
AcDb2dVertex
 10
75.7834733443803
 20
-124.7892827465805
 30
0.0
  0
VERTEX
  5
54
330
4F
100
AcDbEntity
  8
_U+30EC_U+30A4_U+30E4_U+30FC 1
 62
     7
420
 16777215
370
    25
100
AcDbVertex
100
AcDb2dVertex
 10
75.80001862173597
 20
-124.7892827465805
 30
0.0
  0
VERTEX
  5
55
330
4F
100
AcDbEntity
  8
_U+30EC_U+30A4_U+30E4_U+30FC 1
 62
     7
420
 16777215
370
    25
100
AcDbVertex
100
AcDb2dVertex
 10
100.7993682617272
 20
-124.7892827465805
 30
0.0
  0
VERTEX
  5
56
330
4F
100
AcDbEntity
  8
_U+30EC_U+30A4_U+30E4_U+30FC 1
 62
     7
420
 16777215
370
    25
100
AcDbVertex
100
AcDb2dVertex
 10
100.7993682617272
 20
-125.7890549685527
 30
0.0
  0
VERTEX
  5
57
330
4F
100
AcDbEntity
  8
_U+30EC_U+30A4_U+30E4_U+30FC 1
 62
     7
420
 16777215
370
    25
100
AcDbVertex
100
AcDb2dVertex
 10
84.69975506135145
 20
-125.7890549685527
 30
0.0
  0
VERTEX
  5
58
330
4F
100
AcDbEntity
  8
_U+30EC_U+30A4_U+30E4_U+30FC 1
 62
     7
420
 16777215
370
    25
100
AcDbVertex
100
AcDb2dVertex
 10
84.69975506135145
 20
-133.9883866331697
 30
0.0
  0
VERTEX
  5
59
330
4F
100
AcDbEntity
  8
_U+30EC_U+30A4_U+30E4_U+30FC 1
 62
     7
420
 16777215
370
    25
100
AcDbVertex
100
AcDb2dVertex
 10
87.78514942708092
 20
-133.9883866331697
 30
0.0
  0
VERTEX
  5
5A
330
4F
100
AcDbEntity
  8
_U+30EC_U+30A4_U+30E4_U+30FC 1
 62
     7
420
 16777215
370
    25
100
AcDbVertex
100
AcDb2dVertex
 10
87.78514942708092
 20
-134.9888291329196
 30
0.0
  0
VERTEX
  5
5B
330
4F
100
AcDbEntity
  8
_U+30EC_U+30A4_U+30E4_U+30FC 1
 62
     7
420
 16777215
370
    25
100
AcDbVertex
100
AcDb2dVertex
 10
83.79918609016137
 20
-134.9888291329196
 30
0.0
  0
VERTEX
  5
5C
330
4F
100
AcDbEntity
  8
_U+30EC_U+30A4_U+30E4_U+30FC 1
 62
     7
420
 16777215
370
    25
100
AcDbVertex
100
AcDb2dVertex
 10
83.79918609016137
 20
-125.7890549685527
 30
0.0
  0
SEQEND
  5
5D
330
4F
100
AcDbEntity
  8
_U+30EC_U+30A4_U+30E4_U+30FC 1
 62
     7
420
 16777215
370
    25
  0
SPLINE
  5
5E
330
1F
100
AcDbEntity
  8
_U+30EC_U+30A4_U+30E4_U+30FC 1
 62
     7
420
 16777215
370
     9
100
AcDbSpline
210
0.0
220
0.0
230
1.0
 70
    11
 71
     3
 72
    17
 73
    13
 74
     0
 42
0.0000000001
 43
0.0000000001
 12
1.0
 22
0.0
 32
0.0
 13
1.0
 23
0.0
 33
0.0
 40
0.0
 40
0.0
 40
0.0
 40
0.0
 40
1.0
 40
1.0
 40
1.0
 40
2.0
 40
2.0
 40
2.0
 40
3.0
 40
3.0
 40
3.0
 40
4.0
 40
4.0
 40
4.0
 40
4.0
 10
75.79176362194657
 20
-120.7895235809136
 30
0.0
 10
75.79176362194657
 20
-120.7344196920387
 30
0.0
 10
75.74696084531182
 20
-120.689616914272
 30
0.0
 10
75.69185695782873
 20
-120.689616914272
 30
0.0
 10
75.63671779256879
 20
-120.689616914272
 30
0.0
 10
75.59195029371091
 20
-120.7344196920387
 30
0.0
 10
75.59195029371091
 20
-120.7895235809136
 30
0.0
 10
75.59195029371091
 20
-120.8446627475667
 30
0.0
 10
75.63671779256879
 20
-120.8894302475556
 30
0.0
 10
75.69185695782873
 20
-120.8894302475556
 30
0.0
 10
75.74696084531182
 20
-120.8894302475556
 30
0.0
 10
75.79176362194657
 20
-120.8446627475667
 30
0.0
 10
75.79176362194657
 20
-120.7895235809136
 30
0.0
  0
SPLINE
  5
5F
330
1F
100
AcDbEntity
  8
_U+30EC_U+30A4_U+30E4_U+30FC 1
 62
     7
420
 16777215
370
     9
100
AcDbSpline
210
0.0
220
0.0
230
1.0
 70
    11
 71
     3
 72
    17
 73
    13
 74
     0
 42
0.0000000001
 43
0.0000000001
 12
1.0
 22
0.0
 32
0.0
 13
1.0
 23
0.0
 33
0.0
 40
0.0
 40
0.0
 40
0.0
 40
0.0
 40
1.0
 40
1.0
 40
1.0
 40
2.0
 40
2.0
 40
2.0
 40
3.0
 40
3.0
 40
3.0
 40
4.0
 40
4.0
 40
4.0
 40
4.0
 10
100.899274925845
 20
-120.7895235809136
 30
0.0
 10
100.899274925845
 20
-120.7344196920387
 30
0.0
 10
100.8544721492103
 20
-120.689616914272
 30
0.0
 10
100.7993682617272
 20
-120.689616914272
 30
0.0
 10
100.7442290964673
 20
-120.689616914272
 30
0.0
 10
100.6994615976094
 20
-120.7344196920387
 30
0.0
 10
100.6994615976094
 20
-120.7895235809136
 30
0.0
 10
100.6994615976094
 20
-120.8446627475667
 30
0.0
 10
100.7442290964673
 20
-120.8894302475556
 30
0.0
 10
100.7993682617272
 20
-120.8894302475556
 30
0.0
 10
100.8544721492103
 20
-120.8894302475556
 30
0.0
 10
100.899274925845
 20
-120.8446627475667
 30
0.0
 10
100.899274925845
 20
-120.7895235809136
 30
0.0
  0
SPLINE
  5
60
330
1F
100
AcDbEntity
  8
_U+30EC_U+30A4_U+30E4_U+30FC 1
 62
     7
420
 16777215
370
     9
100
AcDbSpline
210
0.0
220
0.0
230
1.0
 70
    11
 71
     3
 72
    17
 73
    13
 74
     0
 42
0.0000000001
 43
0.0000000001
 12
1.0
 22
0.0
 32
0.0
 13
1.0
 23
0.0
 33
0.0
 40
0.0
 40
0.0
 40
0.0
 40
0.0
 40
1.0
 40
1.0
 40
1.0
 40
2.0
 40
2.0
 40
2.0
 40
3.0
 40
3.0
 40
3.0
 40
4.0
 40
4.0
 40
4.0
 40
4.0
 10
104.8990339904693
 20
-125.7890549685527
 30
0.0
 10
104.8990339904693
 20
-125.7339158019
 30
0.0
 10
104.8542312138346
 20
-125.6891483019111
 30
0.0
 10
104.7991273263515
 20
-125.6891483019111
 30
0.0
 10
104.7439881610916
 20
-125.6891483019111
 30
0.0
 10
104.6992206622337
 20
-125.7339158019
 30
0.0
 10
104.6992206622337
 20
-125.7890549685527
 30
0.0
 10
104.6992206622337
 20
-125.8448644129831
 30
0.0
 10
104.7439881610916
 20
-125.889631912972
 30
0.0
 10
104.7991273263515
 20
-125.889631912972
 30
0.0
 10
104.8542312138346
 20
-125.889631912972
 30
0.0
 10
104.8990339904693
 20
-125.8448644129831
 30
0.0
 10
104.8990339904693
 20
-125.7890549685527
 30
0.0
  0
SPLINE
  5
61
330
1F
100
AcDbEntity
  8
_U+30EC_U+30A4_U+30E4_U+30FC 1
 62
     7
420
 16777215
370
     9
100
AcDbSpline
210
0.0
220
0.0
230
1.0
 70
    11
 71
     3
 72
    17
 73
    13
 74
     0
 42
0.0000000001
 43
0.0000000001
 12
1.0
 22
0.0
 32
0.0
 13
1.0
 23
0.0
 33
0.0
 40
0.0
 40
0.0
 40
0.0
 40
0.0
 40
1.0
 40
1.0
 40
1.0
 40
2.0
 40
2.0
 40
2.0
 40
3.0
 40
3.0
 40
3.0
 40
4.0
 40
4.0
 40
4.0
 40
4.0
 10
104.8990339904693
 20
-124.7892827465805
 30
0.0
 10
104.8990339904693
 20
-124.7341435799277
 30
0.0
 10
104.8542312138346
 20
-124.6893760799389
 30
0.0
 10
104.7991273263515
 20
-124.6893760799389
 30
0.0
 10
104.7439881610916
 20
-124.6893760799389
 30
0.0
 10
104.6992206622337
 20
-124.7341435799277
 30
0.0
 10
104.6992206622337
 20
-124.7892827465805
 30
0.0
 10
104.6992206622337
 20
-124.8443866354557
 30
0.0
 10
104.7439881610916
 20
-124.8891894132221
 30
0.0
 10
104.7991273263515
 20
-124.8891894132221
 30
0.0
 10
104.8542312138346
 20
-124.8891894132221
 30
0.0
 10
104.8990339904693
 20
-124.8443866354557
 30
0.0
 10
104.8990339904693
 20
-124.7892827465805
 30
0.0
  0
SPLINE
  5
62
330
1F
100
AcDbEntity
  8
_U+30EC_U+30A4_U+30E4_U+30FC 1
 62
     7
420
 16777215
370
     9
100
AcDbSpline
210
0.0
220
0.0
230
1.0
 70
    11
 71
     3
 72
    17
 73
    13
 74
     0
 42
0.0000000001
 43
0.0000000001
 12
1.0
 22
0.0
 32
0.0
 13
1.0
 23
0.0
 33
0.0
 40
0.0
 40
0.0
 40
0.0
 40
0.0
 40
1.0
 40
1.0
 40
1.0
 40
2.0
 40
2.0
 40
2.0
 40
3.0
 40
3.0
 40
3.0
 40
4.0
 40
4.0
 40
4.0
 40
4.0
 10
104.8990339904693
 20
-133.9883866331697
 30
0.0
 10
104.8990339904693
 20
-133.9332474665167
 30
0.0
 10
104.8542312138346
 20
-133.8884799665281
 30
0.0
 10
104.7991273263515
 20
-133.8884799665281
 30
0.0
 10
104.7439881610916
 20
-133.8884799665281
 30
0.0
 10
104.6992206622337
 20
-133.9332474665167
 30
0.0
 10
104.6992206622337
 20
-133.9883866331697
 30
0.0
 10
104.6992206622337
 20
-134.0441960776002
 30
0.0
 10
104.7439881610916
 20
-134.0889635775887
 30
0.0
 10
104.7991273263515
 20
-134.0889635775887
 30
0.0
 10
104.8542312138346
 20
-134.0889635775887
 30
0.0
 10
104.8990339904693
 20
-134.0441960776002
 30
0.0
 10
104.8990339904693
 20
-133.9883866331697
 30
0.0
  0
SPLINE
  5
63
330
1F
100
AcDbEntity
  8
_U+30EC_U+30A4_U+30E4_U+30FC 1
 62
     7
420
 16777215
370
     9
100
AcDbSpline
210
0.0
220
0.0
230
1.0
 70
    11
 71
     3
 72
    17
 73
    13
 74
     0
 42
0.0000000001
 43
0.0000000001
 12
1.0
 22
0.0
 32
0.0
 13
1.0
 23
0.0
 33
0.0
 40
0.0
 40
0.0
 40
0.0
 40
0.0
 40
1.0
 40
1.0
 40
1.0
 40
2.0
 40
2.0
 40
2.0
 40
3.0
 40
3.0
 40
3.0
 40
4.0
 40
4.0
 40
4.0
 40
4.0
 10
83.89979619287121
 20
-138.9885882985859
 30
0.0
 10
83.89979619287121
 20
-138.9334491319335
 30
0.0
 10
83.85499341623644
 20
-138.8886816319443
 30
0.0
 10
83.79918609016137
 20
-138.8886816319443
 30
0.0
 10
83.74408008573275
 20
-138.8886816319443
 30
0.0
 10
83.69927730909798
 20
-138.9334491319335
 30
0.0
 10
83.69927730909798
 20
-138.9885882985859
 30
0.0
 10
83.69927730909798
 20
-139.0436921874615
 30
0.0
 10
83.74408008573275
 20
-139.0884949652282
 30
0.0
 10
83.79918609016137
 20
-139.0884949652282
 30
0.0
 10
83.85499341623644
 20
-139.0884949652282
 30
0.0
 10
83.89979619287121
 20
-139.0436921874615
 30
0.0
 10
83.89979619287121
 20
-138.9885882985859
 30
0.0
  0
SPLINE
  5
64
330
1F
100
AcDbEntity
  8
_U+30EC_U+30A4_U+30E4_U+30FC 1
 62
     7
420
 16777215
370
     9
100
AcDbSpline
210
0.0
220
0.0
230
1.0
 70
    11
 71
     3
 72
    17
 73
    13
 74
     0
 42
0.0000000001
 43
0.0000000001
 12
1.0
 22
0.0
 32
0.0
 13
1.0
 23
0.0
 33
0.0
 40
0.0
 40
0.0
 40
0.0
 40
0.0
 40
1.0
 40
1.0
 40
1.0
 40
2.0
 40
2.0
 40
2.0
 40
3.0
 40
3.0
 40
3.0
 40
4.0
 40
4.0
 40
4.0
 40
4.0
 10
87.88505831136193
 20
-138.9885882985859
 30
0.0
 10
87.88505831136193
 20
-138.9334491319335
 30
0.0
 10
87.84028859234087
 20
-138.8886816319443
 30
0.0
 10
87.78514942708092
 20
-138.8886816319443
 30
0.0
 10
87.73004553959785
 20
-138.8886816319443
 30
0.0
 10
87.68524276296309
 20
-138.9334491319335
 30
0.0
 10
87.68524276296309
 20
-138.9885882985859
 30
0.0
 10
87.68524276296309
 20
-139.0436921874615
 30
0.0
 10
87.73004553959785
 20
-139.0884949652282
 30
0.0
 10
87.78514942708092
 20
-139.0884949652282
 30
0.0
 10
87.84028859234087
 20
-139.0884949652282
 30
0.0
 10
87.88505831136193
 20
-139.0436921874615
 30
0.0
 10
87.88505831136193
 20
-138.9885882985859
 30
0.0
  0
SPLINE
  5
65
330
1F
100
AcDbEntity
  8
_U+30EC_U+30A4_U+30E4_U+30FC 1
 62
     7
420
 16777215
370
     9
100
AcDbSpline
210
0.0
220
0.0
230
1.0
 70
    11
 71
     3
 72
    17
 73
    13
 74
     0
 42
0.0000000001
 43
0.0000000001
 12
1.0
 22
0.0
 32
0.0
 13
1.0
 23
0.0
 33
0.0
 40
0.0
 40
0.0
 40
0.0
 40
0.0
 40
1.0
 40
1.0
 40
1.0
 40
2.0
 40
2.0
 40
2.0
 40
3.0
 40
3.0
 40
3.0
 40
4.0
 40
4.0
 40
4.0
 40
4.0
 10
75.79176362194657
 20
-138.9885882985859
 30
0.0
 10
75.79176362194657
 20
-138.9334491319335
 30
0.0
 10
75.74696084531182
 20
-138.8886816319443
 30
0.0
 10
75.69185695782873
 20
-138.8886816319443
 30
0.0
 10
75.63671779256879
 20
-138.8886816319443
 30
0.0
 10
75.59195029371091
 20
-138.9334491319335
 30
0.0
 10
75.59195029371091
 20
-138.9885882985859
 30
0.0
 10
75.59195029371091
 20
-139.0436921874615
 30
0.0
 10
75.63671779256879
 20
-139.0884949652282
 30
0.0
 10
75.69185695782873
 20
-139.0884949652282
 30
0.0
 10
75.74696084531182
 20
-139.0884949652282
 30
0.0
 10
75.79176362194657
 20
-139.0436921874615
 30
0.0
 10
75.79176362194657
 20
-138.9885882985859
 30
0.0
  0
POLYLINE
  5
66
330
1F
100
AcDbEntity
  8
_U+30EC_U+30A4_U+30E4_U+30FC 1
 62
     7
420
 16777215
370
     9
100
AcDb2dPolyline
 66
     1
 10
0.0
 20
0.0
 30
0.0
  0
VERTEX
  5
67
330
66
100
AcDbEntity
  8
_U+30EC_U+30A4_U+30E4_U+30FC 1
 62
     7
420
 16777215
370
     9
100
AcDbVertex
100
AcDb2dVertex
 10
104.7991273263515
 20
-124.7892827465805
 30
0.0
  0
VERTEX
  5
68
330
66
100
AcDbEntity
  8
_U+30EC_U+30A4_U+30E4_U+30FC 1
 62
     7
420
 16777215
370
     9
100
AcDbVertex
100
AcDb2dVertex
 10
104.7991273263515
 20
-121.0189702475231
 30
0.0
  0
SEQEND
  5
69
330
66
100
AcDbEntity
  8
_U+30EC_U+30A4_U+30E4_U+30FC 1
 62
     7
420
 16777215
370
     9
  0
POLYLINE
  5
6A
330
1F
100
AcDbEntity
  8
_U+30EC_U+30A4_U+30E4_U+30FC 1
 62
     7
420
 16777215
370
     9
100
AcDb2dPolyline
 66
     1
 10
0.0
 20
0.0
 30
0.0
  0
VERTEX
  5
6B
330
6A
100
AcDbEntity
  8
_U+30EC_U+30A4_U+30E4_U+30FC 1
 62
     7
420
 16777215
370
     9
100
AcDbVertex
100
AcDb2dVertex
 10
104.7991273263515
 20
-125.7890549685527
 30
0.0
  0
VERTEX
  5
6C
330
6A
100
AcDbEntity
  8
_U+30EC_U+30A4_U+30E4_U+30FC 1
 62
     7
420
 16777215
370
     9
100
AcDbVertex
100
AcDb2dVertex
 10
104.7991273263515
 20
-124.7892827465805
 30
0.0
  0
SEQEND
  5
6D
330
6A
100
AcDbEntity
  8
_U+30EC_U+30A4_U+30E4_U+30FC 1
 62
     7
420
 16777215
370
     9
  0
POLYLINE
  5
6E
330
1F
100
AcDbEntity
  8
_U+30EC_U+30A4_U+30E4_U+30FC 1
 62
     7
420
 16777215
370
     9
100
AcDb2dPolyline
 66
     1
 10
0.0
 20
0.0
 30
0.0
  0
VERTEX
  5
6F
330
6E
100
AcDbEntity
  8
_U+30EC_U+30A4_U+30E4_U+30FC 1
 62
     7
420
 16777215
370
     9
100
AcDbVertex
100
AcDb2dVertex
 10
103.3390859747114
 20
-125.7890549685527
 30
0.0
  0
VERTEX
  5
70
330
6E
100
AcDbEntity
  8
_U+30EC_U+30A4_U+30E4_U+30FC 1
 62
     7
420
 16777215
370
     9
100
AcDbVertex
100
AcDb2dVertex
 10
105.7995698008281
 20
-125.7890549685527
 30
0.0
  0
SEQEND
  5
71
330
6E
100
AcDbEntity
  8
_U+30EC_U+30A4_U+30E4_U+30FC 1
 62
     7
420
 16777215
370
     9
  0
POLYLINE
  5
72
330
1F
100
AcDbEntity
  8
_U+30EC_U+30A4_U+30E4_U+30FC 1
 62
     7
420
 16777215
370
     9
100
AcDb2dPolyline
 66
     1
 10
0.0
 20
0.0
 30
0.0
  0
VERTEX
  5
73
330
72
100
AcDbEntity
  8
_U+30EC_U+30A4_U+30E4_U+30FC 1
 62
     7
420
 16777215
370
     9
100
AcDbVertex
100
AcDb2dVertex
 10
103.3390859747114
 20
-124.7892827465805
 30
0.0
  0
VERTEX
  5
74
330
72
100
AcDbEntity
  8
_U+30EC_U+30A4_U+30E4_U+30FC 1
 62
     7
420
 16777215
370
     9
100
AcDbVertex
100
AcDb2dVertex
 10
105.7995698008281
 20
-124.7892827465805
 30
0.0
  0
SEQEND
  5
75
330
72
100
AcDbEntity
  8
_U+30EC_U+30A4_U+30E4_U+30FC 1
 62
     7
420
 16777215
370
     9
  0
INSERT
  5
77
330
1F
100
AcDbEntity
  8
_U+30EC_U+30A4_U+30E4_U+30FC 1
100
AcDbBlockReference
  2
block 2
 10
0.0
 20
0.0
 30
0.0
  0
POLYLINE
  5
7C
330
1F
100
AcDbEntity
  8
_U+30EC_U+30A4_U+30E4_U+30FC 1
 62
     7
420
 16777215
370
     9
100
AcDb2dPolyline
 66
     1
 10
0.0
 20
0.0
 30
0.0
  0
VERTEX
  5
7D
330
7C
100
AcDbEntity
  8
_U+30EC_U+30A4_U+30E4_U+30FC 1
 62
     7
420
 16777215
370
     9
100
AcDbVertex
100
AcDb2dVertex
 10
75.68631834685893
 20
-120.7895235809136
 30
0.0
  0
VERTEX
  5
7E
330
7C
100
AcDbEntity
  8
_U+30EC_U+30A4_U+30E4_U+30FC 1
 62
     7
420
 16777215
370
     9
100
AcDbVertex
100
AcDb2dVertex
 10
100.7993682617272
 20
-120.7895235809136
 30
0.0
  0
SEQEND
  5
7F
330
7C
100
AcDbEntity
  8
_U+30EC_U+30A4_U+30E4_U+30FC 1
 62
     7
420
 16777215
370
     9
  0
POLYLINE
  5
80
330
1F
100
AcDbEntity
  8
_U+30EC_U+30A4_U+30E4_U+30FC 1
 62
     7
420
 16777215
370
     9
100
AcDb2dPolyline
 66
     1
 10
0.0
 20
0.0
 30
0.0
  0
VERTEX
  5
81
330
80
100
AcDbEntity
  8
_U+30EC_U+30A4_U+30E4_U+30FC 1
 62
     7
420
 16777215
370
     9
100
AcDbVertex
100
AcDb2dVertex
 10
75.69185695782873
 20
-122.2495649694376
 30
0.0
  0
VERTEX
  5
82
330
80
100
AcDbEntity
  8
_U+30EC_U+30A4_U+30E4_U+30FC 1
 62
     7
420
 16777215
370
     9
100
AcDbVertex
100
AcDb2dVertex
 10
75.69185695782873
 20
-119.7890810811637
 30
0.0
  0
SEQEND
  5
83
330
80
100
AcDbEntity
  8
_U+30EC_U+30A4_U+30E4_U+30FC 1
 62
     7
420
 16777215
370
     9
  0
POLYLINE
  5
84
330
1F
100
AcDbEntity
  8
_U+30EC_U+30A4_U+30E4_U+30FC 1
 62
     7
420
 16777215
370
     9
100
AcDb2dPolyline
 66
     1
 10
0.0
 20
0.0
 30
0.0
  0
VERTEX
  5
85
330
84
100
AcDbEntity
  8
_U+30EC_U+30A4_U+30E4_U+30FC 1
 62
     7
420
 16777215
370
     9
100
AcDbVertex
100
AcDb2dVertex
 10
100.7993682617272
 20
-122.2495649694376
 30
0.0
  0
VERTEX
  5
86
330
84
100
AcDbEntity
  8
_U+30EC_U+30A4_U+30E4_U+30FC 1
 62
     7
420
 16777215
370
     9
100
AcDbVertex
100
AcDb2dVertex
 10
100.7993682617272
 20
-119.7890810811637
 30
0.0
  0
SEQEND
  5
87
330
84
100
AcDbEntity
  8
_U+30EC_U+30A4_U+30E4_U+30FC 1
 62
     7
420
 16777215
370
     9
  0
INSERT
  5
89
330
1F
100
AcDbEntity
  8
_U+30EC_U+30A4_U+30E4_U+30FC 1
100
AcDbBlockReference
  2
block 3
 10
0.0
 20
0.0
 30
0.0
  0
POLYLINE
  5
90
330
1F
100
AcDbEntity
  8
_U+30EC_U+30A4_U+30E4_U+30FC 1
 62
     7
420
 16777215
370
     9
100
AcDb2dPolyline
 66
     1
 10
0.0
 20
0.0
 30
0.0
  0
VERTEX
  5
91
330
90
100
AcDbEntity
  8
_U+30EC_U+30A4_U+30E4_U+30FC 1
 62
     7
420
 16777215
370
     9
100
AcDbVertex
100
AcDb2dVertex
 10
83.79918609016137
 20
-138.9885882985859
 30
0.0
  0
VERTEX
  5
92
330
90
100
AcDbEntity
  8
_U+30EC_U+30A4_U+30E4_U+30FC 1
 62
     7
420
 16777215
370
     9
100
AcDbVertex
100
AcDb2dVertex
 10
75.73041556795614
 20
-138.9885882985859
 30
0.0
  0
SEQEND
  5
93
330
90
100
AcDbEntity
  8
_U+30EC_U+30A4_U+30E4_U+30FC 1
 62
     7
420
 16777215
370
     9
  0
POLYLINE
  5
94
330
1F
100
AcDbEntity
  8
_U+30EC_U+30A4_U+30E4_U+30FC 1
 62
     7
420
 16777215
370
     9
100
AcDb2dPolyline
 66
     1
 10
0.0
 20
0.0
 30
0.0
  0
VERTEX
  5
95
330
94
100
AcDbEntity
  8
_U+30EC_U+30A4_U+30E4_U+30FC 1
 62
     7
420
 16777215
370
     9
100
AcDbVertex
100
AcDb2dVertex
 10
83.79918609016137
 20
-137.5285469100622
 30
0.0
  0
VERTEX
  5
96
330
94
100
AcDbEntity
  8
_U+30EC_U+30A4_U+30E4_U+30FC 1
 62
     7
420
 16777215
370
     9
100
AcDbVertex
100
AcDb2dVertex
 10
83.79918609016137
 20
-139.9890307983358
 30
0.0
  0
SEQEND
  5
97
330
94
100
AcDbEntity
  8
_U+30EC_U+30A4_U+30E4_U+30FC 1
 62
     7
420
 16777215
370
     9
  0
POLYLINE
  5
98
330
1F
100
AcDbEntity
  8
_U+30EC_U+30A4_U+30E4_U+30FC 1
 62
     7
420
 16777215
370
     9
100
AcDb2dPolyline
 66
     1
 10
0.0
 20
0.0
 30
0.0
  0
VERTEX
  5
99
330
98
100
AcDbEntity
  8
_U+30EC_U+30A4_U+30E4_U+30FC 1
 62
     7
420
 16777215
370
     9
100
AcDbVertex
100
AcDb2dVertex
 10
75.69185695782873
 20
-128.3294783012511
 30
0.0
  0
VERTEX
  5
9A
330
98
100
AcDbEntity
  8
_U+30EC_U+30A4_U+30E4_U+30FC 1
 62
     7
420
 16777215
370
     9
100
AcDbVertex
100
AcDb2dVertex
 10
75.69185695782873
 20
-139.9890307983358
 30
0.0
  0
SEQEND
  5
9B
330
98
100
AcDbEntity
  8
_U+30EC_U+30A4_U+30E4_U+30FC 1
 62
     7
420
 16777215
370
     9
  0
INSERT
  5
9D
330
1F
100
AcDbEntity
  8
_U+30EC_U+30A4_U+30E4_U+30FC 1
100
AcDbBlockReference
  2
block 4
 10
0.0
 20
0.0
 30
0.0
  0
POLYLINE
  5
A4
330
1F
100
AcDbEntity
  8
_U+30EC_U+30A4_U+30E4_U+30FC 1
 62
     7
420
 16777215
370
     9
100
AcDb2dPolyline
 66
     1
 10
0.0
 20
0.0
 30
0.0
  0
VERTEX
  5
A5
330
A4
100
AcDbEntity
  8
_U+30EC_U+30A4_U+30E4_U+30FC 1
 62
     7
420
 16777215
370
     9
100
AcDbVertex
100
AcDb2dVertex
 10
83.79918609016137
 20
-138.9885882985859
 30
0.0
  0
VERTEX
  5
A6
330
A4
100
AcDbEntity
  8
_U+30EC_U+30A4_U+30E4_U+30FC 1
 62
     7
420
 16777215
370
     9
100
AcDbVertex
100
AcDb2dVertex
 10
87.78514942708092
 20
-138.9885882985859
 30
0.0
  0
SEQEND
  5
A7
330
A4
100
AcDbEntity
  8
_U+30EC_U+30A4_U+30E4_U+30FC 1
 62
     7
420
 16777215
370
     9
  0
POLYLINE
  5
A8
330
1F
100
AcDbEntity
  8
_U+30EC_U+30A4_U+30E4_U+30FC 1
 62
     7
420
 16777215
370
     9
100
AcDb2dPolyline
 66
     1
 10
0.0
 20
0.0
 30
0.0
  0
VERTEX
  5
A9
330
A8
100
AcDbEntity
  8
_U+30EC_U+30A4_U+30E4_U+30FC 1
 62
     7
420
 16777215
370
     9
100
AcDbVertex
100
AcDb2dVertex
 10
83.79918609016137
 20
-137.5285469100622
 30
0.0
  0
VERTEX
  5
AA
330
A8
100
AcDbEntity
  8
_U+30EC_U+30A4_U+30E4_U+30FC 1
 62
     7
420
 16777215
370
     9
100
AcDbVertex
100
AcDb2dVertex
 10
83.79918609016137
 20
-139.9890307983358
 30
0.0
  0
SEQEND
  5
AB
330
A8
100
AcDbEntity
  8
_U+30EC_U+30A4_U+30E4_U+30FC 1
 62
     7
420
 16777215
370
     9
  0
POLYLINE
  5
AC
330
1F
100
AcDbEntity
  8
_U+30EC_U+30A4_U+30E4_U+30FC 1
 62
     7
420
 16777215
370
     9
100
AcDb2dPolyline
 66
     1
 10
0.0
 20
0.0
 30
0.0
  0
VERTEX
  5
AD
330
AC
100
AcDbEntity
  8
_U+30EC_U+30A4_U+30E4_U+30FC 1
 62
     7
420
 16777215
370
     9
100
AcDbVertex
100
AcDb2dVertex
 10
87.78514942708092
 20
-137.5285469100622
 30
0.0
  0
VERTEX
  5
AE
330
AC
100
AcDbEntity
  8
_U+30EC_U+30A4_U+30E4_U+30FC 1
 62
     7
420
 16777215
370
     9
100
AcDbVertex
100
AcDb2dVertex
 10
87.78514942708092
 20
-139.9890307983358
 30
0.0
  0
SEQEND
  5
AF
330
AC
100
AcDbEntity
  8
_U+30EC_U+30A4_U+30E4_U+30FC 1
 62
     7
420
 16777215
370
     9
  0
INSERT
  5
B1
330
1F
100
AcDbEntity
  8
_U+30EC_U+30A4_U+30E4_U+30FC 1
100
AcDbBlockReference
  2
block 5
 10
0.0
 20
0.0
 30
0.0
  0
POLYLINE
  5
C9
330
1F
100
AcDbEntity
  8
_U+30EC_U+30A4_U+30E4_U+30FC 1
 62
     7
420
 16777215
370
     9
100
AcDb2dPolyline
 66
     1
 10
0.0
 20
0.0
 30
0.0
  0
VERTEX
  5
CA
330
C9
100
AcDbEntity
  8
_U+30EC_U+30A4_U+30E4_U+30FC 1
 62
     7
420
 16777215
370
     9
100
AcDbVertex
100
AcDb2dVertex
 10
104.7991273263515
 20
-133.9883866331697
 30
0.0
  0
VERTEX
  5
CB
330
C9
100
AcDbEntity
  8
_U+30EC_U+30A4_U+30E4_U+30FC 1
 62
     7
420
 16777215
370
     9
100
AcDbVertex
100
AcDb2dVertex
 10
104.7991273263515
 20
-125.7890549685527
 30
0.0
  0
SEQEND
  5
CC
330
C9
100
AcDbEntity
  8
_U+30EC_U+30A4_U+30E4_U+30FC 1
 62
     7
420
 16777215
370
     9
  0
POLYLINE
  5
CD
330
1F
100
AcDbEntity
  8
_U+30EC_U+30A4_U+30E4_U+30FC 1
 62
     7
420
 16777215
370
     9
100
AcDb2dPolyline
 66
     1
 10
0.0
 20
0.0
 30
0.0
  0
VERTEX
  5
CE
330
CD
100
AcDbEntity
  8
_U+30EC_U+30A4_U+30E4_U+30FC 1
 62
     7
420
 16777215
370
     9
100
AcDbVertex
100
AcDb2dVertex
 10
89.33888855410841
 20
-133.9883866331697
 30
0.0
  0
VERTEX
  5
CF
330
CD
100
AcDbEntity
  8
_U+30EC_U+30A4_U+30E4_U+30FC 1
 62
     7
420
 16777215
370
     9
100
AcDbVertex
100
AcDb2dVertex
 10
105.7995698008281
 20
-133.9883866331697
 30
0.0
  0
SEQEND
  5
D0
330
CD
100
AcDbEntity
  8
_U+30EC_U+30A4_U+30E4_U+30FC 1
 62
     7
420
 16777215
370
     9
  0
INSERT
  5
D2
330
1F
100
AcDbEntity
  8
_U+30EC_U+30A4_U+30E4_U+30FC 1
100
AcDbBlockReference
  2
block 6
 10
0.0
 20
0.0
 30
0.0
  0
ENDSEC
  0
SECTION
  2
OBJECTS
  0
DICTIONARY
  5
C
330
0
100
AcDbDictionary
281
     1
  3
ACAD_GROUP
350
D
  3
ACAD_LAYOUT
350
1A
  3
ACAD_MATERIAL
350
3B
  3
ACAD_MLEADERSTYLE
350
E4
  3
ACAD_MLINESTYLE
350
17
  3
ACAD_PLOTSETTINGS
350
19
  3
ACAD_PLOTSTYLENAME
350
E
  3
ACAD_TABLESTYLE
350
E3
  3
ACAD_VISUALSTYLE
350
2A
  0
SUN
  5
3F
330
29
100
AcDbSun
 90
        1
290
     0
 63
     7
421
 16777215
 40
1.0
291
     1
 91
  2455826
 92
 54000000
292
     0
 70
     2
 71
   256
280
     1
  0
DICTIONARY
  5
D
102
{ACAD_REACTORS
330
C
102
}
330
C
100
AcDbDictionary
281
     1
  0
DICTIONARY
  5
1A
102
{ACAD_REACTORS
330
C
102
}
330
C
100
AcDbDictionary
281
     1
  3
Layout1
350
1E
  3
Layout2
350
26
  3
Model
350
22
  0
DICTIONARY
  5
3B
102
{ACAD_REACTORS
330
C
102
}
330
C
100
AcDbDictionary
281
     1
  3
ByBlock
350
3D
  3
ByLayer
350
3C
  3
Global
350
3E
  0
DICTIONARY
  5
E4
102
{ACAD_REACTORS
330
C
102
}
330
C
100
AcDbDictionary
281
     1
  0
DICTIONARY
  5
17
102
{ACAD_REACTORS
330
C
102
}
330
C
100
AcDbDictionary
281
     1
  3
Standard
350
18
  0
DICTIONARY
  5
19
102
{ACAD_REACTORS
330
C
102
}
330
C
100
AcDbDictionary
281
     1
  0
ACDBDICTIONARYWDFLT
  5
E
102
{ACAD_REACTORS
330
C
102
}
330
C
100
AcDbDictionary
281
     1
  3
Normal
350
F
100
AcDbDictionaryWithDefault
340
F
  0
DICTIONARY
  5
E3
102
{ACAD_REACTORS
330
C
102
}
330
C
100
AcDbDictionary
281
     1
  0
DICTIONARY
  5
2A
102
{ACAD_REACTORS
330
C
102
}
330
C
100
AcDbDictionary
281
     1
  3
2dWireframe
350
2F
  3
3D Hidden
350
31
  3
3dWireframe
350
30
  3
Basic
350
32
  3
Brighten
350
36
  3
ColorChange
350
3A
  3
Conceptual
350
34
  3
Dim
350
35
  3
Facepattern
350
39
  3
Flat
350
2B
  3
FlatWithEdges
350
2C
  3
Gouraud
350
2D
  3
GouraudWithEdges
350
2E
  3
Linepattern
350
38
  3
Realistic
350
33
  3
Thicken
350
37
  0
LAYOUT
  5
1E
102
{ACAD_REACTORS
330
1A
102
}
330
1A
100
AcDbPlotSettings
  1

  2
none_device
  4

  6

 40
0.0
 41
0.0
 42
0.0
 43
0.0
 44
0.0
 45
0.0
 46
0.0
 47
0.0
 48
0.0
 49
0.0
140
0.0
141
0.0
142
1.0
143
1.0
 70
   688
 72
     0
 73
     0
 74
     5
  7

 75
    16
 76
     0
 77
     2
 78
   300
147
1.0
148
0.0
149
0.0
100
AcDbLayout
  1
Layout1
 70
     1
 71
     1
 10
0.0
 20
0.0
 11
12.0
 21
9.0
 12
0.0
 22
0.0
 32
0.0
 14
1.000000000000000E+20
 24
1.000000000000000E+20
 34
1.000000000000000E+20
 15
-1.000000000000000E+20
 25
-1.000000000000000E+20
 35
-1.000000000000000E+20
146
0.0
 13
0.0
 23
0.0
 33
0.0
 16
1.0
 26
0.0
 36
0.0
 17
0.0
 27
1.0
 37
0.0
 76
     0
330
1B
  0
LAYOUT
  5
26
102
{ACAD_REACTORS
330
1A
102
}
330
1A
100
AcDbPlotSettings
  1

  2
none_device
  4

  6

 40
0.0
 41
0.0
 42
0.0
 43
0.0
 44
0.0
 45
0.0
 46
0.0
 47
0.0
 48
0.0
 49
0.0
140
0.0
141
0.0
142
1.0
143
1.0
 70
   688
 72
     0
 73
     0
 74
     5
  7

 75
    16
 76
     0
 77
     2
 78
   300
147
1.0
148
0.0
149
0.0
100
AcDbLayout
  1
Layout2
 70
     1
 71
     2
 10
0.0
 20
0.0
 11
0.0
 21
0.0
 12
0.0
 22
0.0
 32
0.0
 14
0.0
 24
0.0
 34
0.0
 15
0.0
 25
0.0
 35
0.0
146
0.0
 13
0.0
 23
0.0
 33
0.0
 16
1.0
 26
0.0
 36
0.0
 17
0.0
 27
1.0
 37
0.0
 76
     0
330
23
  0
LAYOUT
  5
22
102
{ACAD_REACTORS
330
1A
102
}
330
1A
100
AcDbPlotSettings
  1

  2
none_device
  4

  6

 40
0.0
 41
0.0
 42
0.0
 43
0.0
 44
0.0
 45
0.0
 46
0.0
 47
0.0
 48
0.0
 49
0.0
140
0.0
141
0.0
142
1.0
143
1.0
 70
  1712
 72
     0
 73
     0
 74
     0
  7

 75
     0
 76
     0
 77
     2
 78
   300
147
1.0
148
0.0
149
0.0
100
AcDbLayout
  1
Model
 70
     1
 71
     0
 10
0.0
 20
0.0
 11
12.0
 21
9.0
 12
0.0
 22
0.0
 32
0.0
 14
1.000000000000000E+20
 24
1.000000000000000E+20
 34
1.000000000000000E+20
 15
-1.000000000000000E+20
 25
-1.000000000000000E+20
 35
-1.000000000000000E+20
146
0.0
 13
0.0
 23
0.0
 33
0.0
 16
1.0
 26
0.0
 36
0.0
 17
0.0
 27
1.0
 37
0.0
 76
     0
330
1F
331
29
  0
MATERIAL
  5
3D
102
{ACAD_REACTORS
330
3B
102
}
330
3B
100
AcDbMaterial
  1
ByBlock
 72
     1
 94
      127
  0
MATERIAL
  5
3C
102
{ACAD_REACTORS
330
3B
102
}
330
3B
100
AcDbMaterial
  1
ByLayer
 72
     1
 94
      127
  0
MATERIAL
  5
3E
102
{ACAD_REACTORS
330
3B
102
}
330
3B
100
AcDbMaterial
  1
Global
 72
     1
 94
      127
  0
MLINESTYLE
  5
18
102
{ACAD_REACTORS
330
17
102
}
330
17
100
AcDbMlineStyle
  2
Standard
 70
     0
  3

 62
   256
 51
90.0
 52
90.0
 71
     2
 49
0.5
 62
   256
  6
BYLAYER
 49
-0.5
 62
   256
  6
BYLAYER
  0
ACDBPLACEHOLDER
  5
F
102
{ACAD_REACTORS
330
E
102
}
330
E
  0
VISUALSTYLE
  5
2F
102
{ACAD_REACTORS
330
2A
102
}
330
2A
100
AcDbVisualStyle
  2
2dWireframe
 70
     4
177
     2
291
     0
 71
     0
176
     1
 72
     2
176
     1
 73
     0
176
     1
 90
        0
176
     1
 40
-0.6
176
     1
 41
-30.0
176
     1
 62
     5
 63
     7
421
 16777215
176
     1
 74
     1
176
     1
 91
        4
176
     1
 64
     7
176
     1
 65
   257
176
     1
 75
     1
176
     1
175
     1
176
     1
 42
1.0
176
     1
 92
        0
176
     1
 66
   257
176
     1
 43
1.0
176
     1
 76
     1
176
     1
 77
     6
176
     1
 78
     2
176
     1
 67
     7
176
     1
 79
     5
176
     1
170
     0
176
     1
171
     0
176
     1
290
     0
176
     1
 93
        1
176
     1
 44
0.0
176
     1
173
     0
176
     1
  0
VISUALSTYLE
  5
31
102
{ACAD_REACTORS
330
2A
102
}
330
2A
100
AcDbVisualStyle
  2
3D Hidden
 70
     6
177
     2
291
     0
 71
     1
176
     1
 72
     2
176
     1
 73
     2
176
     1
 90
        0
176
     1
 40
-0.6
176
     1
 41
-30.0
176
     1
 62
     5
 63
     7
421
 16777215
176
     1
 74
     2
176
     1
 91
        2
176
     1
 64
     7
176
     1
 65
   257
176
     1
 75
     2
176
     1
175
     1
176
     1
 42
40.0
176
     1
 92
        0
176
     1
 66
   257
176
     1
 43
1.0
176
     1
 76
     1
176
     1
 77
     6
176
     1
 78
     2
176
     1
 67
     7
176
     1
 79
     3
176
     1
170
     0
176
     1
171
     0
176
     1
290
     0
176
     1
 93
        1
176
     1
 44
0.0
176
     1
173
     0
176
     1
  0
VISUALSTYLE
  5
30
102
{ACAD_REACTORS
330
2A
102
}
330
2A
100
AcDbVisualStyle
  2
3dWireframe
 70
     5
177
     2
291
     0
 71
     0
176
     1
 72
     2
176
     1
 73
     0
176
     1
 90
        0
176
     1
 40
-0.6
176
     1
 41
-30.0
176
     1
 62
     5
 63
     7
421
 16777215
176
     1
 74
     1
176
     1
 91
        4
176
     1
 64
     7
176
     1
 65
   257
176
     1
 75
     1
176
     1
175
     1
176
     1
 42
1.0
176
     1
 92
        0
176
     1
 66
   257
176
     1
 43
1.0
176
     1
 76
     1
176
     1
 77
     6
176
     1
 78
     2
176
     1
 67
     7
176
     1
 79
     5
176
     1
170
     0
176
     1
171
     0
176
     1
290
     0
176
     1
 93
        1
176
     1
 44
0.0
176
     1
173
     0
176
     1
  0
VISUALSTYLE
  5
32
102
{ACAD_REACTORS
330
2A
102
}
330
2A
100
AcDbVisualStyle
  2
Basic
 70
     7
177
     2
291
     1
 71
     1
176
     1
 72
     0
176
     1
 73
     1
176
     1
 90
        0
176
     1
 40
-0.6
176
     1
 41
-30.0
176
     1
 62
     5
 63
     7
421
 16777215
176
     1
 74
     0
176
     1
 91
        4
176
     1
 64
     7
176
     1
 65
   257
176
     1
 75
     1
176
     1
175
     1
176
     1
 42
1.0
176
     1
 92
        8
176
     1
 66
     7
176
     1
 43
1.0
176
     1
 76
     1
176
     1
 77
     6
176
     1
 78
     2
176
     1
 67
     7
176
     1
 79
     5
176
     1
170
     0
176
     1
171
     0
176
     1
290
     0
176
     1
 93
        1
176
     1
 44
0.0
176
     1
173
     0
176
     1
  0
VISUALSTYLE
  5
36
102
{ACAD_REACTORS
330
2A
102
}
330
2A
100
AcDbVisualStyle
  2
Brighten
 70
    12
177
     2
291
     1
 71
     2
176
     1
 72
     2
176
     1
 73
     0
176
     1
 90
        0
176
     1
 40
-0.6
176
     1
 41
-30.0
176
     1
 62
     5
 63
     7
421
 16777215
176
     1
 74
     1
176
     1
 91
        4
176
     1
 64
     7
176
     1
 65
   257
176
     1
 75
     1
176
     1
175
     1
176
     1
 42
1.0
176
     1
 92
        8
176
     1
 66
     7
176
     1
 43
1.0
176
     1
 76
     1
176
     1
 77
     6
176
     1
 78
     2
176
     1
 67
     7
176
     1
 79
     5
176
     1
170
     0
176
     1
171
     0
176
     1
290
     0
176
     1
 93
        1
176
     1
 44
50.0
176
     1
173
     0
176
     1
  0
VISUALSTYLE
  5
3A
102
{ACAD_REACTORS
330
2A
102
}
330
2A
100
AcDbVisualStyle
  2
ColorChange
 70
    16
177
     2
291
     1
 71
     2
176
     1
 72
     2
176
     1
 73
     3
176
     1
 90
        0
176
     1
 40
-0.6
176
     1
 41
-30.0
176
     1
 62
     5
 63
     8
421
  8421504
176
     1
 74
     1
176
     1
 91
        4
176
     1
 64
     7
176
     1
 65
   257
176
     1
 75
     1
176
     1
175
     1
176
     1
 42
1.0
176
     1
 92
        8
176
     1
 66
     8
424
  8421504
176
     1
 43
1.0
176
     1
 76
     1
176
     1
 77
     6
176
     1
 78
     2
176
     1
 67
     7
176
     1
 79
     5
176
     1
170
     0
176
     1
171
     0
176
     1
290
     0
176
     1
 93
        1
176
     1
 44
0.0
176
     1
173
     0
176
     1
  0
VISUALSTYLE
  5
34
102
{ACAD_REACTORS
330
2A
102
}
330
2A
100
AcDbVisualStyle
  2
Conceptual
 70
     9
177
     2
291
     0
 71
     3
176
     1
 72
     2
176
     1
 73
     0
176
     1
 90
        0
176
     1
 40
-0.6
176
     1
 41
-30.0
176
     1
 62
     5
 63
     7
421
 16777215
176
     1
 74
     2
176
     1
 91
        2
176
     1
 64
     7
176
     1
 65
   257
176
     1
 75
     1
176
     1
175
     1
176
     1
 42
40.0
176
     1
 92
        8
176
     1
 66
     7
176
     1
 43
1.0
176
     1
 76
     1
176
     1
 77
     6
176
     1
 78
     2
176
     1
 67
     7
176
     1
 79
     3
176
     1
170
     0
176
     1
171
     0
176
     1
290
     0
176
     1
 93
        1
176
     1
 44
0.0
176
     1
173
     0
176
     1
  0
VISUALSTYLE
  5
35
102
{ACAD_REACTORS
330
2A
102
}
330
2A
100
AcDbVisualStyle
  2
Dim
 70
    11
177
     2
291
     1
 71
     2
176
     1
 72
     2
176
     1
 73
     0
176
     1
 90
        0
176
     1
 40
-0.6
176
     1
 41
-30.0
176
     1
 62
     5
 63
     7
421
 16777215
176
     1
 74
     1
176
     1
 91
        4
176
     1
 64
     7
176
     1
 65
   257
176
     1
 75
     1
176
     1
175
     1
176
     1
 42
1.0
176
     1
 92
        8
176
     1
 66
     7
176
     1
 43
1.0
176
     1
 76
     1
176
     1
 77
     6
176
     1
 78
     2
176
     1
 67
     7
176
     1
 79
     5
176
     1
170
     0
176
     1
171
     0
176
     1
290
     0
176
     1
 93
        1
176
     1
 44
-50.0
176
     1
173
     0
176
     1
  0
VISUALSTYLE
  5
39
102
{ACAD_REACTORS
330
2A
102
}
330
2A
100
AcDbVisualStyle
  2
Facepattern
 70
    15
177
     2
291
     1
 71
     2
176
     1
 72
     2
176
     1
 73
     0
176
     1
 90
        0
176
     1
 40
-0.6
176
     1
 41
-30.0
176
     1
 62
     5
 63
     7
421
 16777215
176
     1
 74
     1
176
     1
 91
        4
176
     1
 64
     7
176
     1
 65
   257
176
     1
 75
     1
176
     1
175
     1
176
     1
 42
1.0
176
     1
 92
        8
176
     1
 66
     7
176
     1
 43
1.0
176
     1
 76
     1
176
     1
 77
     6
176
     1
 78
     2
176
     1
 67
     7
176
     1
 79
     5
176
     1
170
     0
176
     1
171
     0
176
     1
290
     0
176
     1
 93
        1
176
     1
 44
0.0
176
     1
173
     0
176
     1
  0
VISUALSTYLE
  5
2B
102
{ACAD_REACTORS
330
2A
102
}
330
2A
100
AcDbVisualStyle
  2
Flat
 70
     0
177
     2
291
     1
 71
     2
176
     1
 72
     1
176
     1
 73
     1
176
     1
 90
        2
176
     1
 40
-0.6
176
     1
 41
30.0
176
     1
 62
     5
 63
     7
421
 16777215
176
     1
 74
     0
176
     1
 91
        4
176
     1
 64
     7
176
     1
 65
   257
176
     1
 75
     1
176
     1
175
     1
176
     1
 42
1.0
176
     1
 92
        8
176
     1
 66
     7
176
     1
 43
1.0
176
     1
 76
     1
176
     1
 77
     6
176
     1
 78
     2
176
     1
 67
     7
176
     1
 79
     5
176
     1
170
     0
176
     1
171
     0
176
     1
290
     0
176
     1
 93
       13
176
     1
 44
0.0
176
     1
173
     0
176
     1
  0
VISUALSTYLE
  5
2C
102
{ACAD_REACTORS
330
2A
102
}
330
2A
100
AcDbVisualStyle
  2
FlatWithEdges
 70
     1
177
     2
291
     1
 71
     2
176
     1
 72
     1
176
     1
 73
     1
176
     1
 90
        2
176
     1
 40
-0.6
176
     1
 41
30.0
176
     1
 62
     5
 63
     7
421
 16777215
176
     1
 74
     1
176
     1
 91
        4
176
     1
 64
     7
176
     1
 65
   257
176
     1
 75
     1
176
     1
175
     1
176
     1
 42
1.0
176
     1
 92
        0
176
     1
 66
   257
176
     1
 43
1.0
176
     1
 76
     1
176
     1
 77
     6
176
     1
 78
     2
176
     1
 67
     7
176
     1
 79
     5
176
     1
170
     0
176
     1
171
     0
176
     1
290
     0
176
     1
 93
       13
176
     1
 44
0.0
176
     1
173
     0
176
     1
  0
VISUALSTYLE
  5
2D
102
{ACAD_REACTORS
330
2A
102
}
330
2A
100
AcDbVisualStyle
  2
Gouraud
 70
     2
177
     2
291
     1
 71
     2
176
     1
 72
     2
176
     1
 73
     1
176
     1
 90
        2
176
     1
 40
-0.6
176
     1
 41
30.0
176
     1
 62
     5
 63
     7
421
 16777215
176
     1
 74
     0
176
     1
 91
        4
176
     1
 64
     7
176
     1
 65
   257
176
     1
 75
     1
176
     1
175
     1
176
     1
 42
1.0
176
     1
 92
        0
176
     1
 66
     7
176
     1
 43
1.0
176
     1
 76
     1
176
     1
 77
     6
176
     1
 78
     2
176
     1
 67
     7
176
     1
 79
     5
176
     1
170
     0
176
     1
171
     0
176
     1
290
     0
176
     1
 93
       13
176
     1
 44
0.0
176
     1
173
     0
176
     1
  0
VISUALSTYLE
  5
2E
102
{ACAD_REACTORS
330
2A
102
}
330
2A
100
AcDbVisualStyle
  2
GouraudWithEdges
 70
     3
177
     2
291
     1
 71
     2
176
     1
 72
     2
176
     1
 73
     1
176
     1
 90
        2
176
     1
 40
-0.6
176
     1
 41
30.0
176
     1
 62
     5
 63
     7
421
 16777215
176
     1
 74
     1
176
     1
 91
        4
176
     1
 64
     7
176
     1
 65
   257
176
     1
 75
     1
176
     1
175
     1
176
     1
 42
1.0
176
     1
 92
        0
176
     1
 66
   257
176
     1
 43
1.0
176
     1
 76
     1
176
     1
 77
     6
176
     1
 78
     2
176
     1
 67
     7
176
     1
 79
     5
176
     1
170
     0
176
     1
171
     0
176
     1
290
     0
176
     1
 93
       13
176
     1
 44
0.0
176
     1
173
     0
176
     1
  0
VISUALSTYLE
  5
38
102
{ACAD_REACTORS
330
2A
102
}
330
2A
100
AcDbVisualStyle
  2
Linepattern
 70
    14
177
     2
291
     1
 71
     2
176
     1
 72
     2
176
     1
 73
     0
176
     1
 90
        0
176
     1
 40
-0.6
176
     1
 41
-30.0
176
     1
 62
     5
 63
     7
421
 16777215
176
     1
 74
     1
176
     1
 91
        4
176
     1
 64
     7
176
     1
 65
   257
176
     1
 75
     7
176
     1
175
     7
176
     1
 42
1.0
176
     1
 92
        8
176
     1
 66
     7
176
     1
 43
1.0
176
     1
 76
     1
176
     1
 77
     6
176
     1
 78
     2
176
     1
 67
     7
176
     1
 79
     5
176
     1
170
     0
176
     1
171
     0
176
     1
290
     0
176
     1
 93
        1
176
     1
 44
0.0
176
     1
173
     0
176
     1
  0
VISUALSTYLE
  5
33
102
{ACAD_REACTORS
330
2A
102
}
330
2A
100
AcDbVisualStyle
  2
Realistic
 70
     8
177
     2
291
     0
 71
     2
176
     1
 72
     2
176
     1
 73
     0
176
     1
 90
        0
176
     1
 40
-0.6
176
     1
 41
-30.0
176
     1
 62
     5
 63
     7
421
 16777215
176
     1
 74
     1
176
     1
 91
        0
176
     1
 64
     7
176
     1
 65
   257
176
     1
 75
     1
176
     1
175
     1
176
     1
 42
1.0
176
     1
 92
        8
176
     1
 66
     8
424
  7895160
176
     1
 43
1.0
176
     1
 76
     1
176
     1
 77
     6
176
     1
 78
     2
176
     1
 67
     7
176
     1
 79
     5
176
     1
170
     0
176
     1
171
     0
176
     1
290
     0
176
     1
 93
       13
176
     1
 44
0.0
176
     1
173
     0
176
     1
  0
VISUALSTYLE
  5
37
102
{ACAD_REACTORS
330
2A
102
}
330
2A
100
AcDbVisualStyle
  2
Thicken
 70
    13
177
     2
291
     1
 71
     2
176
     1
 72
     2
176
     1
 73
     0
176
     1
 90
        0
176
     1
 40
-0.6
176
     1
 41
-30.0
176
     1
 62
     5
 63
     7
421
 16777215
176
     1
 74
     1
176
     1
 91
        4
176
     1
 64
     7
176
     1
 65
   257
176
     1
 75
     1
176
     1
175
     1
176
     1
 42
1.0
176
     1
 92
       12
176
     1
 66
     7
176
     1
 43
1.0
176
     1
 76
     1
176
     1
 77
     6
176
     1
 78
     2
176
     1
 67
     7
176
     1
 79
     5
176
     1
170
     0
176
     1
171
     0
176
     1
290
     0
176
     1
 93
        1
176
     1
 44
0.0
176
     1
173
     0
176
     1
  0
ENDSEC
  0
EOF
