  0
SECTION
  2
HEADER
  9
$ACADVER
  1
AC1024
  9
$ACADMAINTVER
 70
     6
  9
$DWGCODEPAGE
  3
UNDEFINED
  9
$INSBASE
 10
0.0
 20
0.0
 30
0.0
  9
$EXTMIN
 10
1.000000000000000E+20
 20
1.000000000000000E+20
 30
1.000000000000000E+20
  9
$EXTMAX
 10
-1.000000000000000E+20
 20
-1.000000000000000E+20
 30
-1.000000000000000E+20
  9
$LIMMIN
 10
0.0
 20
0.0
  9
$LIMMAX
 10
12.0
 20
9.0
  9
$ORTHOMODE
 70
     0
  9
$REGENMODE
 70
     1
  9
$FILLMODE
 70
     1
  9
$QTEXTMODE
 70
     0
  9
$MIRRTEXT
 70
     1
  9
$LTSCALE
 40
1.0
  9
$ATTMODE
 70
     1
  9
$TEXTSIZE
 40
0.2
  9
$TRACEWID
 40
0.05
  9
$TEXTSTYLE
  7
Standard
  9
$CLAYER
  8
0
  9
$CELTYPE
  6
ByLayer
  9
$CECOLOR
 62
   256
  9
$CELTSCALE
 40
1.0
  9
$DISPSILH
 70
     0
  9
$DIMSCALE
 40
1.0
  9
$DIMASZ
 40
0.18
  9
$DIMEXO
 40
0.0625
  9
$DIMDLI
 40
0.38
  9
$DIMRND
 40
0.0
  9
$DIMDLE
 40
0.0
  9
$DIMEXE
 40
0.18
  9
$DIMTP
 40
0.0
  9
$DIMTM
 40
0.0
  9
$DIMTXT
 40
0.18
  9
$DIMCEN
 40
0.09
  9
$DIMTSZ
 40
0.0
  9
$DIMTOL
 70
     0
  9
$DIMLIM
 70
     0
  9
$DIMTIH
 70
     1
  9
$DIMTOH
 70
     1
  9
$DIMSE1
 70
     0
  9
$DIMSE2
 70
     0
  9
$DIMTAD
 70
     0
  9
$DIMZIN
 70
     0
  9
$DIMBLK
  1

  9
$DIMASO
 70
     1
  9
$DIMSHO
 70
     1
  9
$DIMPOST
  1

  9
$DIMAPOST
  1

  9
$DIMALT
 70
     0
  9
$DIMALTD
 70
     2
  9
$DIMALTF
 40
25.4
  9
$DIMLFAC
 40
1.0
  9
$DIMTOFL
 70
     0
  9
$DIMTVP
 40
0.0
  9
$DIMTIX
 70
     0
  9
$DIMSOXD
 70
     0
  9
$DIMSAH
 70
     0
  9
$DIMBLK1
  1

  9
$DIMBLK2
  1

  9
$DIMSTYLE
  2
Standard
  9
$DIMCLRD
 70
     0
  9
$DIMCLRE
 70
     0
  9
$DIMCLRT
 70
     0
  9
$DIMTFAC
 40
1.0
  9
$DIMGAP
 40
0.09
  9
$DIMJUST
 70
     0
  9
$DIMSD1
 70
     0
  9
$DIMSD2
 70
     0
  9
$DIMTOLJ
 70
     1
  9
$DIMTZIN
 70
     0
  9
$DIMALTZ
 70
     0
  9
$DIMALTTZ
 70
     0
  9
$DIMUPT
 70
     0
  9
$DIMDEC
 70
     4
  9
$DIMTDEC
 70
     4
  9
$DIMALTU
 70
     2
  9
$DIMALTTD
 70
     2
  9
$DIMTXSTY
  7
Standard
  9
$DIMAUNIT
 70
     0
  9
$DIMADEC
 70
     0
  9
$DIMALTRND
 40
0.0
  9
$DIMAZIN
 70
     0
  9
$DIMDSEP
 70
    46
  9
$DIMATFIT
 70
     3
  9
$DIMFRAC
 70
     0
  9
$DIMLDRBLK
  1

  9
$DIMLUNIT
 70
     2
  9
$DIMLWD
 70
    -2
  9
$DIMLWE
 70
    -2
  9
$DIMTMOVE
 70
     0
  9
$DIMFXL
 40
1.0
  9
$DIMFXLON
 70
     0
  9
$DIMJOGANG
 40
0.7853981633974483
  9
$DIMTFILL
 70
     0
  9
$DIMTFILLCLR
 70
     0
  9
$DIMARCSYM
 70
     0
  9
$DIMLTYPE
  6

  9
$DIMLTEX1
  6

  9
$DIMLTEX2
  6

  9
$DIMTXTDIRECTION
 70
     0
  9
$LUNITS
 70
     2
  9
$LUPREC
 70
     4
  9
$SKETCHINC
 40
0.1
  9
$FILLETRAD
 40
0.5
  9
$AUNITS
 70
     0
  9
$AUPREC
 70
     0
  9
$MENU
  1
.
  9
$ELEVATION
 40
0.0
  9
$PELEVATION
 40
0.0
  9
$THICKNESS
 40
0.0
  9
$LIMCHECK
 70
     0
  9
$CHAMFERA
 40
0.5
  9
$CHAMFERB
 40
0.5
  9
$CHAMFERC
 40
1.0
  9
$CHAMFERD
 40
0.0
  9
$SKPOLY
 70
     0
  9
$TDCREATE
 40
2457917.615821748
  9
$TDUCREATE
 40
2457917.240821759
  9
$TDUPDATE
 40
2457917.615821748
  9
$TDUUPDATE
 40
2457917.240821759
  9
$TDINDWG
 40
0.0000000116
  9
$TDUSRTIMER
 40
0.0000000116
  9
$USRTIMER
 70
     1
  9
$ANGBASE
 50
0.0
  9
$ANGDIR
 70
     0
  9
$PDMODE
 70
     0
  9
$PDSIZE
 40
0.0
  9
$PLINEWID
 40
0.0
  9
$SPLFRAME
 70
     0
  9
$SPLINETYPE
 70
     6
  9
$SPLINESEGS
 70
     8
  9
$HANDSEED
  5
E4
  9
$SURFTAB1
 70
     6
  9
$SURFTAB2
 70
     6
  9
$SURFTYPE
 70
     6
  9
$SURFU
 70
     6
  9
$SURFV
 70
     6
  9
$UCSBASE
  2

  9
$UCSNAME
  2

  9
$UCSORG
 10
0.0
 20
0.0
 30
0.0
  9
$UCSXDIR
 10
1.0
 20
0.0
 30
0.0
  9
$UCSYDIR
 10
0.0
 20
1.0
 30
0.0
  9
$UCSORTHOREF
  2

  9
$UCSORTHOVIEW
 70
     0
  9
$UCSORGTOP
 10
0.0
 20
0.0
 30
0.0
  9
$UCSORGBOTTOM
 10
0.0
 20
0.0
 30
0.0
  9
$UCSORGLEFT
 10
0.0
 20
0.0
 30
0.0
  9
$UCSORGRIGHT
 10
0.0
 20
0.0
 30
0.0
  9
$UCSORGFRONT
 10
0.0
 20
0.0
 30
0.0
  9
$UCSORGBACK
 10
0.0
 20
0.0
 30
0.0
  9
$PUCSBASE
  2

  9
$PUCSNAME
  2

  9
$PUCSORG
 10
0.0
 20
0.0
 30
0.0
  9
$PUCSXDIR
 10
1.0
 20
0.0
 30
0.0
  9
$PUCSYDIR
 10
0.0
 20
1.0
 30
0.0
  9
$PUCSORTHOREF
  2

  9
$PUCSORTHOVIEW
 70
     0
  9
$PUCSORGTOP
 10
0.0
 20
0.0
 30
0.0
  9
$PUCSORGBOTTOM
 10
0.0
 20
0.0
 30
0.0
  9
$PUCSORGLEFT
 10
0.0
 20
0.0
 30
0.0
  9
$PUCSORGRIGHT
 10
0.0
 20
0.0
 30
0.0
  9
$PUCSORGFRONT
 10
0.0
 20
0.0
 30
0.0
  9
$PUCSORGBACK
 10
0.0
 20
0.0
 30
0.0
  9
$USERI1
 70
     0
  9
$USERI2
 70
     0
  9
$USERI3
 70
     0
  9
$USERI4
 70
     0
  9
$USERI5
 70
     0
  9
$USERR1
 40
0.0
  9
$USERR2
 40
0.0
  9
$USERR3
 40
0.0
  9
$USERR4
 40
0.0
  9
$USERR5
 40
0.0
  9
$WORLDVIEW
 70
     1
  9
$SHADEDGE
 70
     3
  9
$SHADEDIF
 70
    70
  9
$TILEMODE
 70
     1
  9
$MAXACTVP
 70
    64
  9
$PINSBASE
 10
0.0
 20
0.0
 30
0.0
  9
$PLIMCHECK
 70
     0
  9
$PEXTMIN
 10
1.000000000000000E+20
 20
1.000000000000000E+20
 30
1.000000000000000E+20
  9
$PEXTMAX
 10
-1.000000000000000E+20
 20
-1.000000000000000E+20
 30
-1.000000000000000E+20
  9
$PLIMMIN
 10
0.0
 20
0.0
  9
$PLIMMAX
 10
12.0
 20
9.0
  9
$UNITMODE
 70
     0
  9
$VISRETAIN
 70
     1
  9
$PLINEGEN
 70
     0
  9
$PSLTSCALE
 70
     1
  9
$TREEDEPTH
 70
  3020
  9
$CMLSTYLE
  2
Standard
  9
$CMLJUST
 70
     0
  9
$CMLSCALE
 40
1.0
  9
$PROXYGRAPHICS
 70
     1
  9
$MEASUREMENT
 70
     0
  9
$CELWEIGHT
370
    -1
  9
$ENDCAPS
280
     0
  9
$JOINSTYLE
280
     0
  9
$LWDISPLAY
290
     1
  9
$INSUNITS
 70
     1
  9
$HYPERLINKBASE
  1

  9
$STYLESHEET
  1

  9
$XEDIT
290
     1
  9
$CEPSNTYPE
380
     0
  9
$PSTYLEMODE
290
     1
  9
$FINGERPRINTGUID
  2
{35980561-F6F2-D8B2-2F10-4F8268474C9E}
  9
$VERSIONGUID
  2
{FAEB1C32-E019-11D5-929B-00C0DF256EC4}
  9
$EXTNAMES
290
     1
  9
$PSVPSCALE
 40
0.0
  9
$OLESTARTUP
290
     0
  9
$SORTENTS
280
   127
  9
$INDEXCTL
280
     0
  9
$HIDETEXT
280
     1
  9
$XCLIPFRAME
280
     2
  9
$HALOGAP
280
     0
  9
$OBSCOLOR
 70
   257
  9
$OBSLTYPE
280
     0
  9
$INTERSECTIONDISPLAY
280
     0
  9
$INTERSECTIONCOLOR
 70
   257
  9
$DIMASSOC
280
     2
  9
$PROJECTNAME
  1

  9
$CAMERADISPLAY
290
     0
  9
$LENSLENGTH
 40
50.0
  9
$CAMERAHEIGHT
 40
0.0
  9
$STEPSPERSEC
 40
2.0
  9
$STEPSIZE
 40
6.0
  9
$3DDWFPREC
 40
2.0
  9
$PSOLWIDTH
 40
0.25
  9
$PSOLHEIGHT
 40
4.0
  9
$LOFTANG1
 40
1.570796326794897
  9
$LOFTANG2
 40
1.570796326794897
  9
$LOFTMAG1
 40
0.0
  9
$LOFTMAG2
 40
0.0
  9
$LOFTPARAM
 70
     7
  9
$LOFTNORMALS
280
     1
  9
$LATITUDE
 40
37.795
  9
$LONGITUDE
 40
-122.394
  9
$NORTHDIRECTION
 40
0.0
  9
$TIMEZONE
 70
 -8000
  9
$LIGHTGLYPHDISPLAY
280
     1
  9
$TILEMODELIGHTSYNCH
280
     1
  9
$CMATERIAL
347
3C
  9
$SOLIDHIST
280
     1
  9
$SHOWHIST
280
     1
  9
$DWFFRAME
280
     2
  9
$DGNFRAME
280
     2
  9
$REALWORLDSCALE
290
     1
  9
$INTERFERECOLOR
 62
   256
  9
$CSHADOW
280
     0
  9
$SHADOWPLANELOCATION
 40
0.0
  0
ENDSEC
  0
SECTION
  2
CLASSES
  0
CLASS
  1
ACDBDICTIONARYWDFLT
  2
AcDbDictionaryWithDefault
  3
ObjectDBX Classes
 90
        0
 91
        4
280
     0
281
     0
  0
CLASS
  1
VISUALSTYLE
  2
AcDbVisualStyle
  3
ObjectDBX Classes
 90
     4095
 91
        4
280
     0
281
     0
  0
CLASS
  1
MATERIAL
  2
AcDbMaterial
  3
ObjectDBX Classes
 90
     1153
 91
        4
280
     0
281
     0
  0
CLASS
  1
SUN
  2
AcDbSun
  3
SCENEOE
 90
     1024
 91
        4
280
     0
281
     0
  0
ENDSEC
  0
SECTION
  2
TABLES
  0
TABLE
  2
VPORT
  5
8
330
0
100
AcDbSymbolTable
 70
     1
  0
VPORT
  5
29
330
8
100
AcDbSymbolTableRecord
100
AcDbViewportTableRecord
  2
*Active
 70
     0
 10
0.0
 20
0.0
 11
1.0
 21
1.0
 12
0.0
 22
0.0
 13
0.0
 23
0.0
 14
0.5
 24
0.5
 15
0.5
 25
0.5
 16
0.0
 26
0.0
 36
1.0
 17
91.00082462281999
 27
-128.4993055234307
 37
0.0
 40
256.9986110468615
 41
0.7081814508812795
 42
50.0
 43
0.0
 44
0.0
 50
0.0
 51
0.0
 71
     0
 72
   100
 73
     1
 74
     3
 75
     0
 76
     0
 77
     0
 78
     0
281
     0
 65
     1
110
0.0
120
0.0
130
0.0
111
1.0
121
0.0
131
0.0
112
0.0
122
1.0
132
0.0
 79
     0
146
0.0
 60
     3
 61
     5
292
     1
282
     1
141
0.0
142
0.0
 63
   250
361
3F
  0
ENDTAB
  0
TABLE
  2
LTYPE
  5
5
330
0
100
AcDbSymbolTable
 70
     1
  0
LTYPE
  5
14
330
5
100
AcDbSymbolTableRecord
100
AcDbLinetypeTableRecord
  2
ByBlock
 70
     0
  3

 72
    65
 73
     0
 40
0.0
  0
LTYPE
  5
15
330
5
100
AcDbSymbolTableRecord
100
AcDbLinetypeTableRecord
  2
ByLayer
 70
     0
  3

 72
    65
 73
     0
 40
0.0
  0
LTYPE
  5
16
330
5
100
AcDbSymbolTableRecord
100
AcDbLinetypeTableRecord
  2
Continuous
 70
     0
  3
Solid line
 72
    65
 73
     0
 40
0.0
  0
ENDTAB
  0
TABLE
  2
LAYER
  5
2
330
0
100
AcDbSymbolTable
 70
     2
  0
LAYER
  5
10
330
2
100
AcDbSymbolTableRecord
100
AcDbLayerTableRecord
  2
0
 70
     0
 62
     7
  6
Continuous
370
    -3
390
F
347
3E
  0
LAYER
  5
40
330
2
100
AcDbSymbolTableRecord
100
AcDbLayerTableRecord
  2
_U+30EC_U+30A4_U+30E4_U+30FC 1
 70
     0
 62
     7
  6
Continuous
370
    -3
390
F
347
3E
  0
ENDTAB
  0
TABLE
  2
STYLE
  5
3
330
0
100
AcDbSymbolTable
 70
     1
  0
STYLE
  5
11
330
3
100
AcDbSymbolTableRecord
100
AcDbTextStyleTableRecord
  2
Standard
 70
     0
 40
0.0
 41
1.0
 50
0.0
 71
     0
 42
0.2
  3
txt
  4

  0
ENDTAB
  0
TABLE
  2
VIEW
  5
6
330
0
100
AcDbSymbolTable
 70
     0
  0
ENDTAB
  0
TABLE
  2
UCS
  5
7
330
0
100
AcDbSymbolTable
 70
     0
  0
ENDTAB
  0
TABLE
  2
APPID
  5
9
330
0
100
AcDbSymbolTable
 70
     1
  0
APPID
  5
12
330
9
100
AcDbSymbolTableRecord
100
AcDbRegAppTableRecord
  2
ACAD
 70
     0
  0
ENDTAB
  0
TABLE
  2
DIMSTYLE
  5
A
330
0
100
AcDbSymbolTable
 70
     1
100
AcDbDimStyleTable
  0
DIMSTYLE
105
27
330
A
100
AcDbSymbolTableRecord
100
AcDbDimStyleTableRecord
  2
Standard
 70
     0
178
     0
340
11
  0
ENDTAB
  0
TABLE
  2
BLOCK_RECORD
  5
1
330
0
100
AcDbSymbolTable
 70
     6
  0
BLOCK_RECORD
  5
1F
330
1
100
AcDbSymbolTableRecord
100
AcDbBlockTableRecord
  2
*Model_Space
340
22
 70
     0
280
     1
281
     0
  0
BLOCK_RECORD
  5
1B
330
1
100
AcDbSymbolTableRecord
100
AcDbBlockTableRecord
  2
*Paper_Space
340
1E
 70
     0
280
     1
281
     0
  0
BLOCK_RECORD
  5
23
330
1
100
AcDbSymbolTableRecord
100
AcDbBlockTableRecord
  2
*Paper_Space0
340
26
 70
     0
280
     1
281
     0
  0
BLOCK_RECORD
  5
76
330
1
100
AcDbSymbolTableRecord
100
AcDbBlockTableRecord
  2
block 2
340
0
102
{BLKREFS
331
77
102
}
 70
     0
280
     1
281
     0
  0
BLOCK_RECORD
  5
88
330
1
100
AcDbSymbolTableRecord
100
AcDbBlockTableRecord
  2
block 3
340
0
102
{BLKREFS
331
89
102
}
 70
     0
280
     1
281
     0
  0
BLOCK_RECORD
  5
9C
330
1
100
AcDbSymbolTableRecord
100
AcDbBlockTableRecord
  2
block 4
340
0
102
{BLKREFS
331
9D
102
}
 70
     0
280
     1
281
     0
  0
BLOCK_RECORD
  5
AF
330
1
100
AcDbSymbolTableRecord
100
AcDbBlockTableRecord
  2
block 5
340
0
102
{BLKREFS
331
B0
102
}
 70
     0
280
     1
281
     0
  0
BLOCK_RECORD
  5
D0
330
1
100
AcDbSymbolTableRecord
100
AcDbBlockTableRecord
  2
block 6
340
0
102
{BLKREFS
331
D1
102
}
 70
     0
280
     1
281
     0
  0
ENDTAB
  0
ENDSEC
  0
SECTION
  2
BLOCKS
  0
BLOCK
  5
20
330
1F
100
AcDbEntity
  8
0
100
AcDbBlockBegin
  2
*Model_Space
 70
     0
 10
0.0
 20
0.0
 30
0.0
  3
*Model_Space
  1

  0
ENDBLK
  5
21
330
1F
100
AcDbEntity
  8
0
100
AcDbBlockEnd
  0
BLOCK
  5
1C
330
1B
100
AcDbEntity
 67
     1
  8
0
100
AcDbBlockBegin
  2
*Paper_Space
 70
     0
 10
0.0
 20
0.0
 30
0.0
  3
*Paper_Space
  1

  0
ENDBLK
  5
1D
330
1B
100
AcDbEntity
 67
     1
  8
0
100
AcDbBlockEnd
  0
BLOCK
  5
24
330
23
100
AcDbEntity
  8
0
100
AcDbBlockBegin
  2
*Paper_Space0
 70
     0
 10
0.0
 20
0.0
 30
0.0
  3
*Paper_Space0
  1

  0
ENDBLK
  5
25
330
23
100
AcDbEntity
  8
0
100
AcDbBlockEnd
  0
BLOCK
  5
78
330
76
100
AcDbEntity
  8
0
100
AcDbBlockBegin
  2
block 2
 70
     0
 10
0.0
 20
0.0
 30
0.0
  3
block 2
  1

  0
SPLINE
  5
7A
330
76
100
AcDbEntity
  8
_U+30EC_U+30A4_U+30E4_U+30FC 1
370
     0
100
AcDbSpline
210
0.0
220
0.0
230
1.0
 70
    11
 71
     3
 72
    26
 73
    22
 74
     0
 42
0.0000000001
 43
0.0000000001
 12
1.0
 22
0.0
 32
0.0
 13
1.0
 23
0.0
 33
0.0
 40
0.0
 40
0.0
 40
0.0
 40
0.0
 40
1.0
 40
1.0
 40
1.0
 40
2.0
 40
2.0
 40
2.0
 40
3.0
 40
3.0
 40
3.0
 40
4.0
 40
4.0
 40
4.0
 40
5.0
 40
5.0
 40
5.0
 40
6.0
 40
6.0
 40
6.0
 40
7.0
 40
7.0
 40
7.0
 40
7.0
 10
102.3951280125957
 20
-125.3418755111993
 30
0.0
 10
102.3951280125957
 20
-125.3418755111993
 30
0.0
 10
101.2909749095731
 20
-125.3418755111993
 30
0.0
 10
101.2909749095731
 20
-125.3418755111993
 30
0.0
 10
101.2909749095731
 20
-125.3418755111993
 30
0.0
 10
101.2909749095731
 20
-125.6719156586862
 30
0.0
 10
101.2909749095731
 20
-125.6719156586862
 30
0.0
 10
101.2909749095731
 20
-125.6719156586862
 30
0.0
 10
101.1428358037074
 20
-125.6719156586862
 30
0.0
 10
101.1428358037074
 20
-125.6719156586862
 30
0.0
 10
101.1280218931208
 20
-125.3398084539081
 30
0.0
 10
100.9650688766685
 20
-125.2932996648572
 30
0.0
 10
100.8506917065582
 20
-125.2636718436841
 30
0.0
 10
100.8506917065582
 20
-125.2636718436841
 30
0.0
 10
100.8506917065582
 20
-125.1175997951095
 30
0.0
 10
100.8506917065582
 20
-125.1175997951095
 30
0.0
 10
100.8506917065582
 20
-125.1175997951095
 30
0.0
 10
102.3951280125957
 20
-125.1175997951095
 30
0.0
 10
102.3951280125957
 20
-125.1175997951095
 30
0.0
 10
102.3951280125957
 20
-125.1175997951095
 30
0.0
 10
102.3951280125957
 20
-125.3418755111993
 30
0.0
 10
102.3951280125957
 20
-125.3418755111993
 30
0.0
  0
HATCH
  5
7B
330
76
100
AcDbEntity
  8
_U+30EC_U+30A4_U+30E4_U+30FC 1
 62
     7
420
 16777215
100
AcDbHatch
 10
0.0
 20
0.0
 30
0.0
210
0.0
220
0.0
230
1.0
  2
SOLID
 70
     1
 71
     0
 91
        1
 92
        1
 93
        1
 72
     4
 94
        3
 73
     0
 74
     1
 95
       26
 96
       22
 40
0.0
 40
0.0
 40
0.0
 40
0.0
 40
1.0
 40
1.0
 40
1.0
 40
2.0
 40
2.0
 40
2.0
 40
3.0
 40
3.0
 40
3.0
 40
4.0
 40
4.0
 40
4.0
 40
5.0
 40
5.0
 40
5.0
 40
6.0
 40
6.0
 40
6.0
 40
7.0
 40
7.0
 40
7.0
 40
7.0
 10
102.3951280125957
 20
-125.3418755111993
 10
102.3951280125957
 20
-125.3418755111993
 10
101.2909749095731
 20
-125.3418755111993
 10
101.2909749095731
 20
-125.3418755111993
 10
101.2909749095731
 20
-125.3418755111993
 10
101.2909749095731
 20
-125.6719156586862
 10
101.2909749095731
 20
-125.6719156586862
 10
101.2909749095731
 20
-125.6719156586862
 10
101.1428358037074
 20
-125.6719156586862
 10
101.1428358037074
 20
-125.6719156586862
 10
101.1280218931208
 20
-125.3398084539081
 10
100.9650688766685
 20
-125.2932996648572
 10
100.8506917065582
 20
-125.2636718436841
 10
100.8506917065582
 20
-125.2636718436841
 10
100.8506917065582
 20
-125.1175997951095
 10
100.8506917065582
 20
-125.1175997951095
 10
100.8506917065582
 20
-125.1175997951095
 10
102.3951280125957
 20
-125.1175997951095
 10
102.3951280125957
 20
-125.1175997951095
 10
102.3951280125957
 20
-125.1175997951095
 10
102.3951280125957
 20
-125.3418755111993
 10
102.3951280125957
 20
-125.3418755111993
 97
        0
 97
        0
 75
     2
 76
     1
 98
        0
  0
ENDBLK
  5
79
330
76
100
AcDbEntity
  8
0
100
AcDbBlockEnd
  0
BLOCK
  5
8A
330
88
100
AcDbEntity
  8
0
100
AcDbBlockBegin
  2
block 3
 70
     0
 10
0.0
 20
0.0
 30
0.0
  3
block 3
  1

  0
SPLINE
  5
8C
330
88
100
AcDbEntity
  8
_U+30EC_U+30A4_U+30E4_U+30FC 1
370
     0
100
AcDbSpline
210
0.0
220
0.0
230
1.0
 70
    11
 71
     3
 72
    44
 73
    40
 74
     0
 42
0.0000000001
 43
0.0000000001
 12
1.0
 22
0.0
 32
0.0
 13
1.0
 23
0.0
 33
0.0
 40
0.0
 40
0.0
 40
0.0
 40
0.0
 40
1.0
 40
1.0
 40
1.0
 40
2.0
 40
2.0
 40
2.0
 40
3.0
 40
3.0
 40
3.0
 40
4.0
 40
4.0
 40
4.0
 40
5.0
 40
5.0
 40
5.0
 40
6.0
 40
6.0
 40
6.0
 40
7.0
 40
7.0
 40
7.0
 40
8.0
 40
8.0
 40
8.0
 40
9.0
 40
9.0
 40
9.0
 40
10.0
 40
10.0
 40
10.0
 40
11.0
 40
11.0
 40
11.0
 40
12.0
 40
12.0
 40
12.0
 40
13.0
 40
13.0
 40
13.0
 40
13.0
 10
87.51886119773835
 20
-119.4201008816033
 30
0.0
 10
87.3009589082963
 20
-119.5787475286991
 30
0.0
 10
87.20776907542029
 20
-119.6528170816319
 30
0.0
 10
87.15919322907826
 20
-119.7966498181411
 30
0.0
 10
87.15919322907826
 20
-119.7966498181411
 30
0.0
 10
87.93761255397047
 20
-119.7966498181411
 30
0.0
 10
87.93761255397047
 20
-119.7966498181411
 30
0.0
 10
87.93761255397047
 20
-119.7966498181411
 30
0.0
 10
87.93761255397047
 20
-120.0018052542877
 30
0.0
 10
87.93761255397047
 20
-120.0018052542877
 30
0.0
 10
87.93761255397047
 20
-120.0018052542877
 30
0.0
 10
86.90959606117191
 20
-120.0018052542877
 30
0.0
 10
86.90959606117191
 20
-120.0018052542877
 30
0.0
 10
86.9412909396362
 20
-119.6442043429188
 30
0.0
 10
87.00692000863022
 20
-119.5660006754036
 30
0.0
 10
87.39190942910689
 20
-119.267655406381
 30
0.0
 10
87.64788002366095
 20
-119.0688733968821
 30
0.0
 10
87.7133368378807
 20
-119.0011772705969
 30
0.0
 10
87.7133368378807
 20
-118.8637179607355
 30
0.0
 10
87.7133368378807
 20
-118.7452066760429
 30
0.0
 10
87.64150659701323
 20
-118.6141207928291
 30
0.0
 10
87.44479164480548
 20
-118.6141207928291
 30
0.0
 10
87.18451468089485
 20
-118.6141207928291
 30
0.0
 10
87.17607419695598
 20
-118.8445976807923
 30
0.0
 10
87.17176782759942
 20
-118.9610419081938
 30
0.0
 10
87.17176782759942
 20
-118.9610419081938
 30
0.0
 10
86.94766436628392
 20
-118.9610419081938
 30
0.0
 10
86.94766436628392
 20
-118.9610419081938
 30
0.0
 10
86.95610485022279
 20
-118.8340901395623
 30
0.0
 10
86.9666123914528
 20
-118.7219522815174
 30
0.0
 10
87.04705537103338
 20
-118.6034409968248
 30
0.0
 10
87.15695391701284
 20
-118.4427272924379
 30
0.0
 10
87.3431613279906
 20
-118.4087931019082
 30
0.0
 10
87.45960555539205
 20
-118.4087931019082
 30
0.0
 10
87.7367634871804
 20
-118.4087931019082
 30
0.0
 10
87.94398598061818
 20
-118.5929334555948
 30
0.0
 10
87.94398598061818
 20
-118.8657850180266
 30
0.0
 10
87.94398598061818
 20
-119.0941948486987
 30
0.0
 10
87.82771400799099
 20
-119.1937581082224
 30
0.0
 10
87.51886119773835
 20
-119.4201008816033
 30
0.0
  0
HATCH
  5
8D
330
88
100
AcDbEntity
  8
_U+30EC_U+30A4_U+30E4_U+30FC 1
 62
     7
420
 16777215
100
AcDbHatch
 10
0.0
 20
0.0
 30
0.0
210
0.0
220
0.0
230
1.0
  2
SOLID
 70
     1
 71
     0
 91
        1
 92
        1
 93
        1
 72
     4
 94
        3
 73
     0
 74
     1
 95
       44
 96
       40
 40
0.0
 40
0.0
 40
0.0
 40
0.0
 40
1.0
 40
1.0
 40
1.0
 40
2.0
 40
2.0
 40
2.0
 40
3.0
 40
3.0
 40
3.0
 40
4.0
 40
4.0
 40
4.0
 40
5.0
 40
5.0
 40
5.0
 40
6.0
 40
6.0
 40
6.0
 40
7.0
 40
7.0
 40
7.0
 40
8.0
 40
8.0
 40
8.0
 40
9.0
 40
9.0
 40
9.0
 40
10.0
 40
10.0
 40
10.0
 40
11.0
 40
11.0
 40
11.0
 40
12.0
 40
12.0
 40
12.0
 40
13.0
 40
13.0
 40
13.0
 40
13.0
 10
87.51886119773835
 20
-119.4201008816033
 10
87.3009589082963
 20
-119.5787475286991
 10
87.20776907542029
 20
-119.6528170816319
 10
87.15919322907826
 20
-119.7966498181411
 10
87.15919322907826
 20
-119.7966498181411
 10
87.93761255397047
 20
-119.7966498181411
 10
87.93761255397047
 20
-119.7966498181411
 10
87.93761255397047
 20
-119.7966498181411
 10
87.93761255397047
 20
-120.0018052542877
 10
87.93761255397047
 20
-120.0018052542877
 10
87.93761255397047
 20
-120.0018052542877
 10
86.90959606117191
 20
-120.0018052542877
 10
86.90959606117191
 20
-120.0018052542877
 10
86.9412909396362
 20
-119.6442043429188
 10
87.00692000863022
 20
-119.5660006754036
 10
87.39190942910689
 20
-119.267655406381
 10
87.64788002366095
 20
-119.0688733968821
 10
87.7133368378807
 20
-119.0011772705969
 10
87.7133368378807
 20
-118.8637179607355
 10
87.7133368378807
 20
-118.7452066760429
 10
87.64150659701323
 20
-118.6141207928291
 10
87.44479164480548
 20
-118.6141207928291
 10
87.18451468089485
 20
-118.6141207928291
 10
87.17607419695598
 20
-118.8445976807923
 10
87.17176782759942
 20
-118.9610419081938
 10
87.17176782759942
 20
-118.9610419081938
 10
86.94766436628392
 20
-118.9610419081938
 10
86.94766436628392
 20
-118.9610419081938
 10
86.95610485022279
 20
-118.8340901395623
 10
86.9666123914528
 20
-118.7219522815174
 10
87.04705537103338
 20
-118.6034409968248
 10
87.15695391701284
 20
-118.4427272924379
 10
87.3431613279906
 20
-118.4087931019082
 10
87.45960555539205
 20
-118.4087931019082
 10
87.7367634871804
 20
-118.4087931019082
 10
87.94398598061818
 20
-118.5929334555948
 10
87.94398598061818
 20
-118.8657850180266
 10
87.94398598061818
 20
-119.0941948486987
 10
87.82771400799099
 20
-119.1937581082224
 10
87.51886119773835
 20
-119.4201008816033
 97
        0
 97
        0
 75
     2
 76
     1
 98
        0
  0
SPLINE
  5
8E
330
88
100
AcDbEntity
  8
_U+30EC_U+30A4_U+30E4_U+30FC 1
370
     0
100
AcDbSpline
210
0.0
220
0.0
230
1.0
 70
    11
 71
     3
 72
    62
 73
    58
 74
     0
 42
0.0000000001
 43
0.0000000001
 12
1.0
 22
0.0
 32
0.0
 13
1.0
 23
0.0
 33
0.0
 40
0.0
 40
0.0
 40
0.0
 40
0.0
 40
1.0
 40
1.0
 40
1.0
 40
2.0
 40
2.0
 40
2.0
 40
3.0
 40
3.0
 40
3.0
 40
4.0
 40
4.0
 40
4.0
 40
5.0
 40
5.0
 40
5.0
 40
6.0
 40
6.0
 40
6.0
 40
7.0
 40
7.0
 40
7.0
 40
8.0
 40
8.0
 40
8.0
 40
9.0
 40
9.0
 40
9.0
 40
10.0
 40
10.0
 40
10.0
 40
11.0
 40
11.0
 40
11.0
 40
12.0
 40
12.0
 40
12.0
 40
13.0
 40
13.0
 40
13.0
 40
14.0
 40
14.0
 40
14.0
 40
15.0
 40
15.0
 40
15.0
 40
16.0
 40
16.0
 40
16.0
 40
17.0
 40
17.0
 40
17.0
 40
18.0
 40
18.0
 40
18.0
 40
19.0
 40
19.0
 40
19.0
 40
19.0
 10
88.59407549868482
 20
-120.0526204126952
 30
0.0
 10
88.49881860851767
 20
-120.0526204126952
 30
0.0
 10
88.28091631907562
 20
-120.0314330754609
 30
0.0
 10
88.15620386250957
 20
-119.8452256644831
 30
0.0
 10
88.08213430957669
 20
-119.7330878064383
 30
0.0
 10
88.07782794022013
 20
-119.6336968016888
 30
0.0
 10
88.07369382563783
 20
-119.5491197075259
 30
0.0
 10
88.07369382563783
 20
-119.5491197075259
 30
0.0
 10
88.29366317237103
 20
-119.5491197075259
 30
0.0
 10
88.29366317237103
 20
-119.5491197075259
 30
0.0
 10
88.29573022966218
 20
-119.6231892604588
 30
0.0
 10
88.30641002566645
 20
-119.8579725177786
 30
0.0
 10
88.58994138410252
 20
-119.8579725177786
 30
0.0
 10
88.72740069396399
 20
-119.8579725177786
 30
0.0
 10
88.87967391441202
 20
-119.7882093342023
 30
0.0
 10
88.87967391441202
 20
-119.5596272487559
 30
0.0
 10
88.87967391441202
 20
-119.4433552761288
 30
0.0
 10
88.84160560930002
 20
-119.3946071750125
 30
0.0
 10
88.80991073083572
 20
-119.3629122965482
 30
0.0
 10
88.73584117790286
 20
-119.2888427436153
 30
0.0
 10
88.61939695050141
 20
-119.2762681450941
 30
0.0
 10
88.56444767751167
 20
-119.2762681450941
 30
0.0
 10
88.5454996523428
 20
-119.2762681450941
 30
0.0
 10
88.50949840452193
 20
-119.2783352023853
 30
0.0
 10
88.48193764063994
 20
-119.2824693169676
 30
0.0
 10
88.48193764063994
 20
-119.2824693169676
 30
0.0
 10
88.48193764063994
 20
-119.087821422051
 30
0.0
 10
88.48193764063994
 20
-119.087821422051
 30
0.0
 10
88.52000594575195
 20
-119.0941948486987
 30
0.0
 10
88.56238062022052
 20
-119.0964341607641
 30
0.0
 10
88.56875404686824
 20
-119.0964341607641
 30
0.0
 10
88.63421086108798
 20
-119.0964341607641
 30
0.0
 10
88.83316512536116
 20
-119.0752468235298
 30
0.0
 10
88.83316512536116
 20
-118.8382242541446
 30
0.0
 10
88.83316512536116
 20
-118.66062958188
 30
0.0
 10
88.70190698737314
 20
-118.605508054116
 30
0.0
 10
88.59200844139367
 20
-118.605508054116
 30
0.0
 10
88.32759736290075
 20
-118.605508054116
 30
0.0
 10
88.31915687896188
 20
-118.8382242541446
 30
0.0
 10
88.31485050960532
 20
-118.9102267497863
 30
0.0
 10
88.31485050960532
 20
-118.9102267497863
 30
0.0
 10
88.11176213074984
 20
-118.9102267497863
 30
0.0
 10
88.11176213074984
 20
-118.9102267497863
 30
0.0
 10
88.12020261468871
 20
-118.785342038446
 30
0.0
 10
88.1477633785707
 20
-118.4087931019082
 30
0.0
 10
88.60458303991483
 20
-118.4087931019082
 30
0.0
 10
88.82885875600459
 20
-118.4087931019082
 30
0.0
 10
89.07001543997208
 20
-118.5357448705397
 30
0.0
 10
89.07001543997208
 20
-118.8318508274969
 30
0.0
 10
89.07001543997208
 20
-119.0180582384747
 30
0.0
 10
88.97493080457919
 20
-119.1005682753464
 30
0.0
 10
88.87536754505547
 20
-119.1618909749838
 30
0.0
 10
88.93686249946718
 20
-119.1894517388658
 30
0.0
 10
89.11876354108837
 20
-119.2698947184464
 30
0.0
 10
89.11876354108837
 20
-119.5470526502348
 30
0.0
 10
89.11876354108837
 20
-119.8855332816606
 30
0.0
 10
88.87123343047317
 20
-120.0526204126952
 30
0.0
 10
88.59407549868482
 20
-120.0526204126952
 30
0.0
  0
HATCH
  5
8F
330
88
100
AcDbEntity
  8
_U+30EC_U+30A4_U+30E4_U+30FC 1
 62
     7
420
 16777215
100
AcDbHatch
 10
0.0
 20
0.0
 30
0.0
210
0.0
220
0.0
230
1.0
  2
SOLID
 70
     1
 71
     0
 91
        1
 92
        1
 93
        1
 72
     4
 94
        3
 73
     0
 74
     1
 95
       62
 96
       58
 40
0.0
 40
0.0
 40
0.0
 40
0.0
 40
1.0
 40
1.0
 40
1.0
 40
2.0
 40
2.0
 40
2.0
 40
3.0
 40
3.0
 40
3.0
 40
4.0
 40
4.0
 40
4.0
 40
5.0
 40
5.0
 40
5.0
 40
6.0
 40
6.0
 40
6.0
 40
7.0
 40
7.0
 40
7.0
 40
8.0
 40
8.0
 40
8.0
 40
9.0
 40
9.0
 40
9.0
 40
10.0
 40
10.0
 40
10.0
 40
11.0
 40
11.0
 40
11.0
 40
12.0
 40
12.0
 40
12.0
 40
13.0
 40
13.0
 40
13.0
 40
14.0
 40
14.0
 40
14.0
 40
15.0
 40
15.0
 40
15.0
 40
16.0
 40
16.0
 40
16.0
 40
17.0
 40
17.0
 40
17.0
 40
18.0
 40
18.0
 40
18.0
 40
19.0
 40
19.0
 40
19.0
 40
19.0
 10
88.59407549868482
 20
-120.0526204126952
 10
88.49881860851767
 20
-120.0526204126952
 10
88.28091631907562
 20
-120.0314330754609
 10
88.15620386250957
 20
-119.8452256644831
 10
88.08213430957669
 20
-119.7330878064383
 10
88.07782794022013
 20
-119.6336968016888
 10
88.07369382563783
 20
-119.5491197075259
 10
88.07369382563783
 20
-119.5491197075259
 10
88.29366317237103
 20
-119.5491197075259
 10
88.29366317237103
 20
-119.5491197075259
 10
88.29573022966218
 20
-119.6231892604588
 10
88.30641002566645
 20
-119.8579725177786
 10
88.58994138410252
 20
-119.8579725177786
 10
88.72740069396399
 20
-119.8579725177786
 10
88.87967391441202
 20
-119.7882093342023
 10
88.87967391441202
 20
-119.5596272487559
 10
88.87967391441202
 20
-119.4433552761288
 10
88.84160560930002
 20
-119.3946071750125
 10
88.80991073083572
 20
-119.3629122965482
 10
88.73584117790286
 20
-119.2888427436153
 10
88.61939695050141
 20
-119.2762681450941
 10
88.56444767751167
 20
-119.2762681450941
 10
88.5454996523428
 20
-119.2762681450941
 10
88.50949840452193
 20
-119.2783352023853
 10
88.48193764063994
 20
-119.2824693169676
 10
88.48193764063994
 20
-119.2824693169676
 10
88.48193764063994
 20
-119.087821422051
 10
88.48193764063994
 20
-119.087821422051
 10
88.52000594575195
 20
-119.0941948486987
 10
88.56238062022052
 20
-119.0964341607641
 10
88.56875404686824
 20
-119.0964341607641
 10
88.63421086108798
 20
-119.0964341607641
 10
88.83316512536116
 20
-119.0752468235298
 10
88.83316512536116
 20
-118.8382242541446
 10
88.83316512536116
 20
-118.66062958188
 10
88.70190698737314
 20
-118.605508054116
 10
88.59200844139367
 20
-118.605508054116
 10
88.32759736290075
 20
-118.605508054116
 10
88.31915687896188
 20
-118.8382242541446
 10
88.31485050960532
 20
-118.9102267497863
 10
88.31485050960532
 20
-118.9102267497863
 10
88.11176213074984
 20
-118.9102267497863
 10
88.11176213074984
 20
-118.9102267497863
 10
88.12020261468871
 20
-118.785342038446
 10
88.1477633785707
 20
-118.4087931019082
 10
88.60458303991483
 20
-118.4087931019082
 10
88.82885875600459
 20
-118.4087931019082
 10
89.07001543997208
 20
-118.5357448705397
 10
89.07001543997208
 20
-118.8318508274969
 10
89.07001543997208
 20
-119.0180582384747
 10
88.97493080457919
 20
-119.1005682753464
 10
88.87536754505547
 20
-119.1618909749838
 10
88.93686249946718
 20
-119.1894517388658
 10
89.11876354108837
 20
-119.2698947184464
 10
89.11876354108837
 20
-119.5470526502348
 10
89.11876354108837
 20
-119.8855332816606
 10
88.87123343047317
 20
-120.0526204126952
 10
88.59407549868482
 20
-120.0526204126952
 97
        0
 97
        0
 75
     2
 76
     1
 98
        0
  0
ENDBLK
  5
8B
330
88
100
AcDbEntity
  8
0
100
AcDbBlockEnd
  0
BLOCK
  5
9E
330
9C
100
AcDbEntity
  8
0
100
AcDbBlockBegin
  2
block 4
 70
     0
 10
0.0
 20
0.0
 30
0.0
  3
block 4
  1

  0
SPLINE
  5
A0
330
9C
100
AcDbEntity
  8
_U+30EC_U+30A4_U+30E4_U+30FC 1
370
     0
100
AcDbSpline
210
0.0
220
0.0
230
1.0
 70
    11
 71
     3
 72
    32
 73
    28
 74
     0
 42
0.0000000001
 43
0.0000000001
 12
1.0
 22
0.0
 32
0.0
 13
1.0
 23
0.0
 33
0.0
 40
0.0
 40
0.0
 40
0.0
 40
0.0
 40
1.0
 40
1.0
 40
1.0
 40
2.0
 40
2.0
 40
2.0
 40
3.0
 40
3.0
 40
3.0
 40
4.0
 40
4.0
 40
4.0
 40
5.0
 40
5.0
 40
5.0
 40
6.0
 40
6.0
 40
6.0
 40
7.0
 40
7.0
 40
7.0
 40
8.0
 40
8.0
 40
8.0
 40
9.0
 40
9.0
 40
9.0
 40
9.0
 10
79.49592283168852
 20
-138.251681823076
 30
0.0
 10
78.97967527322383
 20
-138.251681823076
 30
0.0
 10
78.97123478928498
 20
-137.6973659594993
 30
0.0
 10
78.97123478928498
 20
-137.4837700394138
 30
0.0
 10
78.97123478928498
 20
-137.252948641902
 30
0.0
 10
78.99035506922812
 20
-136.6056152002236
 30
0.0
 10
79.53399113680054
 20
-136.6056152002236
 30
0.0
 10
79.70745169448286
 20
-136.6056152002236
 30
0.0
 10
79.95291474780691
 20
-136.6755506385742
 30
0.0
 10
79.99098305291892
 20
-137.0076578433523
 30
0.0
 10
79.99098305291892
 20
-137.0076578433523
 30
0.0
 10
79.77721487805917
 20
-137.0076578433523
 30
0.0
 10
79.77721487805917
 20
-137.0076578433523
 30
0.0
 10
79.76670733682916
 20
-136.9504692582971
 30
0.0
 10
79.73501245836486
 20
-136.8023301524314
 30
0.0
 10
79.53192407950938
 20
-136.8023301524314
 30
0.0
 10
79.23995223713446
 20
-136.8023301524314
 30
0.0
 10
79.19964461995704
 20
-137.1303032426271
 30
0.0
 10
79.18707002143587
 20
-137.335630933548
 30
0.0
 10
79.28008759953762
 20
-137.2574272660329
 30
0.0
 10
79.34778372582278
 20
-137.1981716236866
 30
0.0
 10
79.52968476744397
 20
-137.1981716236866
 30
0.0
 10
79.70951875177401
 20
-137.1981716236866
 30
0.0
 10
80.01199813537895
 20
-137.3060031123749
 30
0.0
 10
80.01199813537895
 20
-137.7121798700859
 30
0.0
 10
80.01199813537895
 20
-138.0315402215685
 30
0.0
 10
79.81321612588003
 20
-138.251681823076
 30
0.0
 10
79.49592283168852
 20
-138.251681823076
 30
0.0
  0
SPLINE
  5
A1
330
9C
100
AcDbEntity
  8
_U+30EC_U+30A4_U+30E4_U+30FC 1
370
     0
100
AcDbSpline
210
0.0
220
0.0
230
1.0
 70
    11
 71
     3
 72
    17
 73
    13
 74
     0
 42
0.0000000001
 43
0.0000000001
 12
1.0
 22
0.0
 32
0.0
 13
1.0
 23
0.0
 33
0.0
 40
0.0
 40
0.0
 40
0.0
 40
0.0
 40
1.0
 40
1.0
 40
1.0
 40
2.0
 40
2.0
 40
2.0
 40
3.0
 40
3.0
 40
3.0
 40
4.0
 40
4.0
 40
4.0
 40
4.0
 10
79.51280379956624
 20
-137.3928195186032
 30
0.0
 10
79.25045977836447
 20
-137.3928195186032
 30
0.0
 10
79.21239147325247
 20
-137.6043483813975
 30
0.0
 10
79.21239147325247
 20
-137.7204480992505
 30
0.0
 10
79.21239147325247
 20
-137.8961479689982
 30
0.0
 10
79.30764836341962
 20
-138.0591009854505
 30
0.0
 10
79.49161646233196
 20
-138.0591009854505
 30
0.0
 10
79.6121948043157
 20
-138.0591009854505
 30
0.0
 10
79.78789467406345
 20
-137.9998453431042
 30
0.0
 10
79.78789467406345
 20
-137.714246927377
 30
0.0
 10
79.78789467406345
 20
-137.4899712112872
 30
0.0
 10
79.64819605213657
 20
-137.3928195186032
 30
0.0
 10
79.51280379956624
 20
-137.3928195186032
 30
0.0
  0
HATCH
  5
A2
330
9C
100
AcDbEntity
  8
_U+30EC_U+30A4_U+30E4_U+30FC 1
 62
     7
420
 16777215
100
AcDbHatch
 10
0.0
 20
0.0
 30
0.0
210
0.0
220
0.0
230
1.0
  2
SOLID
 70
     1
 71
     0
 91
        2
 92
        1
 93
        1
 72
     4
 94
        3
 73
     0
 74
     1
 95
       32
 96
       28
 40
0.0
 40
0.0
 40
0.0
 40
0.0
 40
1.0
 40
1.0
 40
1.0
 40
2.0
 40
2.0
 40
2.0
 40
3.0
 40
3.0
 40
3.0
 40
4.0
 40
4.0
 40
4.0
 40
5.0
 40
5.0
 40
5.0
 40
6.0
 40
6.0
 40
6.0
 40
7.0
 40
7.0
 40
7.0
 40
8.0
 40
8.0
 40
8.0
 40
9.0
 40
9.0
 40
9.0
 40
9.0
 10
79.49592283168852
 20
-138.251681823076
 10
78.97967527322383
 20
-138.251681823076
 10
78.97123478928498
 20
-137.6973659594993
 10
78.97123478928498
 20
-137.4837700394138
 10
78.97123478928498
 20
-137.252948641902
 10
78.99035506922812
 20
-136.6056152002236
 10
79.53399113680054
 20
-136.6056152002236
 10
79.70745169448286
 20
-136.6056152002236
 10
79.95291474780691
 20
-136.6755506385742
 10
79.99098305291892
 20
-137.0076578433523
 10
79.99098305291892
 20
-137.0076578433523
 10
79.77721487805917
 20
-137.0076578433523
 10
79.77721487805917
 20
-137.0076578433523
 10
79.76670733682916
 20
-136.9504692582971
 10
79.73501245836486
 20
-136.8023301524314
 10
79.53192407950938
 20
-136.8023301524314
 10
79.23995223713446
 20
-136.8023301524314
 10
79.19964461995704
 20
-137.1303032426271
 10
79.18707002143587
 20
-137.335630933548
 10
79.28008759953762
 20
-137.2574272660329
 10
79.34778372582278
 20
-137.1981716236866
 10
79.52968476744397
 20
-137.1981716236866
 10
79.70951875177401
 20
-137.1981716236866
 10
80.01199813537895
 20
-137.3060031123749
 10
80.01199813537895
 20
-137.7121798700859
 10
80.01199813537895
 20
-138.0315402215685
 10
79.81321612588003
 20
-138.251681823076
 10
79.49592283168852
 20
-138.251681823076
 97
        0
 97
        0
 92
        1
 93
        1
 72
     4
 94
        3
 73
     0
 74
     1
 95
       17
 96
       13
 40
0.0
 40
0.0
 40
0.0
 40
0.0
 40
1.0
 40
1.0
 40
1.0
 40
2.0
 40
2.0
 40
2.0
 40
3.0
 40
3.0
 40
3.0
 40
4.0
 40
4.0
 40
4.0
 40
4.0
 10
79.51280379956624
 20
-137.3928195186032
 10
79.25045977836447
 20
-137.3928195186032
 10
79.21239147325247
 20
-137.6043483813975
 10
79.21239147325247
 20
-137.7204480992505
 10
79.21239147325247
 20
-137.8961479689982
 10
79.30764836341962
 20
-138.0591009854505
 10
79.49161646233196
 20
-138.0591009854505
 10
79.6121948043157
 20
-138.0591009854505
 10
79.78789467406345
 20
-137.9998453431042
 10
79.78789467406345
 20
-137.714246927377
 10
79.78789467406345
 20
-137.4899712112872
 10
79.64819605213657
 20
-137.3928195186032
 10
79.51280379956624
 20
-137.3928195186032
 97
        0
 97
        0
 75
     2
 76
     1
 98
        0
  0
ENDBLK
  5
9F
330
9C
100
AcDbEntity
  8
0
100
AcDbBlockEnd
  0
BLOCK
  5
B1
330
AF
100
AcDbEntity
  8
0
100
AcDbBlockBegin
  2
block 5
 70
     0
 10
0.0
 20
0.0
 30
0.0
  3
block 5
  1

  0
POLYLINE
  5
B3
330
AF
100
AcDbEntity
  8
_U+30EC_U+30A4_U+30E4_U+30FC 1
370
     0
100
AcDb2dPolyline
 66
     1
 10
0.0
 20
0.0
 30
0.0
  0
VERTEX
  5
B4
330
B3
100
AcDbEntity
  8
_U+30EC_U+30A4_U+30E4_U+30FC 1
370
     0
100
AcDbVertex
100
AcDb2dVertex
 10
84.83823240066545
 20
-137.8537732945296
 30
0.0
  0
VERTEX
  5
B5
330
B3
100
AcDbEntity
  8
_U+30EC_U+30A4_U+30E4_U+30FC 1
370
     0
100
AcDbVertex
100
AcDb2dVertex
 10
84.83823240066545
 20
-138.2006944098943
 30
0.0
  0
VERTEX
  5
B6
330
B3
100
AcDbEntity
  8
_U+30EC_U+30A4_U+30E4_U+30FC 1
370
     0
100
AcDbVertex
100
AcDb2dVertex
 10
84.6203301112234
 20
-138.2006944098943
 30
0.0
  0
VERTEX
  5
B7
330
B3
100
AcDbEntity
  8
_U+30EC_U+30A4_U+30E4_U+30FC 1
370
     0
100
AcDbVertex
100
AcDb2dVertex
 10
84.6203301112234
 20
-137.8537732945296
 30
0.0
  0
VERTEX
  5
B8
330
B3
100
AcDbEntity
  8
_U+30EC_U+30A4_U+30E4_U+30FC 1
370
     0
100
AcDbVertex
100
AcDb2dVertex
 10
83.96455618560609
 20
-137.8537732945296
 30
0.0
  0
VERTEX
  5
B9
330
B3
100
AcDbEntity
  8
_U+30EC_U+30A4_U+30E4_U+30FC 1
370
     0
100
AcDbVertex
100
AcDb2dVertex
 10
83.96455618560609
 20
-137.6294975784399
 30
0.0
  0
VERTEX
  5
BA
330
B3
100
AcDbEntity
  8
_U+30EC_U+30A4_U+30E4_U+30FC 1
370
     0
100
AcDbVertex
100
AcDb2dVertex
 10
84.64358450574883
 20
-136.6566026134053
 30
0.0
  0
VERTEX
  5
BB
330
B3
100
AcDbEntity
  8
_U+30EC_U+30A4_U+30E4_U+30FC 1
370
     0
100
AcDbVertex
100
AcDb2dVertex
 10
84.83823240066545
 20
-136.6566026134053
 30
0.0
  0
VERTEX
  5
BC
330
B3
100
AcDbEntity
  8
_U+30EC_U+30A4_U+30E4_U+30FC 1
370
     0
100
AcDbVertex
100
AcDb2dVertex
 10
84.83823240066545
 20
-137.6549912850307
 30
0.0
  0
VERTEX
  5
BD
330
B3
100
AcDbEntity
  8
_U+30EC_U+30A4_U+30E4_U+30FC 1
370
     0
100
AcDbVertex
100
AcDb2dVertex
 10
85.04562714887749
 20
-137.6549912850307
 30
0.0
  0
VERTEX
  5
BE
330
B3
100
AcDbEntity
  8
_U+30EC_U+30A4_U+30E4_U+30FC 1
370
     0
100
AcDbVertex
100
AcDb2dVertex
 10
85.04562714887749
 20
-137.8537732945296
 30
0.0
  0
VERTEX
  5
BF
330
B3
100
AcDbEntity
  8
_U+30EC_U+30A4_U+30E4_U+30FC 1
370
     0
100
AcDbVertex
100
AcDb2dVertex
 10
84.83823240066545
 20
-137.8537732945296
 30
0.0
  0
SEQEND
  5
C0
330
B3
100
AcDbEntity
  8
_U+30EC_U+30A4_U+30E4_U+30FC 1
370
     0
  0
POLYLINE
  5
C1
330
AF
100
AcDbEntity
  8
_U+30EC_U+30A4_U+30E4_U+30FC 1
370
     0
100
AcDb2dPolyline
 66
     1
 10
0.0
 20
0.0
 30
0.0
  0
VERTEX
  5
C2
330
C1
100
AcDbEntity
  8
_U+30EC_U+30A4_U+30E4_U+30FC 1
370
     0
100
AcDbVertex
100
AcDb2dVertex
 10
84.6203301112234
 20
-136.9990451046391
 30
0.0
  0
VERTEX
  5
C3
330
C1
100
AcDbEntity
  8
_U+30EC_U+30A4_U+30E4_U+30FC 1
370
     0
100
AcDbVertex
100
AcDb2dVertex
 10
84.16351044987927
 20
-137.6549912850307
 30
0.0
  0
VERTEX
  5
C4
330
C1
100
AcDbEntity
  8
_U+30EC_U+30A4_U+30E4_U+30FC 1
370
     0
100
AcDbVertex
100
AcDb2dVertex
 10
84.6203301112234
 20
-137.6549912850307
 30
0.0
  0
VERTEX
  5
C5
330
C1
100
AcDbEntity
  8
_U+30EC_U+30A4_U+30E4_U+30FC 1
370
     0
100
AcDbVertex
100
AcDb2dVertex
 10
84.6203301112234
 20
-136.9990451046391
 30
0.0
  0
SEQEND
  5
C6
330
C1
100
AcDbEntity
  8
_U+30EC_U+30A4_U+30E4_U+30FC 1
370
     0
  0
HATCH
  5
C7
330
AF
100
AcDbEntity
  8
_U+30EC_U+30A4_U+30E4_U+30FC 1
 62
     7
420
 16777215
100
AcDbHatch
 10
0.0
 20
0.0
 30
0.0
210
0.0
220
0.0
230
1.0
  2
SOLID
 70
     1
 71
     0
 91
        2
 92
        1
 93
       11
 72
     1
 10
84.83823240066545
 20
-137.8537732945296
 11
84.83823240066545
 21
-138.2006944098943
 72
     1
 10
84.83823240066545
 20
-138.2006944098943
 11
84.6203301112234
 21
-138.2006944098943
 72
     1
 10
84.6203301112234
 20
-138.2006944098943
 11
84.6203301112234
 21
-137.8537732945296
 72
     1
 10
84.6203301112234
 20
-137.8537732945296
 11
83.96455618560609
 21
-137.8537732945296
 72
     1
 10
83.96455618560609
 20
-137.8537732945296
 11
83.96455618560609
 21
-137.6294975784399
 72
     1
 10
83.96455618560609
 20
-137.6294975784399
 11
84.64358450574883
 21
-136.6566026134053
 72
     1
 10
84.64358450574883
 20
-136.6566026134053
 11
84.83823240066545
 21
-136.6566026134053
 72
     1
 10
84.83823240066545
 20
-136.6566026134053
 11
84.83823240066545
 21
-137.6549912850307
 72
     1
 10
84.83823240066545
 20
-137.6549912850307
 11
85.04562714887749
 21
-137.6549912850307
 72
     1
 10
85.04562714887749
 20
-137.6549912850307
 11
85.04562714887749
 21
-137.8537732945296
 72
     1
 10
85.04562714887749
 20
-137.8537732945296
 11
84.83823240066545
 21
-137.8537732945296
 97
        0
 92
        1
 93
        3
 72
     1
 10
84.6203301112234
 20
-136.9990451046391
 11
84.16351044987927
 21
-137.6549912850307
 72
     1
 10
84.16351044987927
 20
-137.6549912850307
 11
84.6203301112234
 21
-137.6549912850307
 72
     1
 10
84.6203301112234
 20
-137.6549912850307
 11
84.6203301112234
 21
-136.9990451046391
 97
        0
 75
     2
 76
     1
 98
        0
  0
ENDBLK
  5
B2
330
AF
100
AcDbEntity
  8
0
100
AcDbBlockEnd
  0
BLOCK
  5
D2
330
D0
100
AcDbEntity
  8
0
100
AcDbBlockBegin
  2
block 6
 70
     0
 10
0.0
 20
0.0
 30
0.0
  3
block 6
  1

  0
SPLINE
  5
D4
330
D0
100
AcDbEntity
  8
_U+30EC_U+30A4_U+30E4_U+30FC 1
370
     0
100
AcDbSpline
210
0.0
220
0.0
230
1.0
 70
    11
 71
     3
 72
    29
 73
    25
 74
     0
 42
0.0000000001
 43
0.0000000001
 12
1.0
 22
0.0
 32
0.0
 13
1.0
 23
0.0
 33
0.0
 40
0.0
 40
0.0
 40
0.0
 40
0.0
 40
1.0
 40
1.0
 40
1.0
 40
2.0
 40
2.0
 40
2.0
 40
3.0
 40
3.0
 40
3.0
 40
4.0
 40
4.0
 40
4.0
 40
5.0
 40
5.0
 40
5.0
 40
6.0
 40
6.0
 40
6.0
 40
7.0
 40
7.0
 40
7.0
 40
8.0
 40
8.0
 40
8.0
 40
8.0
 10
102.9153374308684
 20
-130.6104600367918
 30
0.0
 10
102.9153374308684
 20
-130.8771104273502
 30
0.0
 10
102.7778781210069
 20
-131.1306694550645
 30
0.0
 10
102.4288899483511
 20
-131.1306694550645
 30
0.0
 10
102.1729193537971
 20
-131.1306694550645
 30
0.0
 10
102.0778347184042
 20
-130.9890760306208
 30
0.0
 10
102.0165120187667
 20
-130.8833115992236
 30
0.0
 10
101.9572563764204
 20
-131.0080240557897
 30
0.0
 10
101.8428792063101
 20
-131.0841606660137
 30
0.0
 10
101.681993247149
 20
-131.0841606660137
 30
0.0
 10
101.407074627426
 20
-131.0841606660137
 30
0.0
 10
101.2716823748557
 20
-130.8853786565148
 30
0.0
 10
101.2716823748557
 20
-130.6104600367918
 30
0.0
 10
101.2716823748557
 20
-130.3269286783558
 30
0.0
 10
101.4156873661391
 20
-130.1364148980215
 30
0.0
 10
101.681993247149
 20
-130.1364148980215
 30
0.0
 10
101.8428792063101
 20
-130.1364148980215
 30
0.0
 10
101.9572563764204
 20
-130.2149630750852
 30
0.0
 10
102.0165120187667
 20
-130.3396755316512
 30
0.0
 10
102.0671549223999
 20
-130.2507920681317
 30
0.0
 10
102.1622395577928
 20
-130.0919731662617
 30
0.0
 10
102.4247558337688
 20
-130.0919731662617
 30
0.0
 10
102.7992377130155
 20
-130.0919731662617
 30
0.0
 10
102.9153374308684
 20
-130.3713704101155
 30
0.0
 10
102.9153374308684
 20
-130.6104600367918
 30
0.0
  0
SPLINE
  5
D5
330
D0
100
AcDbEntity
  8
_U+30EC_U+30A4_U+30E4_U+30FC 1
370
     0
100
AcDbSpline
210
0.0
220
0.0
230
1.0
 70
    11
 71
     3
 72
    17
 73
    13
 74
     0
 42
0.0000000001
 43
0.0000000001
 12
1.0
 22
0.0
 32
0.0
 13
1.0
 23
0.0
 33
0.0
 40
0.0
 40
0.0
 40
0.0
 40
0.0
 40
1.0
 40
1.0
 40
1.0
 40
2.0
 40
2.0
 40
2.0
 40
3.0
 40
3.0
 40
3.0
 40
4.0
 40
4.0
 40
4.0
 40
4.0
 10
101.4642632124812
 20
-130.6104600367918
 30
0.0
 10
101.4642632124812
 20
-130.7754801105353
 30
0.0
 10
101.5593478478741
 20
-130.8598849499239
 30
0.0
 10
101.6947401004444
 20
-130.8598849499239
 30
0.0
 10
101.8173854997193
 20
-130.8598849499239
 30
0.0
 10
101.9358967844119
 20
-130.7882269638307
 30
0.0
 10
101.9358967844119
 20
-130.6104600367918
 30
0.0
 10
101.9358967844119
 20
-130.4326931097529
 30
0.0
 10
101.8173854997193
 20
-130.3606906141112
 30
0.0
 10
101.6947401004444
 20
-130.3606906141112
 30
0.0
 10
101.5593478478741
 20
-130.3606906141112
 30
0.0
 10
101.4642632124812
 20
-130.4475070203395
 30
0.0
 10
101.4642632124812
 20
-130.6104600367918
 30
0.0
  0
SPLINE
  5
D6
330
D0
100
AcDbEntity
  8
_U+30EC_U+30A4_U+30E4_U+30FC 1
370
     0
100
AcDbSpline
210
0.0
220
0.0
230
1.0
 70
    11
 71
     3
 72
    17
 73
    13
 74
     0
 42
0.0000000001
 43
0.0000000001
 12
1.0
 22
0.0
 32
0.0
 13
1.0
 23
0.0
 33
0.0
 40
0.0
 40
0.0
 40
0.0
 40
0.0
 40
1.0
 40
1.0
 40
1.0
 40
2.0
 40
2.0
 40
2.0
 40
3.0
 40
3.0
 40
3.0
 40
4.0
 40
4.0
 40
4.0
 40
4.0
 10
102.124343507455
 20
-130.6104600367918
 30
0.0
 10
102.124343507455
 20
-130.7541205185267
 30
0.0
 10
102.2111599136833
 20
-130.9067382485233
 30
0.0
 10
102.4140760377645
 20
-130.9067382485233
 30
0.0
 10
102.6194037286854
 20
-130.9067382485233
 30
0.0
 10
102.7206895359518
 20
-130.7796142251176
 30
0.0
 10
102.7206895359518
 20
-130.6104600367918
 30
0.0
 10
102.7206895359518
 20
-130.4244248805883
 30
0.0
 10
102.5980441366769
 20
-130.3141818250604
 30
0.0
 10
102.420277209638
 20
-130.3141818250604
 30
0.0
 10
102.1984130603879
 20
-130.3141818250604
 30
0.0
 10
102.124343507455
 20
-130.4771348415127
 30
0.0
 10
102.124343507455
 20
-130.6104600367918
 30
0.0
  0
HATCH
  5
D7
330
D0
100
AcDbEntity
  8
_U+30EC_U+30A4_U+30E4_U+30FC 1
 62
     7
420
 16777215
100
AcDbHatch
 10
0.0
 20
0.0
 30
0.0
210
0.0
220
0.0
230
1.0
  2
SOLID
 70
     1
 71
     0
 91
        3
 92
        1
 93
        1
 72
     4
 94
        3
 73
     0
 74
     1
 95
       29
 96
       25
 40
0.0
 40
0.0
 40
0.0
 40
0.0
 40
1.0
 40
1.0
 40
1.0
 40
2.0
 40
2.0
 40
2.0
 40
3.0
 40
3.0
 40
3.0
 40
4.0
 40
4.0
 40
4.0
 40
5.0
 40
5.0
 40
5.0
 40
6.0
 40
6.0
 40
6.0
 40
7.0
 40
7.0
 40
7.0
 40
8.0
 40
8.0
 40
8.0
 40
8.0
 10
102.9153374308684
 20
-130.6104600367918
 10
102.9153374308684
 20
-130.8771104273502
 10
102.7778781210069
 20
-131.1306694550645
 10
102.4288899483511
 20
-131.1306694550645
 10
102.1729193537971
 20
-131.1306694550645
 10
102.0778347184042
 20
-130.9890760306208
 10
102.0165120187667
 20
-130.8833115992236
 10
101.9572563764204
 20
-131.0080240557897
 10
101.8428792063101
 20
-131.0841606660137
 10
101.681993247149
 20
-131.0841606660137
 10
101.407074627426
 20
-131.0841606660137
 10
101.2716823748557
 20
-130.8853786565148
 10
101.2716823748557
 20
-130.6104600367918
 10
101.2716823748557
 20
-130.3269286783558
 10
101.4156873661391
 20
-130.1364148980215
 10
101.681993247149
 20
-130.1364148980215
 10
101.8428792063101
 20
-130.1364148980215
 10
101.9572563764204
 20
-130.2149630750852
 10
102.0165120187667
 20
-130.3396755316512
 10
102.0671549223999
 20
-130.2507920681317
 10
102.1622395577928
 20
-130.0919731662617
 10
102.4247558337688
 20
-130.0919731662617
 10
102.7992377130155
 20
-130.0919731662617
 10
102.9153374308684
 20
-130.3713704101155
 10
102.9153374308684
 20
-130.6104600367918
 97
        0
 97
        0
 92
        1
 93
        1
 72
     4
 94
        3
 73
     0
 74
     1
 95
       17
 96
       13
 40
0.0
 40
0.0
 40
0.0
 40
0.0
 40
1.0
 40
1.0
 40
1.0
 40
2.0
 40
2.0
 40
2.0
 40
3.0
 40
3.0
 40
3.0
 40
4.0
 40
4.0
 40
4.0
 40
4.0
 10
101.4642632124812
 20
-130.6104600367918
 10
101.4642632124812
 20
-130.7754801105353
 10
101.5593478478741
 20
-130.8598849499239
 10
101.6947401004444
 20
-130.8598849499239
 10
101.8173854997193
 20
-130.8598849499239
 10
101.9358967844119
 20
-130.7882269638307
 10
101.9358967844119
 20
-130.6104600367918
 10
101.9358967844119
 20
-130.4326931097529
 10
101.8173854997193
 20
-130.3606906141112
 10
101.6947401004444
 20
-130.3606906141112
 10
101.5593478478741
 20
-130.3606906141112
 10
101.4642632124812
 20
-130.4475070203395
 10
101.4642632124812
 20
-130.6104600367918
 97
        0
 97
        0
 92
        1
 93
        1
 72
     4
 94
        3
 73
     0
 74
     1
 95
       17
 96
       13
 40
0.0
 40
0.0
 40
0.0
 40
0.0
 40
1.0
 40
1.0
 40
1.0
 40
2.0
 40
2.0
 40
2.0
 40
3.0
 40
3.0
 40
3.0
 40
4.0
 40
4.0
 40
4.0
 40
4.0
 10
102.124343507455
 20
-130.6104600367918
 10
102.124343507455
 20
-130.7541205185267
 10
102.2111599136833
 20
-130.9067382485233
 10
102.4140760377645
 20
-130.9067382485233
 10
102.6194037286854
 20
-130.9067382485233
 10
102.7206895359518
 20
-130.7796142251176
 10
102.7206895359518
 20
-130.6104600367918
 10
102.7206895359518
 20
-130.4244248805883
 10
102.5980441366769
 20
-130.3141818250604
 10
102.420277209638
 20
-130.3141818250604
 10
102.1984130603879
 20
-130.3141818250604
 10
102.124343507455
 20
-130.4771348415127
 10
102.124343507455
 20
-130.6104600367918
 97
        0
 97
        0
 75
     2
 76
     1
 98
        0
  0
POLYLINE
  5
D8
330
D0
100
AcDbEntity
  8
_U+30EC_U+30A4_U+30E4_U+30FC 1
370
     0
100
AcDb2dPolyline
 66
     1
 10
0.0
 20
0.0
 30
0.0
  0
VERTEX
  5
D9
330
D8
100
AcDbEntity
  8
_U+30EC_U+30A4_U+30E4_U+30FC 1
370
     0
100
AcDbVertex
100
AcDb2dVertex
 10
102.8646945272352
 20
-129.8735541124969
 30
0.0
  0
VERTEX
  5
DA
330
D8
100
AcDbEntity
  8
_U+30EC_U+30A4_U+30E4_U+30FC 1
370
     0
100
AcDbVertex
100
AcDb2dVertex
 10
102.6128580472635
 20
-129.8735541124969
 30
0.0
  0
VERTEX
  5
DB
330
D8
100
AcDbEntity
  8
_U+30EC_U+30A4_U+30E4_U+30FC 1
370
     0
100
AcDbVertex
100
AcDb2dVertex
 10
102.6128580472635
 20
-129.6217176325251
 30
0.0
  0
VERTEX
  5
DC
330
D8
100
AcDbEntity
  8
_U+30EC_U+30A4_U+30E4_U+30FC 1
370
     0
100
AcDbVertex
100
AcDb2dVertex
 10
102.8646945272352
 20
-129.6217176325251
 30
0.0
  0
VERTEX
  5
DD
330
D8
100
AcDbEntity
  8
_U+30EC_U+30A4_U+30E4_U+30FC 1
370
     0
100
AcDbVertex
100
AcDb2dVertex
 10
102.8646945272352
 20
-129.8735541124969
 30
0.0
  0
SEQEND
  5
DE
330
D8
100
AcDbEntity
  8
_U+30EC_U+30A4_U+30E4_U+30FC 1
370
     0
  0
HATCH
  5
DF
330
D0
100
AcDbEntity
  8
_U+30EC_U+30A4_U+30E4_U+30FC 1
 62
     7
420
 16777215
100
AcDbHatch
 10
0.0
 20
0.0
 30
0.0
210
0.0
220
0.0
230
1.0
  2
SOLID
 70
     1
 71
     0
 91
        1
 92
        1
 93
        4
 72
     1
 10
102.8646945272352
 20
-129.8735541124969
 11
102.6128580472635
 21
-129.8735541124969
 72
     1
 10
102.6128580472635
 20
-129.8735541124969
 11
102.6128580472635
 21
-129.6217176325251
 72
     1
 10
102.6128580472635
 20
-129.6217176325251
 11
102.8646945272352
 21
-129.6217176325251
 72
     1
 10
102.8646945272352
 20
-129.6217176325251
 11
102.8646945272352
 21
-129.8735541124969
 97
        0
 75
     2
 76
     1
 98
        0
  0
SPLINE
  5
E0
330
D0
100
AcDbEntity
  8
_U+30EC_U+30A4_U+30E4_U+30FC 1
370
     0
100
AcDbSpline
210
0.0
220
0.0
230
1.0
 70
    11
 71
     3
 72
    44
 73
    40
 74
     0
 42
0.0000000001
 43
0.0000000001
 12
1.0
 22
0.0
 32
0.0
 13
1.0
 23
0.0
 33
0.0
 40
0.0
 40
0.0
 40
0.0
 40
0.0
 40
1.0
 40
1.0
 40
1.0
 40
2.0
 40
2.0
 40
2.0
 40
3.0
 40
3.0
 40
3.0
 40
4.0
 40
4.0
 40
4.0
 40
5.0
 40
5.0
 40
5.0
 40
6.0
 40
6.0
 40
6.0
 40
7.0
 40
7.0
 40
7.0
 40
8.0
 40
8.0
 40
8.0
 40
9.0
 40
9.0
 40
9.0
 40
10.0
 40
10.0
 40
10.0
 40
11.0
 40
11.0
 40
11.0
 40
12.0
 40
12.0
 40
12.0
 40
13.0
 40
13.0
 40
13.0
 40
13.0
 10
102.2828178997765
 20
-128.7924831492255
 30
0.0
 10
102.4416368016465
 20
-129.0102131838933
 30
0.0
 10
102.5157063545794
 20
-129.103230761995
 30
0.0
 10
102.6593668363143
 20
-129.1521511178856
 30
0.0
 10
102.6593668363143
 20
-129.1521511178856
 30
0.0
 10
102.6593668363143
 20
-128.3735595382191
 30
0.0
 10
102.6593668363143
 20
-128.3735595382191
 30
0.0
 10
102.6593668363143
 20
-128.3735595382191
 30
0.0
 10
102.8646945272352
 20
-128.3735595382191
 30
0.0
 10
102.8646945272352
 20
-128.3735595382191
 30
0.0
 10
102.8646945272352
 20
-128.3735595382191
 30
0.0
 10
102.8646945272352
 20
-129.4015760310177
 30
0.0
 10
102.8646945272352
 20
-129.4015760310177
 30
0.0
 10
102.5070936158663
 20
-129.3698811525534
 30
0.0
 10
102.4288899483511
 20
-129.3044243383336
 30
0.0
 10
102.1305446793285
 20
-128.9192626630827
 30
0.0
 10
101.9317626698296
 20
-128.6632920685286
 30
0.0
 10
101.8638942887701
 20
-128.5978352543089
 30
0.0
 10
101.7264349789087
 20
-128.5978352543089
 30
0.0
 10
101.6079236942161
 20
-128.5978352543089
 30
0.0
 10
101.4770100657766
 20
-128.6698377499506
 30
0.0
 10
101.4770100657766
 20
-128.8665527021584
 30
0.0
 10
101.4770100657766
 20
-129.1266574112947
 30
0.0
 10
101.7074869537398
 20
-129.1352701500078
 30
0.0
 10
101.8239311811412
 20
-129.1394042645902
 30
0.0
 10
101.8239311811412
 20
-129.1394042645902
 30
0.0
 10
101.8239311811412
 20
-129.3636799806799
 30
0.0
 10
101.8239311811412
 20
-129.3636799806799
 30
0.0
 10
101.6968071577355
 20
-129.3550672419668
 30
0.0
 10
101.5848415544649
 20
-129.3443874459625
 30
0.0
 10
101.4663302697723
 20
-129.2641167211562
 30
0.0
 10
101.3054443106112
 20
-129.1542181751767
 30
0.0
 10
101.2716823748557
 20
-128.9678385094247
 30
0.0
 10
101.2716823748557
 20
-128.8517387915718
 30
0.0
 10
101.2716823748557
 20
-128.5744086050092
 30
0.0
 10
101.455650473768
 20
-128.3670138567971
 30
0.0
 10
101.7285020361998
 20
-128.3670138567971
 30
0.0
 10
101.9572563764204
 20
-128.3670138567971
 30
0.0
 10
102.0564751263956
 20
-128.4834580841986
 30
0.0
 10
102.2828178997765
 20
-128.7924831492255
 30
0.0
  0
HATCH
  5
E1
330
D0
100
AcDbEntity
  8
_U+30EC_U+30A4_U+30E4_U+30FC 1
 62
     7
420
 16777215
100
AcDbHatch
 10
0.0
 20
0.0
 30
0.0
210
0.0
220
0.0
230
1.0
  2
SOLID
 70
     1
 71
     0
 91
        1
 92
        1
 93
        1
 72
     4
 94
        3
 73
     0
 74
     1
 95
       44
 96
       40
 40
0.0
 40
0.0
 40
0.0
 40
0.0
 40
1.0
 40
1.0
 40
1.0
 40
2.0
 40
2.0
 40
2.0
 40
3.0
 40
3.0
 40
3.0
 40
4.0
 40
4.0
 40
4.0
 40
5.0
 40
5.0
 40
5.0
 40
6.0
 40
6.0
 40
6.0
 40
7.0
 40
7.0
 40
7.0
 40
8.0
 40
8.0
 40
8.0
 40
9.0
 40
9.0
 40
9.0
 40
10.0
 40
10.0
 40
10.0
 40
11.0
 40
11.0
 40
11.0
 40
12.0
 40
12.0
 40
12.0
 40
13.0
 40
13.0
 40
13.0
 40
13.0
 10
102.2828178997765
 20
-128.7924831492255
 10
102.4416368016465
 20
-129.0102131838933
 10
102.5157063545794
 20
-129.103230761995
 10
102.6593668363143
 20
-129.1521511178856
 10
102.6593668363143
 20
-129.1521511178856
 10
102.6593668363143
 20
-128.3735595382191
 10
102.6593668363143
 20
-128.3735595382191
 10
102.6593668363143
 20
-128.3735595382191
 10
102.8646945272352
 20
-128.3735595382191
 10
102.8646945272352
 20
-128.3735595382191
 10
102.8646945272352
 20
-128.3735595382191
 10
102.8646945272352
 20
-129.4015760310177
 10
102.8646945272352
 20
-129.4015760310177
 10
102.5070936158663
 20
-129.3698811525534
 10
102.4288899483511
 20
-129.3044243383336
 10
102.1305446793285
 20
-128.9192626630827
 10
101.9317626698296
 20
-128.6632920685286
 10
101.8638942887701
 20
-128.5978352543089
 10
101.7264349789087
 20
-128.5978352543089
 10
101.6079236942161
 20
-128.5978352543089
 10
101.4770100657766
 20
-128.6698377499506
 10
101.4770100657766
 20
-128.8665527021584
 10
101.4770100657766
 20
-129.1266574112947
 10
101.7074869537398
 20
-129.1352701500078
 10
101.8239311811412
 20
-129.1394042645902
 10
101.8239311811412
 20
-129.1394042645902
 10
101.8239311811412
 20
-129.3636799806799
 10
101.8239311811412
 20
-129.3636799806799
 10
101.6968071577355
 20
-129.3550672419668
 10
101.5848415544649
 20
-129.3443874459625
 10
101.4663302697723
 20
-129.2641167211562
 10
101.3054443106112
 20
-129.1542181751767
 10
101.2716823748557
 20
-128.9678385094247
 10
101.2716823748557
 20
-128.8517387915718
 10
101.2716823748557
 20
-128.5744086050092
 10
101.455650473768
 20
-128.3670138567971
 10
101.7285020361998
 20
-128.3670138567971
 10
101.9572563764204
 20
-128.3670138567971
 10
102.0564751263956
 20
-128.4834580841986
 10
102.2828178997765
 20
-128.7924831492255
 97
        0
 97
        0
 75
     2
 76
     1
 98
        0
  0
ENDBLK
  5
D3
330
D0
100
AcDbEntity
  8
0
100
AcDbBlockEnd
  0
ENDSEC
  0
SECTION
  2
ENTITIES
  0
POLYLINE
  5
41
330
1F
100
AcDbEntity
  8
_U+30EC_U+30A4_U+30E4_U+30FC 1
370
     0
100
AcDb2dPolyline
 66
     1
 10
0.0
 20
0.0
 30
0.0
  0
VERTEX
  5
42
330
41
100
AcDbEntity
  8
_U+30EC_U+30A4_U+30E4_U+30FC 1
370
     0
100
AcDbVertex
100
AcDb2dVertex
 10
76.52247221441576
 20
-125.6472735796993
 30
0.0
  0
VERTEX
  5
43
330
41
100
AcDbEntity
  8
_U+30EC_U+30A4_U+30E4_U+30FC 1
370
     0
100
AcDbVertex
100
AcDb2dVertex
 10
82.51073372830915
 20
-125.6472735796993
 30
0.0
  0
VERTEX
  5
44
330
41
100
AcDbEntity
  8
_U+30EC_U+30A4_U+30E4_U+30FC 1
370
     0
100
AcDbVertex
100
AcDb2dVertex
 10
82.51073372830915
 20
-134.8472241329548
 30
0.0
  0
VERTEX
  5
45
330
41
100
AcDbEntity
  8
_U+30EC_U+30A4_U+30E4_U+30FC 1
370
     0
100
AcDbVertex
100
AcDb2dVertex
 10
86.5015322376065
 20
-134.8472241329548
 30
0.0
  0
VERTEX
  5
46
330
41
100
AcDbEntity
  8
_U+30EC_U+30A4_U+30E4_U+30FC 1
370
     0
100
AcDbVertex
100
AcDb2dVertex
 10
86.5015322376065
 20
-133.8467816332049
 30
0.0
  0
VERTEX
  5
47
330
41
100
AcDbEntity
  8
_U+30EC_U+30A4_U+30E4_U+30FC 1
370
     0
100
AcDbVertex
100
AcDb2dVertex
 10
83.4112695386679
 20
-133.8467816332049
 30
0.0
  0
VERTEX
  5
48
330
41
100
AcDbEntity
  8
_U+30EC_U+30A4_U+30E4_U+30FC 1
370
     0
100
AcDbVertex
100
AcDb2dVertex
 10
83.4112695386679
 20
-125.6472735796993
 30
0.0
  0
VERTEX
  5
49
330
41
100
AcDbEntity
  8
_U+30EC_U+30A4_U+30E4_U+30FC 1
370
     0
100
AcDbVertex
100
AcDb2dVertex
 10
99.51088273904365
 20
-125.6472735796993
 30
0.0
  0
VERTEX
  5
4A
330
41
100
AcDbEntity
  8
_U+30EC_U+30A4_U+30E4_U+30FC 1
370
     0
100
AcDbVertex
100
AcDb2dVertex
 10
99.51088273904365
 20
-124.6475013577271
 30
0.0
  0
VERTEX
  5
4B
330
41
100
AcDbEntity
  8
_U+30EC_U+30A4_U+30E4_U+30FC 1
370
     0
100
AcDbVertex
100
AcDb2dVertex
 10
76.52247221441576
 20
-124.6475013577271
 30
0.0
  0
VERTEX
  5
4C
330
41
100
AcDbEntity
  8
_U+30EC_U+30A4_U+30E4_U+30FC 1
370
     0
100
AcDbVertex
100
AcDb2dVertex
 10
76.52247221441576
 20
-125.6472735796993
 30
0.0
  0
SEQEND
  5
4E
330
41
100
AcDbEntity
  8
_U+30EC_U+30A4_U+30E4_U+30FC 1
370
     0
  0
HATCH
  5
4D
330
1F
100
AcDbEntity
  8
_U+30EC_U+30A4_U+30E4_U+30FC 1
 62
   253
420
 11711154
100
AcDbHatch
 10
0.0
 20
0.0
 30
0.0
210
0.0
220
0.0
230
1.0
  2
SOLID
 70
     1
 71
     0
 91
        1
 92
        1
 93
       10
 72
     1
 10
76.52247221441576
 20
-125.6472735796993
 11
82.51073372830915
 21
-125.6472735796993
 72
     1
 10
82.51073372830915
 20
-125.6472735796993
 11
82.51073372830915
 21
-134.8472241329548
 72
     1
 10
82.51073372830915
 20
-134.8472241329548
 11
86.5015322376065
 21
-134.8472241329548
 72
     1
 10
86.5015322376065
 20
-134.8472241329548
 11
86.5015322376065
 21
-133.8467816332049
 72
     1
 10
86.5015322376065
 20
-133.8467816332049
 11
83.4112695386679
 21
-133.8467816332049
 72
     1
 10
83.4112695386679
 20
-133.8467816332049
 11
83.4112695386679
 21
-125.6472735796993
 72
     1
 10
83.4112695386679
 20
-125.6472735796993
 11
99.51088273904365
 21
-125.6472735796993
 72
     1
 10
99.51088273904365
 20
-125.6472735796993
 11
99.51088273904365
 21
-124.6475013577271
 72
     1
 10
99.51088273904365
 20
-124.6475013577271
 11
76.52247221441576
 21
-124.6475013577271
 72
     1
 10
76.52247221441576
 20
-124.6475013577271
 11
76.52247221441576
 21
-125.6472735796993
 97
        0
 75
     2
 76
     1
 98
        0
  0
POLYLINE
  5
4F
330
1F
100
AcDbEntity
  8
_U+30EC_U+30A4_U+30E4_U+30FC 1
 62
     7
420
 16777215
370
    25
100
AcDb2dPolyline
 66
     1
 10
0.0
 20
0.0
 30
0.0
  0
VERTEX
  5
50
330
4F
100
AcDbEntity
  8
_U+30EC_U+30A4_U+30E4_U+30FC 1
 62
     7
420
 16777215
370
    25
100
AcDbVertex
100
AcDb2dVertex
 10
82.51073372830915
 20
-125.6472735796993
 30
0.0
  0
VERTEX
  5
51
330
4F
100
AcDbEntity
  8
_U+30EC_U+30A4_U+30E4_U+30FC 1
 62
     7
420
 16777215
370
    25
100
AcDbVertex
100
AcDb2dVertex
 10
76.51143027025302
 20
-125.6472735796993
 30
0.0
  0
VERTEX
  5
52
330
4F
100
AcDbEntity
  8
_U+30EC_U+30A4_U+30E4_U+30FC 1
 62
     7
420
 16777215
370
    25
100
AcDbVertex
100
AcDb2dVertex
 10
76.49488499289734
 20
-125.6472735796993
 30
0.0
  0
VERTEX
  5
53
330
4F
100
AcDbEntity
  8
_U+30EC_U+30A4_U+30E4_U+30FC 1
 62
     7
420
 16777215
370
    25
100
AcDbVertex
100
AcDb2dVertex
 10
76.49488499289734
 20
-124.6475013577271
 30
0.0
  0
VERTEX
  5
54
330
4F
100
AcDbEntity
  8
_U+30EC_U+30A4_U+30E4_U+30FC 1
 62
     7
420
 16777215
370
    25
100
AcDbVertex
100
AcDb2dVertex
 10
76.51143027025302
 20
-124.6475013577271
 30
0.0
  0
VERTEX
  5
55
330
4F
100
AcDbEntity
  8
_U+30EC_U+30A4_U+30E4_U+30FC 1
 62
     7
420
 16777215
370
    25
100
AcDbVertex
100
AcDb2dVertex
 10
99.51088273904365
 20
-124.6475013577271
 30
0.0
  0
VERTEX
  5
56
330
4F
100
AcDbEntity
  8
_U+30EC_U+30A4_U+30E4_U+30FC 1
 62
     7
420
 16777215
370
    25
100
AcDbVertex
100
AcDb2dVertex
 10
99.51088273904365
 20
-125.6472735796993
 30
0.0
  0
VERTEX
  5
57
330
4F
100
AcDbEntity
  8
_U+30EC_U+30A4_U+30E4_U+30FC 1
 62
     7
420
 16777215
370
    25
100
AcDbVertex
100
AcDb2dVertex
 10
83.4112695386679
 20
-125.6472735796993
 30
0.0
  0
VERTEX
  5
58
330
4F
100
AcDbEntity
  8
_U+30EC_U+30A4_U+30E4_U+30FC 1
 62
     7
420
 16777215
370
    25
100
AcDbVertex
100
AcDb2dVertex
 10
83.4112695386679
 20
-133.8467816332049
 30
0.0
  0
VERTEX
  5
59
330
4F
100
AcDbEntity
  8
_U+30EC_U+30A4_U+30E4_U+30FC 1
 62
     7
420
 16777215
370
    25
100
AcDbVertex
100
AcDb2dVertex
 10
86.5015322376065
 20
-133.8467816332049
 30
0.0
  0
VERTEX
  5
5A
330
4F
100
AcDbEntity
  8
_U+30EC_U+30A4_U+30E4_U+30FC 1
 62
     7
420
 16777215
370
    25
100
AcDbVertex
100
AcDb2dVertex
 10
86.5015322376065
 20
-134.8472241329548
 30
0.0
  0
VERTEX
  5
5B
330
4F
100
AcDbEntity
  8
_U+30EC_U+30A4_U+30E4_U+30FC 1
 62
     7
420
 16777215
370
    25
100
AcDbVertex
100
AcDb2dVertex
 10
82.51073372830915
 20
-134.8472241329548
 30
0.0
  0
VERTEX
  5
5C
330
4F
100
AcDbEntity
  8
_U+30EC_U+30A4_U+30E4_U+30FC 1
 62
     7
420
 16777215
370
    25
100
AcDbVertex
100
AcDb2dVertex
 10
82.51073372830915
 20
-125.6472735796993
 30
0.0
  0
SEQEND
  5
5D
330
4F
100
AcDbEntity
  8
_U+30EC_U+30A4_U+30E4_U+30FC 1
 62
     7
420
 16777215
370
    25
  0
SPLINE
  5
5E
330
1F
100
AcDbEntity
  8
_U+30EC_U+30A4_U+30E4_U+30FC 1
 62
     7
420
 16777215
370
     9
100
AcDbSpline
210
0.0
220
0.0
230
1.0
 70
    11
 71
     3
 72
    17
 73
    13
 74
     0
 42
0.0000000001
 43
0.0000000001
 12
1.0
 22
0.0
 32
0.0
 13
1.0
 23
0.0
 33
0.0
 40
0.0
 40
0.0
 40
0.0
 40
0.0
 40
1.0
 40
1.0
 40
1.0
 40
2.0
 40
2.0
 40
2.0
 40
3.0
 40
3.0
 40
3.0
 40
4.0
 40
4.0
 40
4.0
 40
4.0
 10
76.61133886973612
 20
-120.6477774698381
 30
0.0
 10
76.61133886973612
 20
-120.5926383031853
 30
0.0
 10
76.56656943551296
 20
-120.5478355254186
 30
0.0
 10
76.51143027025302
 20
-120.5478355254186
 30
0.0
 10
76.45632638276994
 20
-120.5478355254186
 30
0.0
 10
76.41152360613518
 20
-120.5926383031853
 30
0.0
 10
76.41152360613518
 20
-120.6477774698381
 30
0.0
 10
76.41152360613518
 20
-120.7028813587133
 30
0.0
 10
76.45632638276994
 20
-120.7476841364797
 30
0.0
 10
76.51143027025302
 20
-120.7476841364797
 30
0.0
 10
76.56656943551296
 20
-120.7476841364797
 30
0.0
 10
76.61133886973612
 20
-120.7028813587133
 30
0.0
 10
76.61133886973612
 20
-120.6477774698381
 30
0.0
  0
SPLINE
  5
5F
330
1F
100
AcDbEntity
  8
_U+30EC_U+30A4_U+30E4_U+30FC 1
 62
     7
420
 16777215
370
     9
100
AcDbSpline
210
0.0
220
0.0
230
1.0
 70
    11
 71
     3
 72
    17
 73
    13
 74
     0
 42
0.0000000001
 43
0.0000000001
 12
1.0
 22
0.0
 32
0.0
 13
1.0
 23
0.0
 33
0.0
 40
0.0
 40
0.0
 40
0.0
 40
0.0
 40
1.0
 40
1.0
 40
1.0
 40
2.0
 40
2.0
 40
2.0
 40
3.0
 40
3.0
 40
3.0
 40
4.0
 40
4.0
 40
4.0
 40
4.0
 10
99.61078940316149
 20
-120.6477774698381
 30
0.0
 10
99.61078940316149
 20
-120.5926383031853
 30
0.0
 10
99.56602190430361
 20
-120.5478355254186
 30
0.0
 10
99.51088273904365
 20
-120.5478355254186
 30
0.0
 10
99.45577885156058
 20
-120.5478355254186
 30
0.0
 10
99.41097607492581
 20
-120.5926383031853
 30
0.0
 10
99.41097607492581
 20
-120.6477774698381
 30
0.0
 10
99.41097607492581
 20
-120.7028813587133
 30
0.0
 10
99.45577885156058
 20
-120.7476841364797
 30
0.0
 10
99.51088273904365
 20
-120.7476841364797
 30
0.0
 10
99.56602190430361
 20
-120.7476841364797
 30
0.0
 10
99.61078940316149
 20
-120.7028813587133
 30
0.0
 10
99.61078940316149
 20
-120.6477774698381
 30
0.0
  0
SPLINE
  5
60
330
1F
100
AcDbEntity
  8
_U+30EC_U+30A4_U+30E4_U+30FC 1
 62
     7
420
 16777215
370
     9
100
AcDbSpline
210
0.0
220
0.0
230
1.0
 70
    11
 71
     3
 72
    17
 73
    13
 74
     0
 42
0.0000000001
 43
0.0000000001
 12
1.0
 22
0.0
 32
0.0
 13
1.0
 23
0.0
 33
0.0
 40
0.0
 40
0.0
 40
0.0
 40
0.0
 40
1.0
 40
1.0
 40
1.0
 40
2.0
 40
2.0
 40
2.0
 40
3.0
 40
3.0
 40
3.0
 40
4.0
 40
4.0
 40
4.0
 40
4.0
 10
103.6105484677858
 20
-125.6472735796993
 30
0.0
 10
103.6105484677858
 20
-125.5921696908241
 30
0.0
 10
103.5657809689279
 20
-125.5473669130577
 30
0.0
 10
103.5106444185665
 20
-125.5473669130577
 30
0.0
 10
103.4555379161849
 20
-125.5473669130577
 30
0.0
 10
103.4107351395501
 20
-125.5921696908241
 30
0.0
 10
103.4107351395501
 20
-125.6472735796993
 30
0.0
 10
103.4107351395501
 20
-125.7030830241298
 30
0.0
 10
103.4555379161849
 20
-125.7478858018965
 30
0.0
 10
103.5106444185665
 20
-125.7478858018965
 30
0.0
 10
103.5657809689279
 20
-125.7478858018965
 30
0.0
 10
103.6105484677858
 20
-125.7030830241298
 30
0.0
 10
103.6105484677858
 20
-125.6472735796993
 30
0.0
  0
SPLINE
  5
61
330
1F
100
AcDbEntity
  8
_U+30EC_U+30A4_U+30E4_U+30FC 1
 62
     7
420
 16777215
370
     9
100
AcDbSpline
210
0.0
220
0.0
230
1.0
 70
    11
 71
     3
 72
    17
 73
    13
 74
     0
 42
0.0000000001
 43
0.0000000001
 12
1.0
 22
0.0
 32
0.0
 13
1.0
 23
0.0
 33
0.0
 40
0.0
 40
0.0
 40
0.0
 40
0.0
 40
1.0
 40
1.0
 40
1.0
 40
2.0
 40
2.0
 40
2.0
 40
3.0
 40
3.0
 40
3.0
 40
4.0
 40
4.0
 40
4.0
 40
4.0
 10
103.6105484677858
 20
-124.6475013577271
 30
0.0
 10
103.6105484677858
 20
-124.5923974688519
 30
0.0
 10
103.5657809689279
 20
-124.5475946910855
 30
0.0
 10
103.5106444185665
 20
-124.5475946910855
 30
0.0
 10
103.4555379161849
 20
-124.5475946910855
 30
0.0
 10
103.4107351395501
 20
-124.5923974688519
 30
0.0
 10
103.4107351395501
 20
-124.6475013577271
 30
0.0
 10
103.4107351395501
 20
-124.7026405243799
 30
0.0
 10
103.4555379161849
 20
-124.7474080243687
 30
0.0
 10
103.5106444185665
 20
-124.7474080243687
 30
0.0
 10
103.5657809689279
 20
-124.7474080243687
 30
0.0
 10
103.6105484677858
 20
-124.7026405243799
 30
0.0
 10
103.6105484677858
 20
-124.6475013577271
 30
0.0
  0
SPLINE
  5
62
330
1F
100
AcDbEntity
  8
_U+30EC_U+30A4_U+30E4_U+30FC 1
 62
     7
420
 16777215
370
     9
100
AcDbSpline
210
0.0
220
0.0
230
1.0
 70
    11
 71
     3
 72
    17
 73
    13
 74
     0
 42
0.0000000001
 43
0.0000000001
 12
1.0
 22
0.0
 32
0.0
 13
1.0
 23
0.0
 33
0.0
 40
0.0
 40
0.0
 40
0.0
 40
0.0
 40
1.0
 40
1.0
 40
1.0
 40
2.0
 40
2.0
 40
2.0
 40
3.0
 40
3.0
 40
3.0
 40
4.0
 40
4.0
 40
4.0
 40
4.0
 10
103.6105484677858
 20
-133.8467816332049
 30
0.0
 10
103.6105484677858
 20
-133.79167774433
 30
0.0
 10
103.5657809689279
 20
-133.7468749665633
 30
0.0
 10
103.5106444185665
 20
-133.7468749665633
 30
0.0
 10
103.4555379161849
 20
-133.7468749665633
 30
0.0
 10
103.4107351395501
 20
-133.79167774433
 30
0.0
 10
103.4107351395501
 20
-133.8467816332049
 30
0.0
 10
103.4107351395501
 20
-133.9025910776354
 30
0.0
 10
103.4555379161849
 20
-133.9473938554021
 30
0.0
 10
103.5106444185665
 20
-133.9473938554021
 30
0.0
 10
103.5657809689279
 20
-133.9473938554021
 30
0.0
 10
103.6105484677858
 20
-133.9025910776354
 30
0.0
 10
103.6105484677858
 20
-133.8467816332049
 30
0.0
  0
SPLINE
  5
63
330
1F
100
AcDbEntity
  8
_U+30EC_U+30A4_U+30E4_U+30FC 1
 62
     7
420
 16777215
370
     9
100
AcDbSpline
210
0.0
220
0.0
230
1.0
 70
    11
 71
     3
 72
    17
 73
    13
 74
     0
 42
0.0000000001
 43
0.0000000001
 12
1.0
 22
0.0
 32
0.0
 13
1.0
 23
0.0
 33
0.0
 40
0.0
 40
0.0
 40
0.0
 40
0.0
 40
1.0
 40
1.0
 40
1.0
 40
2.0
 40
2.0
 40
2.0
 40
3.0
 40
3.0
 40
3.0
 40
4.0
 40
4.0
 40
4.0
 40
4.0
 10
82.61131067018766
 20
-138.8469832986217
 30
0.0
 10
82.61131067018766
 20
-138.7918794097468
 30
0.0
 10
82.56654317132977
 20
-138.7470766319801
 30
0.0
 10
82.51073372830915
 20
-138.7470766319801
 30
0.0
 10
82.45559456304919
 20
-138.7470766319801
 30
0.0
 10
82.41082706419131
 20
-138.7918794097468
 30
0.0
 10
82.41082706419131
 20
-138.8469832986217
 30
0.0
 10
82.41082706419131
 20
-138.9021224652748
 30
0.0
 10
82.45559456304919
 20
-138.9468899652634
 30
0.0
 10
82.51073372830915
 20
-138.9468899652634
 30
0.0
 10
82.56654317132977
 20
-138.9468899652634
 30
0.0
 10
82.61131067018766
 20
-138.9021224652748
 30
0.0
 10
82.61131067018766
 20
-138.8469832986217
 30
0.0
  0
SPLINE
  5
64
330
1F
100
AcDbEntity
  8
_U+30EC_U+30A4_U+30E4_U+30FC 1
 62
     7
420
 16777215
370
     9
100
AcDbSpline
210
0.0
220
0.0
230
1.0
 70
    11
 71
     3
 72
    17
 73
    13
 74
     0
 42
0.0000000001
 43
0.0000000001
 12
1.0
 22
0.0
 32
0.0
 13
1.0
 23
0.0
 33
0.0
 40
0.0
 40
0.0
 40
0.0
 40
0.0
 40
1.0
 40
1.0
 40
1.0
 40
2.0
 40
2.0
 40
2.0
 40
3.0
 40
3.0
 40
3.0
 40
4.0
 40
4.0
 40
4.0
 40
4.0
 10
86.60143890172434
 20
-138.8469832986217
 30
0.0
 10
86.60143890172434
 20
-138.7918794097468
 30
0.0
 10
86.55663612508957
 20
-138.7470766319801
 30
0.0
 10
86.5015322376065
 20
-138.7470766319801
 30
0.0
 10
86.44639307234655
 20
-138.7470766319801
 30
0.0
 10
86.40162775617726
 20
-138.7918794097468
 30
0.0
 10
86.40162775617726
 20
-138.8469832986217
 30
0.0
 10
86.40162775617726
 20
-138.9021224652748
 30
0.0
 10
86.44639307234655
 20
-138.9468899652634
 30
0.0
 10
86.5015322376065
 20
-138.9468899652634
 30
0.0
 10
86.55663612508957
 20
-138.9468899652634
 30
0.0
 10
86.60143890172434
 20
-138.9021224652748
 30
0.0
 10
86.60143890172434
 20
-138.8469832986217
 30
0.0
  0
SPLINE
  5
65
330
1F
100
AcDbEntity
  8
_U+30EC_U+30A4_U+30E4_U+30FC 1
 62
     7
420
 16777215
370
     9
100
AcDbSpline
210
0.0
220
0.0
230
1.0
 70
    11
 71
     3
 72
    17
 73
    13
 74
     0
 42
0.0000000001
 43
0.0000000001
 12
1.0
 22
0.0
 32
0.0
 13
1.0
 23
0.0
 33
0.0
 40
0.0
 40
0.0
 40
0.0
 40
0.0
 40
1.0
 40
1.0
 40
1.0
 40
2.0
 40
2.0
 40
2.0
 40
3.0
 40
3.0
 40
3.0
 40
4.0
 40
4.0
 40
4.0
 40
4.0
 10
76.61133886973612
 20
-138.8469832986217
 30
0.0
 10
76.61133886973612
 20
-138.7918794097468
 30
0.0
 10
76.56656943551296
 20
-138.7470766319801
 30
0.0
 10
76.51143027025302
 20
-138.7470766319801
 30
0.0
 10
76.45632638276994
 20
-138.7470766319801
 30
0.0
 10
76.41152360613518
 20
-138.7918794097468
 30
0.0
 10
76.41152360613518
 20
-138.8469832986217
 30
0.0
 10
76.41152360613518
 20
-138.9021224652748
 30
0.0
 10
76.45632638276994
 20
-138.9468899652634
 30
0.0
 10
76.51143027025302
 20
-138.9468899652634
 30
0.0
 10
76.56656943551296
 20
-138.9468899652634
 30
0.0
 10
76.61133886973612
 20
-138.9021224652748
 30
0.0
 10
76.61133886973612
 20
-138.8469832986217
 30
0.0
  0
POLYLINE
  5
66
330
1F
100
AcDbEntity
  8
_U+30EC_U+30A4_U+30E4_U+30FC 1
 62
     7
420
 16777215
370
     9
100
AcDb2dPolyline
 66
     1
 10
0.0
 20
0.0
 30
0.0
  0
VERTEX
  5
67
330
66
100
AcDbEntity
  8
_U+30EC_U+30A4_U+30E4_U+30FC 1
 62
     7
420
 16777215
370
     9
100
AcDbVertex
100
AcDb2dVertex
 10
103.5106444185665
 20
-124.6475013577271
 30
0.0
  0
VERTEX
  5
68
330
66
100
AcDbEntity
  8
_U+30EC_U+30A4_U+30E4_U+30FC 1
 62
     7
420
 16777215
370
     9
100
AcDbVertex
100
AcDb2dVertex
 10
103.5106444185665
 20
-120.8771888586697
 30
0.0
  0
SEQEND
  5
69
330
66
100
AcDbEntity
  8
_U+30EC_U+30A4_U+30E4_U+30FC 1
 62
     7
420
 16777215
370
     9
  0
POLYLINE
  5
6A
330
1F
100
AcDbEntity
  8
_U+30EC_U+30A4_U+30E4_U+30FC 1
 62
     7
420
 16777215
370
     9
100
AcDb2dPolyline
 66
     1
 10
0.0
 20
0.0
 30
0.0
  0
VERTEX
  5
6B
330
6A
100
AcDbEntity
  8
_U+30EC_U+30A4_U+30E4_U+30FC 1
 62
     7
420
 16777215
370
     9
100
AcDbVertex
100
AcDb2dVertex
 10
103.5106444185665
 20
-125.6472735796993
 30
0.0
  0
VERTEX
  5
6C
330
6A
100
AcDbEntity
  8
_U+30EC_U+30A4_U+30E4_U+30FC 1
 62
     7
420
 16777215
370
     9
100
AcDbVertex
100
AcDb2dVertex
 10
103.5106444185665
 20
-124.6475013577271
 30
0.0
  0
SEQEND
  5
6D
330
6A
100
AcDbEntity
  8
_U+30EC_U+30A4_U+30E4_U+30FC 1
 62
     7
420
 16777215
370
     9
  0
POLYLINE
  5
6E
330
1F
100
AcDbEntity
  8
_U+30EC_U+30A4_U+30E4_U+30FC 1
 62
     7
420
 16777215
370
     9
100
AcDb2dPolyline
 66
     1
 10
0.0
 20
0.0
 30
0.0
  0
VERTEX
  5
6F
330
6E
100
AcDbEntity
  8
_U+30EC_U+30A4_U+30E4_U+30FC 1
 62
     7
420
 16777215
370
     9
100
AcDbVertex
100
AcDb2dVertex
 10
102.0506004520278
 20
-125.6472735796993
 30
0.0
  0
VERTEX
  5
70
330
6E
100
AcDbEntity
  8
_U+30EC_U+30A4_U+30E4_U+30FC 1
 62
     7
420
 16777215
370
     9
100
AcDbVertex
100
AcDb2dVertex
 10
104.5111221960946
 20
-125.6472735796993
 30
0.0
  0
SEQEND
  5
71
330
6E
100
AcDbEntity
  8
_U+30EC_U+30A4_U+30E4_U+30FC 1
 62
     7
420
 16777215
370
     9
  0
POLYLINE
  5
72
330
1F
100
AcDbEntity
  8
_U+30EC_U+30A4_U+30E4_U+30FC 1
 62
     7
420
 16777215
370
     9
100
AcDb2dPolyline
 66
     1
 10
0.0
 20
0.0
 30
0.0
  0
VERTEX
  5
73
330
72
100
AcDbEntity
  8
_U+30EC_U+30A4_U+30E4_U+30FC 1
 62
     7
420
 16777215
370
     9
100
AcDbVertex
100
AcDb2dVertex
 10
102.0506004520278
 20
-124.6475013577271
 30
0.0
  0
VERTEX
  5
74
330
72
100
AcDbEntity
  8
_U+30EC_U+30A4_U+30E4_U+30FC 1
 62
     7
420
 16777215
370
     9
100
AcDbVertex
100
AcDb2dVertex
 10
104.5111221960946
 20
-124.6475013577271
 30
0.0
  0
SEQEND
  5
75
330
72
100
AcDbEntity
  8
_U+30EC_U+30A4_U+30E4_U+30FC 1
 62
     7
420
 16777215
370
     9
  0
INSERT
  5
77
330
1F
100
AcDbEntity
  8
_U+30EC_U+30A4_U+30E4_U+30FC 1
100
AcDbBlockReference
  2
block 2
 10
0.0
 20
0.0
 30
0.0
  0
POLYLINE
  5
7C
330
1F
100
AcDbEntity
  8
_U+30EC_U+30A4_U+30E4_U+30FC 1
 62
     7
420
 16777215
370
     9
100
AcDb2dPolyline
 66
     1
 10
0.0
 20
0.0
 30
0.0
  0
VERTEX
  5
7D
330
7C
100
AcDbEntity
  8
_U+30EC_U+30A4_U+30E4_U+30FC 1
 62
     7
420
 16777215
370
     9
100
AcDbVertex
100
AcDb2dVertex
 10
76.50592693706008
 20
-120.6477774698381
 30
0.0
  0
VERTEX
  5
7E
330
7C
100
AcDbEntity
  8
_U+30EC_U+30A4_U+30E4_U+30FC 1
 62
     7
420
 16777215
370
     9
100
AcDbVertex
100
AcDb2dVertex
 10
99.51088273904365
 20
-120.6477774698381
 30
0.0
  0
SEQEND
  5
7F
330
7C
100
AcDbEntity
  8
_U+30EC_U+30A4_U+30E4_U+30FC 1
 62
     7
420
 16777215
370
     9
  0
POLYLINE
  5
80
330
1F
100
AcDbEntity
  8
_U+30EC_U+30A4_U+30E4_U+30FC 1
 62
     7
420
 16777215
370
     9
100
AcDb2dPolyline
 66
     1
 10
0.0
 20
0.0
 30
0.0
  0
VERTEX
  5
81
330
80
100
AcDbEntity
  8
_U+30EC_U+30A4_U+30E4_U+30FC 1
 62
     7
420
 16777215
370
     9
100
AcDbVertex
100
AcDb2dVertex
 10
76.51143027025302
 20
-122.1077835805842
 30
0.0
  0
VERTEX
  5
82
330
80
100
AcDbEntity
  8
_U+30EC_U+30A4_U+30E4_U+30FC 1
 62
     7
420
 16777215
370
     9
100
AcDbVertex
100
AcDb2dVertex
 10
76.51143027025302
 20
-119.6472996923103
 30
0.0
  0
SEQEND
  5
83
330
80
100
AcDbEntity
  8
_U+30EC_U+30A4_U+30E4_U+30FC 1
 62
     7
420
 16777215
370
     9
  0
POLYLINE
  5
84
330
1F
100
AcDbEntity
  8
_U+30EC_U+30A4_U+30E4_U+30FC 1
 62
     7
420
 16777215
370
     9
100
AcDb2dPolyline
 66
     1
 10
0.0
 20
0.0
 30
0.0
  0
VERTEX
  5
85
330
84
100
AcDbEntity
  8
_U+30EC_U+30A4_U+30E4_U+30FC 1
 62
     7
420
 16777215
370
     9
100
AcDbVertex
100
AcDb2dVertex
 10
99.51088273904365
 20
-122.1077835805842
 30
0.0
  0
VERTEX
  5
86
330
84
100
AcDbEntity
  8
_U+30EC_U+30A4_U+30E4_U+30FC 1
 62
     7
420
 16777215
370
     9
100
AcDbVertex
100
AcDb2dVertex
 10
99.51088273904365
 20
-119.6472996923103
 30
0.0
  0
SEQEND
  5
87
330
84
100
AcDbEntity
  8
_U+30EC_U+30A4_U+30E4_U+30FC 1
 62
     7
420
 16777215
370
     9
  0
INSERT
  5
89
330
1F
100
AcDbEntity
  8
_U+30EC_U+30A4_U+30E4_U+30FC 1
100
AcDbBlockReference
  2
block 3
 10
0.0
 20
0.0
 30
0.0
  0
POLYLINE
  5
90
330
1F
100
AcDbEntity
  8
_U+30EC_U+30A4_U+30E4_U+30FC 1
 62
     7
420
 16777215
370
     9
100
AcDb2dPolyline
 66
     1
 10
0.0
 20
0.0
 30
0.0
  0
VERTEX
  5
91
330
90
100
AcDbEntity
  8
_U+30EC_U+30A4_U+30E4_U+30FC 1
 62
     7
420
 16777215
370
     9
100
AcDbVertex
100
AcDb2dVertex
 10
82.51073372830915
 20
-138.8469832986217
 30
0.0
  0
VERTEX
  5
92
330
90
100
AcDbEntity
  8
_U+30EC_U+30A4_U+30E4_U+30FC 1
 62
     7
420
 16777215
370
     9
100
AcDbVertex
100
AcDb2dVertex
 10
76.5500241581573
 20
-138.8469832986217
 30
0.0
  0
SEQEND
  5
93
330
90
100
AcDbEntity
  8
_U+30EC_U+30A4_U+30E4_U+30FC 1
 62
     7
420
 16777215
370
     9
  0
POLYLINE
  5
94
330
1F
100
AcDbEntity
  8
_U+30EC_U+30A4_U+30E4_U+30FC 1
 62
     7
420
 16777215
370
     9
100
AcDb2dPolyline
 66
     1
 10
0.0
 20
0.0
 30
0.0
  0
VERTEX
  5
95
330
94
100
AcDbEntity
  8
_U+30EC_U+30A4_U+30E4_U+30FC 1
 62
     7
420
 16777215
370
     9
100
AcDbVertex
100
AcDb2dVertex
 10
82.51073372830915
 20
-137.3869771878755
 30
0.0
  0
VERTEX
  5
96
330
94
100
AcDbEntity
  8
_U+30EC_U+30A4_U+30E4_U+30FC 1
 62
     7
420
 16777215
370
     9
100
AcDbVertex
100
AcDb2dVertex
 10
82.51073372830915
 20
-139.8474610761491
 30
0.0
  0
SEQEND
  5
97
330
94
100
AcDbEntity
  8
_U+30EC_U+30A4_U+30E4_U+30FC 1
 62
     7
420
 16777215
370
     9
  0
POLYLINE
  5
98
330
1F
100
AcDbEntity
  8
_U+30EC_U+30A4_U+30E4_U+30FC 1
 62
     7
420
 16777215
370
     9
100
AcDb2dPolyline
 66
     1
 10
0.0
 20
0.0
 30
0.0
  0
VERTEX
  5
99
330
98
100
AcDbEntity
  8
_U+30EC_U+30A4_U+30E4_U+30FC 1
 62
     7
420
 16777215
370
     9
100
AcDbVertex
100
AcDb2dVertex
 10
76.51143027025302
 20
-128.1876969123977
 30
0.0
  0
VERTEX
  5
9A
330
98
100
AcDbEntity
  8
_U+30EC_U+30A4_U+30E4_U+30FC 1
 62
     7
420
 16777215
370
     9
100
AcDbVertex
100
AcDb2dVertex
 10
76.51143027025302
 20
-139.8474610761491
 30
0.0
  0
SEQEND
  5
9B
330
98
100
AcDbEntity
  8
_U+30EC_U+30A4_U+30E4_U+30FC 1
 62
     7
420
 16777215
370
     9
  0
INSERT
  5
9D
330
1F
100
AcDbEntity
  8
_U+30EC_U+30A4_U+30E4_U+30FC 1
100
AcDbBlockReference
  2
block 4
 10
0.0
 20
0.0
 30
0.0
  0
POLYLINE
  5
A3
330
1F
100
AcDbEntity
  8
_U+30EC_U+30A4_U+30E4_U+30FC 1
 62
     7
420
 16777215
370
     9
100
AcDb2dPolyline
 66
     1
 10
0.0
 20
0.0
 30
0.0
  0
VERTEX
  5
A4
330
A3
100
AcDbEntity
  8
_U+30EC_U+30A4_U+30E4_U+30FC 1
 62
     7
420
 16777215
370
     9
100
AcDbVertex
100
AcDb2dVertex
 10
82.51073372830915
 20
-138.8469832986217
 30
0.0
  0
VERTEX
  5
A5
330
A3
100
AcDbEntity
  8
_U+30EC_U+30A4_U+30E4_U+30FC 1
 62
     7
420
 16777215
370
     9
100
AcDbVertex
100
AcDb2dVertex
 10
86.5015322376065
 20
-138.8469832986217
 30
0.0
  0
SEQEND
  5
A6
330
A3
100
AcDbEntity
  8
_U+30EC_U+30A4_U+30E4_U+30FC 1
 62
     7
420
 16777215
370
     9
  0
POLYLINE
  5
A7
330
1F
100
AcDbEntity
  8
_U+30EC_U+30A4_U+30E4_U+30FC 1
 62
     7
420
 16777215
370
     9
100
AcDb2dPolyline
 66
     1
 10
0.0
 20
0.0
 30
0.0
  0
VERTEX
  5
A8
330
A7
100
AcDbEntity
  8
_U+30EC_U+30A4_U+30E4_U+30FC 1
 62
     7
420
 16777215
370
     9
100
AcDbVertex
100
AcDb2dVertex
 10
82.51073372830915
 20
-137.3869771878755
 30
0.0
  0
VERTEX
  5
A9
330
A7
100
AcDbEntity
  8
_U+30EC_U+30A4_U+30E4_U+30FC 1
 62
     7
420
 16777215
370
     9
100
AcDbVertex
100
AcDb2dVertex
 10
82.51073372830915
 20
-139.8474610761491
 30
0.0
  0
SEQEND
  5
AA
330
A7
100
AcDbEntity
  8
_U+30EC_U+30A4_U+30E4_U+30FC 1
 62
     7
420
 16777215
370
     9
  0
POLYLINE
  5
AB
330
1F
100
AcDbEntity
  8
_U+30EC_U+30A4_U+30E4_U+30FC 1
 62
     7
420
 16777215
370
     9
100
AcDb2dPolyline
 66
     1
 10
0.0
 20
0.0
 30
0.0
  0
VERTEX
  5
AC
330
AB
100
AcDbEntity
  8
_U+30EC_U+30A4_U+30E4_U+30FC 1
 62
     7
420
 16777215
370
     9
100
AcDbVertex
100
AcDb2dVertex
 10
86.5015322376065
 20
-137.3869771878755
 30
0.0
  0
VERTEX
  5
AD
330
AB
100
AcDbEntity
  8
_U+30EC_U+30A4_U+30E4_U+30FC 1
 62
     7
420
 16777215
370
     9
100
AcDbVertex
100
AcDb2dVertex
 10
86.5015322376065
 20
-139.8474610761491
 30
0.0
  0
SEQEND
  5
AE
330
AB
100
AcDbEntity
  8
_U+30EC_U+30A4_U+30E4_U+30FC 1
 62
     7
420
 16777215
370
     9
  0
INSERT
  5
B0
330
1F
100
AcDbEntity
  8
_U+30EC_U+30A4_U+30E4_U+30FC 1
100
AcDbBlockReference
  2
block 5
 10
0.0
 20
0.0
 30
0.0
  0
POLYLINE
  5
C8
330
1F
100
AcDbEntity
  8
_U+30EC_U+30A4_U+30E4_U+30FC 1
 62
     7
420
 16777215
370
     9
100
AcDb2dPolyline
 66
     1
 10
0.0
 20
0.0
 30
0.0
  0
VERTEX
  5
C9
330
C8
100
AcDbEntity
  8
_U+30EC_U+30A4_U+30E4_U+30FC 1
 62
     7
420
 16777215
370
     9
100
AcDbVertex
100
AcDb2dVertex
 10
103.5106444185665
 20
-133.8467816332049
 30
0.0
  0
VERTEX
  5
CA
330
C8
100
AcDbEntity
  8
_U+30EC_U+30A4_U+30E4_U+30FC 1
 62
     7
420
 16777215
370
     9
100
AcDbVertex
100
AcDb2dVertex
 10
103.5106444185665
 20
-125.6472735796993
 30
0.0
  0
SEQEND
  5
CB
330
C8
100
AcDbEntity
  8
_U+30EC_U+30A4_U+30E4_U+30FC 1
 62
     7
420
 16777215
370
     9
  0
POLYLINE
  5
CC
330
1F
100
AcDbEntity
  8
_U+30EC_U+30A4_U+30E4_U+30FC 1
 62
     7
420
 16777215
370
     9
100
AcDb2dPolyline
 66
     1
 10
0.0
 20
0.0
 30
0.0
  0
VERTEX
  5
CD
330
CC
100
AcDbEntity
  8
_U+30EC_U+30A4_U+30E4_U+30FC 1
 62
     7
420
 16777215
370
     9
100
AcDbVertex
100
AcDb2dVertex
 10
88.05043830920172
 20
-133.8467816332049
 30
0.0
  0
VERTEX
  5
CE
330
CC
100
AcDbEntity
  8
_U+30EC_U+30A4_U+30E4_U+30FC 1
 62
     7
420
 16777215
370
     9
100
AcDbVertex
100
AcDb2dVertex
 10
104.5111221960946
 20
-133.8467816332049
 30
0.0
  0
SEQEND
  5
CF
330
CC
100
AcDbEntity
  8
_U+30EC_U+30A4_U+30E4_U+30FC 1
 62
     7
420
 16777215
370
     9
  0
INSERT
  5
D1
330
1F
100
AcDbEntity
  8
_U+30EC_U+30A4_U+30E4_U+30FC 1
100
AcDbBlockReference
  2
block 6
 10
0.0
 20
0.0
 30
0.0
  0
ENDSEC
  0
SECTION
  2
OBJECTS
  0
DICTIONARY
  5
C
330
0
100
AcDbDictionary
281
     1
  3
ACAD_GROUP
350
D
  3
ACAD_LAYOUT
350
1A
  3
ACAD_MATERIAL
350
3B
  3
ACAD_MLEADERSTYLE
350
E3
  3
ACAD_MLINESTYLE
350
17
  3
ACAD_PLOTSETTINGS
350
19
  3
ACAD_PLOTSTYLENAME
350
E
  3
ACAD_TABLESTYLE
350
E2
  3
ACAD_VISUALSTYLE
350
2A
  0
SUN
  5
3F
330
29
100
AcDbSun
 90
        1
290
     0
 63
     7
421
 16777215
 40
1.0
291
     1
 91
  2455826
 92
 54000000
292
     0
 70
     2
 71
   256
280
     1
  0
DICTIONARY
  5
D
102
{ACAD_REACTORS
330
C
102
}
330
C
100
AcDbDictionary
281
     1
  0
DICTIONARY
  5
1A
102
{ACAD_REACTORS
330
C
102
}
330
C
100
AcDbDictionary
281
     1
  3
Layout1
350
1E
  3
Layout2
350
26
  3
Model
350
22
  0
DICTIONARY
  5
3B
102
{ACAD_REACTORS
330
C
102
}
330
C
100
AcDbDictionary
281
     1
  3
ByBlock
350
3D
  3
ByLayer
350
3C
  3
Global
350
3E
  0
DICTIONARY
  5
E3
102
{ACAD_REACTORS
330
C
102
}
330
C
100
AcDbDictionary
281
     1
  0
DICTIONARY
  5
17
102
{ACAD_REACTORS
330
C
102
}
330
C
100
AcDbDictionary
281
     1
  3
Standard
350
18
  0
DICTIONARY
  5
19
102
{ACAD_REACTORS
330
C
102
}
330
C
100
AcDbDictionary
281
     1
  0
ACDBDICTIONARYWDFLT
  5
E
102
{ACAD_REACTORS
330
C
102
}
330
C
100
AcDbDictionary
281
     1
  3
Normal
350
F
100
AcDbDictionaryWithDefault
340
F
  0
DICTIONARY
  5
E2
102
{ACAD_REACTORS
330
C
102
}
330
C
100
AcDbDictionary
281
     1
  0
DICTIONARY
  5
2A
102
{ACAD_REACTORS
330
C
102
}
330
C
100
AcDbDictionary
281
     1
  3
2dWireframe
350
2F
  3
3D Hidden
350
31
  3
3dWireframe
350
30
  3
Basic
350
32
  3
Brighten
350
36
  3
ColorChange
350
3A
  3
Conceptual
350
34
  3
Dim
350
35
  3
Facepattern
350
39
  3
Flat
350
2B
  3
FlatWithEdges
350
2C
  3
Gouraud
350
2D
  3
GouraudWithEdges
350
2E
  3
Linepattern
350
38
  3
Realistic
350
33
  3
Thicken
350
37
  0
LAYOUT
  5
1E
102
{ACAD_REACTORS
330
1A
102
}
330
1A
100
AcDbPlotSettings
  1

  2
none_device
  4

  6

 40
0.0
 41
0.0
 42
0.0
 43
0.0
 44
0.0
 45
0.0
 46
0.0
 47
0.0
 48
0.0
 49
0.0
140
0.0
141
0.0
142
1.0
143
1.0
 70
   688
 72
     0
 73
     0
 74
     5
  7

 75
    16
 76
     0
 77
     2
 78
   300
147
1.0
148
0.0
149
0.0
100
AcDbLayout
  1
Layout1
 70
     1
 71
     1
 10
0.0
 20
0.0
 11
12.0
 21
9.0
 12
0.0
 22
0.0
 32
0.0
 14
1.000000000000000E+20
 24
1.000000000000000E+20
 34
1.000000000000000E+20
 15
-1.000000000000000E+20
 25
-1.000000000000000E+20
 35
-1.000000000000000E+20
146
0.0
 13
0.0
 23
0.0
 33
0.0
 16
1.0
 26
0.0
 36
0.0
 17
0.0
 27
1.0
 37
0.0
 76
     0
330
1B
  0
LAYOUT
  5
26
102
{ACAD_REACTORS
330
1A
102
}
330
1A
100
AcDbPlotSettings
  1

  2
none_device
  4

  6

 40
0.0
 41
0.0
 42
0.0
 43
0.0
 44
0.0
 45
0.0
 46
0.0
 47
0.0
 48
0.0
 49
0.0
140
0.0
141
0.0
142
1.0
143
1.0
 70
   688
 72
     0
 73
     0
 74
     5
  7

 75
    16
 76
     0
 77
     2
 78
   300
147
1.0
148
0.0
149
0.0
100
AcDbLayout
  1
Layout2
 70
     1
 71
     2
 10
0.0
 20
0.0
 11
0.0
 21
0.0
 12
0.0
 22
0.0
 32
0.0
 14
0.0
 24
0.0
 34
0.0
 15
0.0
 25
0.0
 35
0.0
146
0.0
 13
0.0
 23
0.0
 33
0.0
 16
1.0
 26
0.0
 36
0.0
 17
0.0
 27
1.0
 37
0.0
 76
     0
330
23
  0
LAYOUT
  5
22
102
{ACAD_REACTORS
330
1A
102
}
330
1A
100
AcDbPlotSettings
  1

  2
none_device
  4

  6

 40
0.0
 41
0.0
 42
0.0
 43
0.0
 44
0.0
 45
0.0
 46
0.0
 47
0.0
 48
0.0
 49
0.0
140
0.0
141
0.0
142
1.0
143
1.0
 70
  1712
 72
     0
 73
     0
 74
     0
  7

 75
     0
 76
     0
 77
     2
 78
   300
147
1.0
148
0.0
149
0.0
100
AcDbLayout
  1
Model
 70
     1
 71
     0
 10
0.0
 20
0.0
 11
12.0
 21
9.0
 12
0.0
 22
0.0
 32
0.0
 14
1.000000000000000E+20
 24
1.000000000000000E+20
 34
1.000000000000000E+20
 15
-1.000000000000000E+20
 25
-1.000000000000000E+20
 35
-1.000000000000000E+20
146
0.0
 13
0.0
 23
0.0
 33
0.0
 16
1.0
 26
0.0
 36
0.0
 17
0.0
 27
1.0
 37
0.0
 76
     0
330
1F
331
29
  0
MATERIAL
  5
3D
102
{ACAD_REACTORS
330
3B
102
}
330
3B
100
AcDbMaterial
  1
ByBlock
 72
     1
 94
      127
  0
MATERIAL
  5
3C
102
{ACAD_REACTORS
330
3B
102
}
330
3B
100
AcDbMaterial
  1
ByLayer
 72
     1
 94
      127
  0
MATERIAL
  5
3E
102
{ACAD_REACTORS
330
3B
102
}
330
3B
100
AcDbMaterial
  1
Global
 72
     1
 94
      127
  0
MLINESTYLE
  5
18
102
{ACAD_REACTORS
330
17
102
}
330
17
100
AcDbMlineStyle
  2
Standard
 70
     0
  3

 62
   256
 51
90.0
 52
90.0
 71
     2
 49
0.5
 62
   256
  6
BYLAYER
 49
-0.5
 62
   256
  6
BYLAYER
  0
ACDBPLACEHOLDER
  5
F
102
{ACAD_REACTORS
330
E
102
}
330
E
  0
VISUALSTYLE
  5
2F
102
{ACAD_REACTORS
330
2A
102
}
330
2A
100
AcDbVisualStyle
  2
2dWireframe
 70
     4
177
     2
291
     0
 71
     0
176
     1
 72
     2
176
     1
 73
     0
176
     1
 90
        0
176
     1
 40
-0.6
176
     1
 41
-30.0
176
     1
 62
     5
 63
     7
421
 16777215
176
     1
 74
     1
176
     1
 91
        4
176
     1
 64
     7
176
     1
 65
   257
176
     1
 75
     1
176
     1
175
     1
176
     1
 42
1.0
176
     1
 92
        0
176
     1
 66
   257
176
     1
 43
1.0
176
     1
 76
     1
176
     1
 77
     6
176
     1
 78
     2
176
     1
 67
     7
176
     1
 79
     5
176
     1
170
     0
176
     1
171
     0
176
     1
290
     0
176
     1
 93
        1
176
     1
 44
0.0
176
     1
173
     0
176
     1
  0
VISUALSTYLE
  5
31
102
{ACAD_REACTORS
330
2A
102
}
330
2A
100
AcDbVisualStyle
  2
3D Hidden
 70
     6
177
     2
291
     0
 71
     1
176
     1
 72
     2
176
     1
 73
     2
176
     1
 90
        0
176
     1
 40
-0.6
176
     1
 41
-30.0
176
     1
 62
     5
 63
     7
421
 16777215
176
     1
 74
     2
176
     1
 91
        2
176
     1
 64
     7
176
     1
 65
   257
176
     1
 75
     2
176
     1
175
     1
176
     1
 42
40.0
176
     1
 92
        0
176
     1
 66
   257
176
     1
 43
1.0
176
     1
 76
     1
176
     1
 77
     6
176
     1
 78
     2
176
     1
 67
     7
176
     1
 79
     3
176
     1
170
     0
176
     1
171
     0
176
     1
290
     0
176
     1
 93
        1
176
     1
 44
0.0
176
     1
173
     0
176
     1
  0
VISUALSTYLE
  5
30
102
{ACAD_REACTORS
330
2A
102
}
330
2A
100
AcDbVisualStyle
  2
3dWireframe
 70
     5
177
     2
291
     0
 71
     0
176
     1
 72
     2
176
     1
 73
     0
176
     1
 90
        0
176
     1
 40
-0.6
176
     1
 41
-30.0
176
     1
 62
     5
 63
     7
421
 16777215
176
     1
 74
     1
176
     1
 91
        4
176
     1
 64
     7
176
     1
 65
   257
176
     1
 75
     1
176
     1
175
     1
176
     1
 42
1.0
176
     1
 92
        0
176
     1
 66
   257
176
     1
 43
1.0
176
     1
 76
     1
176
     1
 77
     6
176
     1
 78
     2
176
     1
 67
     7
176
     1
 79
     5
176
     1
170
     0
176
     1
171
     0
176
     1
290
     0
176
     1
 93
        1
176
     1
 44
0.0
176
     1
173
     0
176
     1
  0
VISUALSTYLE
  5
32
102
{ACAD_REACTORS
330
2A
102
}
330
2A
100
AcDbVisualStyle
  2
Basic
 70
     7
177
     2
291
     1
 71
     1
176
     1
 72
     0
176
     1
 73
     1
176
     1
 90
        0
176
     1
 40
-0.6
176
     1
 41
-30.0
176
     1
 62
     5
 63
     7
421
 16777215
176
     1
 74
     0
176
     1
 91
        4
176
     1
 64
     7
176
     1
 65
   257
176
     1
 75
     1
176
     1
175
     1
176
     1
 42
1.0
176
     1
 92
        8
176
     1
 66
     7
176
     1
 43
1.0
176
     1
 76
     1
176
     1
 77
     6
176
     1
 78
     2
176
     1
 67
     7
176
     1
 79
     5
176
     1
170
     0
176
     1
171
     0
176
     1
290
     0
176
     1
 93
        1
176
     1
 44
0.0
176
     1
173
     0
176
     1
  0
VISUALSTYLE
  5
36
102
{ACAD_REACTORS
330
2A
102
}
330
2A
100
AcDbVisualStyle
  2
Brighten
 70
    12
177
     2
291
     1
 71
     2
176
     1
 72
     2
176
     1
 73
     0
176
     1
 90
        0
176
     1
 40
-0.6
176
     1
 41
-30.0
176
     1
 62
     5
 63
     7
421
 16777215
176
     1
 74
     1
176
     1
 91
        4
176
     1
 64
     7
176
     1
 65
   257
176
     1
 75
     1
176
     1
175
     1
176
     1
 42
1.0
176
     1
 92
        8
176
     1
 66
     7
176
     1
 43
1.0
176
     1
 76
     1
176
     1
 77
     6
176
     1
 78
     2
176
     1
 67
     7
176
     1
 79
     5
176
     1
170
     0
176
     1
171
     0
176
     1
290
     0
176
     1
 93
        1
176
     1
 44
50.0
176
     1
173
     0
176
     1
  0
VISUALSTYLE
  5
3A
102
{ACAD_REACTORS
330
2A
102
}
330
2A
100
AcDbVisualStyle
  2
ColorChange
 70
    16
177
     2
291
     1
 71
     2
176
     1
 72
     2
176
     1
 73
     3
176
     1
 90
        0
176
     1
 40
-0.6
176
     1
 41
-30.0
176
     1
 62
     5
 63
     8
421
  8421504
176
     1
 74
     1
176
     1
 91
        4
176
     1
 64
     7
176
     1
 65
   257
176
     1
 75
     1
176
     1
175
     1
176
     1
 42
1.0
176
     1
 92
        8
176
     1
 66
     8
424
  8421504
176
     1
 43
1.0
176
     1
 76
     1
176
     1
 77
     6
176
     1
 78
     2
176
     1
 67
     7
176
     1
 79
     5
176
     1
170
     0
176
     1
171
     0
176
     1
290
     0
176
     1
 93
        1
176
     1
 44
0.0
176
     1
173
     0
176
     1
  0
VISUALSTYLE
  5
34
102
{ACAD_REACTORS
330
2A
102
}
330
2A
100
AcDbVisualStyle
  2
Conceptual
 70
     9
177
     2
291
     0
 71
     3
176
     1
 72
     2
176
     1
 73
     0
176
     1
 90
        0
176
     1
 40
-0.6
176
     1
 41
-30.0
176
     1
 62
     5
 63
     7
421
 16777215
176
     1
 74
     2
176
     1
 91
        2
176
     1
 64
     7
176
     1
 65
   257
176
     1
 75
     1
176
     1
175
     1
176
     1
 42
40.0
176
     1
 92
        8
176
     1
 66
     7
176
     1
 43
1.0
176
     1
 76
     1
176
     1
 77
     6
176
     1
 78
     2
176
     1
 67
     7
176
     1
 79
     3
176
     1
170
     0
176
     1
171
     0
176
     1
290
     0
176
     1
 93
        1
176
     1
 44
0.0
176
     1
173
     0
176
     1
  0
VISUALSTYLE
  5
35
102
{ACAD_REACTORS
330
2A
102
}
330
2A
100
AcDbVisualStyle
  2
Dim
 70
    11
177
     2
291
     1
 71
     2
176
     1
 72
     2
176
     1
 73
     0
176
     1
 90
        0
176
     1
 40
-0.6
176
     1
 41
-30.0
176
     1
 62
     5
 63
     7
421
 16777215
176
     1
 74
     1
176
     1
 91
        4
176
     1
 64
     7
176
     1
 65
   257
176
     1
 75
     1
176
     1
175
     1
176
     1
 42
1.0
176
     1
 92
        8
176
     1
 66
     7
176
     1
 43
1.0
176
     1
 76
     1
176
     1
 77
     6
176
     1
 78
     2
176
     1
 67
     7
176
     1
 79
     5
176
     1
170
     0
176
     1
171
     0
176
     1
290
     0
176
     1
 93
        1
176
     1
 44
-50.0
176
     1
173
     0
176
     1
  0
VISUALSTYLE
  5
39
102
{ACAD_REACTORS
330
2A
102
}
330
2A
100
AcDbVisualStyle
  2
Facepattern
 70
    15
177
     2
291
     1
 71
     2
176
     1
 72
     2
176
     1
 73
     0
176
     1
 90
        0
176
     1
 40
-0.6
176
     1
 41
-30.0
176
     1
 62
     5
 63
     7
421
 16777215
176
     1
 74
     1
176
     1
 91
        4
176
     1
 64
     7
176
     1
 65
   257
176
     1
 75
     1
176
     1
175
     1
176
     1
 42
1.0
176
     1
 92
        8
176
     1
 66
     7
176
     1
 43
1.0
176
     1
 76
     1
176
     1
 77
     6
176
     1
 78
     2
176
     1
 67
     7
176
     1
 79
     5
176
     1
170
     0
176
     1
171
     0
176
     1
290
     0
176
     1
 93
        1
176
     1
 44
0.0
176
     1
173
     0
176
     1
  0
VISUALSTYLE
  5
2B
102
{ACAD_REACTORS
330
2A
102
}
330
2A
100
AcDbVisualStyle
  2
Flat
 70
     0
177
     2
291
     1
 71
     2
176
     1
 72
     1
176
     1
 73
     1
176
     1
 90
        2
176
     1
 40
-0.6
176
     1
 41
30.0
176
     1
 62
     5
 63
     7
421
 16777215
176
     1
 74
     0
176
     1
 91
        4
176
     1
 64
     7
176
     1
 65
   257
176
     1
 75
     1
176
     1
175
     1
176
     1
 42
1.0
176
     1
 92
        8
176
     1
 66
     7
176
     1
 43
1.0
176
     1
 76
     1
176
     1
 77
     6
176
     1
 78
     2
176
     1
 67
     7
176
     1
 79
     5
176
     1
170
     0
176
     1
171
     0
176
     1
290
     0
176
     1
 93
       13
176
     1
 44
0.0
176
     1
173
     0
176
     1
  0
VISUALSTYLE
  5
2C
102
{ACAD_REACTORS
330
2A
102
}
330
2A
100
AcDbVisualStyle
  2
FlatWithEdges
 70
     1
177
     2
291
     1
 71
     2
176
     1
 72
     1
176
     1
 73
     1
176
     1
 90
        2
176
     1
 40
-0.6
176
     1
 41
30.0
176
     1
 62
     5
 63
     7
421
 16777215
176
     1
 74
     1
176
     1
 91
        4
176
     1
 64
     7
176
     1
 65
   257
176
     1
 75
     1
176
     1
175
     1
176
     1
 42
1.0
176
     1
 92
        0
176
     1
 66
   257
176
     1
 43
1.0
176
     1
 76
     1
176
     1
 77
     6
176
     1
 78
     2
176
     1
 67
     7
176
     1
 79
     5
176
     1
170
     0
176
     1
171
     0
176
     1
290
     0
176
     1
 93
       13
176
     1
 44
0.0
176
     1
173
     0
176
     1
  0
VISUALSTYLE
  5
2D
102
{ACAD_REACTORS
330
2A
102
}
330
2A
100
AcDbVisualStyle
  2
Gouraud
 70
     2
177
     2
291
     1
 71
     2
176
     1
 72
     2
176
     1
 73
     1
176
     1
 90
        2
176
     1
 40
-0.6
176
     1
 41
30.0
176
     1
 62
     5
 63
     7
421
 16777215
176
     1
 74
     0
176
     1
 91
        4
176
     1
 64
     7
176
     1
 65
   257
176
     1
 75
     1
176
     1
175
     1
176
     1
 42
1.0
176
     1
 92
        0
176
     1
 66
     7
176
     1
 43
1.0
176
     1
 76
     1
176
     1
 77
     6
176
     1
 78
     2
176
     1
 67
     7
176
     1
 79
     5
176
     1
170
     0
176
     1
171
     0
176
     1
290
     0
176
     1
 93
       13
176
     1
 44
0.0
176
     1
173
     0
176
     1
  0
VISUALSTYLE
  5
2E
102
{ACAD_REACTORS
330
2A
102
}
330
2A
100
AcDbVisualStyle
  2
GouraudWithEdges
 70
     3
177
     2
291
     1
 71
     2
176
     1
 72
     2
176
     1
 73
     1
176
     1
 90
        2
176
     1
 40
-0.6
176
     1
 41
30.0
176
     1
 62
     5
 63
     7
421
 16777215
176
     1
 74
     1
176
     1
 91
        4
176
     1
 64
     7
176
     1
 65
   257
176
     1
 75
     1
176
     1
175
     1
176
     1
 42
1.0
176
     1
 92
        0
176
     1
 66
   257
176
     1
 43
1.0
176
     1
 76
     1
176
     1
 77
     6
176
     1
 78
     2
176
     1
 67
     7
176
     1
 79
     5
176
     1
170
     0
176
     1
171
     0
176
     1
290
     0
176
     1
 93
       13
176
     1
 44
0.0
176
     1
173
     0
176
     1
  0
VISUALSTYLE
  5
38
102
{ACAD_REACTORS
330
2A
102
}
330
2A
100
AcDbVisualStyle
  2
Linepattern
 70
    14
177
     2
291
     1
 71
     2
176
     1
 72
     2
176
     1
 73
     0
176
     1
 90
        0
176
     1
 40
-0.6
176
     1
 41
-30.0
176
     1
 62
     5
 63
     7
421
 16777215
176
     1
 74
     1
176
     1
 91
        4
176
     1
 64
     7
176
     1
 65
   257
176
     1
 75
     7
176
     1
175
     7
176
     1
 42
1.0
176
     1
 92
        8
176
     1
 66
     7
176
     1
 43
1.0
176
     1
 76
     1
176
     1
 77
     6
176
     1
 78
     2
176
     1
 67
     7
176
     1
 79
     5
176
     1
170
     0
176
     1
171
     0
176
     1
290
     0
176
     1
 93
        1
176
     1
 44
0.0
176
     1
173
     0
176
     1
  0
VISUALSTYLE
  5
33
102
{ACAD_REACTORS
330
2A
102
}
330
2A
100
AcDbVisualStyle
  2
Realistic
 70
     8
177
     2
291
     0
 71
     2
176
     1
 72
     2
176
     1
 73
     0
176
     1
 90
        0
176
     1
 40
-0.6
176
     1
 41
-30.0
176
     1
 62
     5
 63
     7
421
 16777215
176
     1
 74
     1
176
     1
 91
        0
176
     1
 64
     7
176
     1
 65
   257
176
     1
 75
     1
176
     1
175
     1
176
     1
 42
1.0
176
     1
 92
        8
176
     1
 66
     8
424
  7895160
176
     1
 43
1.0
176
     1
 76
     1
176
     1
 77
     6
176
     1
 78
     2
176
     1
 67
     7
176
     1
 79
     5
176
     1
170
     0
176
     1
171
     0
176
     1
290
     0
176
     1
 93
       13
176
     1
 44
0.0
176
     1
173
     0
176
     1
  0
VISUALSTYLE
  5
37
102
{ACAD_REACTORS
330
2A
102
}
330
2A
100
AcDbVisualStyle
  2
Thicken
 70
    13
177
     2
291
     1
 71
     2
176
     1
 72
     2
176
     1
 73
     0
176
     1
 90
        0
176
     1
 40
-0.6
176
     1
 41
-30.0
176
     1
 62
     5
 63
     7
421
 16777215
176
     1
 74
     1
176
     1
 91
        4
176
     1
 64
     7
176
     1
 65
   257
176
     1
 75
     1
176
     1
175
     1
176
     1
 42
1.0
176
     1
 92
       12
176
     1
 66
     7
176
     1
 43
1.0
176
     1
 76
     1
176
     1
 77
     6
176
     1
 78
     2
176
     1
 67
     7
176
     1
 79
     5
176
     1
170
     0
176
     1
171
     0
176
     1
290
     0
176
     1
 93
        1
176
     1
 44
0.0
176
     1
173
     0
176
     1
  0
ENDSEC
  0
EOF
