  0
SECTION
  2
HEADER
  9
$ACADVER
  1
AC1024
  9
$ACADMAINTVER
 70
     6
  9
$DWGCODEPAGE
  3
UNDEFINED
  9
$INSBASE
 10
0.0
 20
0.0
 30
0.0
  9
$EXTMIN
 10
1.000000000000000E+20
 20
1.000000000000000E+20
 30
1.000000000000000E+20
  9
$EXTMAX
 10
-1.000000000000000E+20
 20
-1.000000000000000E+20
 30
-1.000000000000000E+20
  9
$LIMMIN
 10
0.0
 20
0.0
  9
$LIMMAX
 10
12.0
 20
9.0
  9
$ORTHOMODE
 70
     0
  9
$REGENMODE
 70
     1
  9
$FILLMODE
 70
     1
  9
$QTEXTMODE
 70
     0
  9
$MIRRTEXT
 70
     1
  9
$LTSCALE
 40
1.0
  9
$ATTMODE
 70
     1
  9
$TEXTSIZE
 40
0.2
  9
$TRACEWID
 40
0.05
  9
$TEXTSTYLE
  7
Standard
  9
$CLAYER
  8
0
  9
$CELTYPE
  6
ByLayer
  9
$CECOLOR
 62
   256
  9
$CELTSCALE
 40
1.0
  9
$DISPSILH
 70
     0
  9
$DIMSCALE
 40
1.0
  9
$DIMASZ
 40
0.18
  9
$DIMEXO
 40
0.0625
  9
$DIMDLI
 40
0.38
  9
$DIMRND
 40
0.0
  9
$DIMDLE
 40
0.0
  9
$DIMEXE
 40
0.18
  9
$DIMTP
 40
0.0
  9
$DIMTM
 40
0.0
  9
$DIMTXT
 40
0.18
  9
$DIMCEN
 40
0.09
  9
$DIMTSZ
 40
0.0
  9
$DIMTOL
 70
     0
  9
$DIMLIM
 70
     0
  9
$DIMTIH
 70
     1
  9
$DIMTOH
 70
     1
  9
$DIMSE1
 70
     0
  9
$DIMSE2
 70
     0
  9
$DIMTAD
 70
     0
  9
$DIMZIN
 70
     0
  9
$DIMBLK
  1

  9
$DIMASO
 70
     1
  9
$DIMSHO
 70
     1
  9
$DIMPOST
  1

  9
$DIMAPOST
  1

  9
$DIMALT
 70
     0
  9
$DIMALTD
 70
     2
  9
$DIMALTF
 40
25.4
  9
$DIMLFAC
 40
1.0
  9
$DIMTOFL
 70
     0
  9
$DIMTVP
 40
0.0
  9
$DIMTIX
 70
     0
  9
$DIMSOXD
 70
     0
  9
$DIMSAH
 70
     0
  9
$DIMBLK1
  1

  9
$DIMBLK2
  1

  9
$DIMSTYLE
  2
Standard
  9
$DIMCLRD
 70
     0
  9
$DIMCLRE
 70
     0
  9
$DIMCLRT
 70
     0
  9
$DIMTFAC
 40
1.0
  9
$DIMGAP
 40
0.09
  9
$DIMJUST
 70
     0
  9
$DIMSD1
 70
     0
  9
$DIMSD2
 70
     0
  9
$DIMTOLJ
 70
     1
  9
$DIMTZIN
 70
     0
  9
$DIMALTZ
 70
     0
  9
$DIMALTTZ
 70
     0
  9
$DIMUPT
 70
     0
  9
$DIMDEC
 70
     4
  9
$DIMTDEC
 70
     4
  9
$DIMALTU
 70
     2
  9
$DIMALTTD
 70
     2
  9
$DIMTXSTY
  7
Standard
  9
$DIMAUNIT
 70
     0
  9
$DIMADEC
 70
     0
  9
$DIMALTRND
 40
0.0
  9
$DIMAZIN
 70
     0
  9
$DIMDSEP
 70
    46
  9
$DIMATFIT
 70
     3
  9
$DIMFRAC
 70
     0
  9
$DIMLDRBLK
  1

  9
$DIMLUNIT
 70
     2
  9
$DIMLWD
 70
    -2
  9
$DIMLWE
 70
    -2
  9
$DIMTMOVE
 70
     0
  9
$DIMFXL
 40
1.0
  9
$DIMFXLON
 70
     0
  9
$DIMJOGANG
 40
0.7853981633974483
  9
$DIMTFILL
 70
     0
  9
$DIMTFILLCLR
 70
     0
  9
$DIMARCSYM
 70
     0
  9
$DIMLTYPE
  6

  9
$DIMLTEX1
  6

  9
$DIMLTEX2
  6

  9
$DIMTXTDIRECTION
 70
     0
  9
$LUNITS
 70
     2
  9
$LUPREC
 70
     4
  9
$SKETCHINC
 40
0.1
  9
$FILLETRAD
 40
0.5
  9
$AUNITS
 70
     0
  9
$AUPREC
 70
     0
  9
$MENU
  1
.
  9
$ELEVATION
 40
0.0
  9
$PELEVATION
 40
0.0
  9
$THICKNESS
 40
0.0
  9
$LIMCHECK
 70
     0
  9
$CHAMFERA
 40
0.5
  9
$CHAMFERB
 40
0.5
  9
$CHAMFERC
 40
1.0
  9
$CHAMFERD
 40
0.0
  9
$SKPOLY
 70
     0
  9
$TDCREATE
 40
2457917.615775463
  9
$TDUCREATE
 40
2457917.240775463
  9
$TDUPDATE
 40
2457917.615775463
  9
$TDUUPDATE
 40
2457917.240775463
  9
$TDINDWG
 40
0.0000000116
  9
$TDUSRTIMER
 40
0.0000000116
  9
$USRTIMER
 70
     1
  9
$ANGBASE
 50
0.0
  9
$ANGDIR
 70
     0
  9
$PDMODE
 70
     0
  9
$PDSIZE
 40
0.0
  9
$PLINEWID
 40
0.0
  9
$SPLFRAME
 70
     0
  9
$SPLINETYPE
 70
     6
  9
$SPLINESEGS
 70
     8
  9
$HANDSEED
  5
EC
  9
$SURFTAB1
 70
     6
  9
$SURFTAB2
 70
     6
  9
$SURFTYPE
 70
     6
  9
$SURFU
 70
     6
  9
$SURFV
 70
     6
  9
$UCSBASE
  2

  9
$UCSNAME
  2

  9
$UCSORG
 10
0.0
 20
0.0
 30
0.0
  9
$UCSXDIR
 10
1.0
 20
0.0
 30
0.0
  9
$UCSYDIR
 10
0.0
 20
1.0
 30
0.0
  9
$UCSORTHOREF
  2

  9
$UCSORTHOVIEW
 70
     0
  9
$UCSORGTOP
 10
0.0
 20
0.0
 30
0.0
  9
$UCSORGBOTTOM
 10
0.0
 20
0.0
 30
0.0
  9
$UCSORGLEFT
 10
0.0
 20
0.0
 30
0.0
  9
$UCSORGRIGHT
 10
0.0
 20
0.0
 30
0.0
  9
$UCSORGFRONT
 10
0.0
 20
0.0
 30
0.0
  9
$UCSORGBACK
 10
0.0
 20
0.0
 30
0.0
  9
$PUCSBASE
  2

  9
$PUCSNAME
  2

  9
$PUCSORG
 10
0.0
 20
0.0
 30
0.0
  9
$PUCSXDIR
 10
1.0
 20
0.0
 30
0.0
  9
$PUCSYDIR
 10
0.0
 20
1.0
 30
0.0
  9
$PUCSORTHOREF
  2

  9
$PUCSORTHOVIEW
 70
     0
  9
$PUCSORGTOP
 10
0.0
 20
0.0
 30
0.0
  9
$PUCSORGBOTTOM
 10
0.0
 20
0.0
 30
0.0
  9
$PUCSORGLEFT
 10
0.0
 20
0.0
 30
0.0
  9
$PUCSORGRIGHT
 10
0.0
 20
0.0
 30
0.0
  9
$PUCSORGFRONT
 10
0.0
 20
0.0
 30
0.0
  9
$PUCSORGBACK
 10
0.0
 20
0.0
 30
0.0
  9
$USERI1
 70
     0
  9
$USERI2
 70
     0
  9
$USERI3
 70
     0
  9
$USERI4
 70
     0
  9
$USERI5
 70
     0
  9
$USERR1
 40
0.0
  9
$USERR2
 40
0.0
  9
$USERR3
 40
0.0
  9
$USERR4
 40
0.0
  9
$USERR5
 40
0.0
  9
$WORLDVIEW
 70
     1
  9
$SHADEDGE
 70
     3
  9
$SHADEDIF
 70
    70
  9
$TILEMODE
 70
     1
  9
$MAXACTVP
 70
    64
  9
$PINSBASE
 10
0.0
 20
0.0
 30
0.0
  9
$PLIMCHECK
 70
     0
  9
$PEXTMIN
 10
1.000000000000000E+20
 20
1.000000000000000E+20
 30
1.000000000000000E+20
  9
$PEXTMAX
 10
-1.000000000000000E+20
 20
-1.000000000000000E+20
 30
-1.000000000000000E+20
  9
$PLIMMIN
 10
0.0
 20
0.0
  9
$PLIMMAX
 10
12.0
 20
9.0
  9
$UNITMODE
 70
     0
  9
$VISRETAIN
 70
     1
  9
$PLINEGEN
 70
     0
  9
$PSLTSCALE
 70
     1
  9
$TREEDEPTH
 70
  3020
  9
$CMLSTYLE
  2
Standard
  9
$CMLJUST
 70
     0
  9
$CMLSCALE
 40
1.0
  9
$PROXYGRAPHICS
 70
     1
  9
$MEASUREMENT
 70
     0
  9
$CELWEIGHT
370
    -1
  9
$ENDCAPS
280
     0
  9
$JOINSTYLE
280
     0
  9
$LWDISPLAY
290
     1
  9
$INSUNITS
 70
     1
  9
$HYPERLINKBASE
  1

  9
$STYLESHEET
  1

  9
$XEDIT
290
     1
  9
$CEPSNTYPE
380
     0
  9
$PSTYLEMODE
290
     1
  9
$FINGERPRINTGUID
  2
{E7DE451E-B9DF-92B4-446D-1CDE3F69132E}
  9
$VERSIONGUID
  2
{FAEB1C32-E019-11D5-929B-00C0DF256EC4}
  9
$EXTNAMES
290
     1
  9
$PSVPSCALE
 40
0.0
  9
$OLESTARTUP
290
     0
  9
$SORTENTS
280
   127
  9
$INDEXCTL
280
     0
  9
$HIDETEXT
280
     1
  9
$XCLIPFRAME
280
     2
  9
$HALOGAP
280
     0
  9
$OBSCOLOR
 70
   257
  9
$OBSLTYPE
280
     0
  9
$INTERSECTIONDISPLAY
280
     0
  9
$INTERSECTIONCOLOR
 70
   257
  9
$DIMASSOC
280
     2
  9
$PROJECTNAME
  1

  9
$CAMERADISPLAY
290
     0
  9
$LENSLENGTH
 40
50.0
  9
$CAMERAHEIGHT
 40
0.0
  9
$STEPSPERSEC
 40
2.0
  9
$STEPSIZE
 40
6.0
  9
$3DDWFPREC
 40
2.0
  9
$PSOLWIDTH
 40
0.25
  9
$PSOLHEIGHT
 40
4.0
  9
$LOFTANG1
 40
1.570796326794897
  9
$LOFTANG2
 40
1.570796326794897
  9
$LOFTMAG1
 40
0.0
  9
$LOFTMAG2
 40
0.0
  9
$LOFTPARAM
 70
     7
  9
$LOFTNORMALS
280
     1
  9
$LATITUDE
 40
37.795
  9
$LONGITUDE
 40
-122.394
  9
$NORTHDIRECTION
 40
0.0
  9
$TIMEZONE
 70
 -8000
  9
$LIGHTGLYPHDISPLAY
280
     1
  9
$TILEMODELIGHTSYNCH
280
     1
  9
$CMATERIAL
347
3C
  9
$SOLIDHIST
280
     1
  9
$SHOWHIST
280
     1
  9
$DWFFRAME
280
     2
  9
$DGNFRAME
280
     2
  9
$REALWORLDSCALE
290
     1
  9
$INTERFERECOLOR
 62
   256
  9
$CSHADOW
280
     0
  9
$SHADOWPLANELOCATION
 40
0.0
  0
ENDSEC
  0
SECTION
  2
CLASSES
  0
CLASS
  1
ACDBDICTIONARYWDFLT
  2
AcDbDictionaryWithDefault
  3
ObjectDBX Classes
 90
        0
 91
        4
280
     0
281
     0
  0
CLASS
  1
VISUALSTYLE
  2
AcDbVisualStyle
  3
ObjectDBX Classes
 90
     4095
 91
        4
280
     0
281
     0
  0
CLASS
  1
MATERIAL
  2
AcDbMaterial
  3
ObjectDBX Classes
 90
     1153
 91
        4
280
     0
281
     0
  0
CLASS
  1
SUN
  2
AcDbSun
  3
SCENEOE
 90
     1024
 91
        4
280
     0
281
     0
  0
ENDSEC
  0
SECTION
  2
TABLES
  0
TABLE
  2
VPORT
  5
8
330
0
100
AcDbSymbolTable
 70
     1
  0
VPORT
  5
29
330
8
100
AcDbSymbolTableRecord
100
AcDbViewportTableRecord
  2
*Active
 70
     0
 10
0.0
 20
0.0
 11
1.0
 21
1.0
 12
0.0
 22
0.0
 13
0.0
 23
0.0
 14
0.5
 24
0.5
 15
0.5
 25
0.5
 16
0.0
 26
0.0
 36
1.0
 17
91.00082462281999
 27
-128.4993055234307
 37
0.0
 40
256.9986110468615
 41
0.7081814508812795
 42
50.0
 43
0.0
 44
0.0
 50
0.0
 51
0.0
 71
     0
 72
   100
 73
     1
 74
     3
 75
     0
 76
     0
 77
     0
 78
     0
281
     0
 65
     1
110
0.0
120
0.0
130
0.0
111
1.0
121
0.0
131
0.0
112
0.0
122
1.0
132
0.0
 79
     0
146
0.0
 60
     3
 61
     5
292
     1
282
     1
141
0.0
142
0.0
 63
   250
361
3F
  0
ENDTAB
  0
TABLE
  2
LTYPE
  5
5
330
0
100
AcDbSymbolTable
 70
     1
  0
LTYPE
  5
14
330
5
100
AcDbSymbolTableRecord
100
AcDbLinetypeTableRecord
  2
ByBlock
 70
     0
  3

 72
    65
 73
     0
 40
0.0
  0
LTYPE
  5
15
330
5
100
AcDbSymbolTableRecord
100
AcDbLinetypeTableRecord
  2
ByLayer
 70
     0
  3

 72
    65
 73
     0
 40
0.0
  0
LTYPE
  5
16
330
5
100
AcDbSymbolTableRecord
100
AcDbLinetypeTableRecord
  2
Continuous
 70
     0
  3
Solid line
 72
    65
 73
     0
 40
0.0
  0
ENDTAB
  0
TABLE
  2
LAYER
  5
2
330
0
100
AcDbSymbolTable
 70
     2
  0
LAYER
  5
10
330
2
100
AcDbSymbolTableRecord
100
AcDbLayerTableRecord
  2
0
 70
     0
 62
     7
  6
Continuous
370
    -3
390
F
347
3E
  0
LAYER
  5
40
330
2
100
AcDbSymbolTableRecord
100
AcDbLayerTableRecord
  2
_U+30EC_U+30A4_U+30E4_U+30FC 1
 70
     0
 62
     7
  6
Continuous
370
    -3
390
F
347
3E
  0
ENDTAB
  0
TABLE
  2
STYLE
  5
3
330
0
100
AcDbSymbolTable
 70
     1
  0
STYLE
  5
11
330
3
100
AcDbSymbolTableRecord
100
AcDbTextStyleTableRecord
  2
Standard
 70
     0
 40
0.0
 41
1.0
 50
0.0
 71
     0
 42
0.2
  3
txt
  4

  0
ENDTAB
  0
TABLE
  2
VIEW
  5
6
330
0
100
AcDbSymbolTable
 70
     0
  0
ENDTAB
  0
TABLE
  2
UCS
  5
7
330
0
100
AcDbSymbolTable
 70
     0
  0
ENDTAB
  0
TABLE
  2
APPID
  5
9
330
0
100
AcDbSymbolTable
 70
     1
  0
APPID
  5
12
330
9
100
AcDbSymbolTableRecord
100
AcDbRegAppTableRecord
  2
ACAD
 70
     0
  0
ENDTAB
  0
TABLE
  2
DIMSTYLE
  5
A
330
0
100
AcDbSymbolTable
 70
     1
100
AcDbDimStyleTable
  0
DIMSTYLE
105
27
330
A
100
AcDbSymbolTableRecord
100
AcDbDimStyleTableRecord
  2
Standard
 70
     0
178
     0
340
11
  0
ENDTAB
  0
TABLE
  2
BLOCK_RECORD
  5
1
330
0
100
AcDbSymbolTable
 70
     7
  0
BLOCK_RECORD
  5
1F
330
1
100
AcDbSymbolTableRecord
100
AcDbBlockTableRecord
  2
*Model_Space
340
22
 70
     0
280
     1
281
     0
  0
BLOCK_RECORD
  5
1B
330
1
100
AcDbSymbolTableRecord
100
AcDbBlockTableRecord
  2
*Paper_Space
340
1E
 70
     0
280
     1
281
     0
  0
BLOCK_RECORD
  5
23
330
1
100
AcDbSymbolTableRecord
100
AcDbBlockTableRecord
  2
*Paper_Space0
340
26
 70
     0
280
     1
281
     0
  0
BLOCK_RECORD
  5
41
330
1
100
AcDbSymbolTableRecord
100
AcDbBlockTableRecord
  2
block 2
340
0
102
{BLKREFS
331
42
102
}
 70
     0
280
     1
281
     0
  0
BLOCK_RECORD
  5
93
330
1
100
AcDbSymbolTableRecord
100
AcDbBlockTableRecord
  2
block 3
340
0
102
{BLKREFS
331
94
102
}
 70
     0
280
     1
281
     0
  0
BLOCK_RECORD
  5
A1
330
1
100
AcDbSymbolTableRecord
100
AcDbBlockTableRecord
  2
block 4
340
0
102
{BLKREFS
331
A2
102
}
 70
     0
280
     1
281
     0
  0
BLOCK_RECORD
  5
B3
330
1
100
AcDbSymbolTableRecord
100
AcDbBlockTableRecord
  2
block 5
340
0
102
{BLKREFS
331
B4
102
}
 70
     0
280
     1
281
     0
  0
BLOCK_RECORD
  5
C8
330
1
100
AcDbSymbolTableRecord
100
AcDbBlockTableRecord
  2
block 6
340
0
102
{BLKREFS
331
C9
102
}
 70
     0
280
     1
281
     0
  0
BLOCK_RECORD
  5
D8
330
1
100
AcDbSymbolTableRecord
100
AcDbBlockTableRecord
  2
block 7
340
0
102
{BLKREFS
331
D9
102
}
 70
     0
280
     1
281
     0
  0
ENDTAB
  0
ENDSEC
  0
SECTION
  2
BLOCKS
  0
BLOCK
  5
20
330
1F
100
AcDbEntity
  8
0
100
AcDbBlockBegin
  2
*Model_Space
 70
     0
 10
0.0
 20
0.0
 30
0.0
  3
*Model_Space
  1

  0
ENDBLK
  5
21
330
1F
100
AcDbEntity
  8
0
100
AcDbBlockEnd
  0
BLOCK
  5
1C
330
1B
100
AcDbEntity
 67
     1
  8
0
100
AcDbBlockBegin
  2
*Paper_Space
 70
     0
 10
0.0
 20
0.0
 30
0.0
  3
*Paper_Space
  1

  0
ENDBLK
  5
1D
330
1B
100
AcDbEntity
 67
     1
  8
0
100
AcDbBlockEnd
  0
BLOCK
  5
24
330
23
100
AcDbEntity
  8
0
100
AcDbBlockBegin
  2
*Paper_Space0
 70
     0
 10
0.0
 20
0.0
 30
0.0
  3
*Paper_Space0
  1

  0
ENDBLK
  5
25
330
23
100
AcDbEntity
  8
0
100
AcDbBlockEnd
  0
BLOCK
  5
43
330
41
100
AcDbEntity
  8
0
100
AcDbBlockBegin
  2
block 2
 70
     0
 10
0.0
 20
0.0
 30
0.0
  3
block 2
  1

  0
POLYLINE
  5
45
330
41
100
AcDbEntity
  8
_U+30EC_U+30A4_U+30E4_U+30FC 1
370
     0
100
AcDb2dPolyline
 66
     1
 10
0.0
 20
0.0
 30
0.0
  0
VERTEX
  5
46
330
45
100
AcDbEntity
  8
_U+30EC_U+30A4_U+30E4_U+30FC 1
370
     0
100
AcDbVertex
100
AcDb2dVertex
 10
73.29268590792559
 20
-114.4133474713965
 30
0.0
  0
VERTEX
  5
47
330
45
100
AcDbEntity
  8
_U+30EC_U+30A4_U+30E4_U+30FC 1
370
     0
100
AcDbVertex
100
AcDb2dVertex
 10
73.29268590792559
 20
-144.0525369084315
 30
0.0
  0
VERTEX
  5
48
330
45
100
AcDbEntity
  8
_U+30EC_U+30A4_U+30E4_U+30FC 1
370
     0
100
AcDbVertex
100
AcDb2dVertex
 10
83.45501398199633
 20
-144.0525369084315
 30
0.0
  0
VERTEX
  5
49
330
45
100
AcDbEntity
  8
_U+30EC_U+30A4_U+30E4_U+30FC 1
370
     0
100
AcDbVertex
100
AcDb2dVertex
 10
83.45501398199633
 20
-141.1014802425025
 30
0.0
  0
VERTEX
  5
4A
330
45
100
AcDbEntity
  8
_U+30EC_U+30A4_U+30E4_U+30FC 1
370
     0
100
AcDbVertex
100
AcDb2dVertex
 10
82.33744928828555
 20
-141.1014802425025
 30
0.0
  0
VERTEX
  5
4B
330
45
100
AcDbEntity
  8
_U+30EC_U+30A4_U+30E4_U+30FC 1
370
     0
100
AcDbVertex
100
AcDb2dVertex
 10
82.33744928828555
 20
-143.0417580197952
 30
0.0
  0
VERTEX
  5
4C
330
45
100
AcDbEntity
  8
_U+30EC_U+30A4_U+30E4_U+30FC 1
370
     0
100
AcDbVertex
100
AcDb2dVertex
 10
74.34135310339407
 20
-143.0417580197952
 30
0.0
  0
VERTEX
  5
4D
330
45
100
AcDbEntity
  8
_U+30EC_U+30A4_U+30E4_U+30FC 1
370
     0
100
AcDbVertex
100
AcDb2dVertex
 10
74.34135310339407
 20
-115.4027833044827
 30
0.0
  0
VERTEX
  5
4E
330
45
100
AcDbEntity
  8
_U+30EC_U+30A4_U+30E4_U+30FC 1
370
     0
100
AcDbVertex
100
AcDb2dVertex
 10
98.3888377676694
 20
-115.4027833044827
 30
0.0
  0
VERTEX
  5
4F
330
45
100
AcDbEntity
  8
_U+30EC_U+30A4_U+30E4_U+30FC 1
370
     0
100
AcDbVertex
100
AcDb2dVertex
 10
98.3888377676694
 20
-114.4615721936067
 30
0.0
  0
VERTEX
  5
50
330
45
100
AcDbEntity
  8
_U+30EC_U+30A4_U+30E4_U+30FC 1
370
     0
100
AcDbVertex
100
AcDb2dVertex
 10
73.29268590792559
 20
-114.4133474713965
 30
0.0
  0
SEQEND
  5
52
330
45
100
AcDbEntity
  8
_U+30EC_U+30A4_U+30E4_U+30FC 1
370
     0
  0
HATCH
  5
51
330
41
100
AcDbEntity
  8
_U+30EC_U+30A4_U+30E4_U+30FC 1
 62
     9
420
 13224394
100
AcDbHatch
 10
0.0
 20
0.0
 30
0.0
210
0.0
220
0.0
230
1.0
  2
SOLID
 70
     1
 71
     0
 91
        1
 92
        1
 93
       10
 72
     1
 10
73.29268590792559
 20
-114.4133474713965
 11
73.29268590792559
 21
-144.0525369084315
 72
     1
 10
73.29268590792559
 20
-144.0525369084315
 11
83.45501398199633
 21
-144.0525369084315
 72
     1
 10
83.45501398199633
 20
-144.0525369084315
 11
83.45501398199633
 21
-141.1014802425025
 72
     1
 10
83.45501398199633
 20
-141.1014802425025
 11
82.33744928828555
 21
-141.1014802425025
 72
     1
 10
82.33744928828555
 20
-141.1014802425025
 11
82.33744928828555
 21
-143.0417580197952
 72
     1
 10
82.33744928828555
 20
-143.0417580197952
 11
74.34135310339407
 21
-143.0417580197952
 72
     1
 10
74.34135310339407
 20
-143.0417580197952
 11
74.34135310339407
 21
-115.4027833044827
 72
     1
 10
74.34135310339407
 20
-115.4027833044827
 11
98.3888377676694
 21
-115.4027833044827
 72
     1
 10
98.3888377676694
 20
-115.4027833044827
 11
98.3888377676694
 21
-114.4615721936067
 72
     1
 10
98.3888377676694
 20
-114.4615721936067
 11
73.29268590792559
 21
-114.4133474713965
 97
        0
 75
     2
 76
     1
 98
        0
  0
POLYLINE
  5
53
330
41
100
AcDbEntity
  8
_U+30EC_U+30A4_U+30E4_U+30FC 1
 62
   179
420
  2234388
370
    25
100
AcDb2dPolyline
 66
     1
 10
0.0
 20
0.0
 30
0.0
  0
VERTEX
  5
54
330
53
100
AcDbEntity
  8
_U+30EC_U+30A4_U+30E4_U+30FC 1
 62
   179
420
  2234388
370
    25
100
AcDbVertex
100
AcDb2dVertex
 10
73.34987118424444
 20
-114.4285169158374
 30
0.0
  0
VERTEX
  5
55
330
53
100
AcDbEntity
  8
_U+30EC_U+30A4_U+30E4_U+30FC 1
 62
   179
420
  2234388
370
    25
100
AcDbVertex
100
AcDb2dVertex
 10
98.34989110199635
 20
-114.4285169158374
 30
0.0
  0
SEQEND
  5
56
330
53
100
AcDbEntity
  8
_U+30EC_U+30A4_U+30E4_U+30FC 1
 62
   179
420
  2234388
370
    25
  0
POLYLINE
  5
57
330
41
100
AcDbEntity
  8
_U+30EC_U+30A4_U+30E4_U+30FC 1
 62
   179
420
  2234388
370
    25
100
AcDb2dPolyline
 66
     1
 10
0.0
 20
0.0
 30
0.0
  0
VERTEX
  5
58
330
57
100
AcDbEntity
  8
_U+30EC_U+30A4_U+30E4_U+30FC 1
 62
   179
420
  2234388
370
    25
100
AcDbVertex
100
AcDb2dVertex
 10
73.34987118424444
 20
-114.4285169158374
 30
0.0
  0
VERTEX
  5
59
330
57
100
AcDbEntity
  8
_U+30EC_U+30A4_U+30E4_U+30FC 1
 62
   179
420
  2234388
370
    25
100
AcDbVertex
100
AcDb2dVertex
 10
73.34987118424444
 20
-144.1627799639595
 30
0.0
  0
SEQEND
  5
5A
330
57
100
AcDbEntity
  8
_U+30EC_U+30A4_U+30E4_U+30FC 1
 62
   179
420
  2234388
370
    25
  0
POLYLINE
  5
5B
330
41
100
AcDbEntity
  8
_U+30EC_U+30A4_U+30E4_U+30FC 1
 62
   179
420
  2234388
370
    25
100
AcDb2dPolyline
 66
     1
 10
0.0
 20
0.0
 30
0.0
  0
VERTEX
  5
5C
330
5B
100
AcDbEntity
  8
_U+30EC_U+30A4_U+30E4_U+30FC 1
 62
   179
420
  2234388
370
    25
100
AcDbVertex
100
AcDb2dVertex
 10
98.34989110199635
 20
-114.4285169158374
 30
0.0
  0
VERTEX
  5
5D
330
5B
100
AcDbEntity
  8
_U+30EC_U+30A4_U+30E4_U+30FC 1
 62
   179
420
  2234388
370
    25
100
AcDbVertex
100
AcDb2dVertex
 10
98.34989110199635
 20
-115.4282538600318
 30
0.0
  0
SEQEND
  5
5E
330
5B
100
AcDbEntity
  8
_U+30EC_U+30A4_U+30E4_U+30FC 1
 62
   179
420
  2234388
370
    25
  0
POLYLINE
  5
5F
330
41
100
AcDbEntity
  8
_U+30EC_U+30A4_U+30E4_U+30FC 1
 62
   179
420
  2234388
370
    25
100
AcDb2dPolyline
 66
     1
 10
0.0
 20
0.0
 30
0.0
  0
VERTEX
  5
60
330
5F
100
AcDbEntity
  8
_U+30EC_U+30A4_U+30E4_U+30FC 1
 62
   179
420
  2234388
370
    25
100
AcDbVertex
100
AcDb2dVertex
 10
74.34964338096034
 20
-115.4282538600318
 30
0.0
  0
VERTEX
  5
61
330
5F
100
AcDbEntity
  8
_U+30EC_U+30A4_U+30E4_U+30FC 1
 62
   179
420
  2234388
370
    25
100
AcDbVertex
100
AcDb2dVertex
 10
98.34989110199635
 20
-115.4282538600318
 30
0.0
  0
SEQEND
  5
62
330
5F
100
AcDbEntity
  8
_U+30EC_U+30A4_U+30E4_U+30FC 1
 62
   179
420
  2234388
370
    25
  0
POLYLINE
  5
63
330
41
100
AcDbEntity
  8
_U+30EC_U+30A4_U+30E4_U+30FC 1
 62
   179
420
  2234388
370
    25
100
AcDb2dPolyline
 66
     1
 10
0.0
 20
0.0
 30
0.0
  0
VERTEX
  5
64
330
63
100
AcDbEntity
  8
_U+30EC_U+30A4_U+30E4_U+30FC 1
 62
   179
420
  2234388
370
    25
100
AcDbVertex
100
AcDb2dVertex
 10
83.34960398468556
 20
-141.0745985758427
 30
0.0
  0
VERTEX
  5
65
330
63
100
AcDbEntity
  8
_U+30EC_U+30A4_U+30E4_U+30FC 1
 62
   179
420
  2234388
370
    25
100
AcDbVertex
100
AcDb2dVertex
 10
83.34960398468556
 20
-144.0745855195371
 30
0.0
  0
SEQEND
  5
66
330
63
100
AcDbEntity
  8
_U+30EC_U+30A4_U+30E4_U+30FC 1
 62
   179
420
  2234388
370
    25
  0
POLYLINE
  5
67
330
41
100
AcDbEntity
  8
_U+30EC_U+30A4_U+30E4_U+30FC 1
 62
   179
420
  2234388
370
    25
100
AcDb2dPolyline
 66
     1
 10
0.0
 20
0.0
 30
0.0
  0
VERTEX
  5
68
330
67
100
AcDbEntity
  8
_U+30EC_U+30A4_U+30E4_U+30FC 1
 62
   179
420
  2234388
370
    25
100
AcDbVertex
100
AcDb2dVertex
 10
82.34983178796965
 20
-141.0745985758427
 30
0.0
  0
VERTEX
  5
69
330
67
100
AcDbEntity
  8
_U+30EC_U+30A4_U+30E4_U+30FC 1
 62
   179
420
  2234388
370
    25
100
AcDbVertex
100
AcDb2dVertex
 10
82.34983178796965
 20
-143.0741430197872
 30
0.0
  0
SEQEND
  5
6A
330
67
100
AcDbEntity
  8
_U+30EC_U+30A4_U+30E4_U+30FC 1
 62
   179
420
  2234388
370
    25
  0
POLYLINE
  5
6B
330
41
100
AcDbEntity
  8
_U+30EC_U+30A4_U+30E4_U+30FC 1
 62
   179
420
  2234388
370
    25
100
AcDb2dPolyline
 66
     1
 10
0.0
 20
0.0
 30
0.0
  0
VERTEX
  5
6C
330
6B
100
AcDbEntity
  8
_U+30EC_U+30A4_U+30E4_U+30FC 1
 62
   179
420
  2234388
370
    25
100
AcDbVertex
100
AcDb2dVertex
 10
74.34964338096034
 20
-115.4282538600318
 30
0.0
  0
VERTEX
  5
6D
330
6B
100
AcDbEntity
  8
_U+30EC_U+30A4_U+30E4_U+30FC 1
 62
   179
420
  2234388
370
    25
100
AcDbVertex
100
AcDb2dVertex
 10
74.34964338096034
 20
-143.0741430197872
 30
0.0
  0
SEQEND
  5
6E
330
6B
100
AcDbEntity
  8
_U+30EC_U+30A4_U+30E4_U+30FC 1
 62
   179
420
  2234388
370
    25
  0
POLYLINE
  5
6F
330
41
100
AcDbEntity
  8
_U+30EC_U+30A4_U+30E4_U+30FC 1
 62
   179
420
  2234388
370
    25
100
AcDb2dPolyline
 66
     1
 10
0.0
 20
0.0
 30
0.0
  0
VERTEX
  5
70
330
6F
100
AcDbEntity
  8
_U+30EC_U+30A4_U+30E4_U+30FC 1
 62
   179
420
  2234388
370
    25
100
AcDbVertex
100
AcDb2dVertex
 10
82.34983178796965
 20
-141.0745985758427
 30
0.0
  0
VERTEX
  5
71
330
6F
100
AcDbEntity
  8
_U+30EC_U+30A4_U+30E4_U+30FC 1
 62
   179
420
  2234388
370
    25
100
AcDbVertex
100
AcDb2dVertex
 10
83.34960398468556
 20
-141.0745985758427
 30
0.0
  0
SEQEND
  5
72
330
6F
100
AcDbEntity
  8
_U+30EC_U+30A4_U+30E4_U+30FC 1
 62
   179
420
  2234388
370
    25
  0
POLYLINE
  5
73
330
41
100
AcDbEntity
  8
_U+30EC_U+30A4_U+30E4_U+30FC 1
 62
   179
420
  2234388
370
    25
100
AcDb2dPolyline
 66
     1
 10
0.0
 20
0.0
 30
0.0
  0
VERTEX
  5
74
330
73
100
AcDbEntity
  8
_U+30EC_U+30A4_U+30E4_U+30FC 1
 62
   179
420
  2234388
370
    25
100
AcDbVertex
100
AcDb2dVertex
 10
73.34987118424444
 20
-144.1627799639595
 30
0.0
  0
VERTEX
  5
75
330
73
100
AcDbEntity
  8
_U+30EC_U+30A4_U+30E4_U+30FC 1
 62
   179
420
  2234388
370
    25
100
AcDbVertex
100
AcDb2dVertex
 10
83.34960398468556
 20
-144.1627799639595
 30
0.0
  0
SEQEND
  5
76
330
73
100
AcDbEntity
  8
_U+30EC_U+30A4_U+30E4_U+30FC 1
 62
   179
420
  2234388
370
    25
  0
POLYLINE
  5
77
330
41
100
AcDbEntity
  8
_U+30EC_U+30A4_U+30E4_U+30FC 1
 62
   179
420
  2234388
370
    25
100
AcDb2dPolyline
 66
     1
 10
0.0
 20
0.0
 30
0.0
  0
VERTEX
  5
78
330
77
100
AcDbEntity
  8
_U+30EC_U+30A4_U+30E4_U+30FC 1
 62
   179
420
  2234388
370
    25
100
AcDbVertex
100
AcDb2dVertex
 10
74.34964338096034
 20
-143.0741430197872
 30
0.0
  0
VERTEX
  5
79
330
77
100
AcDbEntity
  8
_U+30EC_U+30A4_U+30E4_U+30FC 1
 62
   179
420
  2234388
370
    25
100
AcDbVertex
100
AcDb2dVertex
 10
82.34983178796965
 20
-143.0741430197872
 30
0.0
  0
SEQEND
  5
7A
330
77
100
AcDbEntity
  8
_U+30EC_U+30A4_U+30E4_U+30FC 1
 62
   179
420
  2234388
370
    25
  0
SPLINE
  5
7B
330
41
100
AcDbEntity
  8
_U+30EC_U+30A4_U+30E4_U+30FC 1
 62
   179
420
  2234388
370
     9
100
AcDbSpline
210
0.0
220
0.0
230
1.0
 70
    11
 71
     3
 72
    17
 73
    13
 74
     0
 42
0.0000000001
 43
0.0000000001
 12
1.0
 22
0.0
 32
0.0
 13
1.0
 23
0.0
 33
0.0
 40
0.0
 40
0.0
 40
0.0
 40
0.0
 40
1.0
 40
1.0
 40
1.0
 40
2.0
 40
2.0
 40
2.0
 40
3.0
 40
3.0
 40
3.0
 40
4.0
 40
4.0
 40
4.0
 40
4.0
 10
73.44977784836227
 20
-110.4287577501705
 30
0.0
 10
73.44977784836227
 20
-110.3736185835177
 30
0.0
 10
73.4049750717275
 20
-110.3288510835289
 30
0.0
 10
73.34987118424444
 20
-110.3288510835289
 30
0.0
 10
73.29473201898449
 20
-110.3288510835289
 30
0.0
 10
73.24996452012661
 20
-110.3736185835177
 30
0.0
 10
73.24996452012661
 20
-110.4287577501705
 30
0.0
 10
73.24996452012661
 20
-110.4838616390457
 30
0.0
 10
73.29473201898449
 20
-110.5286644168121
 30
0.0
 10
73.34987118424444
 20
-110.5286644168121
 30
0.0
 10
73.4049750717275
 20
-110.5286644168121
 30
0.0
 10
73.44977784836227
 20
-110.4838616390457
 30
0.0
 10
73.44977784836227
 20
-110.4287577501705
 30
0.0
  0
SPLINE
  5
7C
330
41
100
AcDbEntity
  8
_U+30EC_U+30A4_U+30E4_U+30FC 1
 62
   179
420
  2234388
370
     9
100
AcDbSpline
210
0.0
220
0.0
230
1.0
 70
    11
 71
     3
 72
    17
 73
    13
 74
     0
 42
0.0000000001
 43
0.0000000001
 12
1.0
 22
0.0
 32
0.0
 13
1.0
 23
0.0
 33
0.0
 40
0.0
 40
0.0
 40
0.0
 40
0.0
 40
1.0
 40
1.0
 40
1.0
 40
2.0
 40
2.0
 40
2.0
 40
3.0
 40
3.0
 40
3.0
 40
4.0
 40
4.0
 40
4.0
 40
4.0
 10
98.44979776611419
 20
-110.4287577501705
 30
0.0
 10
98.44979776611419
 20
-110.3736185835177
 30
0.0
 10
98.40503026725631
 20
-110.3288510835289
 30
0.0
 10
98.34989110199635
 20
-110.3288510835289
 30
0.0
 10
98.29443443674451
 20
-110.3288510835289
 30
0.0
 10
98.24963166010974
 20
-110.3736185835177
 30
0.0
 10
98.24963166010974
 20
-110.4287577501705
 30
0.0
 10
98.24963166010974
 20
-110.4838616390457
 30
0.0
 10
98.29443443674451
 20
-110.5286644168121
 30
0.0
 10
98.34989110199635
 20
-110.5286644168121
 30
0.0
 10
98.40503026725631
 20
-110.5286644168121
 30
0.0
 10
98.44979776611419
 20
-110.4838616390457
 30
0.0
 10
98.44979776611419
 20
-110.4287577501705
 30
0.0
  0
SPLINE
  5
7D
330
41
100
AcDbEntity
  8
_U+30EC_U+30A4_U+30E4_U+30FC 1
 62
   179
420
  2234388
370
     9
100
AcDbSpline
210
0.0
220
0.0
230
1.0
 70
    11
 71
     3
 72
    17
 73
    13
 74
     0
 42
0.0000000001
 43
0.0000000001
 12
1.0
 22
0.0
 32
0.0
 13
1.0
 23
0.0
 33
0.0
 40
0.0
 40
0.0
 40
0.0
 40
0.0
 40
1.0
 40
1.0
 40
1.0
 40
2.0
 40
2.0
 40
2.0
 40
3.0
 40
3.0
 40
3.0
 40
4.0
 40
4.0
 40
4.0
 40
4.0
 10
102.4499096085073
 20
-114.4285169158374
 30
0.0
 10
102.4499096085073
 20
-114.3733777491843
 30
0.0
 10
102.4051068318725
 20
-114.3286102491957
 30
0.0
 10
102.3496527521904
 20
-114.3286102491957
 30
0.0
 10
102.2945462791376
 20
-114.3286102491957
 30
0.0
 10
102.2497435025028
 20
-114.3733777491843
 30
0.0
 10
102.2497435025028
 20
-114.4285169158374
 30
0.0
 10
102.2497435025028
 20
-114.4836208047123
 30
0.0
 10
102.2945462791376
 20
-114.528423582479
 30
0.0
 10
102.3496527521904
 20
-114.528423582479
 30
0.0
 10
102.4051068318725
 20
-114.528423582479
 30
0.0
 10
102.4499096085073
 20
-114.4836208047123
 30
0.0
 10
102.4499096085073
 20
-114.4285169158374
 30
0.0
  0
SPLINE
  5
7E
330
41
100
AcDbEntity
  8
_U+30EC_U+30A4_U+30E4_U+30FC 1
 62
   179
420
  2234388
370
     9
100
AcDbSpline
210
0.0
220
0.0
230
1.0
 70
    11
 71
     3
 72
    17
 73
    13
 74
     0
 42
0.0000000001
 43
0.0000000001
 12
1.0
 22
0.0
 32
0.0
 13
1.0
 23
0.0
 33
0.0
 40
0.0
 40
0.0
 40
0.0
 40
0.0
 40
1.0
 40
1.0
 40
1.0
 40
2.0
 40
2.0
 40
2.0
 40
3.0
 40
3.0
 40
3.0
 40
4.0
 40
4.0
 40
4.0
 40
4.0
 10
102.4499096085073
 20
-115.4282538600318
 30
0.0
 10
102.4499096085073
 20
-115.3731499711568
 30
0.0
 10
102.4051068318725
 20
-115.3283471933901
 30
0.0
 10
102.3496527521904
 20
-115.3283471933901
 30
0.0
 10
102.2945462791376
 20
-115.3283471933901
 30
0.0
 10
102.2497435025028
 20
-115.3731499711568
 30
0.0
 10
102.2497435025028
 20
-115.4282538600318
 30
0.0
 10
102.2497435025028
 20
-115.4833930266848
 30
0.0
 10
102.2945462791376
 20
-115.5281605266734
 30
0.0
 10
102.3496527521904
 20
-115.5281605266734
 30
0.0
 10
102.4051068318725
 20
-115.5281605266734
 30
0.0
 10
102.4499096085073
 20
-115.4833930266848
 30
0.0
 10
102.4499096085073
 20
-115.4282538600318
 30
0.0
  0
SPLINE
  5
7F
330
41
100
AcDbEntity
  8
_U+30EC_U+30A4_U+30E4_U+30FC 1
 62
   179
420
  2234388
370
     9
100
AcDbSpline
210
0.0
220
0.0
230
1.0
 70
    11
 71
     3
 72
    17
 73
    13
 74
     0
 42
0.0000000001
 43
0.0000000001
 12
1.0
 22
0.0
 32
0.0
 13
1.0
 23
0.0
 33
0.0
 40
0.0
 40
0.0
 40
0.0
 40
0.0
 40
1.0
 40
1.0
 40
1.0
 40
2.0
 40
2.0
 40
2.0
 40
3.0
 40
3.0
 40
3.0
 40
4.0
 40
4.0
 40
4.0
 40
4.0
 10
102.4499096085073
 20
-140.9864041314203
 30
0.0
 10
102.4499096085073
 20
-140.9312649647673
 30
0.0
 10
102.4051068318725
 20
-140.8864974647787
 30
0.0
 10
102.3496527521904
 20
-140.8864974647787
 30
0.0
 10
102.2945462791376
 20
-140.8864974647787
 30
0.0
 10
102.2497435025028
 20
-140.9312649647673
 30
0.0
 10
102.2497435025028
 20
-140.9864041314203
 30
0.0
 10
102.2497435025028
 20
-141.0415080202953
 30
0.0
 10
102.2945462791376
 20
-141.086310798062
 30
0.0
 10
102.3496527521904
 20
-141.086310798062
 30
0.0
 10
102.4051068318725
 20
-141.086310798062
 30
0.0
 10
102.4499096085073
 20
-141.0415080202953
 30
0.0
 10
102.4499096085073
 20
-140.9864041314203
 30
0.0
  0
SPLINE
  5
80
330
41
100
AcDbEntity
  8
_U+30EC_U+30A4_U+30E4_U+30FC 1
 62
   179
420
  2234388
370
     9
100
AcDbSpline
210
0.0
220
0.0
230
1.0
 70
    11
 71
     3
 72
    17
 73
    13
 74
     0
 42
0.0000000001
 43
0.0000000001
 12
1.0
 22
0.0
 32
0.0
 13
1.0
 23
0.0
 33
0.0
 40
0.0
 40
0.0
 40
0.0
 40
0.0
 40
1.0
 40
1.0
 40
1.0
 40
2.0
 40
2.0
 40
2.0
 40
3.0
 40
3.0
 40
3.0
 40
4.0
 40
4.0
 40
4.0
 40
4.0
 10
102.4499096085073
 20
-143.9863910751147
 30
0.0
 10
102.4499096085073
 20
-143.9312519084616
 30
0.0
 10
102.4051068318725
 20
-143.8864844084731
 30
0.0
 10
102.3496527521904
 20
-143.8864844084731
 30
0.0
 10
102.2945462791376
 20
-143.8864844084731
 30
0.0
 10
102.2497435025028
 20
-143.9312519084616
 30
0.0
 10
102.2497435025028
 20
-143.9863910751147
 30
0.0
 10
102.2497435025028
 20
-144.0414949639896
 30
0.0
 10
102.2945462791376
 20
-144.0862977417563
 30
0.0
 10
102.3496527521904
 20
-144.0862977417563
 30
0.0
 10
102.4051068318725
 20
-144.0862977417563
 30
0.0
 10
102.4499096085073
 20
-144.0414949639896
 30
0.0
 10
102.4499096085073
 20
-143.9863910751147
 30
0.0
  0
SPLINE
  5
81
330
41
100
AcDbEntity
  8
_U+30EC_U+30A4_U+30E4_U+30FC 1
 62
   179
420
  2234388
370
     9
100
AcDbSpline
210
0.0
220
0.0
230
1.0
 70
    11
 71
     3
 72
    17
 73
    13
 74
     0
 42
0.0000000001
 43
0.0000000001
 12
1.0
 22
0.0
 32
0.0
 13
1.0
 23
0.0
 33
0.0
 40
0.0
 40
0.0
 40
0.0
 40
0.0
 40
1.0
 40
1.0
 40
1.0
 40
2.0
 40
2.0
 40
2.0
 40
3.0
 40
3.0
 40
3.0
 40
4.0
 40
4.0
 40
4.0
 40
4.0
 10
83.4495106488034
 20
-149.1330307960498
 30
0.0
 10
83.4495106488034
 20
-149.0772213516194
 30
0.0
 10
83.4047431499455
 20
-149.0324185738533
 30
0.0
 10
83.34960398468556
 20
-149.0324185738533
 30
0.0
 10
83.29450009720249
 20
-149.0324185738533
 30
0.0
 10
83.24969732056772
 20
-149.0772213516194
 30
0.0
 10
83.24969732056772
 20
-149.1330307960498
 30
0.0
 10
83.24969732056772
 20
-149.1881346849254
 30
0.0
 10
83.29450009720249
 20
-149.2329374626915
 30
0.0
 10
83.34960398468556
 20
-149.2329374626915
 30
0.0
 10
83.4047431499455
 20
-149.2329374626915
 30
0.0
 10
83.4495106488034
 20
-149.1881346849254
 30
0.0
 10
83.4495106488034
 20
-149.1330307960498
 30
0.0
  0
SPLINE
  5
82
330
41
100
AcDbEntity
  8
_U+30EC_U+30A4_U+30E4_U+30FC 1
 62
   179
420
  2234388
370
     9
100
AcDbSpline
210
0.0
220
0.0
230
1.0
 70
    11
 71
     3
 72
    17
 73
    13
 74
     0
 42
0.0000000001
 43
0.0000000001
 12
1.0
 22
0.0
 32
0.0
 13
1.0
 23
0.0
 33
0.0
 40
0.0
 40
0.0
 40
0.0
 40
0.0
 40
1.0
 40
1.0
 40
1.0
 40
2.0
 40
2.0
 40
2.0
 40
3.0
 40
3.0
 40
3.0
 40
4.0
 40
4.0
 40
4.0
 40
4.0
 10
73.44977784836227
 20
-149.1330307960498
 30
0.0
 10
73.44977784836227
 20
-149.0772213516194
 30
0.0
 10
73.4049750717275
 20
-149.0324185738533
 30
0.0
 10
73.34987118424444
 20
-149.0324185738533
 30
0.0
 10
73.29473201898449
 20
-149.0324185738533
 30
0.0
 10
73.24996452012661
 20
-149.0772213516194
 30
0.0
 10
73.24996452012661
 20
-149.1330307960498
 30
0.0
 10
73.24996452012661
 20
-149.1881346849254
 30
0.0
 10
73.29473201898449
 20
-149.2329374626915
 30
0.0
 10
73.34987118424444
 20
-149.2329374626915
 30
0.0
 10
73.4049750717275
 20
-149.2329374626915
 30
0.0
 10
73.44977784836227
 20
-149.1881346849254
 30
0.0
 10
73.44977784836227
 20
-149.1330307960498
 30
0.0
  0
POLYLINE
  5
83
330
41
100
AcDbEntity
  8
_U+30EC_U+30A4_U+30E4_U+30FC 1
 62
   179
420
  2234388
370
     9
100
AcDb2dPolyline
 66
     1
 10
0.0
 20
0.0
 30
0.0
  0
VERTEX
  5
84
330
83
100
AcDbEntity
  8
_U+30EC_U+30A4_U+30E4_U+30FC 1
 62
   179
420
  2234388
370
     9
100
AcDbVertex
100
AcDb2dVertex
 10
102.3496527521904
 20
-114.4285169158374
 30
0.0
  0
VERTEX
  5
85
330
83
100
AcDbEntity
  8
_U+30EC_U+30A4_U+30E4_U+30FC 1
 62
   179
420
  2234388
370
     9
100
AcDbVertex
100
AcDb2dVertex
 10
102.3496527521904
 20
-110.65820441678
 30
0.0
  0
SEQEND
  5
86
330
83
100
AcDbEntity
  8
_U+30EC_U+30A4_U+30E4_U+30FC 1
 62
   179
420
  2234388
370
     9
  0
POLYLINE
  5
87
330
41
100
AcDbEntity
  8
_U+30EC_U+30A4_U+30E4_U+30FC 1
 62
   179
420
  2234388
370
     9
100
AcDb2dPolyline
 66
     1
 10
0.0
 20
0.0
 30
0.0
  0
VERTEX
  5
88
330
87
100
AcDbEntity
  8
_U+30EC_U+30A4_U+30E4_U+30FC 1
 62
   179
420
  2234388
370
     9
100
AcDbVertex
100
AcDb2dVertex
 10
102.3496527521904
 20
-114.4285169158374
 30
0.0
  0
VERTEX
  5
89
330
87
100
AcDbEntity
  8
_U+30EC_U+30A4_U+30E4_U+30FC 1
 62
   179
420
  2234388
370
     9
100
AcDbVertex
100
AcDb2dVertex
 10
102.3496527521904
 20
-115.4282538600318
 30
0.0
  0
SEQEND
  5
8A
330
87
100
AcDbEntity
  8
_U+30EC_U+30A4_U+30E4_U+30FC 1
 62
   179
420
  2234388
370
     9
  0
POLYLINE
  5
8B
330
41
100
AcDbEntity
  8
_U+30EC_U+30A4_U+30E4_U+30FC 1
 62
   179
420
  2234388
370
     9
100
AcDb2dPolyline
 66
     1
 10
0.0
 20
0.0
 30
0.0
  0
VERTEX
  5
8C
330
8B
100
AcDbEntity
  8
_U+30EC_U+30A4_U+30E4_U+30FC 1
 62
   179
420
  2234388
370
     9
100
AcDbVertex
100
AcDb2dVertex
 10
100.8896088149805
 20
-114.4285169158374
 30
0.0
  0
VERTEX
  5
8D
330
8B
100
AcDbEntity
  8
_U+30EC_U+30A4_U+30E4_U+30FC 1
 62
   179
420
  2234388
370
     9
100
AcDbVertex
100
AcDb2dVertex
 10
103.34977775194
 20
-114.4285169158374
 30
0.0
  0
SEQEND
  5
8E
330
8B
100
AcDbEntity
  8
_U+30EC_U+30A4_U+30E4_U+30FC 1
 62
   179
420
  2234388
370
     9
  0
POLYLINE
  5
8F
330
41
100
AcDbEntity
  8
_U+30EC_U+30A4_U+30E4_U+30FC 1
 62
   179
420
  2234388
370
     9
100
AcDb2dPolyline
 66
     1
 10
0.0
 20
0.0
 30
0.0
  0
VERTEX
  5
90
330
8F
100
AcDbEntity
  8
_U+30EC_U+30A4_U+30E4_U+30FC 1
 62
   179
420
  2234388
370
     9
100
AcDbVertex
100
AcDb2dVertex
 10
100.8896088149805
 20
-115.4282538600318
 30
0.0
  0
VERTEX
  5
91
330
8F
100
AcDbEntity
  8
_U+30EC_U+30A4_U+30E4_U+30FC 1
 62
   179
420
  2234388
370
     9
100
AcDbVertex
100
AcDb2dVertex
 10
103.34977775194
 20
-115.4282538600318
 30
0.0
  0
SEQEND
  5
92
330
8F
100
AcDbEntity
  8
_U+30EC_U+30A4_U+30E4_U+30FC 1
 62
   179
420
  2234388
370
     9
  0
INSERT
  5
94
330
41
100
AcDbEntity
  8
_U+30EC_U+30A4_U+30E4_U+30FC 1
100
AcDbBlockReference
  2
block 3
 10
0.0
 20
0.0
 30
0.0
  0
POLYLINE
  5
99
330
41
100
AcDbEntity
  8
_U+30EC_U+30A4_U+30E4_U+30FC 1
 62
   179
420
  2234388
370
     9
100
AcDb2dPolyline
 66
     1
 10
0.0
 20
0.0
 30
0.0
  0
VERTEX
  5
9A
330
99
100
AcDbEntity
  8
_U+30EC_U+30A4_U+30E4_U+30FC 1
 62
   179
420
  2234388
370
     9
100
AcDbVertex
100
AcDb2dVertex
 10
102.3496527521904
 20
-140.9864041314203
 30
0.0
  0
VERTEX
  5
9B
330
99
100
AcDbEntity
  8
_U+30EC_U+30A4_U+30E4_U+30FC 1
 62
   179
420
  2234388
370
     9
100
AcDbVertex
100
AcDb2dVertex
 10
102.3496527521904
 20
-143.9863910751147
 30
0.0
  0
SEQEND
  5
9C
330
99
100
AcDbEntity
  8
_U+30EC_U+30A4_U+30E4_U+30FC 1
 62
   179
420
  2234388
370
     9
  0
POLYLINE
  5
9D
330
41
100
AcDbEntity
  8
_U+30EC_U+30A4_U+30E4_U+30FC 1
 62
   179
420
  2234388
370
     9
100
AcDb2dPolyline
 66
     1
 10
0.0
 20
0.0
 30
0.0
  0
VERTEX
  5
9E
330
9D
100
AcDbEntity
  8
_U+30EC_U+30A4_U+30E4_U+30FC 1
 62
   179
420
  2234388
370
     9
100
AcDbVertex
100
AcDb2dVertex
 10
85.88967447543851
 20
-143.9863910751147
 30
0.0
  0
VERTEX
  5
9F
330
9D
100
AcDbEntity
  8
_U+30EC_U+30A4_U+30E4_U+30FC 1
 62
   179
420
  2234388
370
     9
100
AcDbVertex
100
AcDb2dVertex
 10
103.34977775194
 20
-143.9863910751147
 30
0.0
  0
SEQEND
  5
A0
330
9D
100
AcDbEntity
  8
_U+30EC_U+30A4_U+30E4_U+30FC 1
 62
   179
420
  2234388
370
     9
  0
INSERT
  5
A2
330
41
100
AcDbEntity
  8
_U+30EC_U+30A4_U+30E4_U+30FC 1
100
AcDbBlockReference
  2
block 4
 10
0.0
 20
0.0
 30
0.0
  0
POLYLINE
  5
A7
330
41
100
AcDbEntity
  8
_U+30EC_U+30A4_U+30E4_U+30FC 1
 62
   179
420
  2234388
370
     9
100
AcDb2dPolyline
 66
     1
 10
0.0
 20
0.0
 30
0.0
  0
VERTEX
  5
A8
330
A7
100
AcDbEntity
  8
_U+30EC_U+30A4_U+30E4_U+30FC 1
 62
   179
420
  2234388
370
     9
100
AcDbVertex
100
AcDb2dVertex
 10
73.34987118424444
 20
-149.1330307960498
 30
0.0
  0
VERTEX
  5
A9
330
A7
100
AcDbEntity
  8
_U+30EC_U+30A4_U+30E4_U+30FC 1
 62
   179
420
  2234388
370
     9
100
AcDbVertex
100
AcDb2dVertex
 10
83.34960398468556
 20
-149.1330307960498
 30
0.0
  0
SEQEND
  5
AA
330
A7
100
AcDbEntity
  8
_U+30EC_U+30A4_U+30E4_U+30FC 1
 62
   179
420
  2234388
370
     9
  0
POLYLINE
  5
AB
330
41
100
AcDbEntity
  8
_U+30EC_U+30A4_U+30E4_U+30FC 1
 62
   179
420
  2234388
370
     9
100
AcDb2dPolyline
 66
     1
 10
0.0
 20
0.0
 30
0.0
  0
VERTEX
  5
AC
330
AB
100
AcDbEntity
  8
_U+30EC_U+30A4_U+30E4_U+30FC 1
 62
   179
420
  2234388
370
     9
100
AcDbVertex
100
AcDb2dVertex
 10
73.34987118424444
 20
-147.6729894075261
 30
0.0
  0
VERTEX
  5
AD
330
AB
100
AcDbEntity
  8
_U+30EC_U+30A4_U+30E4_U+30FC 1
 62
   179
420
  2234388
370
     9
100
AcDbVertex
100
AcDb2dVertex
 10
73.34987118424444
 20
-150.1327677402448
 30
0.0
  0
SEQEND
  5
AE
330
AB
100
AcDbEntity
  8
_U+30EC_U+30A4_U+30E4_U+30FC 1
 62
   179
420
  2234388
370
     9
  0
POLYLINE
  5
AF
330
41
100
AcDbEntity
  8
_U+30EC_U+30A4_U+30E4_U+30FC 1
 62
   179
420
  2234388
370
     9
100
AcDb2dPolyline
 66
     1
 10
0.0
 20
0.0
 30
0.0
  0
VERTEX
  5
B0
330
AF
100
AcDbEntity
  8
_U+30EC_U+30A4_U+30E4_U+30FC 1
 62
   179
420
  2234388
370
     9
100
AcDbVertex
100
AcDb2dVertex
 10
83.34960398468556
 20
-147.6729894075261
 30
0.0
  0
VERTEX
  5
B1
330
AF
100
AcDbEntity
  8
_U+30EC_U+30A4_U+30E4_U+30FC 1
 62
   179
420
  2234388
370
     9
100
AcDbVertex
100
AcDb2dVertex
 10
83.34960398468556
 20
-150.1327677402448
 30
0.0
  0
SEQEND
  5
B2
330
AF
100
AcDbEntity
  8
_U+30EC_U+30A4_U+30E4_U+30FC 1
 62
   179
420
  2234388
370
     9
  0
INSERT
  5
B4
330
41
100
AcDbEntity
  8
_U+30EC_U+30A4_U+30E4_U+30FC 1
100
AcDbBlockReference
  2
block 5
 10
0.0
 20
0.0
 30
0.0
  0
POLYLINE
  5
BC
330
41
100
AcDbEntity
  8
_U+30EC_U+30A4_U+30E4_U+30FC 1
 62
   179
420
  2234388
370
     9
100
AcDb2dPolyline
 66
     1
 10
0.0
 20
0.0
 30
0.0
  0
VERTEX
  5
BD
330
BC
100
AcDbEntity
  8
_U+30EC_U+30A4_U+30E4_U+30FC 1
 62
   179
420
  2234388
370
     9
100
AcDbVertex
100
AcDb2dVertex
 10
73.34987118424444
 20
-110.4287577501705
 30
0.0
  0
VERTEX
  5
BE
330
BC
100
AcDbEntity
  8
_U+30EC_U+30A4_U+30E4_U+30FC 1
 62
   179
420
  2234388
370
     9
100
AcDbVertex
100
AcDb2dVertex
 10
98.34989110199635
 20
-110.4287577501705
 30
0.0
  0
SEQEND
  5
BF
330
BC
100
AcDbEntity
  8
_U+30EC_U+30A4_U+30E4_U+30FC 1
 62
   179
420
  2234388
370
     9
  0
POLYLINE
  5
C0
330
41
100
AcDbEntity
  8
_U+30EC_U+30A4_U+30E4_U+30FC 1
 62
   179
420
  2234388
370
     9
100
AcDb2dPolyline
 66
     1
 10
0.0
 20
0.0
 30
0.0
  0
VERTEX
  5
C1
330
C0
100
AcDbEntity
  8
_U+30EC_U+30A4_U+30E4_U+30FC 1
 62
   179
420
  2234388
370
     9
100
AcDbVertex
100
AcDb2dVertex
 10
73.34987118424444
 20
-111.888093583139
 30
0.0
  0
VERTEX
  5
C2
330
C0
100
AcDbEntity
  8
_U+30EC_U+30A4_U+30E4_U+30FC 1
 62
   179
420
  2234388
370
     9
100
AcDbVertex
100
AcDb2dVertex
 10
73.34987118424444
 20
-109.4282799726431
 30
0.0
  0
SEQEND
  5
C3
330
C0
100
AcDbEntity
  8
_U+30EC_U+30A4_U+30E4_U+30FC 1
 62
   179
420
  2234388
370
     9
  0
POLYLINE
  5
C4
330
41
100
AcDbEntity
  8
_U+30EC_U+30A4_U+30E4_U+30FC 1
 62
   179
420
  2234388
370
     9
100
AcDb2dPolyline
 66
     1
 10
0.0
 20
0.0
 30
0.0
  0
VERTEX
  5
C5
330
C4
100
AcDbEntity
  8
_U+30EC_U+30A4_U+30E4_U+30FC 1
 62
   179
420
  2234388
370
     9
100
AcDbVertex
100
AcDb2dVertex
 10
98.34989110199635
 20
-111.888093583139
 30
0.0
  0
VERTEX
  5
C6
330
C4
100
AcDbEntity
  8
_U+30EC_U+30A4_U+30E4_U+30FC 1
 62
   179
420
  2234388
370
     9
100
AcDbVertex
100
AcDb2dVertex
 10
98.34989110199635
 20
-109.4282799726431
 30
0.0
  0
SEQEND
  5
C7
330
C4
100
AcDbEntity
  8
_U+30EC_U+30A4_U+30E4_U+30FC 1
 62
   179
420
  2234388
370
     9
  0
INSERT
  5
C9
330
41
100
AcDbEntity
  8
_U+30EC_U+30A4_U+30E4_U+30FC 1
100
AcDbBlockReference
  2
block 6
 10
0.0
 20
0.0
 30
0.0
  0
POLYLINE
  5
D0
330
41
100
AcDbEntity
  8
_U+30EC_U+30A4_U+30E4_U+30FC 1
 62
   179
420
  2234388
370
     9
100
AcDb2dPolyline
 66
     1
 10
0.0
 20
0.0
 30
0.0
  0
VERTEX
  5
D1
330
D0
100
AcDbEntity
  8
_U+30EC_U+30A4_U+30E4_U+30FC 1
 62
   179
420
  2234388
370
     9
100
AcDbVertex
100
AcDb2dVertex
 10
102.3496527521904
 20
-140.9285132981015
 30
0.0
  0
VERTEX
  5
D2
330
D0
100
AcDbEntity
  8
_U+30EC_U+30A4_U+30E4_U+30FC 1
 62
   179
420
  2234388
370
     9
100
AcDbVertex
100
AcDb2dVertex
 10
102.3496527521904
 20
-115.4282538600318
 30
0.0
  0
SEQEND
  5
D3
330
D0
100
AcDbEntity
  8
_U+30EC_U+30A4_U+30E4_U+30FC 1
 62
   179
420
  2234388
370
     9
  0
POLYLINE
  5
D4
330
41
100
AcDbEntity
  8
_U+30EC_U+30A4_U+30E4_U+30FC 1
 62
   179
420
  2234388
370
     9
100
AcDb2dPolyline
 66
     1
 10
0.0
 20
0.0
 30
0.0
  0
VERTEX
  5
D5
330
D4
100
AcDbEntity
  8
_U+30EC_U+30A4_U+30E4_U+30FC 1
 62
   179
420
  2234388
370
     9
100
AcDbVertex
100
AcDb2dVertex
 10
85.88967447543851
 20
-140.9864041314203
 30
0.0
  0
VERTEX
  5
D6
330
D4
100
AcDbEntity
  8
_U+30EC_U+30A4_U+30E4_U+30FC 1
 62
   179
420
  2234388
370
     9
100
AcDbVertex
100
AcDb2dVertex
 10
103.34977775194
 20
-140.9864041314203
 30
0.0
  0
SEQEND
  5
D7
330
D4
100
AcDbEntity
  8
_U+30EC_U+30A4_U+30E4_U+30FC 1
 62
   179
420
  2234388
370
     9
  0
INSERT
  5
D9
330
41
100
AcDbEntity
  8
_U+30EC_U+30A4_U+30E4_U+30FC 1
100
AcDbBlockReference
  2
block 7
 10
0.0
 20
0.0
 30
0.0
  0
ENDBLK
  5
44
330
41
100
AcDbEntity
  8
0
100
AcDbBlockEnd
  0
BLOCK
  5
95
330
93
100
AcDbEntity
  8
0
100
AcDbBlockBegin
  2
block 3
 70
     0
 10
0.0
 20
0.0
 30
0.0
  3
block 3
  1

  0
SPLINE
  5
97
330
93
100
AcDbEntity
  8
_U+30EC_U+30A4_U+30E4_U+30FC 1
370
     0
100
AcDbSpline
210
0.0
220
0.0
230
1.0
 70
    11
 71
     3
 72
    26
 73
    22
 74
     0
 42
0.0000000001
 43
0.0000000001
 12
1.0
 22
0.0
 32
0.0
 13
1.0
 23
0.0
 33
0.0
 40
0.0
 40
0.0
 40
0.0
 40
0.0
 40
1.0
 40
1.0
 40
1.0
 40
2.0
 40
2.0
 40
2.0
 40
3.0
 40
3.0
 40
3.0
 40
4.0
 40
4.0
 40
4.0
 40
5.0
 40
5.0
 40
5.0
 40
6.0
 40
6.0
 40
6.0
 40
7.0
 40
7.0
 40
7.0
 40
7.0
 10
106.6425862363602
 20
-115.0069335649983
 30
0.0
 10
106.6425862363602
 20
-115.0069335649983
 30
0.0
 10
105.5384331333376
 20
-115.0069335649983
 30
0.0
 10
105.5384331333376
 20
-115.0069335649983
 30
0.0
 10
105.5384331333376
 20
-115.0069335649983
 30
0.0
 10
105.5384331333376
 20
-115.3369737124852
 30
0.0
 10
105.5384331333376
 20
-115.3369737124852
 30
0.0
 10
105.5384331333376
 20
-115.3369737124852
 30
0.0
 10
105.3902940274719
 20
-115.3369737124852
 30
0.0
 10
105.3902940274719
 20
-115.3369737124852
 30
0.0
 10
105.3754801168853
 20
-115.0048665077071
 30
0.0
 10
105.212527100433
 20
-114.9583577186562
 30
0.0
 10
105.0981499303227
 20
-114.9287298974831
 30
0.0
 10
105.0981499303227
 20
-114.9287298974831
 30
0.0
 10
105.0981499303227
 20
-114.7826578489085
 30
0.0
 10
105.0981499303227
 20
-114.7826578489085
 30
0.0
 10
105.0981499303227
 20
-114.7826578489085
 30
0.0
 10
106.6425862363602
 20
-114.7826578489085
 30
0.0
 10
106.6425862363602
 20
-114.7826578489085
 30
0.0
 10
106.6425862363602
 20
-114.7826578489085
 30
0.0
 10
106.6425862363602
 20
-115.0069335649983
 30
0.0
 10
106.6425862363602
 20
-115.0069335649983
 30
0.0
  0
HATCH
  5
98
330
93
100
AcDbEntity
  8
_U+30EC_U+30A4_U+30E4_U+30FC 1
 62
   179
420
  2234388
100
AcDbHatch
 10
0.0
 20
0.0
 30
0.0
210
0.0
220
0.0
230
1.0
  2
SOLID
 70
     1
 71
     0
 91
        1
 92
        1
 93
        1
 72
     4
 94
        3
 73
     0
 74
     1
 95
       26
 96
       22
 40
0.0
 40
0.0
 40
0.0
 40
0.0
 40
1.0
 40
1.0
 40
1.0
 40
2.0
 40
2.0
 40
2.0
 40
3.0
 40
3.0
 40
3.0
 40
4.0
 40
4.0
 40
4.0
 40
5.0
 40
5.0
 40
5.0
 40
6.0
 40
6.0
 40
6.0
 40
7.0
 40
7.0
 40
7.0
 40
7.0
 10
106.6425862363602
 20
-115.0069335649983
 10
106.6425862363602
 20
-115.0069335649983
 10
105.5384331333376
 20
-115.0069335649983
 10
105.5384331333376
 20
-115.0069335649983
 10
105.5384331333376
 20
-115.0069335649983
 10
105.5384331333376
 20
-115.3369737124852
 10
105.5384331333376
 20
-115.3369737124852
 10
105.5384331333376
 20
-115.3369737124852
 10
105.3902940274719
 20
-115.3369737124852
 10
105.3902940274719
 20
-115.3369737124852
 10
105.3754801168853
 20
-115.0048665077071
 10
105.212527100433
 20
-114.9583577186562
 10
105.0981499303227
 20
-114.9287298974831
 10
105.0981499303227
 20
-114.9287298974831
 10
105.0981499303227
 20
-114.7826578489085
 10
105.0981499303227
 20
-114.7826578489085
 10
105.0981499303227
 20
-114.7826578489085
 10
106.6425862363602
 20
-114.7826578489085
 10
106.6425862363602
 20
-114.7826578489085
 10
106.6425862363602
 20
-114.7826578489085
 10
106.6425862363602
 20
-115.0069335649983
 10
106.6425862363602
 20
-115.0069335649983
 97
        0
 97
        0
 75
     2
 76
     1
 98
        0
  0
ENDBLK
  5
96
330
93
100
AcDbEntity
  8
0
100
AcDbBlockEnd
  0
BLOCK
  5
A3
330
A1
100
AcDbEntity
  8
0
100
AcDbBlockBegin
  2
block 4
 70
     0
 10
0.0
 20
0.0
 30
0.0
  3
block 4
  1

  0
SPLINE
  5
A5
330
A1
100
AcDbEntity
  8
_U+30EC_U+30A4_U+30E4_U+30FC 1
370
     0
100
AcDbSpline
210
0.0
220
0.0
230
1.0
 70
    11
 71
     3
 72
    62
 73
    58
 74
     0
 42
0.0000000001
 43
0.0000000001
 12
1.0
 22
0.0
 32
0.0
 13
1.0
 23
0.0
 33
0.0
 40
0.0
 40
0.0
 40
0.0
 40
0.0
 40
1.0
 40
1.0
 40
1.0
 40
2.0
 40
2.0
 40
2.0
 40
3.0
 40
3.0
 40
3.0
 40
4.0
 40
4.0
 40
4.0
 40
5.0
 40
5.0
 40
5.0
 40
6.0
 40
6.0
 40
6.0
 40
7.0
 40
7.0
 40
7.0
 40
8.0
 40
8.0
 40
8.0
 40
9.0
 40
9.0
 40
9.0
 40
10.0
 40
10.0
 40
10.0
 40
11.0
 40
11.0
 40
11.0
 40
12.0
 40
12.0
 40
12.0
 40
13.0
 40
13.0
 40
13.0
 40
14.0
 40
14.0
 40
14.0
 40
15.0
 40
15.0
 40
15.0
 40
16.0
 40
16.0
 40
16.0
 40
17.0
 40
17.0
 40
17.0
 40
18.0
 40
18.0
 40
18.0
 40
19.0
 40
19.0
 40
19.0
 40
19.0
 10
101.7543402523392
 20
-142.4970729895493
 30
0.0
 10
101.7543402523392
 20
-142.5925021344908
 30
0.0
 10
101.7333251698792
 20
-142.8102321691586
 30
0.0
 10
101.5472900136757
 20
-142.9352891352731
 30
0.0
 10
101.4349799008565
 20
-143.009358688206
 30
0.0
 10
101.3357611508813
 20
-143.0134928027883
 30
0.0
 10
101.2510118019442
 20
-143.0176269173706
 30
0.0
 10
101.2510118019442
 20
-143.0176269173706
 30
0.0
 10
101.2510118019442
 20
-142.7974853158631
 30
0.0
 10
101.2510118019442
 20
-142.7974853158631
 30
0.0
 10
101.3250813548771
 20
-142.795418258572
 30
0.0
 10
101.5596923574226
 20
-142.7850829721162
 30
0.0
 10
101.5596923574226
 20
-142.5015516136802
 30
0.0
 10
101.5596923574226
 20
-142.3640923038187
 30
0.0
 10
101.4901014286205
 20
-142.2114745738221
 30
0.0
 10
101.2616915979485
 20
-142.2114745738221
 30
0.0
 10
101.145247370547
 20
-142.2114745738221
 30
0.0
 10
101.096671524205
 20
-142.2497151337084
 30
0.0
 10
101.0649766457407
 20
-142.2814100121727
 30
0.0
 10
100.9909070928078
 20
-142.3554795651056
 30
0.0
 10
100.9781602395124
 20
-142.471923792507
 30
0.0
 10
100.9781602395124
 20
-142.5267008107225
 30
0.0
 10
100.9781602395124
 20
-142.5459933454399
 30
0.0
 10
100.9802272968036
 20
-142.5818223384865
 30
0.0
 10
100.9843614113859
 20
-142.6093831023685
 30
0.0
 10
100.9843614113859
 20
-142.6093831023685
 30
0.0
 10
100.7897135164692
 20
-142.6093831023685
 30
0.0
 10
100.7897135164692
 20
-142.6093831023685
 30
0.0
 10
100.7962591978912
 20
-142.5711425424822
 30
0.0
 10
100.7983262551824
 20
-142.5291123775622
 30
0.0
 10
100.7983262551824
 20
-142.5225666961402
 30
0.0
 10
100.7983262551824
 20
-142.4571098819204
 30
0.0
 10
100.7769666631738
 20
-142.2583278724215
 30
0.0
 10
100.5402886033372
 20
-142.2583278724215
 30
0.0
 10
100.3625216762983
 20
-142.2583278724215
 30
0.0
 10
100.3074001485343
 20
-142.389241500861
 30
0.0
 10
100.3074001485343
 20
-142.499484556389
 30
0.0
 10
100.3074001485343
 20
-142.7637233801077
 30
0.0
 10
100.5402886033372
 20
-142.7723361188208
 30
0.0
 10
100.6119465894303
 20
-142.7764702334031
 30
0.0
 10
100.6119465894303
 20
-142.7764702334031
 30
0.0
 10
100.6119465894303
 20
-142.9797308670329
 30
0.0
 10
100.6119465894303
 20
-142.9797308670329
 30
0.0
 10
100.4872341328643
 20
-142.9711181283197
 30
0.0
 10
100.1106851963265
 20
-142.9435573644377
 30
0.0
 10
100.1106851963265
 20
-142.4867377030936
 30
0.0
 10
100.1106851963265
 20
-142.2624619870038
 30
0.0
 10
100.2378092197322
 20
-142.0213053030363
 30
0.0
 10
100.5337429219152
 20
-142.0213053030363
 30
0.0
 10
100.7201225876672
 20
-142.0213053030363
 30
0.0
 10
100.8024603697647
 20
-142.1163899384293
 30
0.0
 10
100.8637830694021
 20
-142.215953197953
 30
0.0
 10
100.8913438332841
 20
-142.1546304983155
 30
0.0
 10
100.9716145580904
 20
-141.9727294566943
 30
0.0
 10
101.248944744653
 20
-141.9727294566943
 30
0.0
 10
101.5872531213046
 20
-141.9727294566943
 30
0.0
 10
101.7543402523392
 20
-142.2200873125353
 30
0.0
 10
101.7543402523392
 20
-142.4970729895493
 30
0.0
  0
HATCH
  5
A6
330
A1
100
AcDbEntity
  8
_U+30EC_U+30A4_U+30E4_U+30FC 1
 62
   179
420
  2234388
100
AcDbHatch
 10
0.0
 20
0.0
 30
0.0
210
0.0
220
0.0
230
1.0
  2
SOLID
 70
     1
 71
     0
 91
        1
 92
        1
 93
        1
 72
     4
 94
        3
 73
     0
 74
     1
 95
       62
 96
       58
 40
0.0
 40
0.0
 40
0.0
 40
0.0
 40
1.0
 40
1.0
 40
1.0
 40
2.0
 40
2.0
 40
2.0
 40
3.0
 40
3.0
 40
3.0
 40
4.0
 40
4.0
 40
4.0
 40
5.0
 40
5.0
 40
5.0
 40
6.0
 40
6.0
 40
6.0
 40
7.0
 40
7.0
 40
7.0
 40
8.0
 40
8.0
 40
8.0
 40
9.0
 40
9.0
 40
9.0
 40
10.0
 40
10.0
 40
10.0
 40
11.0
 40
11.0
 40
11.0
 40
12.0
 40
12.0
 40
12.0
 40
13.0
 40
13.0
 40
13.0
 40
14.0
 40
14.0
 40
14.0
 40
15.0
 40
15.0
 40
15.0
 40
16.0
 40
16.0
 40
16.0
 40
17.0
 40
17.0
 40
17.0
 40
18.0
 40
18.0
 40
18.0
 40
19.0
 40
19.0
 40
19.0
 40
19.0
 10
101.7543402523392
 20
-142.4970729895493
 10
101.7543402523392
 20
-142.5925021344908
 10
101.7333251698792
 20
-142.8102321691586
 10
101.5472900136757
 20
-142.9352891352731
 10
101.4349799008565
 20
-143.009358688206
 10
101.3357611508813
 20
-143.0134928027883
 10
101.2510118019442
 20
-143.0176269173706
 10
101.2510118019442
 20
-143.0176269173706
 10
101.2510118019442
 20
-142.7974853158631
 10
101.2510118019442
 20
-142.7974853158631
 10
101.3250813548771
 20
-142.795418258572
 10
101.5596923574226
 20
-142.7850829721162
 10
101.5596923574226
 20
-142.5015516136802
 10
101.5596923574226
 20
-142.3640923038187
 10
101.4901014286205
 20
-142.2114745738221
 10
101.2616915979485
 20
-142.2114745738221
 10
101.145247370547
 20
-142.2114745738221
 10
101.096671524205
 20
-142.2497151337084
 10
101.0649766457407
 20
-142.2814100121727
 10
100.9909070928078
 20
-142.3554795651056
 10
100.9781602395124
 20
-142.471923792507
 10
100.9781602395124
 20
-142.5267008107225
 10
100.9781602395124
 20
-142.5459933454399
 10
100.9802272968036
 20
-142.5818223384865
 10
100.9843614113859
 20
-142.6093831023685
 10
100.9843614113859
 20
-142.6093831023685
 10
100.7897135164692
 20
-142.6093831023685
 10
100.7897135164692
 20
-142.6093831023685
 10
100.7962591978912
 20
-142.5711425424822
 10
100.7983262551824
 20
-142.5291123775622
 10
100.7983262551824
 20
-142.5225666961402
 10
100.7983262551824
 20
-142.4571098819204
 10
100.7769666631738
 20
-142.2583278724215
 10
100.5402886033372
 20
-142.2583278724215
 10
100.3625216762983
 20
-142.2583278724215
 10
100.3074001485343
 20
-142.389241500861
 10
100.3074001485343
 20
-142.499484556389
 10
100.3074001485343
 20
-142.7637233801077
 10
100.5402886033372
 20
-142.7723361188208
 10
100.6119465894303
 20
-142.7764702334031
 10
100.6119465894303
 20
-142.7764702334031
 10
100.6119465894303
 20
-142.9797308670329
 10
100.6119465894303
 20
-142.9797308670329
 10
100.4872341328643
 20
-142.9711181283197
 10
100.1106851963265
 20
-142.9435573644377
 10
100.1106851963265
 20
-142.4867377030936
 10
100.1106851963265
 20
-142.2624619870038
 10
100.2378092197322
 20
-142.0213053030363
 10
100.5337429219152
 20
-142.0213053030363
 10
100.7201225876672
 20
-142.0213053030363
 10
100.8024603697647
 20
-142.1163899384293
 10
100.8637830694021
 20
-142.215953197953
 10
100.8913438332841
 20
-142.1546304983155
 10
100.9716145580904
 20
-141.9727294566943
 10
101.248944744653
 20
-141.9727294566943
 10
101.5872531213046
 20
-141.9727294566943
 10
101.7543402523392
 20
-142.2200873125353
 10
101.7543402523392
 20
-142.4970729895493
 97
        0
 97
        0
 75
     2
 76
     1
 98
        0
  0
ENDBLK
  5
A4
330
A1
100
AcDbEntity
  8
0
100
AcDbBlockEnd
  0
BLOCK
  5
B5
330
B3
100
AcDbEntity
  8
0
100
AcDbBlockBegin
  2
block 5
 70
     0
 10
0.0
 20
0.0
 30
0.0
  3
block 5
  1

  0
SPLINE
  5
B7
330
B3
100
AcDbEntity
  8
_U+30EC_U+30A4_U+30E4_U+30FC 1
370
     0
100
AcDbSpline
210
0.0
220
0.0
230
1.0
 70
    11
 71
     3
 72
    26
 73
    22
 74
     0
 42
0.0000000001
 43
0.0000000001
 12
1.0
 22
0.0
 32
0.0
 13
1.0
 23
0.0
 33
0.0
 40
0.0
 40
0.0
 40
0.0
 40
0.0
 40
1.0
 40
1.0
 40
1.0
 40
2.0
 40
2.0
 40
2.0
 40
3.0
 40
3.0
 40
3.0
 40
4.0
 40
4.0
 40
4.0
 40
5.0
 40
5.0
 40
5.0
 40
6.0
 40
6.0
 40
6.0
 40
7.0
 40
7.0
 40
7.0
 40
7.0
 10
77.71239689897469
 20
-148.4874050193018
 30
0.0
 10
77.71239689897469
 20
-148.4874050193018
 30
0.0
 10
77.71239689897469
 20
-147.3832519162792
 30
0.0
 10
77.71239689897469
 20
-147.3832519162792
 30
0.0
 10
77.71239689897469
 20
-147.3832519162792
 30
0.0
 10
77.38235675148775
 20
-147.3832519162792
 30
0.0
 10
77.38235675148775
 20
-147.3832519162792
 30
0.0
 10
77.38235675148775
 20
-147.3832519162792
 30
0.0
 10
77.38235675148775
 20
-147.2351128104135
 30
0.0
 10
77.38235675148775
 20
-147.2351128104135
 30
0.0
 10
77.71446395626583
 20
-147.2202988998269
 30
0.0
 10
77.7609727453167
 20
-147.0573458833746
 30
0.0
 10
77.79060056648986
 20
-146.9429687132643
 30
0.0
 10
77.79060056648986
 20
-146.9429687132643
 30
0.0
 10
77.93667261506445
 20
-146.9429687132643
 30
0.0
 10
77.93667261506445
 20
-146.9429687132643
 30
0.0
 10
77.93667261506445
 20
-146.9429687132643
 30
0.0
 10
77.93667261506445
 20
-148.4874050193018
 30
0.0
 10
77.93667261506445
 20
-148.4874050193018
 30
0.0
 10
77.93667261506445
 20
-148.4874050193018
 30
0.0
 10
77.71239689897469
 20
-148.4874050193018
 30
0.0
 10
77.71239689897469
 20
-148.4874050193018
 30
0.0
  0
HATCH
  5
B8
330
B3
100
AcDbEntity
  8
_U+30EC_U+30A4_U+30E4_U+30FC 1
 62
   179
420
  2234388
100
AcDbHatch
 10
0.0
 20
0.0
 30
0.0
210
0.0
220
0.0
230
1.0
  2
SOLID
 70
     1
 71
     0
 91
        1
 92
        1
 93
        1
 72
     4
 94
        3
 73
     0
 74
     1
 95
       26
 96
       22
 40
0.0
 40
0.0
 40
0.0
 40
0.0
 40
1.0
 40
1.0
 40
1.0
 40
2.0
 40
2.0
 40
2.0
 40
3.0
 40
3.0
 40
3.0
 40
4.0
 40
4.0
 40
4.0
 40
5.0
 40
5.0
 40
5.0
 40
6.0
 40
6.0
 40
6.0
 40
7.0
 40
7.0
 40
7.0
 40
7.0
 10
77.71239689897469
 20
-148.4874050193018
 10
77.71239689897469
 20
-148.4874050193018
 10
77.71239689897469
 20
-147.3832519162792
 10
77.71239689897469
 20
-147.3832519162792
 10
77.71239689897469
 20
-147.3832519162792
 10
77.38235675148775
 20
-147.3832519162792
 10
77.38235675148775
 20
-147.3832519162792
 10
77.38235675148775
 20
-147.3832519162792
 10
77.38235675148775
 20
-147.2351128104135
 10
77.38235675148775
 20
-147.2351128104135
 10
77.71446395626583
 20
-147.2202988998269
 10
77.7609727453167
 20
-147.0573458833746
 10
77.79060056648986
 20
-146.9429687132643
 10
77.79060056648986
 20
-146.9429687132643
 10
77.93667261506445
 20
-146.9429687132643
 10
77.93667261506445
 20
-146.9429687132643
 10
77.93667261506445
 20
-146.9429687132643
 10
77.93667261506445
 20
-148.4874050193018
 10
77.93667261506445
 20
-148.4874050193018
 10
77.93667261506445
 20
-148.4874050193018
 10
77.71239689897469
 20
-148.4874050193018
 10
77.71239689897469
 20
-148.4874050193018
 97
        0
 97
        0
 75
     2
 76
     1
 98
        0
  0
SPLINE
  5
B9
330
B3
100
AcDbEntity
  8
_U+30EC_U+30A4_U+30E4_U+30FC 1
370
     0
100
AcDbSpline
210
0.0
220
0.0
230
1.0
 70
    11
 71
     3
 72
    29
 73
    25
 74
     0
 42
0.0000000001
 43
0.0000000001
 12
1.0
 22
0.0
 32
0.0
 13
1.0
 23
0.0
 33
0.0
 40
0.0
 40
0.0
 40
0.0
 40
0.0
 40
1.0
 40
1.0
 40
1.0
 40
2.0
 40
2.0
 40
2.0
 40
3.0
 40
3.0
 40
3.0
 40
4.0
 40
4.0
 40
4.0
 40
5.0
 40
5.0
 40
5.0
 40
6.0
 40
6.0
 40
6.0
 40
7.0
 40
7.0
 40
7.0
 40
8.0
 40
8.0
 40
8.0
 40
8.0
 10
79.33555363685014
 20
-148.3096380922629
 30
0.0
 10
79.22772214816182
 20
-148.5190998977661
 30
0.0
 10
79.0542615904795
 20
-148.5380479229349
 30
0.0
 10
78.93781736307805
 20
-148.5380479229349
 30
0.0
 10
78.77710365869115
 20
-148.5380479229349
 30
0.0
 10
78.6353379794731
 20
-148.4915391338841
 30
0.0
 10
78.54008108930596
 20
-148.3096380922629
 30
0.0
 10
78.4365559699742
 20
-148.1149901973463
 30
0.0
 10
78.41743569003106
 20
-147.8783121375096
 30
0.0
 10
78.41743569003106
 20
-147.7153591210573
 30
0.0
 10
78.41743569003106
 20
-147.5713541297738
 30
0.0
 10
78.43431665790878
 20
-147.3195176498021
 30
0.0
 10
78.54008108930596
 20
-147.1207356403032
 30
0.0
 10
78.64808483276853
 20
-146.917819516222
 30
0.0
 10
78.80879853715544
 20
-146.8943928669222
 30
0.0
 10
78.93781736307805
 20
-146.8943928669222
 30
0.0
 10
79.0964640101738
 20
-146.8943928669222
 30
0.0
 10
79.24029674668299
 20
-146.938834598682
 30
0.0
 10
79.33555363685014
 20
-147.1207356403032
 30
0.0
 10
79.4349446415996
 20
-147.3133164779286
 30
0.0
 10
79.45819903612504
 20
-147.5417263086007
 30
0.0
 10
79.45819903612504
 20
-147.7153591210573
 30
0.0
 10
79.45819903612504
 20
-147.8865803666742
 30
0.0
 10
79.43718395366501
 20
-148.1170572546374
 30
0.0
 10
79.33555363685014
 20
-148.3096380922629
 30
0.0
  0
SPLINE
  5
BA
330
B3
100
AcDbEntity
  8
_U+30EC_U+30A4_U+30E4_U+30FC 1
370
     0
100
AcDbSpline
210
0.0
220
0.0
230
1.0
 70
    11
 71
     3
 72
    17
 73
    13
 74
     0
 42
0.0000000001
 43
0.0000000001
 12
1.0
 22
0.0
 32
0.0
 13
1.0
 23
0.0
 33
0.0
 40
0.0
 40
0.0
 40
0.0
 40
0.0
 40
1.0
 40
1.0
 40
1.0
 40
2.0
 40
2.0
 40
2.0
 40
3.0
 40
3.0
 40
3.0
 40
4.0
 40
4.0
 40
4.0
 40
4.0
 10
78.93781736307805
 20
-147.0869737045477
 30
0.0
 10
78.6882201951717
 20
-147.0869737045477
 30
0.0
 10
78.64171140612082
 20
-147.3705050629838
 30
0.0
 10
78.64171140612082
 20
-147.7153591210573
 30
0.0
 10
78.64171140612082
 20
-148.0347194725399
 30
0.0
 10
78.67771265394168
 20
-148.3434000280183
 30
0.0
 10
78.93781736307805
 20
-148.3434000280183
 30
0.0
 10
79.18534747369326
 20
-148.3434000280183
 30
0.0
 10
79.23409557480953
 20
-148.0622802364219
 30
0.0
 10
79.23409557480953
 20
-147.7153591210573
 30
0.0
 10
79.23409557480953
 20
-147.3956542600261
 30
0.0
 10
79.19585501492327
 20
-147.0869737045477
 30
0.0
 10
78.93781736307805
 20
-147.0869737045477
 30
0.0
  0
HATCH
  5
BB
330
B3
100
AcDbEntity
  8
_U+30EC_U+30A4_U+30E4_U+30FC 1
 62
   179
420
  2234388
100
AcDbHatch
 10
0.0
 20
0.0
 30
0.0
210
0.0
220
0.0
230
1.0
  2
SOLID
 70
     1
 71
     0
 91
        2
 92
        1
 93
        1
 72
     4
 94
        3
 73
     0
 74
     1
 95
       29
 96
       25
 40
0.0
 40
0.0
 40
0.0
 40
0.0
 40
1.0
 40
1.0
 40
1.0
 40
2.0
 40
2.0
 40
2.0
 40
3.0
 40
3.0
 40
3.0
 40
4.0
 40
4.0
 40
4.0
 40
5.0
 40
5.0
 40
5.0
 40
6.0
 40
6.0
 40
6.0
 40
7.0
 40
7.0
 40
7.0
 40
8.0
 40
8.0
 40
8.0
 40
8.0
 10
79.33555363685014
 20
-148.3096380922629
 10
79.22772214816182
 20
-148.5190998977661
 10
79.0542615904795
 20
-148.5380479229349
 10
78.93781736307805
 20
-148.5380479229349
 10
78.77710365869115
 20
-148.5380479229349
 10
78.6353379794731
 20
-148.4915391338841
 10
78.54008108930596
 20
-148.3096380922629
 10
78.4365559699742
 20
-148.1149901973463
 10
78.41743569003106
 20
-147.8783121375096
 10
78.41743569003106
 20
-147.7153591210573
 10
78.41743569003106
 20
-147.5713541297738
 10
78.43431665790878
 20
-147.3195176498021
 10
78.54008108930596
 20
-147.1207356403032
 10
78.64808483276853
 20
-146.917819516222
 10
78.80879853715544
 20
-146.8943928669222
 10
78.93781736307805
 20
-146.8943928669222
 10
79.0964640101738
 20
-146.8943928669222
 10
79.24029674668299
 20
-146.938834598682
 10
79.33555363685014
 20
-147.1207356403032
 10
79.4349446415996
 20
-147.3133164779286
 10
79.45819903612504
 20
-147.5417263086007
 10
79.45819903612504
 20
-147.7153591210573
 10
79.45819903612504
 20
-147.8865803666742
 10
79.43718395366501
 20
-148.1170572546374
 10
79.33555363685014
 20
-148.3096380922629
 97
        0
 97
        0
 92
        1
 93
        1
 72
     4
 94
        3
 73
     0
 74
     1
 95
       17
 96
       13
 40
0.0
 40
0.0
 40
0.0
 40
0.0
 40
1.0
 40
1.0
 40
1.0
 40
2.0
 40
2.0
 40
2.0
 40
3.0
 40
3.0
 40
3.0
 40
4.0
 40
4.0
 40
4.0
 40
4.0
 10
78.93781736307805
 20
-147.0869737045477
 10
78.6882201951717
 20
-147.0869737045477
 10
78.64171140612082
 20
-147.3705050629838
 10
78.64171140612082
 20
-147.7153591210573
 10
78.64171140612082
 20
-148.0347194725399
 10
78.67771265394168
 20
-148.3434000280183
 10
78.93781736307805
 20
-148.3434000280183
 10
79.18534747369326
 20
-148.3434000280183
 10
79.23409557480953
 20
-148.0622802364219
 10
79.23409557480953
 20
-147.7153591210573
 10
79.23409557480953
 20
-147.3956542600261
 10
79.19585501492327
 20
-147.0869737045477
 10
78.93781736307805
 20
-147.0869737045477
 97
        0
 97
        0
 75
     2
 76
     1
 98
        0
  0
ENDBLK
  5
B6
330
B3
100
AcDbEntity
  8
0
100
AcDbBlockEnd
  0
BLOCK
  5
CA
330
C8
100
AcDbEntity
  8
0
100
AcDbBlockBegin
  2
block 6
 70
     0
 10
0.0
 20
0.0
 30
0.0
  3
block 6
  1

  0
SPLINE
  5
CC
330
C8
100
AcDbEntity
  8
_U+30EC_U+30A4_U+30E4_U+30FC 1
370
     0
100
AcDbSpline
210
0.0
220
0.0
230
1.0
 70
    11
 71
     3
 72
    44
 73
    40
 74
     0
 42
0.0000000001
 43
0.0000000001
 12
1.0
 22
0.0
 32
0.0
 13
1.0
 23
0.0
 33
0.0
 40
0.0
 40
0.0
 40
0.0
 40
0.0
 40
1.0
 40
1.0
 40
1.0
 40
2.0
 40
2.0
 40
2.0
 40
3.0
 40
3.0
 40
3.0
 40
4.0
 40
4.0
 40
4.0
 40
5.0
 40
5.0
 40
5.0
 40
6.0
 40
6.0
 40
6.0
 40
7.0
 40
7.0
 40
7.0
 40
8.0
 40
8.0
 40
8.0
 40
9.0
 40
9.0
 40
9.0
 40
10.0
 40
10.0
 40
10.0
 40
11.0
 40
11.0
 40
11.0
 40
12.0
 40
12.0
 40
12.0
 40
13.0
 40
13.0
 40
13.0
 40
13.0
 10
85.3541354495816
 20
-109.201775417578
 30
0.0
 10
85.13623316013955
 20
-109.3604220646738
 30
0.0
 10
85.04304332726355
 20
-109.4344916176067
 30
0.0
 10
84.99446748092153
 20
-109.5783243541158
 30
0.0
 10
84.99446748092153
 20
-109.5783243541158
 30
0.0
 10
85.77288680581373
 20
-109.5783243541158
 30
0.0
 10
85.77288680581373
 20
-109.5783243541158
 30
0.0
 10
85.77288680581373
 20
-109.5783243541158
 30
0.0
 10
85.77288680581373
 20
-109.7834797902625
 30
0.0
 10
85.77288680581373
 20
-109.7834797902625
 30
0.0
 10
85.77288680581373
 20
-109.7834797902625
 30
0.0
 10
84.74487031301517
 20
-109.7834797902625
 30
0.0
 10
84.74487031301517
 20
-109.7834797902625
 30
0.0
 10
84.77656519147948
 20
-109.4258788788935
 30
0.0
 10
84.84202200569922
 20
-109.3476752113784
 30
0.0
 10
85.22718368095015
 20
-109.0493299423557
 30
0.0
 10
85.48315427550422
 20
-108.8505479328568
 30
0.0
 10
85.54861108972396
 20
-108.7828518065717
 30
0.0
 10
85.54861108972396
 20
-108.6453924967102
 30
0.0
 10
85.54861108972396
 20
-108.5268812120176
 30
0.0
 10
85.4767808488565
 20
-108.3957953288038
 30
0.0
 10
85.28006589664874
 20
-108.3957953288038
 30
0.0
 10
85.01978893273811
 20
-108.3957953288038
 30
0.0
 10
85.01134844879925
 20
-108.626272216767
 30
0.0
 10
85.00704207944268
 20
-108.7427164441685
 30
0.0
 10
85.00704207944268
 20
-108.7427164441685
 30
0.0
 10
84.78293861812719
 20
-108.7427164441685
 30
0.0
 10
84.78293861812719
 20
-108.7427164441685
 30
0.0
 10
84.79137910206605
 20
-108.615764675537
 30
0.0
 10
84.80188664329606
 20
-108.5036268174921
 30
0.0
 10
84.88232962287664
 20
-108.3851155327996
 30
0.0
 10
84.99222816885612
 20
-108.2244018284127
 30
0.0
 10
85.17843557983387
 20
-108.1904676378829
 30
0.0
 10
85.29487980723532
 20
-108.1904676378829
 30
0.0
 10
85.57203773902366
 20
-108.1904676378829
 30
0.0
 10
85.77926023246144
 20
-108.3746079915695
 30
0.0
 10
85.77926023246144
 20
-108.6474595540013
 30
0.0
 10
85.77926023246144
 20
-108.8758693846734
 30
0.0
 10
85.66298825983425
 20
-108.9754326441971
 30
0.0
 10
85.3541354495816
 20
-109.201775417578
 30
0.0
  0
HATCH
  5
CD
330
C8
100
AcDbEntity
  8
_U+30EC_U+30A4_U+30E4_U+30FC 1
 62
   179
420
  2234388
100
AcDbHatch
 10
0.0
 20
0.0
 30
0.0
210
0.0
220
0.0
230
1.0
  2
SOLID
 70
     1
 71
     0
 91
        1
 92
        1
 93
        1
 72
     4
 94
        3
 73
     0
 74
     1
 95
       44
 96
       40
 40
0.0
 40
0.0
 40
0.0
 40
0.0
 40
1.0
 40
1.0
 40
1.0
 40
2.0
 40
2.0
 40
2.0
 40
3.0
 40
3.0
 40
3.0
 40
4.0
 40
4.0
 40
4.0
 40
5.0
 40
5.0
 40
5.0
 40
6.0
 40
6.0
 40
6.0
 40
7.0
 40
7.0
 40
7.0
 40
8.0
 40
8.0
 40
8.0
 40
9.0
 40
9.0
 40
9.0
 40
10.0
 40
10.0
 40
10.0
 40
11.0
 40
11.0
 40
11.0
 40
12.0
 40
12.0
 40
12.0
 40
13.0
 40
13.0
 40
13.0
 40
13.0
 10
85.3541354495816
 20
-109.201775417578
 10
85.13623316013955
 20
-109.3604220646738
 10
85.04304332726355
 20
-109.4344916176067
 10
84.99446748092153
 20
-109.5783243541158
 10
84.99446748092153
 20
-109.5783243541158
 10
85.77288680581373
 20
-109.5783243541158
 10
85.77288680581373
 20
-109.5783243541158
 10
85.77288680581373
 20
-109.5783243541158
 10
85.77288680581373
 20
-109.7834797902625
 10
85.77288680581373
 20
-109.7834797902625
 10
85.77288680581373
 20
-109.7834797902625
 10
84.74487031301517
 20
-109.7834797902625
 10
84.74487031301517
 20
-109.7834797902625
 10
84.77656519147948
 20
-109.4258788788935
 10
84.84202200569922
 20
-109.3476752113784
 10
85.22718368095015
 20
-109.0493299423557
 10
85.48315427550422
 20
-108.8505479328568
 10
85.54861108972396
 20
-108.7828518065717
 10
85.54861108972396
 20
-108.6453924967102
 10
85.54861108972396
 20
-108.5268812120176
 10
85.4767808488565
 20
-108.3957953288038
 10
85.28006589664874
 20
-108.3957953288038
 10
85.01978893273811
 20
-108.3957953288038
 10
85.01134844879925
 20
-108.626272216767
 10
85.00704207944268
 20
-108.7427164441685
 10
85.00704207944268
 20
-108.7427164441685
 10
84.78293861812719
 20
-108.7427164441685
 10
84.78293861812719
 20
-108.7427164441685
 10
84.79137910206605
 20
-108.615764675537
 10
84.80188664329606
 20
-108.5036268174921
 10
84.88232962287664
 20
-108.3851155327996
 10
84.99222816885612
 20
-108.2244018284127
 10
85.17843557983387
 20
-108.1904676378829
 10
85.29487980723532
 20
-108.1904676378829
 10
85.57203773902366
 20
-108.1904676378829
 10
85.77926023246144
 20
-108.3746079915695
 10
85.77926023246144
 20
-108.6474595540013
 10
85.77926023246144
 20
-108.8758693846734
 10
85.66298825983425
 20
-108.9754326441971
 10
85.3541354495816
 20
-109.201775417578
 97
        0
 97
        0
 75
     2
 76
     1
 98
        0
  0
SPLINE
  5
CE
330
C8
100
AcDbEntity
  8
_U+30EC_U+30A4_U+30E4_U+30FC 1
370
     0
100
AcDbSpline
210
0.0
220
0.0
230
1.0
 70
    11
 71
     3
 72
    53
 73
    49
 74
     0
 42
0.0000000001
 43
0.0000000001
 12
1.0
 22
0.0
 32
0.0
 13
1.0
 23
0.0
 33
0.0
 40
0.0
 40
0.0
 40
0.0
 40
0.0
 40
1.0
 40
1.0
 40
1.0
 40
2.0
 40
2.0
 40
2.0
 40
3.0
 40
3.0
 40
3.0
 40
4.0
 40
4.0
 40
4.0
 40
5.0
 40
5.0
 40
5.0
 40
6.0
 40
6.0
 40
6.0
 40
7.0
 40
7.0
 40
7.0
 40
8.0
 40
8.0
 40
8.0
 40
9.0
 40
9.0
 40
9.0
 40
10.0
 40
10.0
 40
10.0
 40
11.0
 40
11.0
 40
11.0
 40
12.0
 40
12.0
 40
12.0
 40
13.0
 40
13.0
 40
13.0
 40
14.0
 40
14.0
 40
14.0
 40
15.0
 40
15.0
 40
15.0
 40
16.0
 40
16.0
 40
16.0
 40
16.0
 10
86.41884220929808
 20
-109.8342949486699
 30
0.0
 10
86.3406385417829
 20
-109.8342949486699
 30
0.0
 10
86.23900822496803
 20
-109.8172417260179
 30
0.0
 10
86.13737790815316
 20
-109.7538519690893
 30
0.0
 10
85.96408960524509
 20
-109.6437811683356
 30
0.0
 10
85.94273001323654
 20
-109.5126952851218
 30
0.0
 10
85.92378198806767
 20
-109.4048637964335
 30
0.0
 10
85.92378198806767
 20
-109.4048637964335
 30
0.0
 10
86.14599064686628
 20
-109.4048637964335
 30
0.0
 10
86.14599064686628
 20
-109.4048637964335
 30
0.0
 10
86.20076766508176
 20
-109.6036458059324
 30
0.0
 10
86.32789168848747
 20
-109.6332736271056
 30
0.0
 10
86.42090926658922
 20
-109.6332736271056
 30
0.0
 10
86.56043563374185
 20
-109.6332736271056
 30
0.0
 10
86.71270885418988
 20
-109.5338826223561
 30
0.0
 10
86.71270885418988
 20
-109.3011664223275
 30
0.0
 10
86.71270885418988
 20
-109.0451958277734
 30
0.0
 10
86.53287486985984
 20
-108.9754326441971
 30
0.0
 10
86.4122965278761
 20
-108.9754326441971
 30
0.0
 10
86.3806016494118
 20
-108.9754326441971
 30
0.0
 10
86.23900822496803
 20
-108.9754326441971
 30
0.0
 10
86.15012476144858
 20
-109.1044514701197
 30
0.0
 10
86.15012476144858
 20
-109.1044514701197
 30
0.0
 10
85.97442489170085
 20
-109.0853311901766
 30
0.0
 10
85.97442489170085
 20
-109.0853311901766
 30
0.0
 10
85.97442489170085
 20
-109.0853311901766
 30
0.0
 10
86.09500323368458
 20
-108.2392157389992
 30
0.0
 10
86.09500323368458
 20
-108.2392157389992
 30
0.0
 10
86.09500323368458
 20
-108.2392157389992
 30
0.0
 10
86.87359481335105
 20
-108.2392157389992
 30
0.0
 10
86.87359481335105
 20
-108.2392157389992
 30
0.0
 10
86.87359481335105
 20
-108.2392157389992
 30
0.0
 10
86.87359481335105
 20
-108.4338636339158
 30
0.0
 10
86.87359481335105
 20
-108.4338636339158
 30
0.0
 10
86.87359481335105
 20
-108.4338636339158
 30
0.0
 10
86.2579562501369
 20
-108.4338636339158
 30
0.0
 10
86.2579562501369
 20
-108.4338636339158
 30
0.0
 10
86.2579562501369
 20
-108.4338636339158
 30
0.0
 10
86.19249943591716
 20
-108.8569213595045
 30
0.0
 10
86.19249943591716
 20
-108.8569213595045
 30
0.0
 10
86.2538221355546
 20
-108.8229871689748
 30
0.0
 10
86.33615991765207
 20
-108.7828518065717
 30
0.0
 10
86.45467120234467
 20
-108.7828518065717
 30
0.0
 10
86.70857473960758
 20
-108.7828518065717
 30
0.0
 10
86.94559730899277
 20
-108.9690592175494
 30
0.0
 10
86.94559730899277
 20
-109.2820461423844
 30
0.0
 10
86.94559730899277
 20
-109.5995116913501
 30
0.0
 10
86.72132159290301
 20
-109.8342949486699
 30
0.0
 10
86.41884220929808
 20
-109.8342949486699
 30
0.0
  0
HATCH
  5
CF
330
C8
100
AcDbEntity
  8
_U+30EC_U+30A4_U+30E4_U+30FC 1
 62
   179
420
  2234388
100
AcDbHatch
 10
0.0
 20
0.0
 30
0.0
210
0.0
220
0.0
230
1.0
  2
SOLID
 70
     1
 71
     0
 91
        1
 92
        1
 93
        1
 72
     4
 94
        3
 73
     0
 74
     1
 95
       53
 96
       49
 40
0.0
 40
0.0
 40
0.0
 40
0.0
 40
1.0
 40
1.0
 40
1.0
 40
2.0
 40
2.0
 40
2.0
 40
3.0
 40
3.0
 40
3.0
 40
4.0
 40
4.0
 40
4.0
 40
5.0
 40
5.0
 40
5.0
 40
6.0
 40
6.0
 40
6.0
 40
7.0
 40
7.0
 40
7.0
 40
8.0
 40
8.0
 40
8.0
 40
9.0
 40
9.0
 40
9.0
 40
10.0
 40
10.0
 40
10.0
 40
11.0
 40
11.0
 40
11.0
 40
12.0
 40
12.0
 40
12.0
 40
13.0
 40
13.0
 40
13.0
 40
14.0
 40
14.0
 40
14.0
 40
15.0
 40
15.0
 40
15.0
 40
16.0
 40
16.0
 40
16.0
 40
16.0
 10
86.41884220929808
 20
-109.8342949486699
 10
86.3406385417829
 20
-109.8342949486699
 10
86.23900822496803
 20
-109.8172417260179
 10
86.13737790815316
 20
-109.7538519690893
 10
85.96408960524509
 20
-109.6437811683356
 10
85.94273001323654
 20
-109.5126952851218
 10
85.92378198806767
 20
-109.4048637964335
 10
85.92378198806767
 20
-109.4048637964335
 10
86.14599064686628
 20
-109.4048637964335
 10
86.14599064686628
 20
-109.4048637964335
 10
86.20076766508176
 20
-109.6036458059324
 10
86.32789168848747
 20
-109.6332736271056
 10
86.42090926658922
 20
-109.6332736271056
 10
86.56043563374185
 20
-109.6332736271056
 10
86.71270885418988
 20
-109.5338826223561
 10
86.71270885418988
 20
-109.3011664223275
 10
86.71270885418988
 20
-109.0451958277734
 10
86.53287486985984
 20
-108.9754326441971
 10
86.4122965278761
 20
-108.9754326441971
 10
86.3806016494118
 20
-108.9754326441971
 10
86.23900822496803
 20
-108.9754326441971
 10
86.15012476144858
 20
-109.1044514701197
 10
86.15012476144858
 20
-109.1044514701197
 10
85.97442489170085
 20
-109.0853311901766
 10
85.97442489170085
 20
-109.0853311901766
 10
85.97442489170085
 20
-109.0853311901766
 10
86.09500323368458
 20
-108.2392157389992
 10
86.09500323368458
 20
-108.2392157389992
 10
86.09500323368458
 20
-108.2392157389992
 10
86.87359481335105
 20
-108.2392157389992
 10
86.87359481335105
 20
-108.2392157389992
 10
86.87359481335105
 20
-108.2392157389992
 10
86.87359481335105
 20
-108.4338636339158
 10
86.87359481335105
 20
-108.4338636339158
 10
86.87359481335105
 20
-108.4338636339158
 10
86.2579562501369
 20
-108.4338636339158
 10
86.2579562501369
 20
-108.4338636339158
 10
86.2579562501369
 20
-108.4338636339158
 10
86.19249943591716
 20
-108.8569213595045
 10
86.19249943591716
 20
-108.8569213595045
 10
86.2538221355546
 20
-108.8229871689748
 10
86.33615991765207
 20
-108.7828518065717
 10
86.45467120234467
 20
-108.7828518065717
 10
86.70857473960758
 20
-108.7828518065717
 10
86.94559730899277
 20
-108.9690592175494
 10
86.94559730899277
 20
-109.2820461423844
 10
86.94559730899277
 20
-109.5995116913501
 10
86.72132159290301
 20
-109.8342949486699
 10
86.41884220929808
 20
-109.8342949486699
 97
        0
 97
        0
 75
     2
 76
     1
 98
        0
  0
ENDBLK
  5
CB
330
C8
100
AcDbEntity
  8
0
100
AcDbBlockEnd
  0
BLOCK
  5
DA
330
D8
100
AcDbEntity
  8
0
100
AcDbBlockBegin
  2
block 7
 70
     0
 10
0.0
 20
0.0
 30
0.0
  3
block 7
  1

  0
SPLINE
  5
DC
330
D8
100
AcDbEntity
  8
_U+30EC_U+30A4_U+30E4_U+30FC 1
370
     0
100
AcDbSpline
210
0.0
220
0.0
230
1.0
 70
    11
 71
     3
 72
    44
 73
    40
 74
     0
 42
0.0000000001
 43
0.0000000001
 12
1.0
 22
0.0
 32
0.0
 13
1.0
 23
0.0
 33
0.0
 40
0.0
 40
0.0
 40
0.0
 40
0.0
 40
1.0
 40
1.0
 40
1.0
 40
2.0
 40
2.0
 40
2.0
 40
3.0
 40
3.0
 40
3.0
 40
4.0
 40
4.0
 40
4.0
 40
5.0
 40
5.0
 40
5.0
 40
6.0
 40
6.0
 40
6.0
 40
7.0
 40
7.0
 40
7.0
 40
8.0
 40
8.0
 40
8.0
 40
9.0
 40
9.0
 40
9.0
 40
10.0
 40
10.0
 40
10.0
 40
11.0
 40
11.0
 40
11.0
 40
12.0
 40
12.0
 40
12.0
 40
13.0
 40
13.0
 40
13.0
 40
13.0
 10
101.1214762116988
 20
-130.6697156791381
 30
0.0
 10
101.2802951135688
 20
-130.8874457138059
 30
0.0
 10
101.3543646665017
 20
-130.9804632919077
 30
0.0
 10
101.4980251482366
 20
-131.0293836477982
 30
0.0
 10
101.4980251482366
 20
-131.0293836477982
 30
0.0
 10
101.4980251482366
 20
-130.2507920681317
 30
0.0
 10
101.4980251482366
 20
-130.2507920681317
 30
0.0
 10
101.4980251482366
 20
-130.2507920681317
 30
0.0
 10
101.7033528391575
 20
-130.2507920681317
 30
0.0
 10
101.7033528391575
 20
-130.2507920681317
 30
0.0
 10
101.7033528391575
 20
-130.2507920681317
 30
0.0
 10
101.7033528391575
 20
-131.2788085609303
 30
0.0
 10
101.7033528391575
 20
-131.2788085609303
 30
0.0
 10
101.3457519277886
 20
-131.247113682466
 30
0.0
 10
101.2675482602734
 20
-131.1816568682463
 30
0.0
 10
100.9692029912508
 20
-130.7964951929953
 30
0.0
 10
100.7704209817518
 20
-130.5405245984413
 30
0.0
 10
100.7025526006924
 20
-130.4750677842215
 30
0.0
 10
100.565093290831
 20
-130.4750677842215
 30
0.0
 10
100.4465820061384
 20
-130.4750677842215
 30
0.0
 10
100.3156683776989
 20
-130.5470702798632
 30
0.0
 10
100.3156683776989
 20
-130.743785232071
 30
0.0
 10
100.3156683776989
 20
-131.0038899412074
 30
0.0
 10
100.5461452656621
 20
-131.012158170372
 30
0.0
 10
100.6625894930635
 20
-131.0166367945028
 30
0.0
 10
100.6625894930635
 20
-131.0166367945028
 30
0.0
 10
100.6625894930635
 20
-131.2409125105926
 30
0.0
 10
100.6625894930635
 20
-131.2409125105926
 30
0.0
 10
100.5354654696578
 20
-131.2322997718794
 30
0.0
 10
100.4234998663872
 20
-131.2216199758751
 30
0.0
 10
100.3049885816946
 20
-131.1413492510688
 30
0.0
 10
100.1441026225334
 20
-131.0314507050894
 30
0.0
 10
100.110340686778
 20
-130.8450710393373
 30
0.0
 10
100.110340686778
 20
-130.7289713214844
 30
0.0
 10
100.110340686778
 20
-130.4516411349218
 30
0.0
 10
100.2943087856903
 20
-130.2442463867098
 30
0.0
 10
100.5671603481221
 20
-130.2442463867098
 30
0.0
 10
100.7959146883427
 20
-130.2442463867098
 30
0.0
 10
100.8951334383179
 20
-130.3606906141112
 30
0.0
 10
101.1214762116988
 20
-130.6697156791381
 30
0.0
  0
HATCH
  5
DD
330
D8
100
AcDbEntity
  8
_U+30EC_U+30A4_U+30E4_U+30FC 1
 62
   179
420
  2234388
100
AcDbHatch
 10
0.0
 20
0.0
 30
0.0
210
0.0
220
0.0
230
1.0
  2
SOLID
 70
     1
 71
     0
 91
        1
 92
        1
 93
        1
 72
     4
 94
        3
 73
     0
 74
     1
 95
       44
 96
       40
 40
0.0
 40
0.0
 40
0.0
 40
0.0
 40
1.0
 40
1.0
 40
1.0
 40
2.0
 40
2.0
 40
2.0
 40
3.0
 40
3.0
 40
3.0
 40
4.0
 40
4.0
 40
4.0
 40
5.0
 40
5.0
 40
5.0
 40
6.0
 40
6.0
 40
6.0
 40
7.0
 40
7.0
 40
7.0
 40
8.0
 40
8.0
 40
8.0
 40
9.0
 40
9.0
 40
9.0
 40
10.0
 40
10.0
 40
10.0
 40
11.0
 40
11.0
 40
11.0
 40
12.0
 40
12.0
 40
12.0
 40
13.0
 40
13.0
 40
13.0
 40
13.0
 10
101.1214762116988
 20
-130.6697156791381
 10
101.2802951135688
 20
-130.8874457138059
 10
101.3543646665017
 20
-130.9804632919077
 10
101.4980251482366
 20
-131.0293836477982
 10
101.4980251482366
 20
-131.0293836477982
 10
101.4980251482366
 20
-130.2507920681317
 10
101.4980251482366
 20
-130.2507920681317
 10
101.4980251482366
 20
-130.2507920681317
 10
101.7033528391575
 20
-130.2507920681317
 10
101.7033528391575
 20
-130.2507920681317
 10
101.7033528391575
 20
-130.2507920681317
 10
101.7033528391575
 20
-131.2788085609303
 10
101.7033528391575
 20
-131.2788085609303
 10
101.3457519277886
 20
-131.247113682466
 10
101.2675482602734
 20
-131.1816568682463
 10
100.9692029912508
 20
-130.7964951929953
 10
100.7704209817518
 20
-130.5405245984413
 10
100.7025526006924
 20
-130.4750677842215
 10
100.565093290831
 20
-130.4750677842215
 10
100.4465820061384
 20
-130.4750677842215
 10
100.3156683776989
 20
-130.5470702798632
 10
100.3156683776989
 20
-130.743785232071
 10
100.3156683776989
 20
-131.0038899412074
 10
100.5461452656621
 20
-131.012158170372
 10
100.6625894930635
 20
-131.0166367945028
 10
100.6625894930635
 20
-131.0166367945028
 10
100.6625894930635
 20
-131.2409125105926
 10
100.6625894930635
 20
-131.2409125105926
 10
100.5354654696578
 20
-131.2322997718794
 10
100.4234998663872
 20
-131.2216199758751
 10
100.3049885816946
 20
-131.1413492510688
 10
100.1441026225334
 20
-131.0314507050894
 10
100.110340686778
 20
-130.8450710393373
 10
100.110340686778
 20
-130.7289713214844
 10
100.110340686778
 20
-130.4516411349218
 10
100.2943087856903
 20
-130.2442463867098
 10
100.5671603481221
 20
-130.2442463867098
 10
100.7959146883427
 20
-130.2442463867098
 10
100.8951334383179
 20
-130.3606906141112
 10
101.1214762116988
 20
-130.6697156791381
 97
        0
 97
        0
 75
     2
 76
     1
 98
        0
  0
SPLINE
  5
DE
330
D8
100
AcDbEntity
  8
_U+30EC_U+30A4_U+30E4_U+30FC 1
370
     0
100
AcDbSpline
210
0.0
220
0.0
230
1.0
 70
    11
 71
     3
 72
    53
 73
    49
 74
     0
 42
0.0000000001
 43
0.0000000001
 12
1.0
 22
0.0
 32
0.0
 13
1.0
 23
0.0
 33
0.0
 40
0.0
 40
0.0
 40
0.0
 40
0.0
 40
1.0
 40
1.0
 40
1.0
 40
2.0
 40
2.0
 40
2.0
 40
3.0
 40
3.0
 40
3.0
 40
4.0
 40
4.0
 40
4.0
 40
5.0
 40
5.0
 40
5.0
 40
6.0
 40
6.0
 40
6.0
 40
7.0
 40
7.0
 40
7.0
 40
8.0
 40
8.0
 40
8.0
 40
9.0
 40
9.0
 40
9.0
 40
10.0
 40
10.0
 40
10.0
 40
11.0
 40
11.0
 40
11.0
 40
12.0
 40
12.0
 40
12.0
 40
13.0
 40
13.0
 40
13.0
 40
14.0
 40
14.0
 40
14.0
 40
15.0
 40
15.0
 40
15.0
 40
16.0
 40
16.0
 40
16.0
 40
16.0
 10
101.7539957427907
 20
-129.6048366646474
 30
0.0
 10
101.7539957427907
 20
-129.6830403321626
 30
0.0
 10
101.737114774913
 20
-129.7846706489775
 30
0.0
 10
101.6737250179844
 20
-129.8863009657923
 30
0.0
 10
101.5638264720049
 20
-130.0595892687004
 30
0.0
 10
101.4325683340169
 20
-130.0809488607089
 30
0.0
 10
101.3247368453285
 20
-130.0998968858778
 30
0.0
 10
101.3247368453285
 20
-130.0998968858778
 30
0.0
 10
101.3247368453285
 20
-129.8776882270792
 30
0.0
 10
101.3247368453285
 20
-129.8776882270792
 30
0.0
 10
101.5235188548275
 20
-129.8229112088637
 30
0.0
 10
101.5531466760006
 20
-129.695787185458
 30
0.0
 10
101.5531466760006
 20
-129.6027696073563
 30
0.0
 10
101.5531466760006
 20
-129.4632432402036
 30
0.0
 10
101.4535834164769
 20
-129.3109700197556
 30
0.0
 10
101.2210394712225
 20
-129.3109700197556
 30
0.0
 10
100.9650688766685
 20
-129.3109700197556
 30
0.0
 10
100.8951334383179
 20
-129.4908040040856
 30
0.0
 10
100.8951334383179
 20
-129.6113823460694
 30
0.0
 10
100.8951334383179
 20
-129.6430772245337
 30
0.0
 10
100.8951334383179
 20
-129.7846706489775
 30
0.0
 10
101.0243245190148
 20
-129.8735541124969
 30
0.0
 10
101.0243245190148
 20
-129.8735541124969
 30
0.0
 10
101.0053764938459
 20
-130.0492539822446
 30
0.0
 10
101.0053764938459
 20
-130.0492539822446
 30
0.0
 10
101.0053764938459
 20
-130.0492539822446
 30
0.0
 10
100.15891653312
 20
-129.9286756402609
 30
0.0
 10
100.15891653312
 20
-129.9286756402609
 30
0.0
 10
100.15891653312
 20
-129.9286756402609
 30
0.0
 10
100.15891653312
 20
-129.1500840605944
 30
0.0
 10
100.15891653312
 20
-129.1500840605944
 30
0.0
 10
100.15891653312
 20
-129.1500840605944
 30
0.0
 10
100.3535644280366
 20
-129.1500840605944
 30
0.0
 10
100.3535644280366
 20
-129.1500840605944
 30
0.0
 10
100.3535644280366
 20
-129.1500840605944
 30
0.0
 10
100.3535644280366
 20
-129.7657226238086
 30
0.0
 10
100.3535644280366
 20
-129.7657226238086
 30
0.0
 10
100.3535644280366
 20
-129.7657226238086
 30
0.0
 10
100.7766221536253
 20
-129.8311794380283
 30
0.0
 10
100.7766221536253
 20
-129.8311794380283
 30
0.0
 10
100.7428602178698
 20
-129.7698567383909
 30
0.0
 10
100.7025526006924
 20
-129.6875189562934
 30
0.0
 10
100.7025526006924
 20
-129.5690076716008
 30
0.0
 10
100.7025526006924
 20
-129.3151041343379
 30
0.0
 10
100.8889322664444
 20
-129.0780815649527
 30
0.0
 10
101.2020914460536
 20
-129.0780815649527
 30
0.0
 10
101.5193847402452
 20
-129.0780815649527
 30
0.0
 10
101.7539957427907
 20
-129.3023572810425
 30
0.0
 10
101.7539957427907
 20
-129.6048366646474
 30
0.0
  0
HATCH
  5
DF
330
D8
100
AcDbEntity
  8
_U+30EC_U+30A4_U+30E4_U+30FC 1
 62
   179
420
  2234388
100
AcDbHatch
 10
0.0
 20
0.0
 30
0.0
210
0.0
220
0.0
230
1.0
  2
SOLID
 70
     1
 71
     0
 91
        1
 92
        1
 93
        1
 72
     4
 94
        3
 73
     0
 74
     1
 95
       53
 96
       49
 40
0.0
 40
0.0
 40
0.0
 40
0.0
 40
1.0
 40
1.0
 40
1.0
 40
2.0
 40
2.0
 40
2.0
 40
3.0
 40
3.0
 40
3.0
 40
4.0
 40
4.0
 40
4.0
 40
5.0
 40
5.0
 40
5.0
 40
6.0
 40
6.0
 40
6.0
 40
7.0
 40
7.0
 40
7.0
 40
8.0
 40
8.0
 40
8.0
 40
9.0
 40
9.0
 40
9.0
 40
10.0
 40
10.0
 40
10.0
 40
11.0
 40
11.0
 40
11.0
 40
12.0
 40
12.0
 40
12.0
 40
13.0
 40
13.0
 40
13.0
 40
14.0
 40
14.0
 40
14.0
 40
15.0
 40
15.0
 40
15.0
 40
16.0
 40
16.0
 40
16.0
 40
16.0
 10
101.7539957427907
 20
-129.6048366646474
 10
101.7539957427907
 20
-129.6830403321626
 10
101.737114774913
 20
-129.7846706489775
 10
101.6737250179844
 20
-129.8863009657923
 10
101.5638264720049
 20
-130.0595892687004
 10
101.4325683340169
 20
-130.0809488607089
 10
101.3247368453285
 20
-130.0998968858778
 10
101.3247368453285
 20
-130.0998968858778
 10
101.3247368453285
 20
-129.8776882270792
 10
101.3247368453285
 20
-129.8776882270792
 10
101.5235188548275
 20
-129.8229112088637
 10
101.5531466760006
 20
-129.695787185458
 10
101.5531466760006
 20
-129.6027696073563
 10
101.5531466760006
 20
-129.4632432402036
 10
101.4535834164769
 20
-129.3109700197556
 10
101.2210394712225
 20
-129.3109700197556
 10
100.9650688766685
 20
-129.3109700197556
 10
100.8951334383179
 20
-129.4908040040856
 10
100.8951334383179
 20
-129.6113823460694
 10
100.8951334383179
 20
-129.6430772245337
 10
100.8951334383179
 20
-129.7846706489775
 10
101.0243245190148
 20
-129.8735541124969
 10
101.0243245190148
 20
-129.8735541124969
 10
101.0053764938459
 20
-130.0492539822446
 10
101.0053764938459
 20
-130.0492539822446
 10
101.0053764938459
 20
-130.0492539822446
 10
100.15891653312
 20
-129.9286756402609
 10
100.15891653312
 20
-129.9286756402609
 10
100.15891653312
 20
-129.9286756402609
 10
100.15891653312
 20
-129.1500840605944
 10
100.15891653312
 20
-129.1500840605944
 10
100.15891653312
 20
-129.1500840605944
 10
100.3535644280366
 20
-129.1500840605944
 10
100.3535644280366
 20
-129.1500840605944
 10
100.3535644280366
 20
-129.1500840605944
 10
100.3535644280366
 20
-129.7657226238086
 10
100.3535644280366
 20
-129.7657226238086
 10
100.3535644280366
 20
-129.7657226238086
 10
100.7766221536253
 20
-129.8311794380283
 10
100.7766221536253
 20
-129.8311794380283
 10
100.7428602178698
 20
-129.7698567383909
 10
100.7025526006924
 20
-129.6875189562934
 10
100.7025526006924
 20
-129.5690076716008
 10
100.7025526006924
 20
-129.3151041343379
 10
100.8889322664444
 20
-129.0780815649527
 10
101.2020914460536
 20
-129.0780815649527
 10
101.5193847402452
 20
-129.0780815649527
 10
101.7539957427907
 20
-129.3023572810425
 10
101.7539957427907
 20
-129.6048366646474
 97
        0
 97
        0
 75
     2
 76
     1
 98
        0
  0
POLYLINE
  5
E0
330
D8
100
AcDbEntity
  8
_U+30EC_U+30A4_U+30E4_U+30FC 1
370
     0
100
AcDb2dPolyline
 66
     1
 10
0.0
 20
0.0
 30
0.0
  0
VERTEX
  5
E1
330
E0
100
AcDbEntity
  8
_U+30EC_U+30A4_U+30E4_U+30FC 1
370
     0
100
AcDbVertex
100
AcDb2dVertex
 10
101.7033528391575
 20
-128.8489827151836
 30
0.0
  0
VERTEX
  5
E2
330
E0
100
AcDbEntity
  8
_U+30EC_U+30A4_U+30E4_U+30FC 1
370
     0
100
AcDbVertex
100
AcDb2dVertex
 10
101.4515163591857
 20
-128.8489827151836
 30
0.0
  0
VERTEX
  5
E3
330
E0
100
AcDbEntity
  8
_U+30EC_U+30A4_U+30E4_U+30FC 1
370
     0
100
AcDbVertex
100
AcDb2dVertex
 10
101.4515163591857
 20
-128.5971462352118
 30
0.0
  0
VERTEX
  5
E4
330
E0
100
AcDbEntity
  8
_U+30EC_U+30A4_U+30E4_U+30FC 1
370
     0
100
AcDbVertex
100
AcDb2dVertex
 10
101.7033528391575
 20
-128.5971462352118
 30
0.0
  0
VERTEX
  5
E5
330
E0
100
AcDbEntity
  8
_U+30EC_U+30A4_U+30E4_U+30FC 1
370
     0
100
AcDbVertex
100
AcDb2dVertex
 10
101.7033528391575
 20
-128.8489827151836
 30
0.0
  0
SEQEND
  5
E6
330
E0
100
AcDbEntity
  8
_U+30EC_U+30A4_U+30E4_U+30FC 1
370
     0
  0
HATCH
  5
E7
330
D8
100
AcDbEntity
  8
_U+30EC_U+30A4_U+30E4_U+30FC 1
 62
   179
420
  2234388
100
AcDbHatch
 10
0.0
 20
0.0
 30
0.0
210
0.0
220
0.0
230
1.0
  2
SOLID
 70
     1
 71
     0
 91
        1
 92
        1
 93
        4
 72
     1
 10
101.7033528391575
 20
-128.8489827151836
 11
101.4515163591857
 21
-128.8489827151836
 72
     1
 10
101.4515163591857
 20
-128.8489827151836
 11
101.4515163591857
 21
-128.5971462352118
 72
     1
 10
101.4515163591857
 20
-128.5971462352118
 11
101.7033528391575
 21
-128.5971462352118
 72
     1
 10
101.7033528391575
 20
-128.5971462352118
 11
101.7033528391575
 21
-128.8489827151836
 97
        0
 75
     2
 76
     1
 98
        0
  0
SPLINE
  5
E8
330
D8
100
AcDbEntity
  8
_U+30EC_U+30A4_U+30E4_U+30FC 1
370
     0
100
AcDbSpline
210
0.0
220
0.0
230
1.0
 70
    11
 71
     3
 72
    53
 73
    49
 74
     0
 42
0.0000000001
 43
0.0000000001
 12
1.0
 22
0.0
 32
0.0
 13
1.0
 23
0.0
 33
0.0
 40
0.0
 40
0.0
 40
0.0
 40
0.0
 40
1.0
 40
1.0
 40
1.0
 40
2.0
 40
2.0
 40
2.0
 40
3.0
 40
3.0
 40
3.0
 40
4.0
 40
4.0
 40
4.0
 40
5.0
 40
5.0
 40
5.0
 40
6.0
 40
6.0
 40
6.0
 40
7.0
 40
7.0
 40
7.0
 40
8.0
 40
8.0
 40
8.0
 40
9.0
 40
9.0
 40
9.0
 40
10.0
 40
10.0
 40
10.0
 40
11.0
 40
11.0
 40
11.0
 40
12.0
 40
12.0
 40
12.0
 40
13.0
 40
13.0
 40
13.0
 40
14.0
 40
14.0
 40
14.0
 40
15.0
 40
15.0
 40
15.0
 40
16.0
 40
16.0
 40
16.0
 40
16.0
 10
101.7539957427907
 20
-127.8798773551828
 30
0.0
 10
101.7539957427907
 20
-127.958081022698
 30
0.0
 10
101.737114774913
 20
-128.0597113395129
 30
0.0
 10
101.6737250179844
 20
-128.1613416563277
 30
0.0
 10
101.5638264720049
 20
-128.3346299592358
 30
0.0
 10
101.4325683340169
 20
-128.3559895512443
 30
0.0
 10
101.3247368453285
 20
-128.3749375764132
 30
0.0
 10
101.3247368453285
 20
-128.3749375764132
 30
0.0
 10
101.3247368453285
 20
-128.1527289176146
 30
0.0
 10
101.3247368453285
 20
-128.1527289176146
 30
0.0
 10
101.5235188548275
 20
-128.0979518993991
 30
0.0
 10
101.5531466760006
 20
-127.9708278759934
 30
0.0
 10
101.5531466760006
 20
-127.8778102978917
 30
0.0
 10
101.5531466760006
 20
-127.738283930739
 30
0.0
 10
101.4535834164769
 20
-127.586010710291
 30
0.0
 10
101.2210394712225
 20
-127.586010710291
 30
0.0
 10
100.9650688766685
 20
-127.586010710291
 30
0.0
 10
100.8951334383179
 20
-127.7658446946211
 30
0.0
 10
100.8951334383179
 20
-127.8864230366048
 30
0.0
 10
100.8951334383179
 20
-127.9181179150691
 30
0.0
 10
100.8951334383179
 20
-128.0597113395129
 30
0.0
 10
101.0243245190148
 20
-128.1485948030323
 30
0.0
 10
101.0243245190148
 20
-128.1485948030323
 30
0.0
 10
101.0053764938459
 20
-128.32429467278
 30
0.0
 10
101.0053764938459
 20
-128.32429467278
 30
0.0
 10
101.0053764938459
 20
-128.32429467278
 30
0.0
 10
100.15891653312
 20
-128.2037163307963
 30
0.0
 10
100.15891653312
 20
-128.2037163307963
 30
0.0
 10
100.15891653312
 20
-128.2037163307963
 30
0.0
 10
100.15891653312
 20
-127.4251247511298
 30
0.0
 10
100.15891653312
 20
-127.4251247511298
 30
0.0
 10
100.15891653312
 20
-127.4251247511298
 30
0.0
 10
100.3535644280366
 20
-127.4251247511298
 30
0.0
 10
100.3535644280366
 20
-127.4251247511298
 30
0.0
 10
100.3535644280366
 20
-127.4251247511298
 30
0.0
 10
100.3535644280366
 20
-128.040763314344
 30
0.0
 10
100.3535644280366
 20
-128.040763314344
 30
0.0
 10
100.3535644280366
 20
-128.040763314344
 30
0.0
 10
100.7766221536253
 20
-128.1062201285637
 30
0.0
 10
100.7766221536253
 20
-128.1062201285637
 30
0.0
 10
100.7428602178698
 20
-128.0448974289263
 30
0.0
 10
100.7025526006924
 20
-127.9625596468288
 30
0.0
 10
100.7025526006924
 20
-127.8440483621362
 30
0.0
 10
100.7025526006924
 20
-127.5901448248733
 30
0.0
 10
100.8889322664444
 20
-127.3531222554881
 30
0.0
 10
101.2020914460536
 20
-127.3531222554881
 30
0.0
 10
101.5193847402452
 20
-127.3531222554881
 30
0.0
 10
101.7539957427907
 20
-127.5773979715779
 30
0.0
 10
101.7539957427907
 20
-127.8798773551828
 30
0.0
  0
HATCH
  5
E9
330
D8
100
AcDbEntity
  8
_U+30EC_U+30A4_U+30E4_U+30FC 1
 62
   179
420
  2234388
100
AcDbHatch
 10
0.0
 20
0.0
 30
0.0
210
0.0
220
0.0
230
1.0
  2
SOLID
 70
     1
 71
     0
 91
        1
 92
        1
 93
        1
 72
     4
 94
        3
 73
     0
 74
     1
 95
       53
 96
       49
 40
0.0
 40
0.0
 40
0.0
 40
0.0
 40
1.0
 40
1.0
 40
1.0
 40
2.0
 40
2.0
 40
2.0
 40
3.0
 40
3.0
 40
3.0
 40
4.0
 40
4.0
 40
4.0
 40
5.0
 40
5.0
 40
5.0
 40
6.0
 40
6.0
 40
6.0
 40
7.0
 40
7.0
 40
7.0
 40
8.0
 40
8.0
 40
8.0
 40
9.0
 40
9.0
 40
9.0
 40
10.0
 40
10.0
 40
10.0
 40
11.0
 40
11.0
 40
11.0
 40
12.0
 40
12.0
 40
12.0
 40
13.0
 40
13.0
 40
13.0
 40
14.0
 40
14.0
 40
14.0
 40
15.0
 40
15.0
 40
15.0
 40
16.0
 40
16.0
 40
16.0
 40
16.0
 10
101.7539957427907
 20
-127.8798773551828
 10
101.7539957427907
 20
-127.958081022698
 10
101.737114774913
 20
-128.0597113395129
 10
101.6737250179844
 20
-128.1613416563277
 10
101.5638264720049
 20
-128.3346299592358
 10
101.4325683340169
 20
-128.3559895512443
 10
101.3247368453285
 20
-128.3749375764132
 10
101.3247368453285
 20
-128.3749375764132
 10
101.3247368453285
 20
-128.1527289176146
 10
101.3247368453285
 20
-128.1527289176146
 10
101.5235188548275
 20
-128.0979518993991
 10
101.5531466760006
 20
-127.9708278759934
 10
101.5531466760006
 20
-127.8778102978917
 10
101.5531466760006
 20
-127.738283930739
 10
101.4535834164769
 20
-127.586010710291
 10
101.2210394712225
 20
-127.586010710291
 10
100.9650688766685
 20
-127.586010710291
 10
100.8951334383179
 20
-127.7658446946211
 10
100.8951334383179
 20
-127.8864230366048
 10
100.8951334383179
 20
-127.9181179150691
 10
100.8951334383179
 20
-128.0597113395129
 10
101.0243245190148
 20
-128.1485948030323
 10
101.0243245190148
 20
-128.1485948030323
 10
101.0053764938459
 20
-128.32429467278
 10
101.0053764938459
 20
-128.32429467278
 10
101.0053764938459
 20
-128.32429467278
 10
100.15891653312
 20
-128.2037163307963
 10
100.15891653312
 20
-128.2037163307963
 10
100.15891653312
 20
-128.2037163307963
 10
100.15891653312
 20
-127.4251247511298
 10
100.15891653312
 20
-127.4251247511298
 10
100.15891653312
 20
-127.4251247511298
 10
100.3535644280366
 20
-127.4251247511298
 10
100.3535644280366
 20
-127.4251247511298
 10
100.3535644280366
 20
-127.4251247511298
 10
100.3535644280366
 20
-128.040763314344
 10
100.3535644280366
 20
-128.040763314344
 10
100.3535644280366
 20
-128.040763314344
 10
100.7766221536253
 20
-128.1062201285637
 10
100.7766221536253
 20
-128.1062201285637
 10
100.7428602178698
 20
-128.0448974289263
 10
100.7025526006924
 20
-127.9625596468288
 10
100.7025526006924
 20
-127.8440483621362
 10
100.7025526006924
 20
-127.5901448248733
 10
100.8889322664444
 20
-127.3531222554881
 10
101.2020914460536
 20
-127.3531222554881
 10
101.5193847402452
 20
-127.3531222554881
 10
101.7539957427907
 20
-127.5773979715779
 10
101.7539957427907
 20
-127.8798773551828
 97
        0
 97
        0
 75
     2
 76
     1
 98
        0
  0
ENDBLK
  5
DB
330
D8
100
AcDbEntity
  8
0
100
AcDbBlockEnd
  0
ENDSEC
  0
SECTION
  2
ENTITIES
  0
INSERT
  5
42
330
1F
100
AcDbEntity
  8
_U+30EC_U+30A4_U+30E4_U+30FC 1
100
AcDbBlockReference
  2
block 2
 10
0.0
 20
0.0
 30
0.0
  0
ENDSEC
  0
SECTION
  2
OBJECTS
  0
DICTIONARY
  5
C
330
0
100
AcDbDictionary
281
     1
  3
ACAD_GROUP
350
D
  3
ACAD_LAYOUT
350
1A
  3
ACAD_MATERIAL
350
3B
  3
ACAD_MLEADERSTYLE
350
EB
  3
ACAD_MLINESTYLE
350
17
  3
ACAD_PLOTSETTINGS
350
19
  3
ACAD_PLOTSTYLENAME
350
E
  3
ACAD_TABLESTYLE
350
EA
  3
ACAD_VISUALSTYLE
350
2A
  0
SUN
  5
3F
330
29
100
AcDbSun
 90
        1
290
     0
 63
     7
421
 16777215
 40
1.0
291
     1
 91
  2455826
 92
 54000000
292
     0
 70
     2
 71
   256
280
     1
  0
DICTIONARY
  5
D
102
{ACAD_REACTORS
330
C
102
}
330
C
100
AcDbDictionary
281
     1
  0
DICTIONARY
  5
1A
102
{ACAD_REACTORS
330
C
102
}
330
C
100
AcDbDictionary
281
     1
  3
Layout1
350
1E
  3
Layout2
350
26
  3
Model
350
22
  0
DICTIONARY
  5
3B
102
{ACAD_REACTORS
330
C
102
}
330
C
100
AcDbDictionary
281
     1
  3
ByBlock
350
3D
  3
ByLayer
350
3C
  3
Global
350
3E
  0
DICTIONARY
  5
EB
102
{ACAD_REACTORS
330
C
102
}
330
C
100
AcDbDictionary
281
     1
  0
DICTIONARY
  5
17
102
{ACAD_REACTORS
330
C
102
}
330
C
100
AcDbDictionary
281
     1
  3
Standard
350
18
  0
DICTIONARY
  5
19
102
{ACAD_REACTORS
330
C
102
}
330
C
100
AcDbDictionary
281
     1
  0
ACDBDICTIONARYWDFLT
  5
E
102
{ACAD_REACTORS
330
C
102
}
330
C
100
AcDbDictionary
281
     1
  3
Normal
350
F
100
AcDbDictionaryWithDefault
340
F
  0
DICTIONARY
  5
EA
102
{ACAD_REACTORS
330
C
102
}
330
C
100
AcDbDictionary
281
     1
  0
DICTIONARY
  5
2A
102
{ACAD_REACTORS
330
C
102
}
330
C
100
AcDbDictionary
281
     1
  3
2dWireframe
350
2F
  3
3D Hidden
350
31
  3
3dWireframe
350
30
  3
Basic
350
32
  3
Brighten
350
36
  3
ColorChange
350
3A
  3
Conceptual
350
34
  3
Dim
350
35
  3
Facepattern
350
39
  3
Flat
350
2B
  3
FlatWithEdges
350
2C
  3
Gouraud
350
2D
  3
GouraudWithEdges
350
2E
  3
Linepattern
350
38
  3
Realistic
350
33
  3
Thicken
350
37
  0
LAYOUT
  5
1E
102
{ACAD_REACTORS
330
1A
102
}
330
1A
100
AcDbPlotSettings
  1

  2
none_device
  4

  6

 40
0.0
 41
0.0
 42
0.0
 43
0.0
 44
0.0
 45
0.0
 46
0.0
 47
0.0
 48
0.0
 49
0.0
140
0.0
141
0.0
142
1.0
143
1.0
 70
   688
 72
     0
 73
     0
 74
     5
  7

 75
    16
 76
     0
 77
     2
 78
   300
147
1.0
148
0.0
149
0.0
100
AcDbLayout
  1
Layout1
 70
     1
 71
     1
 10
0.0
 20
0.0
 11
12.0
 21
9.0
 12
0.0
 22
0.0
 32
0.0
 14
1.000000000000000E+20
 24
1.000000000000000E+20
 34
1.000000000000000E+20
 15
-1.000000000000000E+20
 25
-1.000000000000000E+20
 35
-1.000000000000000E+20
146
0.0
 13
0.0
 23
0.0
 33
0.0
 16
1.0
 26
0.0
 36
0.0
 17
0.0
 27
1.0
 37
0.0
 76
     0
330
1B
  0
LAYOUT
  5
26
102
{ACAD_REACTORS
330
1A
102
}
330
1A
100
AcDbPlotSettings
  1

  2
none_device
  4

  6

 40
0.0
 41
0.0
 42
0.0
 43
0.0
 44
0.0
 45
0.0
 46
0.0
 47
0.0
 48
0.0
 49
0.0
140
0.0
141
0.0
142
1.0
143
1.0
 70
   688
 72
     0
 73
     0
 74
     5
  7

 75
    16
 76
     0
 77
     2
 78
   300
147
1.0
148
0.0
149
0.0
100
AcDbLayout
  1
Layout2
 70
     1
 71
     2
 10
0.0
 20
0.0
 11
0.0
 21
0.0
 12
0.0
 22
0.0
 32
0.0
 14
0.0
 24
0.0
 34
0.0
 15
0.0
 25
0.0
 35
0.0
146
0.0
 13
0.0
 23
0.0
 33
0.0
 16
1.0
 26
0.0
 36
0.0
 17
0.0
 27
1.0
 37
0.0
 76
     0
330
23
  0
LAYOUT
  5
22
102
{ACAD_REACTORS
330
1A
102
}
330
1A
100
AcDbPlotSettings
  1

  2
none_device
  4

  6

 40
0.0
 41
0.0
 42
0.0
 43
0.0
 44
0.0
 45
0.0
 46
0.0
 47
0.0
 48
0.0
 49
0.0
140
0.0
141
0.0
142
1.0
143
1.0
 70
  1712
 72
     0
 73
     0
 74
     0
  7

 75
     0
 76
     0
 77
     2
 78
   300
147
1.0
148
0.0
149
0.0
100
AcDbLayout
  1
Model
 70
     1
 71
     0
 10
0.0
 20
0.0
 11
12.0
 21
9.0
 12
0.0
 22
0.0
 32
0.0
 14
1.000000000000000E+20
 24
1.000000000000000E+20
 34
1.000000000000000E+20
 15
-1.000000000000000E+20
 25
-1.000000000000000E+20
 35
-1.000000000000000E+20
146
0.0
 13
0.0
 23
0.0
 33
0.0
 16
1.0
 26
0.0
 36
0.0
 17
0.0
 27
1.0
 37
0.0
 76
     0
330
1F
331
29
  0
MATERIAL
  5
3D
102
{ACAD_REACTORS
330
3B
102
}
330
3B
100
AcDbMaterial
  1
ByBlock
 72
     1
 94
      127
  0
MATERIAL
  5
3C
102
{ACAD_REACTORS
330
3B
102
}
330
3B
100
AcDbMaterial
  1
ByLayer
 72
     1
 94
      127
  0
MATERIAL
  5
3E
102
{ACAD_REACTORS
330
3B
102
}
330
3B
100
AcDbMaterial
  1
Global
 72
     1
 94
      127
  0
MLINESTYLE
  5
18
102
{ACAD_REACTORS
330
17
102
}
330
17
100
AcDbMlineStyle
  2
Standard
 70
     0
  3

 62
   256
 51
90.0
 52
90.0
 71
     2
 49
0.5
 62
   256
  6
BYLAYER
 49
-0.5
 62
   256
  6
BYLAYER
  0
ACDBPLACEHOLDER
  5
F
102
{ACAD_REACTORS
330
E
102
}
330
E
  0
VISUALSTYLE
  5
2F
102
{ACAD_REACTORS
330
2A
102
}
330
2A
100
AcDbVisualStyle
  2
2dWireframe
 70
     4
177
     2
291
     0
 71
     0
176
     1
 72
     2
176
     1
 73
     0
176
     1
 90
        0
176
     1
 40
-0.6
176
     1
 41
-30.0
176
     1
 62
     5
 63
     7
421
 16777215
176
     1
 74
     1
176
     1
 91
        4
176
     1
 64
     7
176
     1
 65
   257
176
     1
 75
     1
176
     1
175
     1
176
     1
 42
1.0
176
     1
 92
        0
176
     1
 66
   257
176
     1
 43
1.0
176
     1
 76
     1
176
     1
 77
     6
176
     1
 78
     2
176
     1
 67
     7
176
     1
 79
     5
176
     1
170
     0
176
     1
171
     0
176
     1
290
     0
176
     1
 93
        1
176
     1
 44
0.0
176
     1
173
     0
176
     1
  0
VISUALSTYLE
  5
31
102
{ACAD_REACTORS
330
2A
102
}
330
2A
100
AcDbVisualStyle
  2
3D Hidden
 70
     6
177
     2
291
     0
 71
     1
176
     1
 72
     2
176
     1
 73
     2
176
     1
 90
        0
176
     1
 40
-0.6
176
     1
 41
-30.0
176
     1
 62
     5
 63
     7
421
 16777215
176
     1
 74
     2
176
     1
 91
        2
176
     1
 64
     7
176
     1
 65
   257
176
     1
 75
     2
176
     1
175
     1
176
     1
 42
40.0
176
     1
 92
        0
176
     1
 66
   257
176
     1
 43
1.0
176
     1
 76
     1
176
     1
 77
     6
176
     1
 78
     2
176
     1
 67
     7
176
     1
 79
     3
176
     1
170
     0
176
     1
171
     0
176
     1
290
     0
176
     1
 93
        1
176
     1
 44
0.0
176
     1
173
     0
176
     1
  0
VISUALSTYLE
  5
30
102
{ACAD_REACTORS
330
2A
102
}
330
2A
100
AcDbVisualStyle
  2
3dWireframe
 70
     5
177
     2
291
     0
 71
     0
176
     1
 72
     2
176
     1
 73
     0
176
     1
 90
        0
176
     1
 40
-0.6
176
     1
 41
-30.0
176
     1
 62
     5
 63
     7
421
 16777215
176
     1
 74
     1
176
     1
 91
        4
176
     1
 64
     7
176
     1
 65
   257
176
     1
 75
     1
176
     1
175
     1
176
     1
 42
1.0
176
     1
 92
        0
176
     1
 66
   257
176
     1
 43
1.0
176
     1
 76
     1
176
     1
 77
     6
176
     1
 78
     2
176
     1
 67
     7
176
     1
 79
     5
176
     1
170
     0
176
     1
171
     0
176
     1
290
     0
176
     1
 93
        1
176
     1
 44
0.0
176
     1
173
     0
176
     1
  0
VISUALSTYLE
  5
32
102
{ACAD_REACTORS
330
2A
102
}
330
2A
100
AcDbVisualStyle
  2
Basic
 70
     7
177
     2
291
     1
 71
     1
176
     1
 72
     0
176
     1
 73
     1
176
     1
 90
        0
176
     1
 40
-0.6
176
     1
 41
-30.0
176
     1
 62
     5
 63
     7
421
 16777215
176
     1
 74
     0
176
     1
 91
        4
176
     1
 64
     7
176
     1
 65
   257
176
     1
 75
     1
176
     1
175
     1
176
     1
 42
1.0
176
     1
 92
        8
176
     1
 66
     7
176
     1
 43
1.0
176
     1
 76
     1
176
     1
 77
     6
176
     1
 78
     2
176
     1
 67
     7
176
     1
 79
     5
176
     1
170
     0
176
     1
171
     0
176
     1
290
     0
176
     1
 93
        1
176
     1
 44
0.0
176
     1
173
     0
176
     1
  0
VISUALSTYLE
  5
36
102
{ACAD_REACTORS
330
2A
102
}
330
2A
100
AcDbVisualStyle
  2
Brighten
 70
    12
177
     2
291
     1
 71
     2
176
     1
 72
     2
176
     1
 73
     0
176
     1
 90
        0
176
     1
 40
-0.6
176
     1
 41
-30.0
176
     1
 62
     5
 63
     7
421
 16777215
176
     1
 74
     1
176
     1
 91
        4
176
     1
 64
     7
176
     1
 65
   257
176
     1
 75
     1
176
     1
175
     1
176
     1
 42
1.0
176
     1
 92
        8
176
     1
 66
     7
176
     1
 43
1.0
176
     1
 76
     1
176
     1
 77
     6
176
     1
 78
     2
176
     1
 67
     7
176
     1
 79
     5
176
     1
170
     0
176
     1
171
     0
176
     1
290
     0
176
     1
 93
        1
176
     1
 44
50.0
176
     1
173
     0
176
     1
  0
VISUALSTYLE
  5
3A
102
{ACAD_REACTORS
330
2A
102
}
330
2A
100
AcDbVisualStyle
  2
ColorChange
 70
    16
177
     2
291
     1
 71
     2
176
     1
 72
     2
176
     1
 73
     3
176
     1
 90
        0
176
     1
 40
-0.6
176
     1
 41
-30.0
176
     1
 62
     5
 63
     8
421
  8421504
176
     1
 74
     1
176
     1
 91
        4
176
     1
 64
     7
176
     1
 65
   257
176
     1
 75
     1
176
     1
175
     1
176
     1
 42
1.0
176
     1
 92
        8
176
     1
 66
     8
424
  8421504
176
     1
 43
1.0
176
     1
 76
     1
176
     1
 77
     6
176
     1
 78
     2
176
     1
 67
     7
176
     1
 79
     5
176
     1
170
     0
176
     1
171
     0
176
     1
290
     0
176
     1
 93
        1
176
     1
 44
0.0
176
     1
173
     0
176
     1
  0
VISUALSTYLE
  5
34
102
{ACAD_REACTORS
330
2A
102
}
330
2A
100
AcDbVisualStyle
  2
Conceptual
 70
     9
177
     2
291
     0
 71
     3
176
     1
 72
     2
176
     1
 73
     0
176
     1
 90
        0
176
     1
 40
-0.6
176
     1
 41
-30.0
176
     1
 62
     5
 63
     7
421
 16777215
176
     1
 74
     2
176
     1
 91
        2
176
     1
 64
     7
176
     1
 65
   257
176
     1
 75
     1
176
     1
175
     1
176
     1
 42
40.0
176
     1
 92
        8
176
     1
 66
     7
176
     1
 43
1.0
176
     1
 76
     1
176
     1
 77
     6
176
     1
 78
     2
176
     1
 67
     7
176
     1
 79
     3
176
     1
170
     0
176
     1
171
     0
176
     1
290
     0
176
     1
 93
        1
176
     1
 44
0.0
176
     1
173
     0
176
     1
  0
VISUALSTYLE
  5
35
102
{ACAD_REACTORS
330
2A
102
}
330
2A
100
AcDbVisualStyle
  2
Dim
 70
    11
177
     2
291
     1
 71
     2
176
     1
 72
     2
176
     1
 73
     0
176
     1
 90
        0
176
     1
 40
-0.6
176
     1
 41
-30.0
176
     1
 62
     5
 63
     7
421
 16777215
176
     1
 74
     1
176
     1
 91
        4
176
     1
 64
     7
176
     1
 65
   257
176
     1
 75
     1
176
     1
175
     1
176
     1
 42
1.0
176
     1
 92
        8
176
     1
 66
     7
176
     1
 43
1.0
176
     1
 76
     1
176
     1
 77
     6
176
     1
 78
     2
176
     1
 67
     7
176
     1
 79
     5
176
     1
170
     0
176
     1
171
     0
176
     1
290
     0
176
     1
 93
        1
176
     1
 44
-50.0
176
     1
173
     0
176
     1
  0
VISUALSTYLE
  5
39
102
{ACAD_REACTORS
330
2A
102
}
330
2A
100
AcDbVisualStyle
  2
Facepattern
 70
    15
177
     2
291
     1
 71
     2
176
     1
 72
     2
176
     1
 73
     0
176
     1
 90
        0
176
     1
 40
-0.6
176
     1
 41
-30.0
176
     1
 62
     5
 63
     7
421
 16777215
176
     1
 74
     1
176
     1
 91
        4
176
     1
 64
     7
176
     1
 65
   257
176
     1
 75
     1
176
     1
175
     1
176
     1
 42
1.0
176
     1
 92
        8
176
     1
 66
     7
176
     1
 43
1.0
176
     1
 76
     1
176
     1
 77
     6
176
     1
 78
     2
176
     1
 67
     7
176
     1
 79
     5
176
     1
170
     0
176
     1
171
     0
176
     1
290
     0
176
     1
 93
        1
176
     1
 44
0.0
176
     1
173
     0
176
     1
  0
VISUALSTYLE
  5
2B
102
{ACAD_REACTORS
330
2A
102
}
330
2A
100
AcDbVisualStyle
  2
Flat
 70
     0
177
     2
291
     1
 71
     2
176
     1
 72
     1
176
     1
 73
     1
176
     1
 90
        2
176
     1
 40
-0.6
176
     1
 41
30.0
176
     1
 62
     5
 63
     7
421
 16777215
176
     1
 74
     0
176
     1
 91
        4
176
     1
 64
     7
176
     1
 65
   257
176
     1
 75
     1
176
     1
175
     1
176
     1
 42
1.0
176
     1
 92
        8
176
     1
 66
     7
176
     1
 43
1.0
176
     1
 76
     1
176
     1
 77
     6
176
     1
 78
     2
176
     1
 67
     7
176
     1
 79
     5
176
     1
170
     0
176
     1
171
     0
176
     1
290
     0
176
     1
 93
       13
176
     1
 44
0.0
176
     1
173
     0
176
     1
  0
VISUALSTYLE
  5
2C
102
{ACAD_REACTORS
330
2A
102
}
330
2A
100
AcDbVisualStyle
  2
FlatWithEdges
 70
     1
177
     2
291
     1
 71
     2
176
     1
 72
     1
176
     1
 73
     1
176
     1
 90
        2
176
     1
 40
-0.6
176
     1
 41
30.0
176
     1
 62
     5
 63
     7
421
 16777215
176
     1
 74
     1
176
     1
 91
        4
176
     1
 64
     7
176
     1
 65
   257
176
     1
 75
     1
176
     1
175
     1
176
     1
 42
1.0
176
     1
 92
        0
176
     1
 66
   257
176
     1
 43
1.0
176
     1
 76
     1
176
     1
 77
     6
176
     1
 78
     2
176
     1
 67
     7
176
     1
 79
     5
176
     1
170
     0
176
     1
171
     0
176
     1
290
     0
176
     1
 93
       13
176
     1
 44
0.0
176
     1
173
     0
176
     1
  0
VISUALSTYLE
  5
2D
102
{ACAD_REACTORS
330
2A
102
}
330
2A
100
AcDbVisualStyle
  2
Gouraud
 70
     2
177
     2
291
     1
 71
     2
176
     1
 72
     2
176
     1
 73
     1
176
     1
 90
        2
176
     1
 40
-0.6
176
     1
 41
30.0
176
     1
 62
     5
 63
     7
421
 16777215
176
     1
 74
     0
176
     1
 91
        4
176
     1
 64
     7
176
     1
 65
   257
176
     1
 75
     1
176
     1
175
     1
176
     1
 42
1.0
176
     1
 92
        0
176
     1
 66
     7
176
     1
 43
1.0
176
     1
 76
     1
176
     1
 77
     6
176
     1
 78
     2
176
     1
 67
     7
176
     1
 79
     5
176
     1
170
     0
176
     1
171
     0
176
     1
290
     0
176
     1
 93
       13
176
     1
 44
0.0
176
     1
173
     0
176
     1
  0
VISUALSTYLE
  5
2E
102
{ACAD_REACTORS
330
2A
102
}
330
2A
100
AcDbVisualStyle
  2
GouraudWithEdges
 70
     3
177
     2
291
     1
 71
     2
176
     1
 72
     2
176
     1
 73
     1
176
     1
 90
        2
176
     1
 40
-0.6
176
     1
 41
30.0
176
     1
 62
     5
 63
     7
421
 16777215
176
     1
 74
     1
176
     1
 91
        4
176
     1
 64
     7
176
     1
 65
   257
176
     1
 75
     1
176
     1
175
     1
176
     1
 42
1.0
176
     1
 92
        0
176
     1
 66
   257
176
     1
 43
1.0
176
     1
 76
     1
176
     1
 77
     6
176
     1
 78
     2
176
     1
 67
     7
176
     1
 79
     5
176
     1
170
     0
176
     1
171
     0
176
     1
290
     0
176
     1
 93
       13
176
     1
 44
0.0
176
     1
173
     0
176
     1
  0
VISUALSTYLE
  5
38
102
{ACAD_REACTORS
330
2A
102
}
330
2A
100
AcDbVisualStyle
  2
Linepattern
 70
    14
177
     2
291
     1
 71
     2
176
     1
 72
     2
176
     1
 73
     0
176
     1
 90
        0
176
     1
 40
-0.6
176
     1
 41
-30.0
176
     1
 62
     5
 63
     7
421
 16777215
176
     1
 74
     1
176
     1
 91
        4
176
     1
 64
     7
176
     1
 65
   257
176
     1
 75
     7
176
     1
175
     7
176
     1
 42
1.0
176
     1
 92
        8
176
     1
 66
     7
176
     1
 43
1.0
176
     1
 76
     1
176
     1
 77
     6
176
     1
 78
     2
176
     1
 67
     7
176
     1
 79
     5
176
     1
170
     0
176
     1
171
     0
176
     1
290
     0
176
     1
 93
        1
176
     1
 44
0.0
176
     1
173
     0
176
     1
  0
VISUALSTYLE
  5
33
102
{ACAD_REACTORS
330
2A
102
}
330
2A
100
AcDbVisualStyle
  2
Realistic
 70
     8
177
     2
291
     0
 71
     2
176
     1
 72
     2
176
     1
 73
     0
176
     1
 90
        0
176
     1
 40
-0.6
176
     1
 41
-30.0
176
     1
 62
     5
 63
     7
421
 16777215
176
     1
 74
     1
176
     1
 91
        0
176
     1
 64
     7
176
     1
 65
   257
176
     1
 75
     1
176
     1
175
     1
176
     1
 42
1.0
176
     1
 92
        8
176
     1
 66
     8
424
  7895160
176
     1
 43
1.0
176
     1
 76
     1
176
     1
 77
     6
176
     1
 78
     2
176
     1
 67
     7
176
     1
 79
     5
176
     1
170
     0
176
     1
171
     0
176
     1
290
     0
176
     1
 93
       13
176
     1
 44
0.0
176
     1
173
     0
176
     1
  0
VISUALSTYLE
  5
37
102
{ACAD_REACTORS
330
2A
102
}
330
2A
100
AcDbVisualStyle
  2
Thicken
 70
    13
177
     2
291
     1
 71
     2
176
     1
 72
     2
176
     1
 73
     0
176
     1
 90
        0
176
     1
 40
-0.6
176
     1
 41
-30.0
176
     1
 62
     5
 63
     7
421
 16777215
176
     1
 74
     1
176
     1
 91
        4
176
     1
 64
     7
176
     1
 65
   257
176
     1
 75
     1
176
     1
175
     1
176
     1
 42
1.0
176
     1
 92
       12
176
     1
 66
     7
176
     1
 43
1.0
176
     1
 76
     1
176
     1
 77
     6
176
     1
 78
     2
176
     1
 67
     7
176
     1
 79
     5
176
     1
170
     0
176
     1
171
     0
176
     1
290
     0
176
     1
 93
        1
176
     1
 44
0.0
176
     1
173
     0
176
     1
  0
ENDSEC
  0
EOF
