  0
SECTION
  2
HEADER
  9
$ACADVER
  1
AC1024
  9
$ACADMAINTVER
 70
     6
  9
$DWGCODEPAGE
  3
UNDEFINED
  9
$INSBASE
 10
0.0
 20
0.0
 30
0.0
  9
$EXTMIN
 10
1.000000000000000E+20
 20
1.000000000000000E+20
 30
1.000000000000000E+20
  9
$EXTMAX
 10
-1.000000000000000E+20
 20
-1.000000000000000E+20
 30
-1.000000000000000E+20
  9
$LIMMIN
 10
0.0
 20
0.0
  9
$LIMMAX
 10
12.0
 20
9.0
  9
$ORTHOMODE
 70
     0
  9
$REGENMODE
 70
     1
  9
$FILLMODE
 70
     1
  9
$QTEXTMODE
 70
     0
  9
$MIRRTEXT
 70
     1
  9
$LTSCALE
 40
1.0
  9
$ATTMODE
 70
     1
  9
$TEXTSIZE
 40
0.2
  9
$TRACEWID
 40
0.05
  9
$TEXTSTYLE
  7
Standard
  9
$CLAYER
  8
0
  9
$CELTYPE
  6
ByLayer
  9
$CECOLOR
 62
   256
  9
$CELTSCALE
 40
1.0
  9
$DISPSILH
 70
     0
  9
$DIMSCALE
 40
1.0
  9
$DIMASZ
 40
0.18
  9
$DIMEXO
 40
0.0625
  9
$DIMDLI
 40
0.38
  9
$DIMRND
 40
0.0
  9
$DIMDLE
 40
0.0
  9
$DIMEXE
 40
0.18
  9
$DIMTP
 40
0.0
  9
$DIMTM
 40
0.0
  9
$DIMTXT
 40
0.18
  9
$DIMCEN
 40
0.09
  9
$DIMTSZ
 40
0.0
  9
$DIMTOL
 70
     0
  9
$DIMLIM
 70
     0
  9
$DIMTIH
 70
     1
  9
$DIMTOH
 70
     1
  9
$DIMSE1
 70
     0
  9
$DIMSE2
 70
     0
  9
$DIMTAD
 70
     0
  9
$DIMZIN
 70
     0
  9
$DIMBLK
  1

  9
$DIMASO
 70
     1
  9
$DIMSHO
 70
     1
  9
$DIMPOST
  1

  9
$DIMAPOST
  1

  9
$DIMALT
 70
     0
  9
$DIMALTD
 70
     2
  9
$DIMALTF
 40
25.4
  9
$DIMLFAC
 40
1.0
  9
$DIMTOFL
 70
     0
  9
$DIMTVP
 40
0.0
  9
$DIMTIX
 70
     0
  9
$DIMSOXD
 70
     0
  9
$DIMSAH
 70
     0
  9
$DIMBLK1
  1

  9
$DIMBLK2
  1

  9
$DIMSTYLE
  2
Standard
  9
$DIMCLRD
 70
     0
  9
$DIMCLRE
 70
     0
  9
$DIMCLRT
 70
     0
  9
$DIMTFAC
 40
1.0
  9
$DIMGAP
 40
0.09
  9
$DIMJUST
 70
     0
  9
$DIMSD1
 70
     0
  9
$DIMSD2
 70
     0
  9
$DIMTOLJ
 70
     1
  9
$DIMTZIN
 70
     0
  9
$DIMALTZ
 70
     0
  9
$DIMALTTZ
 70
     0
  9
$DIMUPT
 70
     0
  9
$DIMDEC
 70
     4
  9
$DIMTDEC
 70
     4
  9
$DIMALTU
 70
     2
  9
$DIMALTTD
 70
     2
  9
$DIMTXSTY
  7
Standard
  9
$DIMAUNIT
 70
     0
  9
$DIMADEC
 70
     0
  9
$DIMALTRND
 40
0.0
  9
$DIMAZIN
 70
     0
  9
$DIMDSEP
 70
    46
  9
$DIMATFIT
 70
     3
  9
$DIMFRAC
 70
     0
  9
$DIMLDRBLK
  1

  9
$DIMLUNIT
 70
     2
  9
$DIMLWD
 70
    -2
  9
$DIMLWE
 70
    -2
  9
$DIMTMOVE
 70
     0
  9
$DIMFXL
 40
1.0
  9
$DIMFXLON
 70
     0
  9
$DIMJOGANG
 40
0.7853981633974483
  9
$DIMTFILL
 70
     0
  9
$DIMTFILLCLR
 70
     0
  9
$DIMARCSYM
 70
     0
  9
$DIMLTYPE
  6

  9
$DIMLTEX1
  6

  9
$DIMLTEX2
  6

  9
$DIMTXTDIRECTION
 70
     0
  9
$LUNITS
 70
     2
  9
$LUPREC
 70
     4
  9
$SKETCHINC
 40
0.1
  9
$FILLETRAD
 40
0.5
  9
$AUNITS
 70
     0
  9
$AUPREC
 70
     0
  9
$MENU
  1
.
  9
$ELEVATION
 40
0.0
  9
$PELEVATION
 40
0.0
  9
$THICKNESS
 40
0.0
  9
$LIMCHECK
 70
     0
  9
$CHAMFERA
 40
0.5
  9
$CHAMFERB
 40
0.5
  9
$CHAMFERC
 40
1.0
  9
$CHAMFERD
 40
0.0
  9
$SKPOLY
 70
     0
  9
$TDCREATE
 40
2457917.615763878
  9
$TDUCREATE
 40
2457917.240763889
  9
$TDUPDATE
 40
2457917.615763878
  9
$TDUUPDATE
 40
2457917.240763889
  9
$TDINDWG
 40
0.0000000116
  9
$TDUSRTIMER
 40
0.0000000116
  9
$USRTIMER
 70
     1
  9
$ANGBASE
 50
0.0
  9
$ANGDIR
 70
     0
  9
$PDMODE
 70
     0
  9
$PDSIZE
 40
0.0
  9
$PLINEWID
 40
0.0
  9
$SPLFRAME
 70
     0
  9
$SPLINETYPE
 70
     6
  9
$SPLINESEGS
 70
     8
  9
$HANDSEED
  5
ED
  9
$SURFTAB1
 70
     6
  9
$SURFTAB2
 70
     6
  9
$SURFTYPE
 70
     6
  9
$SURFU
 70
     6
  9
$SURFV
 70
     6
  9
$UCSBASE
  2

  9
$UCSNAME
  2

  9
$UCSORG
 10
0.0
 20
0.0
 30
0.0
  9
$UCSXDIR
 10
1.0
 20
0.0
 30
0.0
  9
$UCSYDIR
 10
0.0
 20
1.0
 30
0.0
  9
$UCSORTHOREF
  2

  9
$UCSORTHOVIEW
 70
     0
  9
$UCSORGTOP
 10
0.0
 20
0.0
 30
0.0
  9
$UCSORGBOTTOM
 10
0.0
 20
0.0
 30
0.0
  9
$UCSORGLEFT
 10
0.0
 20
0.0
 30
0.0
  9
$UCSORGRIGHT
 10
0.0
 20
0.0
 30
0.0
  9
$UCSORGFRONT
 10
0.0
 20
0.0
 30
0.0
  9
$UCSORGBACK
 10
0.0
 20
0.0
 30
0.0
  9
$PUCSBASE
  2

  9
$PUCSNAME
  2

  9
$PUCSORG
 10
0.0
 20
0.0
 30
0.0
  9
$PUCSXDIR
 10
1.0
 20
0.0
 30
0.0
  9
$PUCSYDIR
 10
0.0
 20
1.0
 30
0.0
  9
$PUCSORTHOREF
  2

  9
$PUCSORTHOVIEW
 70
     0
  9
$PUCSORGTOP
 10
0.0
 20
0.0
 30
0.0
  9
$PUCSORGBOTTOM
 10
0.0
 20
0.0
 30
0.0
  9
$PUCSORGLEFT
 10
0.0
 20
0.0
 30
0.0
  9
$PUCSORGRIGHT
 10
0.0
 20
0.0
 30
0.0
  9
$PUCSORGFRONT
 10
0.0
 20
0.0
 30
0.0
  9
$PUCSORGBACK
 10
0.0
 20
0.0
 30
0.0
  9
$USERI1
 70
     0
  9
$USERI2
 70
     0
  9
$USERI3
 70
     0
  9
$USERI4
 70
     0
  9
$USERI5
 70
     0
  9
$USERR1
 40
0.0
  9
$USERR2
 40
0.0
  9
$USERR3
 40
0.0
  9
$USERR4
 40
0.0
  9
$USERR5
 40
0.0
  9
$WORLDVIEW
 70
     1
  9
$SHADEDGE
 70
     3
  9
$SHADEDIF
 70
    70
  9
$TILEMODE
 70
     1
  9
$MAXACTVP
 70
    64
  9
$PINSBASE
 10
0.0
 20
0.0
 30
0.0
  9
$PLIMCHECK
 70
     0
  9
$PEXTMIN
 10
1.000000000000000E+20
 20
1.000000000000000E+20
 30
1.000000000000000E+20
  9
$PEXTMAX
 10
-1.000000000000000E+20
 20
-1.000000000000000E+20
 30
-1.000000000000000E+20
  9
$PLIMMIN
 10
0.0
 20
0.0
  9
$PLIMMAX
 10
12.0
 20
9.0
  9
$UNITMODE
 70
     0
  9
$VISRETAIN
 70
     1
  9
$PLINEGEN
 70
     0
  9
$PSLTSCALE
 70
     1
  9
$TREEDEPTH
 70
  3020
  9
$CMLSTYLE
  2
Standard
  9
$CMLJUST
 70
     0
  9
$CMLSCALE
 40
1.0
  9
$PROXYGRAPHICS
 70
     1
  9
$MEASUREMENT
 70
     0
  9
$CELWEIGHT
370
    -1
  9
$ENDCAPS
280
     0
  9
$JOINSTYLE
280
     0
  9
$LWDISPLAY
290
     1
  9
$INSUNITS
 70
     1
  9
$HYPERLINKBASE
  1

  9
$STYLESHEET
  1

  9
$XEDIT
290
     1
  9
$CEPSNTYPE
380
     0
  9
$PSTYLEMODE
290
     1
  9
$FINGERPRINTGUID
  2
{FC9C94B8-8DF3-C698-0387-281333BA1F9B}
  9
$VERSIONGUID
  2
{FAEB1C32-E019-11D5-929B-00C0DF256EC4}
  9
$EXTNAMES
290
     1
  9
$PSVPSCALE
 40
0.0
  9
$OLESTARTUP
290
     0
  9
$SORTENTS
280
   127
  9
$INDEXCTL
280
     0
  9
$HIDETEXT
280
     1
  9
$XCLIPFRAME
280
     2
  9
$HALOGAP
280
     0
  9
$OBSCOLOR
 70
   257
  9
$OBSLTYPE
280
     0
  9
$INTERSECTIONDISPLAY
280
     0
  9
$INTERSECTIONCOLOR
 70
   257
  9
$DIMASSOC
280
     2
  9
$PROJECTNAME
  1

  9
$CAMERADISPLAY
290
     0
  9
$LENSLENGTH
 40
50.0
  9
$CAMERAHEIGHT
 40
0.0
  9
$STEPSPERSEC
 40
2.0
  9
$STEPSIZE
 40
6.0
  9
$3DDWFPREC
 40
2.0
  9
$PSOLWIDTH
 40
0.25
  9
$PSOLHEIGHT
 40
4.0
  9
$LOFTANG1
 40
1.570796326794897
  9
$LOFTANG2
 40
1.570796326794897
  9
$LOFTMAG1
 40
0.0
  9
$LOFTMAG2
 40
0.0
  9
$LOFTPARAM
 70
     7
  9
$LOFTNORMALS
280
     1
  9
$LATITUDE
 40
37.795
  9
$LONGITUDE
 40
-122.394
  9
$NORTHDIRECTION
 40
0.0
  9
$TIMEZONE
 70
 -8000
  9
$LIGHTGLYPHDISPLAY
280
     1
  9
$TILEMODELIGHTSYNCH
280
     1
  9
$CMATERIAL
347
3C
  9
$SOLIDHIST
280
     1
  9
$SHOWHIST
280
     1
  9
$DWFFRAME
280
     2
  9
$DGNFRAME
280
     2
  9
$REALWORLDSCALE
290
     1
  9
$INTERFERECOLOR
 62
   256
  9
$CSHADOW
280
     0
  9
$SHADOWPLANELOCATION
 40
0.0
  0
ENDSEC
  0
SECTION
  2
CLASSES
  0
CLASS
  1
ACDBDICTIONARYWDFLT
  2
AcDbDictionaryWithDefault
  3
ObjectDBX Classes
 90
        0
 91
        4
280
     0
281
     0
  0
CLASS
  1
VISUALSTYLE
  2
AcDbVisualStyle
  3
ObjectDBX Classes
 90
     4095
 91
        4
280
     0
281
     0
  0
CLASS
  1
MATERIAL
  2
AcDbMaterial
  3
ObjectDBX Classes
 90
     1153
 91
        4
280
     0
281
     0
  0
CLASS
  1
SUN
  2
AcDbSun
  3
SCENEOE
 90
     1024
 91
        4
280
     0
281
     0
  0
ENDSEC
  0
SECTION
  2
TABLES
  0
TABLE
  2
VPORT
  5
8
330
0
100
AcDbSymbolTable
 70
     1
  0
VPORT
  5
29
330
8
100
AcDbSymbolTableRecord
100
AcDbViewportTableRecord
  2
*Active
 70
     0
 10
0.0
 20
0.0
 11
1.0
 21
1.0
 12
0.0
 22
0.0
 13
0.0
 23
0.0
 14
0.5
 24
0.5
 15
0.5
 25
0.5
 16
0.0
 26
0.0
 36
1.0
 17
91.00082462281999
 27
-128.4993055234307
 37
0.0
 40
256.9986110468615
 41
0.7081814508812795
 42
50.0
 43
0.0
 44
0.0
 50
0.0
 51
0.0
 71
     0
 72
   100
 73
     1
 74
     3
 75
     0
 76
     0
 77
     0
 78
     0
281
     0
 65
     1
110
0.0
120
0.0
130
0.0
111
1.0
121
0.0
131
0.0
112
0.0
122
1.0
132
0.0
 79
     0
146
0.0
 60
     3
 61
     5
292
     1
282
     1
141
0.0
142
0.0
 63
   250
361
3F
  0
ENDTAB
  0
TABLE
  2
LTYPE
  5
5
330
0
100
AcDbSymbolTable
 70
     1
  0
LTYPE
  5
14
330
5
100
AcDbSymbolTableRecord
100
AcDbLinetypeTableRecord
  2
ByBlock
 70
     0
  3

 72
    65
 73
     0
 40
0.0
  0
LTYPE
  5
15
330
5
100
AcDbSymbolTableRecord
100
AcDbLinetypeTableRecord
  2
ByLayer
 70
     0
  3

 72
    65
 73
     0
 40
0.0
  0
LTYPE
  5
16
330
5
100
AcDbSymbolTableRecord
100
AcDbLinetypeTableRecord
  2
Continuous
 70
     0
  3
Solid line
 72
    65
 73
     0
 40
0.0
  0
ENDTAB
  0
TABLE
  2
LAYER
  5
2
330
0
100
AcDbSymbolTable
 70
     2
  0
LAYER
  5
10
330
2
100
AcDbSymbolTableRecord
100
AcDbLayerTableRecord
  2
0
 70
     0
 62
     7
  6
Continuous
370
    -3
390
F
347
3E
  0
LAYER
  5
40
330
2
100
AcDbSymbolTableRecord
100
AcDbLayerTableRecord
  2
_U+30EC_U+30A4_U+30E4_U+30FC 1
 70
     0
 62
     7
  6
Continuous
370
    -3
390
F
347
3E
  0
ENDTAB
  0
TABLE
  2
STYLE
  5
3
330
0
100
AcDbSymbolTable
 70
     1
  0
STYLE
  5
11
330
3
100
AcDbSymbolTableRecord
100
AcDbTextStyleTableRecord
  2
Standard
 70
     0
 40
0.0
 41
1.0
 50
0.0
 71
     0
 42
0.2
  3
txt
  4

  0
ENDTAB
  0
TABLE
  2
VIEW
  5
6
330
0
100
AcDbSymbolTable
 70
     0
  0
ENDTAB
  0
TABLE
  2
UCS
  5
7
330
0
100
AcDbSymbolTable
 70
     0
  0
ENDTAB
  0
TABLE
  2
APPID
  5
9
330
0
100
AcDbSymbolTable
 70
     1
  0
APPID
  5
12
330
9
100
AcDbSymbolTableRecord
100
AcDbRegAppTableRecord
  2
ACAD
 70
     0
  0
ENDTAB
  0
TABLE
  2
DIMSTYLE
  5
A
330
0
100
AcDbSymbolTable
 70
     1
100
AcDbDimStyleTable
  0
DIMSTYLE
105
27
330
A
100
AcDbSymbolTableRecord
100
AcDbDimStyleTableRecord
  2
Standard
 70
     0
178
     0
340
11
  0
ENDTAB
  0
TABLE
  2
BLOCK_RECORD
  5
1
330
0
100
AcDbSymbolTable
 70
     7
  0
BLOCK_RECORD
  5
1F
330
1
100
AcDbSymbolTableRecord
100
AcDbBlockTableRecord
  2
*Model_Space
340
22
 70
     0
280
     1
281
     0
  0
BLOCK_RECORD
  5
1B
330
1
100
AcDbSymbolTableRecord
100
AcDbBlockTableRecord
  2
*Paper_Space
340
1E
 70
     0
280
     1
281
     0
  0
BLOCK_RECORD
  5
23
330
1
100
AcDbSymbolTableRecord
100
AcDbBlockTableRecord
  2
*Paper_Space0
340
26
 70
     0
280
     1
281
     0
  0
BLOCK_RECORD
  5
41
330
1
100
AcDbSymbolTableRecord
100
AcDbBlockTableRecord
  2
block 2
340
0
102
{BLKREFS
331
42
102
}
 70
     0
280
     1
281
     0
  0
BLOCK_RECORD
  5
93
330
1
100
AcDbSymbolTableRecord
100
AcDbBlockTableRecord
  2
block 3
340
0
102
{BLKREFS
331
94
102
}
 70
     0
280
     1
281
     0
  0
BLOCK_RECORD
  5
A1
330
1
100
AcDbSymbolTableRecord
100
AcDbBlockTableRecord
  2
block 4
340
0
102
{BLKREFS
331
A2
102
}
 70
     0
280
     1
281
     0
  0
BLOCK_RECORD
  5
B3
330
1
100
AcDbSymbolTableRecord
100
AcDbBlockTableRecord
  2
block 5
340
0
102
{BLKREFS
331
B4
102
}
 70
     0
280
     1
281
     0
  0
BLOCK_RECORD
  5
C8
330
1
100
AcDbSymbolTableRecord
100
AcDbBlockTableRecord
  2
block 6
340
0
102
{BLKREFS
331
C9
102
}
 70
     0
280
     1
281
     0
  0
BLOCK_RECORD
  5
D8
330
1
100
AcDbSymbolTableRecord
100
AcDbBlockTableRecord
  2
block 7
340
0
102
{BLKREFS
331
D9
102
}
 70
     0
280
     1
281
     0
  0
ENDTAB
  0
ENDSEC
  0
SECTION
  2
BLOCKS
  0
BLOCK
  5
20
330
1F
100
AcDbEntity
  8
0
100
AcDbBlockBegin
  2
*Model_Space
 70
     0
 10
0.0
 20
0.0
 30
0.0
  3
*Model_Space
  1

  0
ENDBLK
  5
21
330
1F
100
AcDbEntity
  8
0
100
AcDbBlockEnd
  0
BLOCK
  5
1C
330
1B
100
AcDbEntity
 67
     1
  8
0
100
AcDbBlockBegin
  2
*Paper_Space
 70
     0
 10
0.0
 20
0.0
 30
0.0
  3
*Paper_Space
  1

  0
ENDBLK
  5
1D
330
1B
100
AcDbEntity
 67
     1
  8
0
100
AcDbBlockEnd
  0
BLOCK
  5
24
330
23
100
AcDbEntity
  8
0
100
AcDbBlockBegin
  2
*Paper_Space0
 70
     0
 10
0.0
 20
0.0
 30
0.0
  3
*Paper_Space0
  1

  0
ENDBLK
  5
25
330
23
100
AcDbEntity
  8
0
100
AcDbBlockEnd
  0
BLOCK
  5
43
330
41
100
AcDbEntity
  8
0
100
AcDbBlockBegin
  2
block 2
 70
     0
 10
0.0
 20
0.0
 30
0.0
  3
block 2
  1

  0
POLYLINE
  5
45
330
41
100
AcDbEntity
  8
_U+30EC_U+30A4_U+30E4_U+30FC 1
370
     0
100
AcDb2dPolyline
 66
     1
 10
0.0
 20
0.0
 30
0.0
  0
VERTEX
  5
46
330
45
100
AcDbEntity
  8
_U+30EC_U+30A4_U+30E4_U+30FC 1
370
     0
100
AcDbVertex
100
AcDb2dVertex
 10
73.0427428587466
 20
-117.6090202483755
 30
0.0
  0
VERTEX
  5
47
330
45
100
AcDbEntity
  8
_U+30EC_U+30A4_U+30E4_U+30FC 1
370
     0
100
AcDbVertex
100
AcDb2dVertex
 10
73.0427428587466
 20
-141.2478830202433
 30
0.0
  0
VERTEX
  5
48
330
45
100
AcDbEntity
  8
_U+30EC_U+30A4_U+30E4_U+30FC 1
370
     0
100
AcDbVertex
100
AcDb2dVertex
 10
83.20507093281735
 20
-141.2478830202433
 30
0.0
  0
VERTEX
  5
49
330
45
100
AcDbEntity
  8
_U+30EC_U+30A4_U+30E4_U+30FC 1
370
     0
100
AcDbVertex
100
AcDb2dVertex
 10
83.20507093281735
 20
-138.2968263543144
 30
0.0
  0
VERTEX
  5
4A
330
45
100
AcDbEntity
  8
_U+30EC_U+30A4_U+30E4_U+30FC 1
370
     0
100
AcDbVertex
100
AcDb2dVertex
 10
82.08750831281156
 20
-138.2968263543144
 30
0.0
  0
VERTEX
  5
4B
330
45
100
AcDbEntity
  8
_U+30EC_U+30A4_U+30E4_U+30FC 1
370
     0
100
AcDbVertex
100
AcDb2dVertex
 10
82.08750831281156
 20
-140.2371041316071
 30
0.0
  0
VERTEX
  5
4C
330
45
100
AcDbEntity
  8
_U+30EC_U+30A4_U+30E4_U+30FC 1
370
     0
100
AcDbVertex
100
AcDb2dVertex
 10
74.0914100542151
 20
-140.2371041316071
 30
0.0
  0
VERTEX
  5
4D
330
45
100
AcDbEntity
  8
_U+30EC_U+30A4_U+30E4_U+30FC 1
370
     0
100
AcDbVertex
100
AcDb2dVertex
 10
74.0914100542151
 20
-118.5981033036839
 30
0.0
  0
VERTEX
  5
4E
330
45
100
AcDbEntity
  8
_U+30EC_U+30A4_U+30E4_U+30FC 1
370
     0
100
AcDbVertex
100
AcDb2dVertex
 10
98.13907110737482
 20
-118.5981033036839
 30
0.0
  0
VERTEX
  5
4F
330
45
100
AcDbEntity
  8
_U+30EC_U+30A4_U+30E4_U+30FC 1
370
     0
100
AcDbVertex
100
AcDb2dVertex
 10
98.13907110737482
 20
-117.6572449705857
 30
0.0
  0
VERTEX
  5
50
330
45
100
AcDbEntity
  8
_U+30EC_U+30A4_U+30E4_U+30FC 1
370
     0
100
AcDbVertex
100
AcDb2dVertex
 10
73.0427428587466
 20
-117.6090202483755
 30
0.0
  0
SEQEND
  5
52
330
45
100
AcDbEntity
  8
_U+30EC_U+30A4_U+30E4_U+30FC 1
370
     0
  0
HATCH
  5
51
330
41
100
AcDbEntity
  8
_U+30EC_U+30A4_U+30E4_U+30FC 1
 62
     9
420
 13224394
100
AcDbHatch
 10
0.0
 20
0.0
 30
0.0
210
0.0
220
0.0
230
1.0
  2
SOLID
 70
     1
 71
     0
 91
        1
 92
        1
 93
       10
 72
     1
 10
73.0427428587466
 20
-117.6090202483755
 11
73.0427428587466
 21
-141.2478830202433
 72
     1
 10
73.0427428587466
 20
-141.2478830202433
 11
83.20507093281735
 21
-141.2478830202433
 72
     1
 10
83.20507093281735
 20
-141.2478830202433
 11
83.20507093281735
 21
-138.2968263543144
 72
     1
 10
83.20507093281735
 20
-138.2968263543144
 11
82.08750831281156
 21
-138.2968263543144
 72
     1
 10
82.08750831281156
 20
-138.2968263543144
 11
82.08750831281156
 21
-140.2371041316071
 72
     1
 10
82.08750831281156
 20
-140.2371041316071
 11
74.0914100542151
 21
-140.2371041316071
 72
     1
 10
74.0914100542151
 20
-140.2371041316071
 11
74.0914100542151
 21
-118.5981033036839
 72
     1
 10
74.0914100542151
 20
-118.5981033036839
 11
98.13907110737482
 21
-118.5981033036839
 72
     1
 10
98.13907110737482
 20
-118.5981033036839
 11
98.13907110737482
 21
-117.6572449705857
 72
     1
 10
98.13907110737482
 20
-117.6572449705857
 11
73.0427428587466
 21
-117.6090202483755
 97
        0
 75
     2
 76
     1
 98
        0
  0
POLYLINE
  5
53
330
41
100
AcDbEntity
  8
_U+30EC_U+30A4_U+30E4_U+30FC 1
 62
   179
420
  2234388
370
    25
100
AcDb2dPolyline
 66
     1
 10
0.0
 20
0.0
 30
0.0
  0
VERTEX
  5
54
330
53
100
AcDbEntity
  8
_U+30EC_U+30A4_U+30E4_U+30FC 1
 62
   179
420
  2234388
370
    25
100
AcDbVertex
100
AcDb2dVertex
 10
73.09992813506547
 20
-117.624189692816
 30
0.0
  0
VERTEX
  5
55
330
53
100
AcDbEntity
  8
_U+30EC_U+30A4_U+30E4_U+30FC 1
 62
   179
420
  2234388
370
    25
100
AcDbVertex
100
AcDb2dVertex
 10
98.09977166393298
 20
-117.624189692816
 30
0.0
  0
SEQEND
  5
56
330
53
100
AcDbEntity
  8
_U+30EC_U+30A4_U+30E4_U+30FC 1
 62
   179
420
  2234388
370
    25
  0
POLYLINE
  5
57
330
41
100
AcDbEntity
  8
_U+30EC_U+30A4_U+30E4_U+30FC 1
 62
   179
420
  2234388
370
    25
100
AcDb2dPolyline
 66
     1
 10
0.0
 20
0.0
 30
0.0
  0
VERTEX
  5
58
330
57
100
AcDbEntity
  8
_U+30EC_U+30A4_U+30E4_U+30FC 1
 62
   179
420
  2234388
370
    25
100
AcDbVertex
100
AcDb2dVertex
 10
73.09992813506547
 20
-117.624189692816
 30
0.0
  0
VERTEX
  5
59
330
57
100
AcDbEntity
  8
_U+30EC_U+30A4_U+30E4_U+30FC 1
 62
   179
420
  2234388
370
    25
100
AcDbVertex
100
AcDb2dVertex
 10
73.09992813506547
 20
-141.3581260757713
 30
0.0
  0
SEQEND
  5
5A
330
57
100
AcDbEntity
  8
_U+30EC_U+30A4_U+30E4_U+30FC 1
 62
   179
420
  2234388
370
    25
  0
POLYLINE
  5
5B
330
41
100
AcDbEntity
  8
_U+30EC_U+30A4_U+30E4_U+30FC 1
 62
   179
420
  2234388
370
    25
100
AcDb2dPolyline
 66
     1
 10
0.0
 20
0.0
 30
0.0
  0
VERTEX
  5
5C
330
5B
100
AcDbEntity
  8
_U+30EC_U+30A4_U+30E4_U+30FC 1
 62
   179
420
  2234388
370
    25
100
AcDbVertex
100
AcDb2dVertex
 10
98.09977166393298
 20
-117.624189692816
 30
0.0
  0
VERTEX
  5
5D
330
5B
100
AcDbEntity
  8
_U+30EC_U+30A4_U+30E4_U+30FC 1
 62
   179
420
  2234388
370
    25
100
AcDbVertex
100
AcDb2dVertex
 10
98.09977166393298
 20
-118.6239266370107
 30
0.0
  0
SEQEND
  5
5E
330
5B
100
AcDbEntity
  8
_U+30EC_U+30A4_U+30E4_U+30FC 1
 62
   179
420
  2234388
370
    25
  0
POLYLINE
  5
5F
330
41
100
AcDbEntity
  8
_U+30EC_U+30A4_U+30E4_U+30FC 1
 62
   179
420
  2234388
370
    25
100
AcDb2dPolyline
 66
     1
 10
0.0
 20
0.0
 30
0.0
  0
VERTEX
  5
60
330
5F
100
AcDbEntity
  8
_U+30EC_U+30A4_U+30E4_U+30FC 1
 62
   179
420
  2234388
370
    25
100
AcDbVertex
100
AcDb2dVertex
 10
74.09970033178138
 20
-118.6239266370107
 30
0.0
  0
VERTEX
  5
61
330
5F
100
AcDbEntity
  8
_U+30EC_U+30A4_U+30E4_U+30FC 1
 62
   179
420
  2234388
370
    25
100
AcDbVertex
100
AcDb2dVertex
 10
98.09977166393298
 20
-118.6239266370107
 30
0.0
  0
SEQEND
  5
62
330
5F
100
AcDbEntity
  8
_U+30EC_U+30A4_U+30E4_U+30FC 1
 62
   179
420
  2234388
370
    25
  0
POLYLINE
  5
63
330
41
100
AcDbEntity
  8
_U+30EC_U+30A4_U+30E4_U+30FC 1
 62
   179
420
  2234388
370
    25
100
AcDb2dPolyline
 66
     1
 10
0.0
 20
0.0
 30
0.0
  0
VERTEX
  5
64
330
63
100
AcDbEntity
  8
_U+30EC_U+30A4_U+30E4_U+30FC 1
 62
   179
420
  2234388
370
    25
100
AcDbVertex
100
AcDb2dVertex
 10
83.09966093550658
 20
-138.2699446876546
 30
0.0
  0
VERTEX
  5
65
330
63
100
AcDbEntity
  8
_U+30EC_U+30A4_U+30E4_U+30FC 1
 62
   179
420
  2234388
370
    25
100
AcDbVertex
100
AcDb2dVertex
 10
83.09966093550658
 20
-141.269931631349
 30
0.0
  0
SEQEND
  5
66
330
63
100
AcDbEntity
  8
_U+30EC_U+30A4_U+30E4_U+30FC 1
 62
   179
420
  2234388
370
    25
  0
POLYLINE
  5
67
330
41
100
AcDbEntity
  8
_U+30EC_U+30A4_U+30E4_U+30FC 1
 62
   179
420
  2234388
370
    25
100
AcDb2dPolyline
 66
     1
 10
0.0
 20
0.0
 30
0.0
  0
VERTEX
  5
68
330
67
100
AcDbEntity
  8
_U+30EC_U+30A4_U+30E4_U+30FC 1
 62
   179
420
  2234388
370
    25
100
AcDbVertex
100
AcDb2dVertex
 10
82.09988873879067
 20
-138.2699446876546
 30
0.0
  0
VERTEX
  5
69
330
67
100
AcDbEntity
  8
_U+30EC_U+30A4_U+30E4_U+30FC 1
 62
   179
420
  2234388
370
    25
100
AcDbVertex
100
AcDb2dVertex
 10
82.09988873879067
 20
-140.269489131599
 30
0.0
  0
SEQEND
  5
6A
330
67
100
AcDbEntity
  8
_U+30EC_U+30A4_U+30E4_U+30FC 1
 62
   179
420
  2234388
370
    25
  0
POLYLINE
  5
6B
330
41
100
AcDbEntity
  8
_U+30EC_U+30A4_U+30E4_U+30FC 1
 62
   179
420
  2234388
370
    25
100
AcDb2dPolyline
 66
     1
 10
0.0
 20
0.0
 30
0.0
  0
VERTEX
  5
6C
330
6B
100
AcDbEntity
  8
_U+30EC_U+30A4_U+30E4_U+30FC 1
 62
   179
420
  2234388
370
    25
100
AcDbVertex
100
AcDb2dVertex
 10
74.09970033178138
 20
-118.6239266370107
 30
0.0
  0
VERTEX
  5
6D
330
6B
100
AcDbEntity
  8
_U+30EC_U+30A4_U+30E4_U+30FC 1
 62
   179
420
  2234388
370
    25
100
AcDbVertex
100
AcDb2dVertex
 10
74.09970033178138
 20
-140.269489131599
 30
0.0
  0
SEQEND
  5
6E
330
6B
100
AcDbEntity
  8
_U+30EC_U+30A4_U+30E4_U+30FC 1
 62
   179
420
  2234388
370
    25
  0
POLYLINE
  5
6F
330
41
100
AcDbEntity
  8
_U+30EC_U+30A4_U+30E4_U+30FC 1
 62
   179
420
  2234388
370
    25
100
AcDb2dPolyline
 66
     1
 10
0.0
 20
0.0
 30
0.0
  0
VERTEX
  5
70
330
6F
100
AcDbEntity
  8
_U+30EC_U+30A4_U+30E4_U+30FC 1
 62
   179
420
  2234388
370
    25
100
AcDbVertex
100
AcDb2dVertex
 10
82.09988873879067
 20
-138.2699446876546
 30
0.0
  0
VERTEX
  5
71
330
6F
100
AcDbEntity
  8
_U+30EC_U+30A4_U+30E4_U+30FC 1
 62
   179
420
  2234388
370
    25
100
AcDbVertex
100
AcDb2dVertex
 10
83.09966093550658
 20
-138.2699446876546
 30
0.0
  0
SEQEND
  5
72
330
6F
100
AcDbEntity
  8
_U+30EC_U+30A4_U+30E4_U+30FC 1
 62
   179
420
  2234388
370
    25
  0
POLYLINE
  5
73
330
41
100
AcDbEntity
  8
_U+30EC_U+30A4_U+30E4_U+30FC 1
 62
   179
420
  2234388
370
    25
100
AcDb2dPolyline
 66
     1
 10
0.0
 20
0.0
 30
0.0
  0
VERTEX
  5
74
330
73
100
AcDbEntity
  8
_U+30EC_U+30A4_U+30E4_U+30FC 1
 62
   179
420
  2234388
370
    25
100
AcDbVertex
100
AcDb2dVertex
 10
73.09992813506547
 20
-141.3581260757713
 30
0.0
  0
VERTEX
  5
75
330
73
100
AcDbEntity
  8
_U+30EC_U+30A4_U+30E4_U+30FC 1
 62
   179
420
  2234388
370
    25
100
AcDbVertex
100
AcDb2dVertex
 10
83.09966093550658
 20
-141.3581260757713
 30
0.0
  0
SEQEND
  5
76
330
73
100
AcDbEntity
  8
_U+30EC_U+30A4_U+30E4_U+30FC 1
 62
   179
420
  2234388
370
    25
  0
POLYLINE
  5
77
330
41
100
AcDbEntity
  8
_U+30EC_U+30A4_U+30E4_U+30FC 1
 62
   179
420
  2234388
370
    25
100
AcDb2dPolyline
 66
     1
 10
0.0
 20
0.0
 30
0.0
  0
VERTEX
  5
78
330
77
100
AcDbEntity
  8
_U+30EC_U+30A4_U+30E4_U+30FC 1
 62
   179
420
  2234388
370
    25
100
AcDbVertex
100
AcDb2dVertex
 10
74.09970033178138
 20
-140.269489131599
 30
0.0
  0
VERTEX
  5
79
330
77
100
AcDbEntity
  8
_U+30EC_U+30A4_U+30E4_U+30FC 1
 62
   179
420
  2234388
370
    25
100
AcDbVertex
100
AcDb2dVertex
 10
82.09988873879067
 20
-140.269489131599
 30
0.0
  0
SEQEND
  5
7A
330
77
100
AcDbEntity
  8
_U+30EC_U+30A4_U+30E4_U+30FC 1
 62
   179
420
  2234388
370
    25
  0
SPLINE
  5
7B
330
41
100
AcDbEntity
  8
_U+30EC_U+30A4_U+30E4_U+30FC 1
 62
   179
420
  2234388
370
     9
100
AcDbSpline
210
0.0
220
0.0
230
1.0
 70
    11
 71
     3
 72
    17
 73
    13
 74
     0
 42
0.0000000001
 43
0.0000000001
 12
1.0
 22
0.0
 32
0.0
 13
1.0
 23
0.0
 33
0.0
 40
0.0
 40
0.0
 40
0.0
 40
0.0
 40
1.0
 40
1.0
 40
1.0
 40
2.0
 40
2.0
 40
2.0
 40
3.0
 40
3.0
 40
3.0
 40
4.0
 40
4.0
 40
4.0
 40
4.0
 10
73.1998347991833
 20
-113.6240777493717
 30
0.0
 10
73.1998347991833
 20
-113.5689385827189
 30
0.0
 10
73.15506730032541
 20
-113.5241710827301
 30
0.0
 10
73.09992813506547
 20
-113.5241710827301
 30
0.0
 10
73.0448242475824
 20
-113.5241710827301
 30
0.0
 10
73.00002147094763
 20
-113.5689385827189
 30
0.0
 10
73.00002147094763
 20
-113.6240777493717
 30
0.0
 10
73.00002147094763
 20
-113.6791816382469
 30
0.0
 10
73.0448242475824
 20
-113.7239844160133
 30
0.0
 10
73.09992813506547
 20
-113.7239844160133
 30
0.0
 10
73.15506730032541
 20
-113.7239844160133
 30
0.0
 10
73.1998347991833
 20
-113.6791816382469
 30
0.0
 10
73.1998347991833
 20
-113.6240777493717
 30
0.0
  0
SPLINE
  5
7C
330
41
100
AcDbEntity
  8
_U+30EC_U+30A4_U+30E4_U+30FC 1
 62
   179
420
  2234388
370
     9
100
AcDbSpline
210
0.0
220
0.0
230
1.0
 70
    11
 71
     3
 72
    17
 73
    13
 74
     0
 42
0.0000000001
 43
0.0000000001
 12
1.0
 22
0.0
 32
0.0
 13
1.0
 23
0.0
 33
0.0
 40
0.0
 40
0.0
 40
0.0
 40
0.0
 40
1.0
 40
1.0
 40
1.0
 40
2.0
 40
2.0
 40
2.0
 40
3.0
 40
3.0
 40
3.0
 40
4.0
 40
4.0
 40
4.0
 40
4.0
 10
98.19967832805082
 20
-113.6240777493717
 30
0.0
 10
98.19967832805082
 20
-113.5689385827189
 30
0.0
 10
98.15491082919294
 20
-113.5241710827301
 30
0.0
 10
98.09977166393298
 20
-113.5241710827301
 30
0.0
 10
98.04466777644991
 20
-113.5241710827301
 30
0.0
 10
97.99986499981514
 20
-113.5689385827189
 30
0.0
 10
97.99986499981514
 20
-113.6240777493717
 30
0.0
 10
97.99986499981514
 20
-113.6791816382469
 30
0.0
 10
98.04466777644991
 20
-113.7239844160133
 30
0.0
 10
98.09977166393298
 20
-113.7239844160133
 30
0.0
 10
98.15491082919294
 20
-113.7239844160133
 30
0.0
 10
98.19967832805082
 20
-113.6791816382469
 30
0.0
 10
98.19967832805082
 20
-113.6240777493717
 30
0.0
  0
SPLINE
  5
7D
330
41
100
AcDbEntity
  8
_U+30EC_U+30A4_U+30E4_U+30FC 1
 62
   179
420
  2234388
370
     9
100
AcDbSpline
210
0.0
220
0.0
230
1.0
 70
    11
 71
     3
 72
    17
 73
    13
 74
     0
 42
0.0000000001
 43
0.0000000001
 12
1.0
 22
0.0
 32
0.0
 13
1.0
 23
0.0
 33
0.0
 40
0.0
 40
0.0
 40
0.0
 40
0.0
 40
1.0
 40
1.0
 40
1.0
 40
2.0
 40
2.0
 40
2.0
 40
3.0
 40
3.0
 40
3.0
 40
4.0
 40
4.0
 40
4.0
 40
4.0
 10
102.2001429482127
 20
-117.624189692816
 30
0.0
 10
102.2001429482127
 20
-117.5686977483855
 30
0.0
 10
102.1553401715779
 20
-117.523930248397
 30
0.0
 10
102.0995333078082
 20
-117.523930248397
 30
0.0
 10
102.0444268410742
 20
-117.523930248397
 30
0.0
 10
101.9996240644395
 20
-117.5686977483855
 30
0.0
 10
101.9996240644395
 20
-117.624189692816
 30
0.0
 10
101.9996240644395
 20
-117.6792935816913
 30
0.0
 10
102.0444268410742
 20
-117.724096359458
 30
0.0
 10
102.0995333078082
 20
-117.724096359458
 30
0.0
 10
102.1553401715779
 20
-117.724096359458
 30
0.0
 10
102.2001429482127
 20
-117.6792935816913
 30
0.0
 10
102.2001429482127
 20
-117.624189692816
 30
0.0
  0
SPLINE
  5
7E
330
41
100
AcDbEntity
  8
_U+30EC_U+30A4_U+30E4_U+30FC 1
 62
   179
420
  2234388
370
     9
100
AcDbSpline
210
0.0
220
0.0
230
1.0
 70
    11
 71
     3
 72
    17
 73
    13
 74
     0
 42
0.0000000001
 43
0.0000000001
 12
1.0
 22
0.0
 32
0.0
 13
1.0
 23
0.0
 33
0.0
 40
0.0
 40
0.0
 40
0.0
 40
0.0
 40
1.0
 40
1.0
 40
1.0
 40
2.0
 40
2.0
 40
2.0
 40
3.0
 40
3.0
 40
3.0
 40
4.0
 40
4.0
 40
4.0
 40
4.0
 10
102.2001429482127
 20
-118.6239266370107
 30
0.0
 10
102.2001429482127
 20
-118.5688227481355
 30
0.0
 10
102.1553401715779
 20
-118.5240199703691
 30
0.0
 10
102.0995333078082
 20
-118.5240199703691
 30
0.0
 10
102.0444268410742
 20
-118.5240199703691
 30
0.0
 10
101.9996240644395
 20
-118.5688227481355
 30
0.0
 10
101.9996240644395
 20
-118.6239266370107
 30
0.0
 10
101.9996240644395
 20
-118.6790658036635
 30
0.0
 10
102.0444268410742
 20
-118.7238333036524
 30
0.0
 10
102.0995333078082
 20
-118.7238333036524
 30
0.0
 10
102.1553401715779
 20
-118.7238333036524
 30
0.0
 10
102.2001429482127
 20
-118.6790658036635
 30
0.0
 10
102.2001429482127
 20
-118.6239266370107
 30
0.0
  0
SPLINE
  5
7F
330
41
100
AcDbEntity
  8
_U+30EC_U+30A4_U+30E4_U+30FC 1
 62
   179
420
  2234388
370
     9
100
AcDbSpline
210
0.0
220
0.0
230
1.0
 70
    11
 71
     3
 72
    17
 73
    13
 74
     0
 42
0.0000000001
 43
0.0000000001
 12
1.0
 22
0.0
 32
0.0
 13
1.0
 23
0.0
 33
0.0
 40
0.0
 40
0.0
 40
0.0
 40
0.0
 40
1.0
 40
1.0
 40
1.0
 40
2.0
 40
2.0
 40
2.0
 40
3.0
 40
3.0
 40
3.0
 40
4.0
 40
4.0
 40
4.0
 40
4.0
 10
102.2001429482127
 20
-138.1817502432322
 30
0.0
 10
102.2001429482127
 20
-138.1266110765798
 30
0.0
 10
102.1553401715779
 20
-138.0818435765906
 30
0.0
 10
102.0995333078082
 20
-138.0818435765906
 30
0.0
 10
102.0444268410742
 20
-138.0818435765906
 30
0.0
 10
101.9996240644395
 20
-138.1266110765798
 30
0.0
 10
101.9996240644395
 20
-138.1817502432322
 30
0.0
 10
101.9996240644395
 20
-138.2368541321078
 30
0.0
 10
102.0444268410742
 20
-138.2816569098738
 30
0.0
 10
102.0995333078082
 20
-138.2816569098738
 30
0.0
 10
102.1553401715779
 20
-138.2816569098738
 30
0.0
 10
102.2001429482127
 20
-138.2368541321078
 30
0.0
 10
102.2001429482127
 20
-138.1817502432322
 30
0.0
  0
SPLINE
  5
80
330
41
100
AcDbEntity
  8
_U+30EC_U+30A4_U+30E4_U+30FC 1
 62
   179
420
  2234388
370
     9
100
AcDbSpline
210
0.0
220
0.0
230
1.0
 70
    11
 71
     3
 72
    17
 73
    13
 74
     0
 42
0.0000000001
 43
0.0000000001
 12
1.0
 22
0.0
 32
0.0
 13
1.0
 23
0.0
 33
0.0
 40
0.0
 40
0.0
 40
0.0
 40
0.0
 40
1.0
 40
1.0
 40
1.0
 40
2.0
 40
2.0
 40
2.0
 40
3.0
 40
3.0
 40
3.0
 40
4.0
 40
4.0
 40
4.0
 40
4.0
 10
102.2001429482127
 20
-141.1817371869265
 30
0.0
 10
102.2001429482127
 20
-141.1265980202741
 30
0.0
 10
102.1553401715779
 20
-141.0818305202849
 30
0.0
 10
102.0995333078082
 20
-141.0818305202849
 30
0.0
 10
102.0444268410742
 20
-141.0818305202849
 30
0.0
 10
101.9996240644395
 20
-141.1265980202741
 30
0.0
 10
101.9996240644395
 20
-141.1817371869265
 30
0.0
 10
101.9996240644395
 20
-141.2368410758021
 30
0.0
 10
102.0444268410742
 20
-141.2816438535682
 30
0.0
 10
102.0995333078082
 20
-141.2816438535682
 30
0.0
 10
102.1553401715779
 20
-141.2816438535682
 30
0.0
 10
102.2001429482127
 20
-141.2368410758021
 30
0.0
 10
102.2001429482127
 20
-141.1817371869265
 30
0.0
  0
SPLINE
  5
81
330
41
100
AcDbEntity
  8
_U+30EC_U+30A4_U+30E4_U+30FC 1
 62
   179
420
  2234388
370
     9
100
AcDbSpline
210
0.0
220
0.0
230
1.0
 70
    11
 71
     3
 72
    17
 73
    13
 74
     0
 42
0.0000000001
 43
0.0000000001
 12
1.0
 22
0.0
 32
0.0
 13
1.0
 23
0.0
 33
0.0
 40
0.0
 40
0.0
 40
0.0
 40
0.0
 40
1.0
 40
1.0
 40
1.0
 40
2.0
 40
2.0
 40
2.0
 40
3.0
 40
3.0
 40
3.0
 40
4.0
 40
4.0
 40
4.0
 40
4.0
 10
83.19956759962442
 20
-146.3283769078623
 30
0.0
 10
83.19956759962442
 20
-146.2725674634319
 30
0.0
 10
83.15480010076654
 20
-146.2277646856652
 30
0.0
 10
83.09966093550658
 20
-146.2277646856652
 30
0.0
 10
83.0445570480235
 20
-146.2277646856652
 30
0.0
 10
82.99975427138875
 20
-146.2725674634319
 30
0.0
 10
82.99975427138875
 20
-146.3283769078623
 30
0.0
 10
82.99975427138875
 20
-146.3834807967373
 30
0.0
 10
83.0445570480235
 20
-146.428283574504
 30
0.0
 10
83.09966093550658
 20
-146.428283574504
 30
0.0
 10
83.15480010076654
 20
-146.428283574504
 30
0.0
 10
83.19956759962442
 20
-146.3834807967373
 30
0.0
 10
83.19956759962442
 20
-146.3283769078623
 30
0.0
  0
SPLINE
  5
82
330
41
100
AcDbEntity
  8
_U+30EC_U+30A4_U+30E4_U+30FC 1
 62
   179
420
  2234388
370
     9
100
AcDbSpline
210
0.0
220
0.0
230
1.0
 70
    11
 71
     3
 72
    17
 73
    13
 74
     0
 42
0.0000000001
 43
0.0000000001
 12
1.0
 22
0.0
 32
0.0
 13
1.0
 23
0.0
 33
0.0
 40
0.0
 40
0.0
 40
0.0
 40
0.0
 40
1.0
 40
1.0
 40
1.0
 40
2.0
 40
2.0
 40
2.0
 40
3.0
 40
3.0
 40
3.0
 40
4.0
 40
4.0
 40
4.0
 40
4.0
 10
73.1998347991833
 20
-146.3283769078623
 30
0.0
 10
73.1998347991833
 20
-146.2725674634319
 30
0.0
 10
73.15506730032541
 20
-146.2277646856652
 30
0.0
 10
73.09992813506547
 20
-146.2277646856652
 30
0.0
 10
73.0448242475824
 20
-146.2277646856652
 30
0.0
 10
73.00002147094763
 20
-146.2725674634319
 30
0.0
 10
73.00002147094763
 20
-146.3283769078623
 30
0.0
 10
73.00002147094763
 20
-146.3834807967373
 30
0.0
 10
73.0448242475824
 20
-146.428283574504
 30
0.0
 10
73.09992813506547
 20
-146.428283574504
 30
0.0
 10
73.15506730032541
 20
-146.428283574504
 30
0.0
 10
73.1998347991833
 20
-146.3834807967373
 30
0.0
 10
73.1998347991833
 20
-146.3283769078623
 30
0.0
  0
POLYLINE
  5
83
330
41
100
AcDbEntity
  8
_U+30EC_U+30A4_U+30E4_U+30FC 1
 62
   179
420
  2234388
370
     9
100
AcDb2dPolyline
 66
     1
 10
0.0
 20
0.0
 30
0.0
  0
VERTEX
  5
84
330
83
100
AcDbEntity
  8
_U+30EC_U+30A4_U+30E4_U+30FC 1
 62
   179
420
  2234388
370
     9
100
AcDbVertex
100
AcDb2dVertex
 10
102.0995333078082
 20
-117.624189692816
 30
0.0
  0
VERTEX
  5
85
330
83
100
AcDbEntity
  8
_U+30EC_U+30A4_U+30E4_U+30FC 1
 62
   179
420
  2234388
370
     9
100
AcDbVertex
100
AcDb2dVertex
 10
102.0995333078082
 20
-113.8535244159812
 30
0.0
  0
SEQEND
  5
86
330
83
100
AcDbEntity
  8
_U+30EC_U+30A4_U+30E4_U+30FC 1
 62
   179
420
  2234388
370
     9
  0
POLYLINE
  5
87
330
41
100
AcDbEntity
  8
_U+30EC_U+30A4_U+30E4_U+30FC 1
 62
   179
420
  2234388
370
     9
100
AcDb2dPolyline
 66
     1
 10
0.0
 20
0.0
 30
0.0
  0
VERTEX
  5
88
330
87
100
AcDbEntity
  8
_U+30EC_U+30A4_U+30E4_U+30FC 1
 62
   179
420
  2234388
370
     9
100
AcDbVertex
100
AcDb2dVertex
 10
102.0995333078082
 20
-117.624189692816
 30
0.0
  0
VERTEX
  5
89
330
87
100
AcDbEntity
  8
_U+30EC_U+30A4_U+30E4_U+30FC 1
 62
   179
420
  2234388
370
     9
100
AcDbVertex
100
AcDb2dVertex
 10
102.0995333078082
 20
-118.6239266370107
 30
0.0
  0
SEQEND
  5
8A
330
87
100
AcDbEntity
  8
_U+30EC_U+30A4_U+30E4_U+30FC 1
 62
   179
420
  2234388
370
     9
  0
POLYLINE
  5
8B
330
41
100
AcDbEntity
  8
_U+30EC_U+30A4_U+30E4_U+30FC 1
 62
   179
420
  2234388
370
     9
100
AcDb2dPolyline
 66
     1
 10
0.0
 20
0.0
 30
0.0
  0
VERTEX
  5
8C
330
8B
100
AcDbEntity
  8
_U+30EC_U+30A4_U+30E4_U+30FC 1
 62
   179
420
  2234388
370
     9
100
AcDbVertex
100
AcDb2dVertex
 10
100.6394893769172
 20
-117.624189692816
 30
0.0
  0
VERTEX
  5
8D
330
8B
100
AcDbEntity
  8
_U+30EC_U+30A4_U+30E4_U+30FC 1
 62
   179
420
  2234388
370
     9
100
AcDbVertex
100
AcDb2dVertex
 10
103.1000110853363
 20
-117.624189692816
 30
0.0
  0
SEQEND
  5
8E
330
8B
100
AcDbEntity
  8
_U+30EC_U+30A4_U+30E4_U+30FC 1
 62
   179
420
  2234388
370
     9
  0
POLYLINE
  5
8F
330
41
100
AcDbEntity
  8
_U+30EC_U+30A4_U+30E4_U+30FC 1
 62
   179
420
  2234388
370
     9
100
AcDb2dPolyline
 66
     1
 10
0.0
 20
0.0
 30
0.0
  0
VERTEX
  5
90
330
8F
100
AcDbEntity
  8
_U+30EC_U+30A4_U+30E4_U+30FC 1
 62
   179
420
  2234388
370
     9
100
AcDbVertex
100
AcDb2dVertex
 10
100.6394893769172
 20
-118.6239266370107
 30
0.0
  0
VERTEX
  5
91
330
8F
100
AcDbEntity
  8
_U+30EC_U+30A4_U+30E4_U+30FC 1
 62
   179
420
  2234388
370
     9
100
AcDbVertex
100
AcDb2dVertex
 10
103.1000110853363
 20
-118.6239266370107
 30
0.0
  0
SEQEND
  5
92
330
8F
100
AcDbEntity
  8
_U+30EC_U+30A4_U+30E4_U+30FC 1
 62
   179
420
  2234388
370
     9
  0
INSERT
  5
94
330
41
100
AcDbEntity
  8
_U+30EC_U+30A4_U+30E4_U+30FC 1
100
AcDbBlockReference
  2
block 3
 10
0.0
 20
0.0
 30
0.0
  0
POLYLINE
  5
99
330
41
100
AcDbEntity
  8
_U+30EC_U+30A4_U+30E4_U+30FC 1
 62
   179
420
  2234388
370
     9
100
AcDb2dPolyline
 66
     1
 10
0.0
 20
0.0
 30
0.0
  0
VERTEX
  5
9A
330
99
100
AcDbEntity
  8
_U+30EC_U+30A4_U+30E4_U+30FC 1
 62
   179
420
  2234388
370
     9
100
AcDbVertex
100
AcDb2dVertex
 10
102.0995333078082
 20
-138.1817502432322
 30
0.0
  0
VERTEX
  5
9B
330
99
100
AcDbEntity
  8
_U+30EC_U+30A4_U+30E4_U+30FC 1
 62
   179
420
  2234388
370
     9
100
AcDbVertex
100
AcDb2dVertex
 10
102.0995333078082
 20
-141.1817371869265
 30
0.0
  0
SEQEND
  5
9C
330
99
100
AcDbEntity
  8
_U+30EC_U+30A4_U+30E4_U+30FC 1
 62
   179
420
  2234388
370
     9
  0
POLYLINE
  5
9D
330
41
100
AcDbEntity
  8
_U+30EC_U+30A4_U+30E4_U+30FC 1
 62
   179
420
  2234388
370
     9
100
AcDb2dPolyline
 66
     1
 10
0.0
 20
0.0
 30
0.0
  0
VERTEX
  5
9E
330
9D
100
AcDbEntity
  8
_U+30EC_U+30A4_U+30E4_U+30FC 1
 62
   179
420
  2234388
370
     9
100
AcDbVertex
100
AcDb2dVertex
 10
85.63973142625954
 20
-141.1817371869265
 30
0.0
  0
VERTEX
  5
9F
330
9D
100
AcDbEntity
  8
_U+30EC_U+30A4_U+30E4_U+30FC 1
 62
   179
420
  2234388
370
     9
100
AcDbVertex
100
AcDb2dVertex
 10
103.1000110853363
 20
-141.1817371869265
 30
0.0
  0
SEQEND
  5
A0
330
9D
100
AcDbEntity
  8
_U+30EC_U+30A4_U+30E4_U+30FC 1
 62
   179
420
  2234388
370
     9
  0
INSERT
  5
A2
330
41
100
AcDbEntity
  8
_U+30EC_U+30A4_U+30E4_U+30FC 1
100
AcDbBlockReference
  2
block 4
 10
0.0
 20
0.0
 30
0.0
  0
POLYLINE
  5
A7
330
41
100
AcDbEntity
  8
_U+30EC_U+30A4_U+30E4_U+30FC 1
 62
   179
420
  2234388
370
     9
100
AcDb2dPolyline
 66
     1
 10
0.0
 20
0.0
 30
0.0
  0
VERTEX
  5
A8
330
A7
100
AcDbEntity
  8
_U+30EC_U+30A4_U+30E4_U+30FC 1
 62
   179
420
  2234388
370
     9
100
AcDbVertex
100
AcDb2dVertex
 10
73.09992813506547
 20
-146.3283769078623
 30
0.0
  0
VERTEX
  5
A9
330
A7
100
AcDbEntity
  8
_U+30EC_U+30A4_U+30E4_U+30FC 1
 62
   179
420
  2234388
370
     9
100
AcDbVertex
100
AcDb2dVertex
 10
83.09966093550658
 20
-146.3283769078623
 30
0.0
  0
SEQEND
  5
AA
330
A7
100
AcDbEntity
  8
_U+30EC_U+30A4_U+30E4_U+30FC 1
 62
   179
420
  2234388
370
     9
  0
POLYLINE
  5
AB
330
41
100
AcDbEntity
  8
_U+30EC_U+30A4_U+30E4_U+30FC 1
 62
   179
420
  2234388
370
     9
100
AcDb2dPolyline
 66
     1
 10
0.0
 20
0.0
 30
0.0
  0
VERTEX
  5
AC
330
AB
100
AcDbEntity
  8
_U+30EC_U+30A4_U+30E4_U+30FC 1
 62
   179
420
  2234388
370
     9
100
AcDbVertex
100
AcDb2dVertex
 10
73.09992813506547
 20
-144.8683355193386
 30
0.0
  0
VERTEX
  5
AD
330
AB
100
AcDbEntity
  8
_U+30EC_U+30A4_U+30E4_U+30FC 1
 62
   179
420
  2234388
370
     9
100
AcDbVertex
100
AcDb2dVertex
 10
73.09992813506547
 20
-147.3281138520567
 30
0.0
  0
SEQEND
  5
AE
330
AB
100
AcDbEntity
  8
_U+30EC_U+30A4_U+30E4_U+30FC 1
 62
   179
420
  2234388
370
     9
  0
POLYLINE
  5
AF
330
41
100
AcDbEntity
  8
_U+30EC_U+30A4_U+30E4_U+30FC 1
 62
   179
420
  2234388
370
     9
100
AcDb2dPolyline
 66
     1
 10
0.0
 20
0.0
 30
0.0
  0
VERTEX
  5
B0
330
AF
100
AcDbEntity
  8
_U+30EC_U+30A4_U+30E4_U+30FC 1
 62
   179
420
  2234388
370
     9
100
AcDbVertex
100
AcDb2dVertex
 10
83.09966093550658
 20
-144.8683355193386
 30
0.0
  0
VERTEX
  5
B1
330
AF
100
AcDbEntity
  8
_U+30EC_U+30A4_U+30E4_U+30FC 1
 62
   179
420
  2234388
370
     9
100
AcDbVertex
100
AcDb2dVertex
 10
83.09966093550658
 20
-147.3281138520567
 30
0.0
  0
SEQEND
  5
B2
330
AF
100
AcDbEntity
  8
_U+30EC_U+30A4_U+30E4_U+30FC 1
 62
   179
420
  2234388
370
     9
  0
INSERT
  5
B4
330
41
100
AcDbEntity
  8
_U+30EC_U+30A4_U+30E4_U+30FC 1
100
AcDbBlockReference
  2
block 5
 10
0.0
 20
0.0
 30
0.0
  0
POLYLINE
  5
BC
330
41
100
AcDbEntity
  8
_U+30EC_U+30A4_U+30E4_U+30FC 1
 62
   179
420
  2234388
370
     9
100
AcDb2dPolyline
 66
     1
 10
0.0
 20
0.0
 30
0.0
  0
VERTEX
  5
BD
330
BC
100
AcDbEntity
  8
_U+30EC_U+30A4_U+30E4_U+30FC 1
 62
   179
420
  2234388
370
     9
100
AcDbVertex
100
AcDb2dVertex
 10
73.09992813506547
 20
-113.6240777493717
 30
0.0
  0
VERTEX
  5
BE
330
BC
100
AcDbEntity
  8
_U+30EC_U+30A4_U+30E4_U+30FC 1
 62
   179
420
  2234388
370
     9
100
AcDbVertex
100
AcDb2dVertex
 10
98.09977166393298
 20
-113.6240777493717
 30
0.0
  0
SEQEND
  5
BF
330
BC
100
AcDbEntity
  8
_U+30EC_U+30A4_U+30E4_U+30FC 1
 62
   179
420
  2234388
370
     9
  0
POLYLINE
  5
C0
330
41
100
AcDbEntity
  8
_U+30EC_U+30A4_U+30E4_U+30FC 1
 62
   179
420
  2234388
370
     9
100
AcDb2dPolyline
 66
     1
 10
0.0
 20
0.0
 30
0.0
  0
VERTEX
  5
C1
330
C0
100
AcDbEntity
  8
_U+30EC_U+30A4_U+30E4_U+30FC 1
 62
   179
420
  2234388
370
     9
100
AcDbVertex
100
AcDb2dVertex
 10
73.09992813506547
 20
-115.083766360118
 30
0.0
  0
VERTEX
  5
C2
330
C0
100
AcDbEntity
  8
_U+30EC_U+30A4_U+30E4_U+30FC 1
 62
   179
420
  2234388
370
     9
100
AcDbVertex
100
AcDb2dVertex
 10
73.09992813506547
 20
-112.6239527496217
 30
0.0
  0
SEQEND
  5
C3
330
C0
100
AcDbEntity
  8
_U+30EC_U+30A4_U+30E4_U+30FC 1
 62
   179
420
  2234388
370
     9
  0
POLYLINE
  5
C4
330
41
100
AcDbEntity
  8
_U+30EC_U+30A4_U+30E4_U+30FC 1
 62
   179
420
  2234388
370
     9
100
AcDb2dPolyline
 66
     1
 10
0.0
 20
0.0
 30
0.0
  0
VERTEX
  5
C5
330
C4
100
AcDbEntity
  8
_U+30EC_U+30A4_U+30E4_U+30FC 1
 62
   179
420
  2234388
370
     9
100
AcDbVertex
100
AcDb2dVertex
 10
98.09977166393298
 20
-115.083766360118
 30
0.0
  0
VERTEX
  5
C6
330
C4
100
AcDbEntity
  8
_U+30EC_U+30A4_U+30E4_U+30FC 1
 62
   179
420
  2234388
370
     9
100
AcDbVertex
100
AcDb2dVertex
 10
98.09977166393298
 20
-112.6239527496217
 30
0.0
  0
SEQEND
  5
C7
330
C4
100
AcDbEntity
  8
_U+30EC_U+30A4_U+30E4_U+30FC 1
 62
   179
420
  2234388
370
     9
  0
INSERT
  5
C9
330
41
100
AcDbEntity
  8
_U+30EC_U+30A4_U+30E4_U+30FC 1
100
AcDbBlockReference
  2
block 6
 10
0.0
 20
0.0
 30
0.0
  0
POLYLINE
  5
D0
330
41
100
AcDbEntity
  8
_U+30EC_U+30A4_U+30E4_U+30FC 1
 62
   179
420
  2234388
370
     9
100
AcDb2dPolyline
 66
     1
 10
0.0
 20
0.0
 30
0.0
  0
VERTEX
  5
D1
330
D0
100
AcDbEntity
  8
_U+30EC_U+30A4_U+30E4_U+30FC 1
 62
   179
420
  2234388
370
     9
100
AcDbVertex
100
AcDb2dVertex
 10
102.0995333078082
 20
-138.1238594099134
 30
0.0
  0
VERTEX
  5
D2
330
D0
100
AcDbEntity
  8
_U+30EC_U+30A4_U+30E4_U+30FC 1
 62
   179
420
  2234388
370
     9
100
AcDbVertex
100
AcDb2dVertex
 10
102.0995333078082
 20
-118.6239266370107
 30
0.0
  0
SEQEND
  5
D3
330
D0
100
AcDbEntity
  8
_U+30EC_U+30A4_U+30E4_U+30FC 1
 62
   179
420
  2234388
370
     9
  0
POLYLINE
  5
D4
330
41
100
AcDbEntity
  8
_U+30EC_U+30A4_U+30E4_U+30FC 1
 62
   179
420
  2234388
370
     9
100
AcDb2dPolyline
 66
     1
 10
0.0
 20
0.0
 30
0.0
  0
VERTEX
  5
D5
330
D4
100
AcDbEntity
  8
_U+30EC_U+30A4_U+30E4_U+30FC 1
 62
   179
420
  2234388
370
     9
100
AcDbVertex
100
AcDb2dVertex
 10
85.63973142625954
 20
-138.1817502432322
 30
0.0
  0
VERTEX
  5
D6
330
D4
100
AcDbEntity
  8
_U+30EC_U+30A4_U+30E4_U+30FC 1
 62
   179
420
  2234388
370
     9
100
AcDbVertex
100
AcDb2dVertex
 10
103.1000110853363
 20
-138.1817502432322
 30
0.0
  0
SEQEND
  5
D7
330
D4
100
AcDbEntity
  8
_U+30EC_U+30A4_U+30E4_U+30FC 1
 62
   179
420
  2234388
370
     9
  0
INSERT
  5
D9
330
41
100
AcDbEntity
  8
_U+30EC_U+30A4_U+30E4_U+30FC 1
100
AcDbBlockReference
  2
block 7
 10
0.0
 20
0.0
 30
0.0
  0
ENDBLK
  5
44
330
41
100
AcDbEntity
  8
0
100
AcDbBlockEnd
  0
BLOCK
  5
95
330
93
100
AcDbEntity
  8
0
100
AcDbBlockBegin
  2
block 3
 70
     0
 10
0.0
 20
0.0
 30
0.0
  3
block 3
  1

  0
SPLINE
  5
97
330
93
100
AcDbEntity
  8
_U+30EC_U+30A4_U+30E4_U+30FC 1
370
     0
100
AcDbSpline
210
0.0
220
0.0
230
1.0
 70
    11
 71
     3
 72
    26
 73
    22
 74
     0
 42
0.0000000001
 43
0.0000000001
 12
1.0
 22
0.0
 32
0.0
 13
1.0
 23
0.0
 33
0.0
 40
0.0
 40
0.0
 40
0.0
 40
0.0
 40
1.0
 40
1.0
 40
1.0
 40
2.0
 40
2.0
 40
2.0
 40
3.0
 40
3.0
 40
3.0
 40
4.0
 40
4.0
 40
4.0
 40
5.0
 40
5.0
 40
5.0
 40
6.0
 40
6.0
 40
6.0
 40
7.0
 40
7.0
 40
7.0
 40
7.0
 10
106.3928168136796
 20
-118.2012260989219
 30
0.0
 10
106.3928168136796
 20
-118.2012260989219
 30
0.0
 10
105.288663710657
 20
-118.2012260989219
 30
0.0
 10
105.288663710657
 20
-118.2012260989219
 30
0.0
 10
105.288663710657
 20
-118.2012260989219
 30
0.0
 10
105.288663710657
 20
-118.5312662464089
 30
0.0
 10
105.288663710657
 20
-118.5312662464089
 30
0.0
 10
105.288663710657
 20
-118.5312662464089
 30
0.0
 10
105.1405246047913
 20
-118.5312662464089
 30
0.0
 10
105.1405246047913
 20
-118.5312662464089
 30
0.0
 10
105.1257106942047
 20
-118.1991590416308
 30
0.0
 10
104.9627576777524
 20
-118.1526502525799
 30
0.0
 10
104.8483805076421
 20
-118.1230224314068
 30
0.0
 10
104.8483805076421
 20
-118.1230224314068
 30
0.0
 10
104.8483805076421
 20
-117.9769503828322
 30
0.0
 10
104.8483805076421
 20
-117.9769503828322
 30
0.0
 10
104.8483805076421
 20
-117.9769503828322
 30
0.0
 10
106.3928168136796
 20
-117.9769503828322
 30
0.0
 10
106.3928168136796
 20
-117.9769503828322
 30
0.0
 10
106.3928168136796
 20
-117.9769503828322
 30
0.0
 10
106.3928168136796
 20
-118.2012260989219
 30
0.0
 10
106.3928168136796
 20
-118.2012260989219
 30
0.0
  0
HATCH
  5
98
330
93
100
AcDbEntity
  8
_U+30EC_U+30A4_U+30E4_U+30FC 1
 62
   179
420
  2234388
100
AcDbHatch
 10
0.0
 20
0.0
 30
0.0
210
0.0
220
0.0
230
1.0
  2
SOLID
 70
     1
 71
     0
 91
        1
 92
        1
 93
        1
 72
     4
 94
        3
 73
     0
 74
     1
 95
       26
 96
       22
 40
0.0
 40
0.0
 40
0.0
 40
0.0
 40
1.0
 40
1.0
 40
1.0
 40
2.0
 40
2.0
 40
2.0
 40
3.0
 40
3.0
 40
3.0
 40
4.0
 40
4.0
 40
4.0
 40
5.0
 40
5.0
 40
5.0
 40
6.0
 40
6.0
 40
6.0
 40
7.0
 40
7.0
 40
7.0
 40
7.0
 10
106.3928168136796
 20
-118.2012260989219
 10
106.3928168136796
 20
-118.2012260989219
 10
105.288663710657
 20
-118.2012260989219
 10
105.288663710657
 20
-118.2012260989219
 10
105.288663710657
 20
-118.2012260989219
 10
105.288663710657
 20
-118.5312662464089
 10
105.288663710657
 20
-118.5312662464089
 10
105.288663710657
 20
-118.5312662464089
 10
105.1405246047913
 20
-118.5312662464089
 10
105.1405246047913
 20
-118.5312662464089
 10
105.1257106942047
 20
-118.1991590416308
 10
104.9627576777524
 20
-118.1526502525799
 10
104.8483805076421
 20
-118.1230224314068
 10
104.8483805076421
 20
-118.1230224314068
 10
104.8483805076421
 20
-117.9769503828322
 10
104.8483805076421
 20
-117.9769503828322
 10
104.8483805076421
 20
-117.9769503828322
 10
106.3928168136796
 20
-117.9769503828322
 10
106.3928168136796
 20
-117.9769503828322
 10
106.3928168136796
 20
-117.9769503828322
 10
106.3928168136796
 20
-118.2012260989219
 10
106.3928168136796
 20
-118.2012260989219
 97
        0
 97
        0
 75
     2
 76
     1
 98
        0
  0
ENDBLK
  5
96
330
93
100
AcDbEntity
  8
0
100
AcDbBlockEnd
  0
BLOCK
  5
A3
330
A1
100
AcDbEntity
  8
0
100
AcDbBlockBegin
  2
block 4
 70
     0
 10
0.0
 20
0.0
 30
0.0
  3
block 4
  1

  0
SPLINE
  5
A5
330
A1
100
AcDbEntity
  8
_U+30EC_U+30A4_U+30E4_U+30FC 1
370
     0
100
AcDbSpline
210
0.0
220
0.0
230
1.0
 70
    11
 71
     3
 72
    62
 73
    58
 74
     0
 42
0.0000000001
 43
0.0000000001
 12
1.0
 22
0.0
 32
0.0
 13
1.0
 23
0.0
 33
0.0
 40
0.0
 40
0.0
 40
0.0
 40
0.0
 40
1.0
 40
1.0
 40
1.0
 40
2.0
 40
2.0
 40
2.0
 40
3.0
 40
3.0
 40
3.0
 40
4.0
 40
4.0
 40
4.0
 40
5.0
 40
5.0
 40
5.0
 40
6.0
 40
6.0
 40
6.0
 40
7.0
 40
7.0
 40
7.0
 40
8.0
 40
8.0
 40
8.0
 40
9.0
 40
9.0
 40
9.0
 40
10.0
 40
10.0
 40
10.0
 40
11.0
 40
11.0
 40
11.0
 40
12.0
 40
12.0
 40
12.0
 40
13.0
 40
13.0
 40
13.0
 40
14.0
 40
14.0
 40
14.0
 40
15.0
 40
15.0
 40
15.0
 40
16.0
 40
16.0
 40
16.0
 40
17.0
 40
17.0
 40
17.0
 40
18.0
 40
18.0
 40
18.0
 40
19.0
 40
19.0
 40
19.0
 40
19.0
 10
101.5045708296586
 20
-139.6913872263619
 30
0.0
 10
101.5045708296586
 20
-139.7868163713033
 30
0.0
 10
101.4835557471986
 20
-140.0045464059711
 30
0.0
 10
101.2975205909951
 20
-140.1296033720857
 30
0.0
 10
101.1852104781759
 20
-140.2036729250185
 30
0.0
 10
101.0859917282007
 20
-140.2078070396008
 30
0.0
 10
101.0012423792636
 20
-140.2119411541831
 30
0.0
 10
101.0012423792636
 20
-140.2119411541831
 30
0.0
 10
101.0012423792636
 20
-139.9917995526757
 30
0.0
 10
101.0012423792636
 20
-139.9917995526757
 30
0.0
 10
101.0753119321965
 20
-139.9897324953845
 30
0.0
 10
101.309922934742
 20
-139.9793972089288
 30
0.0
 10
101.309922934742
 20
-139.6958658504927
 30
0.0
 10
101.309922934742
 20
-139.5584065406312
 30
0.0
 10
101.2403320059399
 20
-139.4057888106347
 30
0.0
 10
101.0119221752679
 20
-139.4057888106347
 30
0.0
 10
100.8954779478664
 20
-139.4057888106347
 30
0.0
 10
100.8469021015244
 20
-139.444029370521
 30
0.0
 10
100.8152072230601
 20
-139.4757242489852
 30
0.0
 10
100.7411376701272
 20
-139.5497938019181
 30
0.0
 10
100.7283908168318
 20
-139.6662380293195
 30
0.0
 10
100.7283908168318
 20
-139.721015047535
 30
0.0
 10
100.7283908168318
 20
-139.7403075822524
 30
0.0
 10
100.7304578741229
 20
-139.776136575299
 30
0.0
 10
100.7345919887052
 20
-139.803697339181
 30
0.0
 10
100.7345919887052
 20
-139.803697339181
 30
0.0
 10
100.5399440937886
 20
-139.803697339181
 30
0.0
 10
100.5399440937886
 20
-139.803697339181
 30
0.0
 10
100.5464897752106
 20
-139.7654567792948
 30
0.0
 10
100.5485568325018
 20
-139.7234266143747
 30
0.0
 10
100.5485568325018
 20
-139.7168809329527
 30
0.0
 10
100.5485568325018
 20
-139.651424118733
 30
0.0
 10
100.5271972404932
 20
-139.4526421092341
 30
0.0
 10
100.2905191806565
 20
-139.4526421092341
 30
0.0
 10
100.1127522536176
 20
-139.4526421092341
 30
0.0
 10
100.0576307258537
 20
-139.5835557376735
 30
0.0
 10
100.0576307258537
 20
-139.6937987932016
 30
0.0
 10
100.0576307258537
 20
-139.9580376169202
 30
0.0
 10
100.2905191806565
 20
-139.9666503556333
 30
0.0
 10
100.3621771667497
 20
-139.9707844702156
 30
0.0
 10
100.3621771667497
 20
-139.9707844702156
 30
0.0
 10
100.3621771667497
 20
-140.1740451038454
 30
0.0
 10
100.3621771667497
 20
-140.1740451038454
 30
0.0
 10
100.2374647101837
 20
-140.1654323651323
 30
0.0
 10
99.86091577364589
 20
-140.1378716012503
 30
0.0
 10
99.86091577364589
 20
-139.6810519399061
 30
0.0
 10
99.86091577364589
 20
-139.4567762238164
 30
0.0
 10
99.98803979705161
 20
-139.2156195398489
 30
0.0
 10
100.2839734992346
 20
-139.2156195398489
 30
0.0
 10
100.4703531649866
 20
-139.2156195398489
 30
0.0
 10
100.5526909470841
 20
-139.3107041752418
 30
0.0
 10
100.6140136467215
 20
-139.4102674347655
 30
0.0
 10
100.6415744106035
 20
-139.348944735128
 30
0.0
 10
100.7218451354098
 20
-139.1670436935069
 30
0.0
 10
100.9991753219724
 20
-139.1670436935069
 30
0.0
 10
101.337483698624
 20
-139.1670436935069
 30
0.0
 10
101.5045708296586
 20
-139.4144015493478
 30
0.0
 10
101.5045708296586
 20
-139.6913872263619
 30
0.0
  0
HATCH
  5
A6
330
A1
100
AcDbEntity
  8
_U+30EC_U+30A4_U+30E4_U+30FC 1
 62
   179
420
  2234388
100
AcDbHatch
 10
0.0
 20
0.0
 30
0.0
210
0.0
220
0.0
230
1.0
  2
SOLID
 70
     1
 71
     0
 91
        1
 92
        1
 93
        1
 72
     4
 94
        3
 73
     0
 74
     1
 95
       62
 96
       58
 40
0.0
 40
0.0
 40
0.0
 40
0.0
 40
1.0
 40
1.0
 40
1.0
 40
2.0
 40
2.0
 40
2.0
 40
3.0
 40
3.0
 40
3.0
 40
4.0
 40
4.0
 40
4.0
 40
5.0
 40
5.0
 40
5.0
 40
6.0
 40
6.0
 40
6.0
 40
7.0
 40
7.0
 40
7.0
 40
8.0
 40
8.0
 40
8.0
 40
9.0
 40
9.0
 40
9.0
 40
10.0
 40
10.0
 40
10.0
 40
11.0
 40
11.0
 40
11.0
 40
12.0
 40
12.0
 40
12.0
 40
13.0
 40
13.0
 40
13.0
 40
14.0
 40
14.0
 40
14.0
 40
15.0
 40
15.0
 40
15.0
 40
16.0
 40
16.0
 40
16.0
 40
17.0
 40
17.0
 40
17.0
 40
18.0
 40
18.0
 40
18.0
 40
19.0
 40
19.0
 40
19.0
 40
19.0
 10
101.5045708296586
 20
-139.6913872263619
 10
101.5045708296586
 20
-139.7868163713033
 10
101.4835557471986
 20
-140.0045464059711
 10
101.2975205909951
 20
-140.1296033720857
 10
101.1852104781759
 20
-140.2036729250185
 10
101.0859917282007
 20
-140.2078070396008
 10
101.0012423792636
 20
-140.2119411541831
 10
101.0012423792636
 20
-140.2119411541831
 10
101.0012423792636
 20
-139.9917995526757
 10
101.0012423792636
 20
-139.9917995526757
 10
101.0753119321965
 20
-139.9897324953845
 10
101.309922934742
 20
-139.9793972089288
 10
101.309922934742
 20
-139.6958658504927
 10
101.309922934742
 20
-139.5584065406312
 10
101.2403320059399
 20
-139.4057888106347
 10
101.0119221752679
 20
-139.4057888106347
 10
100.8954779478664
 20
-139.4057888106347
 10
100.8469021015244
 20
-139.444029370521
 10
100.8152072230601
 20
-139.4757242489852
 10
100.7411376701272
 20
-139.5497938019181
 10
100.7283908168318
 20
-139.6662380293195
 10
100.7283908168318
 20
-139.721015047535
 10
100.7283908168318
 20
-139.7403075822524
 10
100.7304578741229
 20
-139.776136575299
 10
100.7345919887052
 20
-139.803697339181
 10
100.7345919887052
 20
-139.803697339181
 10
100.5399440937886
 20
-139.803697339181
 10
100.5399440937886
 20
-139.803697339181
 10
100.5464897752106
 20
-139.7654567792948
 10
100.5485568325018
 20
-139.7234266143747
 10
100.5485568325018
 20
-139.7168809329527
 10
100.5485568325018
 20
-139.651424118733
 10
100.5271972404932
 20
-139.4526421092341
 10
100.2905191806565
 20
-139.4526421092341
 10
100.1127522536176
 20
-139.4526421092341
 10
100.0576307258537
 20
-139.5835557376735
 10
100.0576307258537
 20
-139.6937987932016
 10
100.0576307258537
 20
-139.9580376169202
 10
100.2905191806565
 20
-139.9666503556333
 10
100.3621771667497
 20
-139.9707844702156
 10
100.3621771667497
 20
-139.9707844702156
 10
100.3621771667497
 20
-140.1740451038454
 10
100.3621771667497
 20
-140.1740451038454
 10
100.2374647101837
 20
-140.1654323651323
 10
99.86091577364589
 20
-140.1378716012503
 10
99.86091577364589
 20
-139.6810519399061
 10
99.86091577364589
 20
-139.4567762238164
 10
99.98803979705161
 20
-139.2156195398489
 10
100.2839734992346
 20
-139.2156195398489
 10
100.4703531649866
 20
-139.2156195398489
 10
100.5526909470841
 20
-139.3107041752418
 10
100.6140136467215
 20
-139.4102674347655
 10
100.6415744106035
 20
-139.348944735128
 10
100.7218451354098
 20
-139.1670436935069
 10
100.9991753219724
 20
-139.1670436935069
 10
101.337483698624
 20
-139.1670436935069
 10
101.5045708296586
 20
-139.4144015493478
 10
101.5045708296586
 20
-139.6913872263619
 97
        0
 97
        0
 75
     2
 76
     1
 98
        0
  0
ENDBLK
  5
A4
330
A1
100
AcDbEntity
  8
0
100
AcDbBlockEnd
  0
BLOCK
  5
B5
330
B3
100
AcDbEntity
  8
0
100
AcDbBlockBegin
  2
block 5
 70
     0
 10
0.0
 20
0.0
 30
0.0
  3
block 5
  1

  0
SPLINE
  5
B7
330
B3
100
AcDbEntity
  8
_U+30EC_U+30A4_U+30E4_U+30FC 1
370
     0
100
AcDbSpline
210
0.0
220
0.0
230
1.0
 70
    11
 71
     3
 72
    26
 73
    22
 74
     0
 42
0.0000000001
 43
0.0000000001
 12
1.0
 22
0.0
 32
0.0
 13
1.0
 23
0.0
 33
0.0
 40
0.0
 40
0.0
 40
0.0
 40
0.0
 40
1.0
 40
1.0
 40
1.0
 40
2.0
 40
2.0
 40
2.0
 40
3.0
 40
3.0
 40
3.0
 40
4.0
 40
4.0
 40
4.0
 40
5.0
 40
5.0
 40
5.0
 40
6.0
 40
6.0
 40
6.0
 40
7.0
 40
7.0
 40
7.0
 40
7.0
 10
77.46262747629407
 20
-145.6824082752113
 30
0.0
 10
77.46262747629407
 20
-145.6824082752113
 30
0.0
 10
77.46262747629407
 20
-144.5782551721888
 30
0.0
 10
77.46262747629407
 20
-144.5782551721888
 30
0.0
 10
77.46262747629407
 20
-144.5782551721888
 30
0.0
 10
77.13258732880713
 20
-144.5782551721888
 30
0.0
 10
77.13258732880713
 20
-144.5782551721888
 30
0.0
 10
77.13258732880713
 20
-144.5782551721888
 30
0.0
 10
77.13258732880713
 20
-144.430116066323
 30
0.0
 10
77.13258732880713
 20
-144.430116066323
 30
0.0
 10
77.46469453358522
 20
-144.4153021557365
 30
0.0
 10
77.51120332263609
 20
-144.2523491392841
 30
0.0
 10
77.54083114380924
 20
-144.1379719691738
 30
0.0
 10
77.54083114380924
 20
-144.1379719691738
 30
0.0
 10
77.68690319238384
 20
-144.1379719691738
 30
0.0
 10
77.68690319238384
 20
-144.1379719691738
 30
0.0
 10
77.68690319238384
 20
-144.1379719691738
 30
0.0
 10
77.68690319238384
 20
-145.6824082752113
 30
0.0
 10
77.68690319238384
 20
-145.6824082752113
 30
0.0
 10
77.68690319238384
 20
-145.6824082752113
 30
0.0
 10
77.46262747629407
 20
-145.6824082752113
 30
0.0
 10
77.46262747629407
 20
-145.6824082752113
 30
0.0
  0
HATCH
  5
B8
330
B3
100
AcDbEntity
  8
_U+30EC_U+30A4_U+30E4_U+30FC 1
 62
   179
420
  2234388
100
AcDbHatch
 10
0.0
 20
0.0
 30
0.0
210
0.0
220
0.0
230
1.0
  2
SOLID
 70
     1
 71
     0
 91
        1
 92
        1
 93
        1
 72
     4
 94
        3
 73
     0
 74
     1
 95
       26
 96
       22
 40
0.0
 40
0.0
 40
0.0
 40
0.0
 40
1.0
 40
1.0
 40
1.0
 40
2.0
 40
2.0
 40
2.0
 40
3.0
 40
3.0
 40
3.0
 40
4.0
 40
4.0
 40
4.0
 40
5.0
 40
5.0
 40
5.0
 40
6.0
 40
6.0
 40
6.0
 40
7.0
 40
7.0
 40
7.0
 40
7.0
 10
77.46262747629407
 20
-145.6824082752113
 10
77.46262747629407
 20
-145.6824082752113
 10
77.46262747629407
 20
-144.5782551721888
 10
77.46262747629407
 20
-144.5782551721888
 10
77.46262747629407
 20
-144.5782551721888
 10
77.13258732880713
 20
-144.5782551721888
 10
77.13258732880713
 20
-144.5782551721888
 10
77.13258732880713
 20
-144.5782551721888
 10
77.13258732880713
 20
-144.430116066323
 10
77.13258732880713
 20
-144.430116066323
 10
77.46469453358522
 20
-144.4153021557365
 10
77.51120332263609
 20
-144.2523491392841
 10
77.54083114380924
 20
-144.1379719691738
 10
77.54083114380924
 20
-144.1379719691738
 10
77.68690319238384
 20
-144.1379719691738
 10
77.68690319238384
 20
-144.1379719691738
 10
77.68690319238384
 20
-144.1379719691738
 10
77.68690319238384
 20
-145.6824082752113
 10
77.68690319238384
 20
-145.6824082752113
 10
77.68690319238384
 20
-145.6824082752113
 10
77.46262747629407
 20
-145.6824082752113
 10
77.46262747629407
 20
-145.6824082752113
 97
        0
 97
        0
 75
     2
 76
     1
 98
        0
  0
SPLINE
  5
B9
330
B3
100
AcDbEntity
  8
_U+30EC_U+30A4_U+30E4_U+30FC 1
370
     0
100
AcDbSpline
210
0.0
220
0.0
230
1.0
 70
    11
 71
     3
 72
    29
 73
    25
 74
     0
 42
0.0000000001
 43
0.0000000001
 12
1.0
 22
0.0
 32
0.0
 13
1.0
 23
0.0
 33
0.0
 40
0.0
 40
0.0
 40
0.0
 40
0.0
 40
1.0
 40
1.0
 40
1.0
 40
2.0
 40
2.0
 40
2.0
 40
3.0
 40
3.0
 40
3.0
 40
4.0
 40
4.0
 40
4.0
 40
5.0
 40
5.0
 40
5.0
 40
6.0
 40
6.0
 40
6.0
 40
7.0
 40
7.0
 40
7.0
 40
8.0
 40
8.0
 40
8.0
 40
8.0
 10
79.08578421416954
 20
-145.5046413481725
 30
0.0
 10
78.97795272548122
 20
-145.7141031536756
 30
0.0
 10
78.80449216779888
 20
-145.7330511788445
 30
0.0
 10
78.68804794039744
 20
-145.7330511788445
 30
0.0
 10
78.52733423601053
 20
-145.7330511788445
 30
0.0
 10
78.3855685567925
 20
-145.6865423897937
 30
0.0
 10
78.29031166662534
 20
-145.5046413481725
 30
0.0
 10
78.18678654729358
 20
-145.3099934532558
 30
0.0
 10
78.16766626735046
 20
-145.0733153934192
 30
0.0
 10
78.16766626735046
 20
-144.9103623769669
 30
0.0
 10
78.16766626735046
 20
-144.7663573856834
 30
0.0
 10
78.18454723522817
 20
-144.5145209057117
 30
0.0
 10
78.29031166662534
 20
-144.3157388962127
 30
0.0
 10
78.39831541008793
 20
-144.1128227721315
 30
0.0
 10
78.55902911447482
 20
-144.0893961228318
 30
0.0
 10
78.68804794039744
 20
-144.0893961228318
 30
0.0
 10
78.84669458749319
 20
-144.0893961228318
 30
0.0
 10
78.99052732400237
 20
-144.1338378545915
 30
0.0
 10
79.08578421416954
 20
-144.3157388962127
 30
0.0
 10
79.18517521891899
 20
-144.5083197338382
 30
0.0
 10
79.20842961344442
 20
-144.7367295645103
 30
0.0
 10
79.20842961344442
 20
-144.9103623769669
 30
0.0
 10
79.20842961344442
 20
-145.0815836225838
 30
0.0
 10
79.1874145309844
 20
-145.312060510547
 30
0.0
 10
79.08578421416954
 20
-145.5046413481725
 30
0.0
  0
SPLINE
  5
BA
330
B3
100
AcDbEntity
  8
_U+30EC_U+30A4_U+30E4_U+30FC 1
370
     0
100
AcDbSpline
210
0.0
220
0.0
230
1.0
 70
    11
 71
     3
 72
    17
 73
    13
 74
     0
 42
0.0000000001
 43
0.0000000001
 12
1.0
 22
0.0
 32
0.0
 13
1.0
 23
0.0
 33
0.0
 40
0.0
 40
0.0
 40
0.0
 40
0.0
 40
1.0
 40
1.0
 40
1.0
 40
2.0
 40
2.0
 40
2.0
 40
3.0
 40
3.0
 40
3.0
 40
4.0
 40
4.0
 40
4.0
 40
4.0
 10
78.68804794039744
 20
-144.2819769604573
 30
0.0
 10
78.43845077249108
 20
-144.2819769604573
 30
0.0
 10
78.39194198344022
 20
-144.5655083188934
 30
0.0
 10
78.39194198344022
 20
-144.9103623769669
 30
0.0
 10
78.39194198344022
 20
-145.2297227284495
 30
0.0
 10
78.42794323126107
 20
-145.5384032839279
 30
0.0
 10
78.68804794039744
 20
-145.5384032839279
 30
0.0
 10
78.93557805101264
 20
-145.5384032839279
 30
0.0
 10
78.98432615212892
 20
-145.2572834923315
 30
0.0
 10
78.98432615212892
 20
-144.9103623769669
 30
0.0
 10
78.98432615212892
 20
-144.5906575159357
 30
0.0
 10
78.94608559224265
 20
-144.2819769604573
 30
0.0
 10
78.68804794039744
 20
-144.2819769604573
 30
0.0
  0
HATCH
  5
BB
330
B3
100
AcDbEntity
  8
_U+30EC_U+30A4_U+30E4_U+30FC 1
 62
   179
420
  2234388
100
AcDbHatch
 10
0.0
 20
0.0
 30
0.0
210
0.0
220
0.0
230
1.0
  2
SOLID
 70
     1
 71
     0
 91
        2
 92
        1
 93
        1
 72
     4
 94
        3
 73
     0
 74
     1
 95
       29
 96
       25
 40
0.0
 40
0.0
 40
0.0
 40
0.0
 40
1.0
 40
1.0
 40
1.0
 40
2.0
 40
2.0
 40
2.0
 40
3.0
 40
3.0
 40
3.0
 40
4.0
 40
4.0
 40
4.0
 40
5.0
 40
5.0
 40
5.0
 40
6.0
 40
6.0
 40
6.0
 40
7.0
 40
7.0
 40
7.0
 40
8.0
 40
8.0
 40
8.0
 40
8.0
 10
79.08578421416954
 20
-145.5046413481725
 10
78.97795272548122
 20
-145.7141031536756
 10
78.80449216779888
 20
-145.7330511788445
 10
78.68804794039744
 20
-145.7330511788445
 10
78.52733423601053
 20
-145.7330511788445
 10
78.3855685567925
 20
-145.6865423897937
 10
78.29031166662534
 20
-145.5046413481725
 10
78.18678654729358
 20
-145.3099934532558
 10
78.16766626735046
 20
-145.0733153934192
 10
78.16766626735046
 20
-144.9103623769669
 10
78.16766626735046
 20
-144.7663573856834
 10
78.18454723522817
 20
-144.5145209057117
 10
78.29031166662534
 20
-144.3157388962127
 10
78.39831541008793
 20
-144.1128227721315
 10
78.55902911447482
 20
-144.0893961228318
 10
78.68804794039744
 20
-144.0893961228318
 10
78.84669458749319
 20
-144.0893961228318
 10
78.99052732400237
 20
-144.1338378545915
 10
79.08578421416954
 20
-144.3157388962127
 10
79.18517521891899
 20
-144.5083197338382
 10
79.20842961344442
 20
-144.7367295645103
 10
79.20842961344442
 20
-144.9103623769669
 10
79.20842961344442
 20
-145.0815836225838
 10
79.1874145309844
 20
-145.312060510547
 10
79.08578421416954
 20
-145.5046413481725
 97
        0
 97
        0
 92
        1
 93
        1
 72
     4
 94
        3
 73
     0
 74
     1
 95
       17
 96
       13
 40
0.0
 40
0.0
 40
0.0
 40
0.0
 40
1.0
 40
1.0
 40
1.0
 40
2.0
 40
2.0
 40
2.0
 40
3.0
 40
3.0
 40
3.0
 40
4.0
 40
4.0
 40
4.0
 40
4.0
 10
78.68804794039744
 20
-144.2819769604573
 10
78.43845077249108
 20
-144.2819769604573
 10
78.39194198344022
 20
-144.5655083188934
 10
78.39194198344022
 20
-144.9103623769669
 10
78.39194198344022
 20
-145.2297227284495
 10
78.42794323126107
 20
-145.5384032839279
 10
78.68804794039744
 20
-145.5384032839279
 10
78.93557805101264
 20
-145.5384032839279
 10
78.98432615212892
 20
-145.2572834923315
 10
78.98432615212892
 20
-144.9103623769669
 10
78.98432615212892
 20
-144.5906575159357
 10
78.94608559224265
 20
-144.2819769604573
 10
78.68804794039744
 20
-144.2819769604573
 97
        0
 97
        0
 75
     2
 76
     1
 98
        0
  0
ENDBLK
  5
B6
330
B3
100
AcDbEntity
  8
0
100
AcDbBlockEnd
  0
BLOCK
  5
CA
330
C8
100
AcDbEntity
  8
0
100
AcDbBlockBegin
  2
block 6
 70
     0
 10
0.0
 20
0.0
 30
0.0
  3
block 6
  1

  0
SPLINE
  5
CC
330
C8
100
AcDbEntity
  8
_U+30EC_U+30A4_U+30E4_U+30FC 1
370
     0
100
AcDbSpline
210
0.0
220
0.0
230
1.0
 70
    11
 71
     3
 72
    44
 73
    40
 74
     0
 42
0.0000000001
 43
0.0000000001
 12
1.0
 22
0.0
 32
0.0
 13
1.0
 23
0.0
 33
0.0
 40
0.0
 40
0.0
 40
0.0
 40
0.0
 40
1.0
 40
1.0
 40
1.0
 40
2.0
 40
2.0
 40
2.0
 40
3.0
 40
3.0
 40
3.0
 40
4.0
 40
4.0
 40
4.0
 40
5.0
 40
5.0
 40
5.0
 40
6.0
 40
6.0
 40
6.0
 40
7.0
 40
7.0
 40
7.0
 40
8.0
 40
8.0
 40
8.0
 40
9.0
 40
9.0
 40
9.0
 40
10.0
 40
10.0
 40
10.0
 40
11.0
 40
11.0
 40
11.0
 40
12.0
 40
12.0
 40
12.0
 40
13.0
 40
13.0
 40
13.0
 40
13.0
 10
85.10436602690099
 20
-112.3964124610502
 30
0.0
 10
84.88646373745894
 20
-112.555059108146
 30
0.0
 10
84.79327390458293
 20
-112.6291286610788
 30
0.0
 10
84.74469805824091
 20
-112.772961397588
 30
0.0
 10
84.74469805824091
 20
-112.772961397588
 30
0.0
 10
85.52311738313311
 20
-112.772961397588
 30
0.0
 10
85.52311738313311
 20
-112.772961397588
 30
0.0
 10
85.52311738313311
 20
-112.772961397588
 30
0.0
 10
85.52311738313311
 20
-112.9781168337346
 30
0.0
 10
85.52311738313311
 20
-112.9781168337346
 30
0.0
 10
85.52311738313311
 20
-112.9781168337346
 30
0.0
 10
84.49510089033456
 20
-112.9781168337346
 30
0.0
 10
84.49510089033456
 20
-112.9781168337346
 30
0.0
 10
84.52679576879886
 20
-112.6205159223657
 30
0.0
 10
84.5922525830186
 20
-112.5423122548505
 30
0.0
 10
84.97741425826953
 20
-112.2439669858279
 30
0.0
 10
85.2333848528236
 20
-112.045184976329
 30
0.0
 10
85.29884166704335
 20
-111.9774888500438
 30
0.0
 10
85.29884166704335
 20
-111.8400295401824
 30
0.0
 10
85.29884166704335
 20
-111.7215182554898
 30
0.0
 10
85.22701142617589
 20
-111.590432372276
 30
0.0
 10
85.03029647396812
 20
-111.590432372276
 30
0.0
 10
84.7700195100575
 20
-111.590432372276
 30
0.0
 10
84.76157902611864
 20
-111.8209092602392
 30
0.0
 10
84.75727265676207
 20
-111.9373534876407
 30
0.0
 10
84.75727265676207
 20
-111.9373534876407
 30
0.0
 10
84.53316919544658
 20
-111.9373534876407
 30
0.0
 10
84.53316919544658
 20
-111.9373534876407
 30
0.0
 10
84.54160967938543
 20
-111.8104017190092
 30
0.0
 10
84.55211722061544
 20
-111.6982638609643
 30
0.0
 10
84.63256020019602
 20
-111.5797525762717
 30
0.0
 10
84.7424587461755
 20
-111.4190388718848
 30
0.0
 10
84.92866615715326
 20
-111.3851046813551
 30
0.0
 10
85.0451103845547
 20
-111.3851046813551
 30
0.0
 10
85.32226831634304
 20
-111.3851046813551
 30
0.0
 10
85.52949080978082
 20
-111.5692450350417
 30
0.0
 10
85.52949080978082
 20
-111.8420965974735
 30
0.0
 10
85.52949080978082
 20
-112.0705064281456
 30
0.0
 10
85.41321883715365
 20
-112.1700696876693
 30
0.0
 10
85.10436602690099
 20
-112.3964124610502
 30
0.0
  0
HATCH
  5
CD
330
C8
100
AcDbEntity
  8
_U+30EC_U+30A4_U+30E4_U+30FC 1
 62
   179
420
  2234388
100
AcDbHatch
 10
0.0
 20
0.0
 30
0.0
210
0.0
220
0.0
230
1.0
  2
SOLID
 70
     1
 71
     0
 91
        1
 92
        1
 93
        1
 72
     4
 94
        3
 73
     0
 74
     1
 95
       44
 96
       40
 40
0.0
 40
0.0
 40
0.0
 40
0.0
 40
1.0
 40
1.0
 40
1.0
 40
2.0
 40
2.0
 40
2.0
 40
3.0
 40
3.0
 40
3.0
 40
4.0
 40
4.0
 40
4.0
 40
5.0
 40
5.0
 40
5.0
 40
6.0
 40
6.0
 40
6.0
 40
7.0
 40
7.0
 40
7.0
 40
8.0
 40
8.0
 40
8.0
 40
9.0
 40
9.0
 40
9.0
 40
10.0
 40
10.0
 40
10.0
 40
11.0
 40
11.0
 40
11.0
 40
12.0
 40
12.0
 40
12.0
 40
13.0
 40
13.0
 40
13.0
 40
13.0
 10
85.10436602690099
 20
-112.3964124610502
 10
84.88646373745894
 20
-112.555059108146
 10
84.79327390458293
 20
-112.6291286610788
 10
84.74469805824091
 20
-112.772961397588
 10
84.74469805824091
 20
-112.772961397588
 10
85.52311738313311
 20
-112.772961397588
 10
85.52311738313311
 20
-112.772961397588
 10
85.52311738313311
 20
-112.772961397588
 10
85.52311738313311
 20
-112.9781168337346
 10
85.52311738313311
 20
-112.9781168337346
 10
85.52311738313311
 20
-112.9781168337346
 10
84.49510089033456
 20
-112.9781168337346
 10
84.49510089033456
 20
-112.9781168337346
 10
84.52679576879886
 20
-112.6205159223657
 10
84.5922525830186
 20
-112.5423122548505
 10
84.97741425826953
 20
-112.2439669858279
 10
85.2333848528236
 20
-112.045184976329
 10
85.29884166704335
 20
-111.9774888500438
 10
85.29884166704335
 20
-111.8400295401824
 10
85.29884166704335
 20
-111.7215182554898
 10
85.22701142617589
 20
-111.590432372276
 10
85.03029647396812
 20
-111.590432372276
 10
84.7700195100575
 20
-111.590432372276
 10
84.76157902611864
 20
-111.8209092602392
 10
84.75727265676207
 20
-111.9373534876407
 10
84.75727265676207
 20
-111.9373534876407
 10
84.53316919544658
 20
-111.9373534876407
 10
84.53316919544658
 20
-111.9373534876407
 10
84.54160967938543
 20
-111.8104017190092
 10
84.55211722061544
 20
-111.6982638609643
 10
84.63256020019602
 20
-111.5797525762717
 10
84.7424587461755
 20
-111.4190388718848
 10
84.92866615715326
 20
-111.3851046813551
 10
85.0451103845547
 20
-111.3851046813551
 10
85.32226831634304
 20
-111.3851046813551
 10
85.52949080978082
 20
-111.5692450350417
 10
85.52949080978082
 20
-111.8420965974735
 10
85.52949080978082
 20
-112.0705064281456
 10
85.41321883715365
 20
-112.1700696876693
 10
85.10436602690099
 20
-112.3964124610502
 97
        0
 97
        0
 75
     2
 76
     1
 98
        0
  0
SPLINE
  5
CE
330
C8
100
AcDbEntity
  8
_U+30EC_U+30A4_U+30E4_U+30FC 1
370
     0
100
AcDbSpline
210
0.0
220
0.0
230
1.0
 70
    11
 71
     3
 72
    53
 73
    49
 74
     0
 42
0.0000000001
 43
0.0000000001
 12
1.0
 22
0.0
 32
0.0
 13
1.0
 23
0.0
 33
0.0
 40
0.0
 40
0.0
 40
0.0
 40
0.0
 40
1.0
 40
1.0
 40
1.0
 40
2.0
 40
2.0
 40
2.0
 40
3.0
 40
3.0
 40
3.0
 40
4.0
 40
4.0
 40
4.0
 40
5.0
 40
5.0
 40
5.0
 40
6.0
 40
6.0
 40
6.0
 40
7.0
 40
7.0
 40
7.0
 40
8.0
 40
8.0
 40
8.0
 40
9.0
 40
9.0
 40
9.0
 40
10.0
 40
10.0
 40
10.0
 40
11.0
 40
11.0
 40
11.0
 40
12.0
 40
12.0
 40
12.0
 40
13.0
 40
13.0
 40
13.0
 40
14.0
 40
14.0
 40
14.0
 40
15.0
 40
15.0
 40
15.0
 40
16.0
 40
16.0
 40
16.0
 40
16.0
 10
86.16907278661746
 20
-113.0289319921421
 30
0.0
 10
86.09086911910228
 20
-113.0289319921421
 30
0.0
 10
85.98923880228742
 20
-113.0118787694901
 30
0.0
 10
85.88760848547254
 20
-112.9484890125615
 30
0.0
 10
85.71432018256448
 20
-112.8384182118078
 30
0.0
 10
85.69296059055593
 20
-112.707332328594
 30
0.0
 10
85.67401256538706
 20
-112.5995008399057
 30
0.0
 10
85.67401256538706
 20
-112.5995008399057
 30
0.0
 10
85.89622122418567
 20
-112.5995008399057
 30
0.0
 10
85.89622122418567
 20
-112.5995008399057
 30
0.0
 10
85.95099824240114
 20
-112.7982828494046
 30
0.0
 10
86.07812226580687
 20
-112.8279106705778
 30
0.0
 10
86.1711398439086
 20
-112.8279106705778
 30
0.0
 10
86.31066621106123
 20
-112.8279106705778
 30
0.0
 10
86.46293943150927
 20
-112.7285196658283
 30
0.0
 10
86.46293943150927
 20
-112.4958034657997
 30
0.0
 10
86.46293943150927
 20
-112.2398328712456
 30
0.0
 10
86.28310544717922
 20
-112.1700696876693
 30
0.0
 10
86.16252710519548
 20
-112.1700696876693
 30
0.0
 10
86.13083222673119
 20
-112.1700696876693
 30
0.0
 10
85.98923880228742
 20
-112.1700696876693
 30
0.0
 10
85.90035533876797
 20
-112.2990885135919
 30
0.0
 10
85.90035533876797
 20
-112.2990885135919
 30
0.0
 10
85.72465546902023
 20
-112.2799682336488
 30
0.0
 10
85.72465546902023
 20
-112.2799682336488
 30
0.0
 10
85.72465546902023
 20
-112.2799682336488
 30
0.0
 10
85.84523381100398
 20
-111.4338527824714
 30
0.0
 10
85.84523381100398
 20
-111.4338527824714
 30
0.0
 10
85.84523381100398
 20
-111.4338527824714
 30
0.0
 10
86.62382539067043
 20
-111.4338527824714
 30
0.0
 10
86.62382539067043
 20
-111.4338527824714
 30
0.0
 10
86.62382539067043
 20
-111.4338527824714
 30
0.0
 10
86.62382539067043
 20
-111.628500677388
 30
0.0
 10
86.62382539067043
 20
-111.628500677388
 30
0.0
 10
86.62382539067043
 20
-111.628500677388
 30
0.0
 10
86.00818682745629
 20
-111.628500677388
 30
0.0
 10
86.00818682745629
 20
-111.628500677388
 30
0.0
 10
86.00818682745629
 20
-111.628500677388
 30
0.0
 10
85.94273001323654
 20
-112.0515584029767
 30
0.0
 10
85.94273001323654
 20
-112.0515584029767
 30
0.0
 10
86.00405271287399
 20
-112.017624212447
 30
0.0
 10
86.08639049497147
 20
-111.9774888500438
 30
0.0
 10
86.20490177966406
 20
-111.9774888500438
 30
0.0
 10
86.45880531692697
 20
-111.9774888500438
 30
0.0
 10
86.69582788631216
 20
-112.1636962610216
 30
0.0
 10
86.69582788631216
 20
-112.4766831858565
 30
0.0
 10
86.69582788631216
 20
-112.7941487348223
 30
0.0
 10
86.4715521702224
 20
-113.0289319921421
 30
0.0
 10
86.16907278661746
 20
-113.0289319921421
 30
0.0
  0
HATCH
  5
CF
330
C8
100
AcDbEntity
  8
_U+30EC_U+30A4_U+30E4_U+30FC 1
 62
   179
420
  2234388
100
AcDbHatch
 10
0.0
 20
0.0
 30
0.0
210
0.0
220
0.0
230
1.0
  2
SOLID
 70
     1
 71
     0
 91
        1
 92
        1
 93
        1
 72
     4
 94
        3
 73
     0
 74
     1
 95
       53
 96
       49
 40
0.0
 40
0.0
 40
0.0
 40
0.0
 40
1.0
 40
1.0
 40
1.0
 40
2.0
 40
2.0
 40
2.0
 40
3.0
 40
3.0
 40
3.0
 40
4.0
 40
4.0
 40
4.0
 40
5.0
 40
5.0
 40
5.0
 40
6.0
 40
6.0
 40
6.0
 40
7.0
 40
7.0
 40
7.0
 40
8.0
 40
8.0
 40
8.0
 40
9.0
 40
9.0
 40
9.0
 40
10.0
 40
10.0
 40
10.0
 40
11.0
 40
11.0
 40
11.0
 40
12.0
 40
12.0
 40
12.0
 40
13.0
 40
13.0
 40
13.0
 40
14.0
 40
14.0
 40
14.0
 40
15.0
 40
15.0
 40
15.0
 40
16.0
 40
16.0
 40
16.0
 40
16.0
 10
86.16907278661746
 20
-113.0289319921421
 10
86.09086911910228
 20
-113.0289319921421
 10
85.98923880228742
 20
-113.0118787694901
 10
85.88760848547254
 20
-112.9484890125615
 10
85.71432018256448
 20
-112.8384182118078
 10
85.69296059055593
 20
-112.707332328594
 10
85.67401256538706
 20
-112.5995008399057
 10
85.67401256538706
 20
-112.5995008399057
 10
85.89622122418567
 20
-112.5995008399057
 10
85.89622122418567
 20
-112.5995008399057
 10
85.95099824240114
 20
-112.7982828494046
 10
86.07812226580687
 20
-112.8279106705778
 10
86.1711398439086
 20
-112.8279106705778
 10
86.31066621106123
 20
-112.8279106705778
 10
86.46293943150927
 20
-112.7285196658283
 10
86.46293943150927
 20
-112.4958034657997
 10
86.46293943150927
 20
-112.2398328712456
 10
86.28310544717922
 20
-112.1700696876693
 10
86.16252710519548
 20
-112.1700696876693
 10
86.13083222673119
 20
-112.1700696876693
 10
85.98923880228742
 20
-112.1700696876693
 10
85.90035533876797
 20
-112.2990885135919
 10
85.90035533876797
 20
-112.2990885135919
 10
85.72465546902023
 20
-112.2799682336488
 10
85.72465546902023
 20
-112.2799682336488
 10
85.72465546902023
 20
-112.2799682336488
 10
85.84523381100398
 20
-111.4338527824714
 10
85.84523381100398
 20
-111.4338527824714
 10
85.84523381100398
 20
-111.4338527824714
 10
86.62382539067043
 20
-111.4338527824714
 10
86.62382539067043
 20
-111.4338527824714
 10
86.62382539067043
 20
-111.4338527824714
 10
86.62382539067043
 20
-111.628500677388
 10
86.62382539067043
 20
-111.628500677388
 10
86.62382539067043
 20
-111.628500677388
 10
86.00818682745629
 20
-111.628500677388
 10
86.00818682745629
 20
-111.628500677388
 10
86.00818682745629
 20
-111.628500677388
 10
85.94273001323654
 20
-112.0515584029767
 10
85.94273001323654
 20
-112.0515584029767
 10
86.00405271287399
 20
-112.017624212447
 10
86.08639049497147
 20
-111.9774888500438
 10
86.20490177966406
 20
-111.9774888500438
 10
86.45880531692697
 20
-111.9774888500438
 10
86.69582788631216
 20
-112.1636962610216
 10
86.69582788631216
 20
-112.4766831858565
 10
86.69582788631216
 20
-112.7941487348223
 10
86.4715521702224
 20
-113.0289319921421
 10
86.16907278661746
 20
-113.0289319921421
 97
        0
 97
        0
 75
     2
 76
     1
 98
        0
  0
ENDBLK
  5
CB
330
C8
100
AcDbEntity
  8
0
100
AcDbBlockEnd
  0
BLOCK
  5
DA
330
D8
100
AcDbEntity
  8
0
100
AcDbBlockBegin
  2
block 7
 70
     0
 10
0.0
 20
0.0
 30
0.0
  3
block 7
  1

  0
SPLINE
  5
DC
330
D8
100
AcDbEntity
  8
_U+30EC_U+30A4_U+30E4_U+30FC 1
370
     0
100
AcDbSpline
210
0.0
220
0.0
230
1.0
 70
    11
 71
     3
 72
    26
 73
    22
 74
     0
 42
0.0000000001
 43
0.0000000001
 12
1.0
 22
0.0
 32
0.0
 13
1.0
 23
0.0
 33
0.0
 40
0.0
 40
0.0
 40
0.0
 40
0.0
 40
1.0
 40
1.0
 40
1.0
 40
2.0
 40
2.0
 40
2.0
 40
3.0
 40
3.0
 40
3.0
 40
4.0
 40
4.0
 40
4.0
 40
5.0
 40
5.0
 40
5.0
 40
6.0
 40
6.0
 40
6.0
 40
7.0
 40
7.0
 40
7.0
 40
7.0
 10
101.4535834164769
 20
-131.00561248895
 30
0.0
 10
101.4535834164769
 20
-131.00561248895
 30
0.0
 10
100.3494303134543
 20
-131.00561248895
 30
0.0
 10
100.3494303134543
 20
-131.00561248895
 30
0.0
 10
100.3494303134543
 20
-131.00561248895
 30
0.0
 10
100.3494303134543
 20
-131.3356526364369
 30
0.0
 10
100.3494303134543
 20
-131.3356526364369
 30
0.0
 10
100.3494303134543
 20
-131.3356526364369
 30
0.0
 10
100.2012912075886
 20
-131.3356526364369
 30
0.0
 10
100.2012912075886
 20
-131.3356526364369
 30
0.0
 10
100.186477297002
 20
-131.0035454316588
 30
0.0
 10
100.0235242805497
 20
-130.957036642608
 30
0.0
 10
99.90914711043938
 20
-130.9274088214348
 30
0.0
 10
99.90914711043938
 20
-130.9274088214348
 30
0.0
 10
99.90914711043938
 20
-130.7813367728602
 30
0.0
 10
99.90914711043938
 20
-130.7813367728602
 30
0.0
 10
99.90914711043938
 20
-130.7813367728602
 30
0.0
 10
101.4535834164769
 20
-130.7813367728602
 30
0.0
 10
101.4535834164769
 20
-130.7813367728602
 30
0.0
 10
101.4535834164769
 20
-130.7813367728602
 30
0.0
 10
101.4535834164769
 20
-131.00561248895
 30
0.0
 10
101.4535834164769
 20
-131.00561248895
 30
0.0
  0
HATCH
  5
DD
330
D8
100
AcDbEntity
  8
_U+30EC_U+30A4_U+30E4_U+30FC 1
 62
   179
420
  2234388
100
AcDbHatch
 10
0.0
 20
0.0
 30
0.0
210
0.0
220
0.0
230
1.0
  2
SOLID
 70
     1
 71
     0
 91
        1
 92
        1
 93
        1
 72
     4
 94
        3
 73
     0
 74
     1
 95
       26
 96
       22
 40
0.0
 40
0.0
 40
0.0
 40
0.0
 40
1.0
 40
1.0
 40
1.0
 40
2.0
 40
2.0
 40
2.0
 40
3.0
 40
3.0
 40
3.0
 40
4.0
 40
4.0
 40
4.0
 40
5.0
 40
5.0
 40
5.0
 40
6.0
 40
6.0
 40
6.0
 40
7.0
 40
7.0
 40
7.0
 40
7.0
 10
101.4535834164769
 20
-131.00561248895
 10
101.4535834164769
 20
-131.00561248895
 10
100.3494303134543
 20
-131.00561248895
 10
100.3494303134543
 20
-131.00561248895
 10
100.3494303134543
 20
-131.00561248895
 10
100.3494303134543
 20
-131.3356526364369
 10
100.3494303134543
 20
-131.3356526364369
 10
100.3494303134543
 20
-131.3356526364369
 10
100.2012912075886
 20
-131.3356526364369
 10
100.2012912075886
 20
-131.3356526364369
 10
100.186477297002
 20
-131.0035454316588
 10
100.0235242805497
 20
-130.957036642608
 10
99.90914711043938
 20
-130.9274088214348
 10
99.90914711043938
 20
-130.9274088214348
 10
99.90914711043938
 20
-130.7813367728602
 10
99.90914711043938
 20
-130.7813367728602
 10
99.90914711043938
 20
-130.7813367728602
 10
101.4535834164769
 20
-130.7813367728602
 10
101.4535834164769
 20
-130.7813367728602
 10
101.4535834164769
 20
-130.7813367728602
 10
101.4535834164769
 20
-131.00561248895
 10
101.4535834164769
 20
-131.00561248895
 97
        0
 97
        0
 75
     2
 76
     1
 98
        0
  0
SPLINE
  5
DE
330
D8
100
AcDbEntity
  8
_U+30EC_U+30A4_U+30E4_U+30FC 1
370
     0
100
AcDbSpline
210
0.0
220
0.0
230
1.0
 70
    11
 71
     3
 72
    32
 73
    28
 74
     0
 42
0.0000000001
 43
0.0000000001
 12
1.0
 22
0.0
 32
0.0
 13
1.0
 23
0.0
 33
0.0
 40
0.0
 40
0.0
 40
0.0
 40
0.0
 40
1.0
 40
1.0
 40
1.0
 40
2.0
 40
2.0
 40
2.0
 40
3.0
 40
3.0
 40
3.0
 40
4.0
 40
4.0
 40
4.0
 40
5.0
 40
5.0
 40
5.0
 40
6.0
 40
6.0
 40
6.0
 40
7.0
 40
7.0
 40
7.0
 40
8.0
 40
8.0
 40
8.0
 40
9.0
 40
9.0
 40
9.0
 40
9.0
 10
101.5042263201101
 20
-129.8225666993152
 30
0.0
 10
101.5042263201101
 20
-129.9958550022233
 30
0.0
 10
101.434635391308
 20
-130.2414903103216
 30
0.0
 10
101.1025281865299
 20
-130.2793863606593
 30
0.0
 10
101.1025281865299
 20
-130.2793863606593
 30
0.0
 10
101.1025281865299
 20
-130.0657904405738
 30
0.0
 10
101.1025281865299
 20
-130.0657904405738
 30
0.0
 10
101.1617838288762
 20
-130.0551106445696
 30
0.0
 10
101.3095784251935
 20
-130.0234157661053
 30
0.0
 10
101.3095784251935
 20
-129.8204996420241
 30
0.0
 10
101.3095784251935
 20
-129.5283555448749
 30
0.0
 10
100.9795382777065
 20
-129.4904594945371
 30
0.0
 10
100.7745550963341
 20
-129.4777126412417
 30
0.0
 10
100.8548258211405
 20
-129.5686631620523
 30
0.0
 10
100.9120144061956
 20
-129.6361870335632
 30
0.0
 10
100.9120144061956
 20
-129.8180880751844
 30
0.0
 10
100.9120144061956
 20
-129.9979220595144
 30
0.0
 10
100.8062499747984
 20
-130.3004014431193
 30
0.0
 10
100.4000732170875
 20
-130.3004014431193
 30
0.0
 10
100.0807128656048
 20
-130.3004014431193
 30
0.0
 10
99.86057126409736
 20
-130.1016194336204
 30
0.0
 10
99.86057126409736
 20
-129.7843261394289
 30
0.0
 10
99.86057126409736
 20
-129.2703178930296
 30
0.0
 10
100.4148871276741
 20
-129.2596380970254
 30
0.0
 10
100.6284830477595
 20
-129.2596380970254
 30
0.0
 10
100.8589599357228
 20
-129.2596380970254
 30
0.0
 10
101.5042263201101
 20
-129.2789306317428
 30
0.0
 10
101.5042263201101
 20
-129.8225666993152
 30
0.0
  0
SPLINE
  5
DF
330
D8
100
AcDbEntity
  8
_U+30EC_U+30A4_U+30E4_U+30FC 1
370
     0
100
AcDbSpline
210
0.0
220
0.0
230
1.0
 70
    11
 71
     3
 72
    17
 73
    13
 74
     0
 42
0.0000000001
 43
0.0000000001
 12
1.0
 22
0.0
 32
0.0
 13
1.0
 23
0.0
 33
0.0
 40
0.0
 40
0.0
 40
0.0
 40
0.0
 40
1.0
 40
1.0
 40
1.0
 40
2.0
 40
2.0
 40
2.0
 40
3.0
 40
3.0
 40
3.0
 40
4.0
 40
4.0
 40
4.0
 40
4.0
 10
100.0531521017228
 20
-129.7822590821378
 30
0.0
 10
100.0531521017228
 20
-129.9007703668304
 30
0.0
 10
100.110340686778
 20
-130.0764702365781
 30
0.0
 10
100.3959391025052
 20
-130.0764702365781
 30
0.0
 10
100.6222818758861
 20
-130.0764702365781
 30
0.0
 10
100.717366511279
 20
-129.936599359877
 30
0.0
 10
100.717366511279
 20
-129.8012071073067
 30
0.0
 10
100.717366511279
 20
-129.5390353408791
 30
0.0
 10
100.5079047057758
 20
-129.5007947809929
 30
0.0
 10
100.3914604783744
 20
-129.5007947809929
 30
0.0
 10
100.2161051181752
 20
-129.5007947809929
 30
0.0
 10
100.0531521017228
 20
-129.5962239259343
 30
0.0
 10
100.0531521017228
 20
-129.7822590821378
 30
0.0
  0
HATCH
  5
E0
330
D8
100
AcDbEntity
  8
_U+30EC_U+30A4_U+30E4_U+30FC 1
 62
   179
420
  2234388
100
AcDbHatch
 10
0.0
 20
0.0
 30
0.0
210
0.0
220
0.0
230
1.0
  2
SOLID
 70
     1
 71
     0
 91
        2
 92
        1
 93
        1
 72
     4
 94
        3
 73
     0
 74
     1
 95
       32
 96
       28
 40
0.0
 40
0.0
 40
0.0
 40
0.0
 40
1.0
 40
1.0
 40
1.0
 40
2.0
 40
2.0
 40
2.0
 40
3.0
 40
3.0
 40
3.0
 40
4.0
 40
4.0
 40
4.0
 40
5.0
 40
5.0
 40
5.0
 40
6.0
 40
6.0
 40
6.0
 40
7.0
 40
7.0
 40
7.0
 40
8.0
 40
8.0
 40
8.0
 40
9.0
 40
9.0
 40
9.0
 40
9.0
 10
101.5042263201101
 20
-129.8225666993152
 10
101.5042263201101
 20
-129.9958550022233
 10
101.434635391308
 20
-130.2414903103216
 10
101.1025281865299
 20
-130.2793863606593
 10
101.1025281865299
 20
-130.2793863606593
 10
101.1025281865299
 20
-130.0657904405738
 10
101.1025281865299
 20
-130.0657904405738
 10
101.1617838288762
 20
-130.0551106445696
 10
101.3095784251935
 20
-130.0234157661053
 10
101.3095784251935
 20
-129.8204996420241
 10
101.3095784251935
 20
-129.5283555448749
 10
100.9795382777065
 20
-129.4904594945371
 10
100.7745550963341
 20
-129.4777126412417
 10
100.8548258211405
 20
-129.5686631620523
 10
100.9120144061956
 20
-129.6361870335632
 10
100.9120144061956
 20
-129.8180880751844
 10
100.9120144061956
 20
-129.9979220595144
 10
100.8062499747984
 20
-130.3004014431193
 10
100.4000732170875
 20
-130.3004014431193
 10
100.0807128656048
 20
-130.3004014431193
 10
99.86057126409736
 20
-130.1016194336204
 10
99.86057126409736
 20
-129.7843261394289
 10
99.86057126409736
 20
-129.2703178930296
 10
100.4148871276741
 20
-129.2596380970254
 10
100.6284830477595
 20
-129.2596380970254
 10
100.8589599357228
 20
-129.2596380970254
 10
101.5042263201101
 20
-129.2789306317428
 10
101.5042263201101
 20
-129.8225666993152
 97
        0
 97
        0
 92
        1
 93
        1
 72
     4
 94
        3
 73
     0
 74
     1
 95
       17
 96
       13
 40
0.0
 40
0.0
 40
0.0
 40
0.0
 40
1.0
 40
1.0
 40
1.0
 40
2.0
 40
2.0
 40
2.0
 40
3.0
 40
3.0
 40
3.0
 40
4.0
 40
4.0
 40
4.0
 40
4.0
 10
100.0531521017228
 20
-129.7822590821378
 10
100.0531521017228
 20
-129.9007703668304
 10
100.110340686778
 20
-130.0764702365781
 10
100.3959391025052
 20
-130.0764702365781
 10
100.6222818758861
 20
-130.0764702365781
 10
100.717366511279
 20
-129.936599359877
 10
100.717366511279
 20
-129.8012071073067
 10
100.717366511279
 20
-129.5390353408791
 10
100.5079047057758
 20
-129.5007947809929
 10
100.3914604783744
 20
-129.5007947809929
 10
100.2161051181752
 20
-129.5007947809929
 10
100.0531521017228
 20
-129.5962239259343
 10
100.0531521017228
 20
-129.7822590821378
 97
        0
 97
        0
 75
     2
 76
     1
 98
        0
  0
POLYLINE
  5
E1
330
D8
100
AcDbEntity
  8
_U+30EC_U+30A4_U+30E4_U+30FC 1
370
     0
100
AcDb2dPolyline
 66
     1
 10
0.0
 20
0.0
 30
0.0
  0
VERTEX
  5
E2
330
E1
100
AcDbEntity
  8
_U+30EC_U+30A4_U+30E4_U+30FC 1
370
     0
100
AcDbVertex
100
AcDb2dVertex
 10
101.4535834164769
 20
-129.0432861005517
 30
0.0
  0
VERTEX
  5
E3
330
E1
100
AcDbEntity
  8
_U+30EC_U+30A4_U+30E4_U+30FC 1
370
     0
100
AcDbVertex
100
AcDb2dVertex
 10
101.2017469365051
 20
-129.0432861005517
 30
0.0
  0
VERTEX
  5
E4
330
E1
100
AcDbEntity
  8
_U+30EC_U+30A4_U+30E4_U+30FC 1
370
     0
100
AcDbVertex
100
AcDb2dVertex
 10
101.2017469365051
 20
-128.7914496205799
 30
0.0
  0
VERTEX
  5
E5
330
E1
100
AcDbEntity
  8
_U+30EC_U+30A4_U+30E4_U+30FC 1
370
     0
100
AcDbVertex
100
AcDb2dVertex
 10
101.4535834164769
 20
-128.7914496205799
 30
0.0
  0
VERTEX
  5
E6
330
E1
100
AcDbEntity
  8
_U+30EC_U+30A4_U+30E4_U+30FC 1
370
     0
100
AcDbVertex
100
AcDb2dVertex
 10
101.4535834164769
 20
-129.0432861005517
 30
0.0
  0
SEQEND
  5
E7
330
E1
100
AcDbEntity
  8
_U+30EC_U+30A4_U+30E4_U+30FC 1
370
     0
  0
HATCH
  5
E8
330
D8
100
AcDbEntity
  8
_U+30EC_U+30A4_U+30E4_U+30FC 1
 62
   179
420
  2234388
100
AcDbHatch
 10
0.0
 20
0.0
 30
0.0
210
0.0
220
0.0
230
1.0
  2
SOLID
 70
     1
 71
     0
 91
        1
 92
        1
 93
        4
 72
     1
 10
101.4535834164769
 20
-129.0432861005517
 11
101.2017469365051
 21
-129.0432861005517
 72
     1
 10
101.2017469365051
 20
-129.0432861005517
 11
101.2017469365051
 21
-128.7914496205799
 72
     1
 10
101.2017469365051
 20
-128.7914496205799
 11
101.4535834164769
 21
-128.7914496205799
 72
     1
 10
101.4535834164769
 20
-128.7914496205799
 11
101.4535834164769
 21
-129.0432861005517
 97
        0
 75
     2
 76
     1
 98
        0
  0
SPLINE
  5
E9
330
D8
100
AcDbEntity
  8
_U+30EC_U+30A4_U+30E4_U+30FC 1
370
     0
100
AcDbSpline
210
0.0
220
0.0
230
1.0
 70
    11
 71
     3
 72
    53
 73
    49
 74
     0
 42
0.0000000001
 43
0.0000000001
 12
1.0
 22
0.0
 32
0.0
 13
1.0
 23
0.0
 33
0.0
 40
0.0
 40
0.0
 40
0.0
 40
0.0
 40
1.0
 40
1.0
 40
1.0
 40
2.0
 40
2.0
 40
2.0
 40
3.0
 40
3.0
 40
3.0
 40
4.0
 40
4.0
 40
4.0
 40
5.0
 40
5.0
 40
5.0
 40
6.0
 40
6.0
 40
6.0
 40
7.0
 40
7.0
 40
7.0
 40
8.0
 40
8.0
 40
8.0
 40
9.0
 40
9.0
 40
9.0
 40
10.0
 40
10.0
 40
10.0
 40
11.0
 40
11.0
 40
11.0
 40
12.0
 40
12.0
 40
12.0
 40
13.0
 40
13.0
 40
13.0
 40
14.0
 40
14.0
 40
14.0
 40
15.0
 40
15.0
 40
15.0
 40
16.0
 40
16.0
 40
16.0
 40
16.0
 10
101.5042263201101
 20
-128.0741807405509
 30
0.0
 10
101.5042263201101
 20
-128.1523844080661
 30
0.0
 10
101.4873453522323
 20
-128.254014724881
 30
0.0
 10
101.4239555953037
 20
-128.3556450416958
 30
0.0
 10
101.3140570493243
 20
-128.5289333446039
 30
0.0
 10
101.1827989113362
 20
-128.5502929366124
 30
0.0
 10
101.0749674226479
 20
-128.5692409617813
 30
0.0
 10
101.0749674226479
 20
-128.5692409617813
 30
0.0
 10
101.0749674226479
 20
-128.3470323029827
 30
0.0
 10
101.0749674226479
 20
-128.3470323029827
 30
0.0
 10
101.2737494321468
 20
-128.2922552847672
 30
0.0
 10
101.30337725332
 20
-128.1651312613615
 30
0.0
 10
101.30337725332
 20
-128.0721136832597
 30
0.0
 10
101.30337725332
 20
-127.9325873161071
 30
0.0
 10
101.2038139937963
 20
-127.7803140956591
 30
0.0
 10
100.9712700485419
 20
-127.7803140956591
 30
0.0
 10
100.7152994539879
 20
-127.7803140956591
 30
0.0
 10
100.6453640156373
 20
-127.9601480799891
 30
0.0
 10
100.6453640156373
 20
-128.0807264219729
 30
0.0
 10
100.6453640156373
 20
-128.1124213004372
 30
0.0
 10
100.6453640156373
 20
-128.254014724881
 30
0.0
 10
100.7745550963341
 20
-128.3428981884004
 30
0.0
 10
100.7745550963341
 20
-128.3428981884004
 30
0.0
 10
100.7556070711653
 20
-128.5185980581481
 30
0.0
 10
100.7556070711653
 20
-128.5185980581481
 30
0.0
 10
100.7556070711653
 20
-128.5185980581481
 30
0.0
 10
99.90914711043938
 20
-128.3980197161644
 30
0.0
 10
99.90914711043938
 20
-128.3980197161644
 30
0.0
 10
99.90914711043938
 20
-128.3980197161644
 30
0.0
 10
99.90914711043938
 20
-127.6194281364979
 30
0.0
 10
99.90914711043938
 20
-127.6194281364979
 30
0.0
 10
99.90914711043938
 20
-127.6194281364979
 30
0.0
 10
100.103795005356
 20
-127.6194281364979
 30
0.0
 10
100.103795005356
 20
-127.6194281364979
 30
0.0
 10
100.103795005356
 20
-127.6194281364979
 30
0.0
 10
100.103795005356
 20
-128.2350666997121
 30
0.0
 10
100.103795005356
 20
-128.2350666997121
 30
0.0
 10
100.103795005356
 20
-128.2350666997121
 30
0.0
 10
100.5268527309447
 20
-128.3005235139318
 30
0.0
 10
100.5268527309447
 20
-128.3005235139318
 30
0.0
 10
100.4930907951892
 20
-128.2392008142944
 30
0.0
 10
100.4527831780118
 20
-128.1568630321969
 30
0.0
 10
100.4527831780118
 20
-128.0383517475043
 30
0.0
 10
100.4527831780118
 20
-127.7844482102414
 30
0.0
 10
100.6391628437638
 20
-127.5474256408562
 30
0.0
 10
100.952322023373
 20
-127.5474256408562
 30
0.0
 10
101.2696153175645
 20
-127.5474256408562
 30
0.0
 10
101.5042263201101
 20
-127.771701356946
 30
0.0
 10
101.5042263201101
 20
-128.0741807405509
 30
0.0
  0
HATCH
  5
EA
330
D8
100
AcDbEntity
  8
_U+30EC_U+30A4_U+30E4_U+30FC 1
 62
   179
420
  2234388
100
AcDbHatch
 10
0.0
 20
0.0
 30
0.0
210
0.0
220
0.0
230
1.0
  2
SOLID
 70
     1
 71
     0
 91
        1
 92
        1
 93
        1
 72
     4
 94
        3
 73
     0
 74
     1
 95
       53
 96
       49
 40
0.0
 40
0.0
 40
0.0
 40
0.0
 40
1.0
 40
1.0
 40
1.0
 40
2.0
 40
2.0
 40
2.0
 40
3.0
 40
3.0
 40
3.0
 40
4.0
 40
4.0
 40
4.0
 40
5.0
 40
5.0
 40
5.0
 40
6.0
 40
6.0
 40
6.0
 40
7.0
 40
7.0
 40
7.0
 40
8.0
 40
8.0
 40
8.0
 40
9.0
 40
9.0
 40
9.0
 40
10.0
 40
10.0
 40
10.0
 40
11.0
 40
11.0
 40
11.0
 40
12.0
 40
12.0
 40
12.0
 40
13.0
 40
13.0
 40
13.0
 40
14.0
 40
14.0
 40
14.0
 40
15.0
 40
15.0
 40
15.0
 40
16.0
 40
16.0
 40
16.0
 40
16.0
 10
101.5042263201101
 20
-128.0741807405509
 10
101.5042263201101
 20
-128.1523844080661
 10
101.4873453522323
 20
-128.254014724881
 10
101.4239555953037
 20
-128.3556450416958
 10
101.3140570493243
 20
-128.5289333446039
 10
101.1827989113362
 20
-128.5502929366124
 10
101.0749674226479
 20
-128.5692409617813
 10
101.0749674226479
 20
-128.5692409617813
 10
101.0749674226479
 20
-128.3470323029827
 10
101.0749674226479
 20
-128.3470323029827
 10
101.2737494321468
 20
-128.2922552847672
 10
101.30337725332
 20
-128.1651312613615
 10
101.30337725332
 20
-128.0721136832597
 10
101.30337725332
 20
-127.9325873161071
 10
101.2038139937963
 20
-127.7803140956591
 10
100.9712700485419
 20
-127.7803140956591
 10
100.7152994539879
 20
-127.7803140956591
 10
100.6453640156373
 20
-127.9601480799891
 10
100.6453640156373
 20
-128.0807264219729
 10
100.6453640156373
 20
-128.1124213004372
 10
100.6453640156373
 20
-128.254014724881
 10
100.7745550963341
 20
-128.3428981884004
 10
100.7745550963341
 20
-128.3428981884004
 10
100.7556070711653
 20
-128.5185980581481
 10
100.7556070711653
 20
-128.5185980581481
 10
100.7556070711653
 20
-128.5185980581481
 10
99.90914711043938
 20
-128.3980197161644
 10
99.90914711043938
 20
-128.3980197161644
 10
99.90914711043938
 20
-128.3980197161644
 10
99.90914711043938
 20
-127.6194281364979
 10
99.90914711043938
 20
-127.6194281364979
 10
99.90914711043938
 20
-127.6194281364979
 10
100.103795005356
 20
-127.6194281364979
 10
100.103795005356
 20
-127.6194281364979
 10
100.103795005356
 20
-127.6194281364979
 10
100.103795005356
 20
-128.2350666997121
 10
100.103795005356
 20
-128.2350666997121
 10
100.103795005356
 20
-128.2350666997121
 10
100.5268527309447
 20
-128.3005235139318
 10
100.5268527309447
 20
-128.3005235139318
 10
100.4930907951892
 20
-128.2392008142944
 10
100.4527831780118
 20
-128.1568630321969
 10
100.4527831780118
 20
-128.0383517475043
 10
100.4527831780118
 20
-127.7844482102414
 10
100.6391628437638
 20
-127.5474256408562
 10
100.952322023373
 20
-127.5474256408562
 10
101.2696153175645
 20
-127.5474256408562
 10
101.5042263201101
 20
-127.771701356946
 10
101.5042263201101
 20
-128.0741807405509
 97
        0
 97
        0
 75
     2
 76
     1
 98
        0
  0
ENDBLK
  5
DB
330
D8
100
AcDbEntity
  8
0
100
AcDbBlockEnd
  0
ENDSEC
  0
SECTION
  2
ENTITIES
  0
INSERT
  5
42
330
1F
100
AcDbEntity
  8
_U+30EC_U+30A4_U+30E4_U+30FC 1
100
AcDbBlockReference
  2
block 2
 10
0.0
 20
0.0
 30
0.0
  0
ENDSEC
  0
SECTION
  2
OBJECTS
  0
DICTIONARY
  5
C
330
0
100
AcDbDictionary
281
     1
  3
ACAD_GROUP
350
D
  3
ACAD_LAYOUT
350
1A
  3
ACAD_MATERIAL
350
3B
  3
ACAD_MLEADERSTYLE
350
EC
  3
ACAD_MLINESTYLE
350
17
  3
ACAD_PLOTSETTINGS
350
19
  3
ACAD_PLOTSTYLENAME
350
E
  3
ACAD_TABLESTYLE
350
EB
  3
ACAD_VISUALSTYLE
350
2A
  0
SUN
  5
3F
330
29
100
AcDbSun
 90
        1
290
     0
 63
     7
421
 16777215
 40
1.0
291
     1
 91
  2455826
 92
 54000000
292
     0
 70
     2
 71
   256
280
     1
  0
DICTIONARY
  5
D
102
{ACAD_REACTORS
330
C
102
}
330
C
100
AcDbDictionary
281
     1
  0
DICTIONARY
  5
1A
102
{ACAD_REACTORS
330
C
102
}
330
C
100
AcDbDictionary
281
     1
  3
Layout1
350
1E
  3
Layout2
350
26
  3
Model
350
22
  0
DICTIONARY
  5
3B
102
{ACAD_REACTORS
330
C
102
}
330
C
100
AcDbDictionary
281
     1
  3
ByBlock
350
3D
  3
ByLayer
350
3C
  3
Global
350
3E
  0
DICTIONARY
  5
EC
102
{ACAD_REACTORS
330
C
102
}
330
C
100
AcDbDictionary
281
     1
  0
DICTIONARY
  5
17
102
{ACAD_REACTORS
330
C
102
}
330
C
100
AcDbDictionary
281
     1
  3
Standard
350
18
  0
DICTIONARY
  5
19
102
{ACAD_REACTORS
330
C
102
}
330
C
100
AcDbDictionary
281
     1
  0
ACDBDICTIONARYWDFLT
  5
E
102
{ACAD_REACTORS
330
C
102
}
330
C
100
AcDbDictionary
281
     1
  3
Normal
350
F
100
AcDbDictionaryWithDefault
340
F
  0
DICTIONARY
  5
EB
102
{ACAD_REACTORS
330
C
102
}
330
C
100
AcDbDictionary
281
     1
  0
DICTIONARY
  5
2A
102
{ACAD_REACTORS
330
C
102
}
330
C
100
AcDbDictionary
281
     1
  3
2dWireframe
350
2F
  3
3D Hidden
350
31
  3
3dWireframe
350
30
  3
Basic
350
32
  3
Brighten
350
36
  3
ColorChange
350
3A
  3
Conceptual
350
34
  3
Dim
350
35
  3
Facepattern
350
39
  3
Flat
350
2B
  3
FlatWithEdges
350
2C
  3
Gouraud
350
2D
  3
GouraudWithEdges
350
2E
  3
Linepattern
350
38
  3
Realistic
350
33
  3
Thicken
350
37
  0
LAYOUT
  5
1E
102
{ACAD_REACTORS
330
1A
102
}
330
1A
100
AcDbPlotSettings
  1

  2
none_device
  4

  6

 40
0.0
 41
0.0
 42
0.0
 43
0.0
 44
0.0
 45
0.0
 46
0.0
 47
0.0
 48
0.0
 49
0.0
140
0.0
141
0.0
142
1.0
143
1.0
 70
   688
 72
     0
 73
     0
 74
     5
  7

 75
    16
 76
     0
 77
     2
 78
   300
147
1.0
148
0.0
149
0.0
100
AcDbLayout
  1
Layout1
 70
     1
 71
     1
 10
0.0
 20
0.0
 11
12.0
 21
9.0
 12
0.0
 22
0.0
 32
0.0
 14
1.000000000000000E+20
 24
1.000000000000000E+20
 34
1.000000000000000E+20
 15
-1.000000000000000E+20
 25
-1.000000000000000E+20
 35
-1.000000000000000E+20
146
0.0
 13
0.0
 23
0.0
 33
0.0
 16
1.0
 26
0.0
 36
0.0
 17
0.0
 27
1.0
 37
0.0
 76
     0
330
1B
  0
LAYOUT
  5
26
102
{ACAD_REACTORS
330
1A
102
}
330
1A
100
AcDbPlotSettings
  1

  2
none_device
  4

  6

 40
0.0
 41
0.0
 42
0.0
 43
0.0
 44
0.0
 45
0.0
 46
0.0
 47
0.0
 48
0.0
 49
0.0
140
0.0
141
0.0
142
1.0
143
1.0
 70
   688
 72
     0
 73
     0
 74
     5
  7

 75
    16
 76
     0
 77
     2
 78
   300
147
1.0
148
0.0
149
0.0
100
AcDbLayout
  1
Layout2
 70
     1
 71
     2
 10
0.0
 20
0.0
 11
0.0
 21
0.0
 12
0.0
 22
0.0
 32
0.0
 14
0.0
 24
0.0
 34
0.0
 15
0.0
 25
0.0
 35
0.0
146
0.0
 13
0.0
 23
0.0
 33
0.0
 16
1.0
 26
0.0
 36
0.0
 17
0.0
 27
1.0
 37
0.0
 76
     0
330
23
  0
LAYOUT
  5
22
102
{ACAD_REACTORS
330
1A
102
}
330
1A
100
AcDbPlotSettings
  1

  2
none_device
  4

  6

 40
0.0
 41
0.0
 42
0.0
 43
0.0
 44
0.0
 45
0.0
 46
0.0
 47
0.0
 48
0.0
 49
0.0
140
0.0
141
0.0
142
1.0
143
1.0
 70
  1712
 72
     0
 73
     0
 74
     0
  7

 75
     0
 76
     0
 77
     2
 78
   300
147
1.0
148
0.0
149
0.0
100
AcDbLayout
  1
Model
 70
     1
 71
     0
 10
0.0
 20
0.0
 11
12.0
 21
9.0
 12
0.0
 22
0.0
 32
0.0
 14
1.000000000000000E+20
 24
1.000000000000000E+20
 34
1.000000000000000E+20
 15
-1.000000000000000E+20
 25
-1.000000000000000E+20
 35
-1.000000000000000E+20
146
0.0
 13
0.0
 23
0.0
 33
0.0
 16
1.0
 26
0.0
 36
0.0
 17
0.0
 27
1.0
 37
0.0
 76
     0
330
1F
331
29
  0
MATERIAL
  5
3D
102
{ACAD_REACTORS
330
3B
102
}
330
3B
100
AcDbMaterial
  1
ByBlock
 72
     1
 94
      127
  0
MATERIAL
  5
3C
102
{ACAD_REACTORS
330
3B
102
}
330
3B
100
AcDbMaterial
  1
ByLayer
 72
     1
 94
      127
  0
MATERIAL
  5
3E
102
{ACAD_REACTORS
330
3B
102
}
330
3B
100
AcDbMaterial
  1
Global
 72
     1
 94
      127
  0
MLINESTYLE
  5
18
102
{ACAD_REACTORS
330
17
102
}
330
17
100
AcDbMlineStyle
  2
Standard
 70
     0
  3

 62
   256
 51
90.0
 52
90.0
 71
     2
 49
0.5
 62
   256
  6
BYLAYER
 49
-0.5
 62
   256
  6
BYLAYER
  0
ACDBPLACEHOLDER
  5
F
102
{ACAD_REACTORS
330
E
102
}
330
E
  0
VISUALSTYLE
  5
2F
102
{ACAD_REACTORS
330
2A
102
}
330
2A
100
AcDbVisualStyle
  2
2dWireframe
 70
     4
177
     2
291
     0
 71
     0
176
     1
 72
     2
176
     1
 73
     0
176
     1
 90
        0
176
     1
 40
-0.6
176
     1
 41
-30.0
176
     1
 62
     5
 63
     7
421
 16777215
176
     1
 74
     1
176
     1
 91
        4
176
     1
 64
     7
176
     1
 65
   257
176
     1
 75
     1
176
     1
175
     1
176
     1
 42
1.0
176
     1
 92
        0
176
     1
 66
   257
176
     1
 43
1.0
176
     1
 76
     1
176
     1
 77
     6
176
     1
 78
     2
176
     1
 67
     7
176
     1
 79
     5
176
     1
170
     0
176
     1
171
     0
176
     1
290
     0
176
     1
 93
        1
176
     1
 44
0.0
176
     1
173
     0
176
     1
  0
VISUALSTYLE
  5
31
102
{ACAD_REACTORS
330
2A
102
}
330
2A
100
AcDbVisualStyle
  2
3D Hidden
 70
     6
177
     2
291
     0
 71
     1
176
     1
 72
     2
176
     1
 73
     2
176
     1
 90
        0
176
     1
 40
-0.6
176
     1
 41
-30.0
176
     1
 62
     5
 63
     7
421
 16777215
176
     1
 74
     2
176
     1
 91
        2
176
     1
 64
     7
176
     1
 65
   257
176
     1
 75
     2
176
     1
175
     1
176
     1
 42
40.0
176
     1
 92
        0
176
     1
 66
   257
176
     1
 43
1.0
176
     1
 76
     1
176
     1
 77
     6
176
     1
 78
     2
176
     1
 67
     7
176
     1
 79
     3
176
     1
170
     0
176
     1
171
     0
176
     1
290
     0
176
     1
 93
        1
176
     1
 44
0.0
176
     1
173
     0
176
     1
  0
VISUALSTYLE
  5
30
102
{ACAD_REACTORS
330
2A
102
}
330
2A
100
AcDbVisualStyle
  2
3dWireframe
 70
     5
177
     2
291
     0
 71
     0
176
     1
 72
     2
176
     1
 73
     0
176
     1
 90
        0
176
     1
 40
-0.6
176
     1
 41
-30.0
176
     1
 62
     5
 63
     7
421
 16777215
176
     1
 74
     1
176
     1
 91
        4
176
     1
 64
     7
176
     1
 65
   257
176
     1
 75
     1
176
     1
175
     1
176
     1
 42
1.0
176
     1
 92
        0
176
     1
 66
   257
176
     1
 43
1.0
176
     1
 76
     1
176
     1
 77
     6
176
     1
 78
     2
176
     1
 67
     7
176
     1
 79
     5
176
     1
170
     0
176
     1
171
     0
176
     1
290
     0
176
     1
 93
        1
176
     1
 44
0.0
176
     1
173
     0
176
     1
  0
VISUALSTYLE
  5
32
102
{ACAD_REACTORS
330
2A
102
}
330
2A
100
AcDbVisualStyle
  2
Basic
 70
     7
177
     2
291
     1
 71
     1
176
     1
 72
     0
176
     1
 73
     1
176
     1
 90
        0
176
     1
 40
-0.6
176
     1
 41
-30.0
176
     1
 62
     5
 63
     7
421
 16777215
176
     1
 74
     0
176
     1
 91
        4
176
     1
 64
     7
176
     1
 65
   257
176
     1
 75
     1
176
     1
175
     1
176
     1
 42
1.0
176
     1
 92
        8
176
     1
 66
     7
176
     1
 43
1.0
176
     1
 76
     1
176
     1
 77
     6
176
     1
 78
     2
176
     1
 67
     7
176
     1
 79
     5
176
     1
170
     0
176
     1
171
     0
176
     1
290
     0
176
     1
 93
        1
176
     1
 44
0.0
176
     1
173
     0
176
     1
  0
VISUALSTYLE
  5
36
102
{ACAD_REACTORS
330
2A
102
}
330
2A
100
AcDbVisualStyle
  2
Brighten
 70
    12
177
     2
291
     1
 71
     2
176
     1
 72
     2
176
     1
 73
     0
176
     1
 90
        0
176
     1
 40
-0.6
176
     1
 41
-30.0
176
     1
 62
     5
 63
     7
421
 16777215
176
     1
 74
     1
176
     1
 91
        4
176
     1
 64
     7
176
     1
 65
   257
176
     1
 75
     1
176
     1
175
     1
176
     1
 42
1.0
176
     1
 92
        8
176
     1
 66
     7
176
     1
 43
1.0
176
     1
 76
     1
176
     1
 77
     6
176
     1
 78
     2
176
     1
 67
     7
176
     1
 79
     5
176
     1
170
     0
176
     1
171
     0
176
     1
290
     0
176
     1
 93
        1
176
     1
 44
50.0
176
     1
173
     0
176
     1
  0
VISUALSTYLE
  5
3A
102
{ACAD_REACTORS
330
2A
102
}
330
2A
100
AcDbVisualStyle
  2
ColorChange
 70
    16
177
     2
291
     1
 71
     2
176
     1
 72
     2
176
     1
 73
     3
176
     1
 90
        0
176
     1
 40
-0.6
176
     1
 41
-30.0
176
     1
 62
     5
 63
     8
421
  8421504
176
     1
 74
     1
176
     1
 91
        4
176
     1
 64
     7
176
     1
 65
   257
176
     1
 75
     1
176
     1
175
     1
176
     1
 42
1.0
176
     1
 92
        8
176
     1
 66
     8
424
  8421504
176
     1
 43
1.0
176
     1
 76
     1
176
     1
 77
     6
176
     1
 78
     2
176
     1
 67
     7
176
     1
 79
     5
176
     1
170
     0
176
     1
171
     0
176
     1
290
     0
176
     1
 93
        1
176
     1
 44
0.0
176
     1
173
     0
176
     1
  0
VISUALSTYLE
  5
34
102
{ACAD_REACTORS
330
2A
102
}
330
2A
100
AcDbVisualStyle
  2
Conceptual
 70
     9
177
     2
291
     0
 71
     3
176
     1
 72
     2
176
     1
 73
     0
176
     1
 90
        0
176
     1
 40
-0.6
176
     1
 41
-30.0
176
     1
 62
     5
 63
     7
421
 16777215
176
     1
 74
     2
176
     1
 91
        2
176
     1
 64
     7
176
     1
 65
   257
176
     1
 75
     1
176
     1
175
     1
176
     1
 42
40.0
176
     1
 92
        8
176
     1
 66
     7
176
     1
 43
1.0
176
     1
 76
     1
176
     1
 77
     6
176
     1
 78
     2
176
     1
 67
     7
176
     1
 79
     3
176
     1
170
     0
176
     1
171
     0
176
     1
290
     0
176
     1
 93
        1
176
     1
 44
0.0
176
     1
173
     0
176
     1
  0
VISUALSTYLE
  5
35
102
{ACAD_REACTORS
330
2A
102
}
330
2A
100
AcDbVisualStyle
  2
Dim
 70
    11
177
     2
291
     1
 71
     2
176
     1
 72
     2
176
     1
 73
     0
176
     1
 90
        0
176
     1
 40
-0.6
176
     1
 41
-30.0
176
     1
 62
     5
 63
     7
421
 16777215
176
     1
 74
     1
176
     1
 91
        4
176
     1
 64
     7
176
     1
 65
   257
176
     1
 75
     1
176
     1
175
     1
176
     1
 42
1.0
176
     1
 92
        8
176
     1
 66
     7
176
     1
 43
1.0
176
     1
 76
     1
176
     1
 77
     6
176
     1
 78
     2
176
     1
 67
     7
176
     1
 79
     5
176
     1
170
     0
176
     1
171
     0
176
     1
290
     0
176
     1
 93
        1
176
     1
 44
-50.0
176
     1
173
     0
176
     1
  0
VISUALSTYLE
  5
39
102
{ACAD_REACTORS
330
2A
102
}
330
2A
100
AcDbVisualStyle
  2
Facepattern
 70
    15
177
     2
291
     1
 71
     2
176
     1
 72
     2
176
     1
 73
     0
176
     1
 90
        0
176
     1
 40
-0.6
176
     1
 41
-30.0
176
     1
 62
     5
 63
     7
421
 16777215
176
     1
 74
     1
176
     1
 91
        4
176
     1
 64
     7
176
     1
 65
   257
176
     1
 75
     1
176
     1
175
     1
176
     1
 42
1.0
176
     1
 92
        8
176
     1
 66
     7
176
     1
 43
1.0
176
     1
 76
     1
176
     1
 77
     6
176
     1
 78
     2
176
     1
 67
     7
176
     1
 79
     5
176
     1
170
     0
176
     1
171
     0
176
     1
290
     0
176
     1
 93
        1
176
     1
 44
0.0
176
     1
173
     0
176
     1
  0
VISUALSTYLE
  5
2B
102
{ACAD_REACTORS
330
2A
102
}
330
2A
100
AcDbVisualStyle
  2
Flat
 70
     0
177
     2
291
     1
 71
     2
176
     1
 72
     1
176
     1
 73
     1
176
     1
 90
        2
176
     1
 40
-0.6
176
     1
 41
30.0
176
     1
 62
     5
 63
     7
421
 16777215
176
     1
 74
     0
176
     1
 91
        4
176
     1
 64
     7
176
     1
 65
   257
176
     1
 75
     1
176
     1
175
     1
176
     1
 42
1.0
176
     1
 92
        8
176
     1
 66
     7
176
     1
 43
1.0
176
     1
 76
     1
176
     1
 77
     6
176
     1
 78
     2
176
     1
 67
     7
176
     1
 79
     5
176
     1
170
     0
176
     1
171
     0
176
     1
290
     0
176
     1
 93
       13
176
     1
 44
0.0
176
     1
173
     0
176
     1
  0
VISUALSTYLE
  5
2C
102
{ACAD_REACTORS
330
2A
102
}
330
2A
100
AcDbVisualStyle
  2
FlatWithEdges
 70
     1
177
     2
291
     1
 71
     2
176
     1
 72
     1
176
     1
 73
     1
176
     1
 90
        2
176
     1
 40
-0.6
176
     1
 41
30.0
176
     1
 62
     5
 63
     7
421
 16777215
176
     1
 74
     1
176
     1
 91
        4
176
     1
 64
     7
176
     1
 65
   257
176
     1
 75
     1
176
     1
175
     1
176
     1
 42
1.0
176
     1
 92
        0
176
     1
 66
   257
176
     1
 43
1.0
176
     1
 76
     1
176
     1
 77
     6
176
     1
 78
     2
176
     1
 67
     7
176
     1
 79
     5
176
     1
170
     0
176
     1
171
     0
176
     1
290
     0
176
     1
 93
       13
176
     1
 44
0.0
176
     1
173
     0
176
     1
  0
VISUALSTYLE
  5
2D
102
{ACAD_REACTORS
330
2A
102
}
330
2A
100
AcDbVisualStyle
  2
Gouraud
 70
     2
177
     2
291
     1
 71
     2
176
     1
 72
     2
176
     1
 73
     1
176
     1
 90
        2
176
     1
 40
-0.6
176
     1
 41
30.0
176
     1
 62
     5
 63
     7
421
 16777215
176
     1
 74
     0
176
     1
 91
        4
176
     1
 64
     7
176
     1
 65
   257
176
     1
 75
     1
176
     1
175
     1
176
     1
 42
1.0
176
     1
 92
        0
176
     1
 66
     7
176
     1
 43
1.0
176
     1
 76
     1
176
     1
 77
     6
176
     1
 78
     2
176
     1
 67
     7
176
     1
 79
     5
176
     1
170
     0
176
     1
171
     0
176
     1
290
     0
176
     1
 93
       13
176
     1
 44
0.0
176
     1
173
     0
176
     1
  0
VISUALSTYLE
  5
2E
102
{ACAD_REACTORS
330
2A
102
}
330
2A
100
AcDbVisualStyle
  2
GouraudWithEdges
 70
     3
177
     2
291
     1
 71
     2
176
     1
 72
     2
176
     1
 73
     1
176
     1
 90
        2
176
     1
 40
-0.6
176
     1
 41
30.0
176
     1
 62
     5
 63
     7
421
 16777215
176
     1
 74
     1
176
     1
 91
        4
176
     1
 64
     7
176
     1
 65
   257
176
     1
 75
     1
176
     1
175
     1
176
     1
 42
1.0
176
     1
 92
        0
176
     1
 66
   257
176
     1
 43
1.0
176
     1
 76
     1
176
     1
 77
     6
176
     1
 78
     2
176
     1
 67
     7
176
     1
 79
     5
176
     1
170
     0
176
     1
171
     0
176
     1
290
     0
176
     1
 93
       13
176
     1
 44
0.0
176
     1
173
     0
176
     1
  0
VISUALSTYLE
  5
38
102
{ACAD_REACTORS
330
2A
102
}
330
2A
100
AcDbVisualStyle
  2
Linepattern
 70
    14
177
     2
291
     1
 71
     2
176
     1
 72
     2
176
     1
 73
     0
176
     1
 90
        0
176
     1
 40
-0.6
176
     1
 41
-30.0
176
     1
 62
     5
 63
     7
421
 16777215
176
     1
 74
     1
176
     1
 91
        4
176
     1
 64
     7
176
     1
 65
   257
176
     1
 75
     7
176
     1
175
     7
176
     1
 42
1.0
176
     1
 92
        8
176
     1
 66
     7
176
     1
 43
1.0
176
     1
 76
     1
176
     1
 77
     6
176
     1
 78
     2
176
     1
 67
     7
176
     1
 79
     5
176
     1
170
     0
176
     1
171
     0
176
     1
290
     0
176
     1
 93
        1
176
     1
 44
0.0
176
     1
173
     0
176
     1
  0
VISUALSTYLE
  5
33
102
{ACAD_REACTORS
330
2A
102
}
330
2A
100
AcDbVisualStyle
  2
Realistic
 70
     8
177
     2
291
     0
 71
     2
176
     1
 72
     2
176
     1
 73
     0
176
     1
 90
        0
176
     1
 40
-0.6
176
     1
 41
-30.0
176
     1
 62
     5
 63
     7
421
 16777215
176
     1
 74
     1
176
     1
 91
        0
176
     1
 64
     7
176
     1
 65
   257
176
     1
 75
     1
176
     1
175
     1
176
     1
 42
1.0
176
     1
 92
        8
176
     1
 66
     8
424
  7895160
176
     1
 43
1.0
176
     1
 76
     1
176
     1
 77
     6
176
     1
 78
     2
176
     1
 67
     7
176
     1
 79
     5
176
     1
170
     0
176
     1
171
     0
176
     1
290
     0
176
     1
 93
       13
176
     1
 44
0.0
176
     1
173
     0
176
     1
  0
VISUALSTYLE
  5
37
102
{ACAD_REACTORS
330
2A
102
}
330
2A
100
AcDbVisualStyle
  2
Thicken
 70
    13
177
     2
291
     1
 71
     2
176
     1
 72
     2
176
     1
 73
     0
176
     1
 90
        0
176
     1
 40
-0.6
176
     1
 41
-30.0
176
     1
 62
     5
 63
     7
421
 16777215
176
     1
 74
     1
176
     1
 91
        4
176
     1
 64
     7
176
     1
 65
   257
176
     1
 75
     1
176
     1
175
     1
176
     1
 42
1.0
176
     1
 92
       12
176
     1
 66
     7
176
     1
 43
1.0
176
     1
 76
     1
176
     1
 77
     6
176
     1
 78
     2
176
     1
 67
     7
176
     1
 79
     5
176
     1
170
     0
176
     1
171
     0
176
     1
290
     0
176
     1
 93
        1
176
     1
 44
0.0
176
     1
173
     0
176
     1
  0
ENDSEC
  0
EOF
