  0
SECTION
  2
HEADER
  9
$ACADVER
  1
AC1024
  9
$ACADMAINTVER
 70
     6
  9
$DWGCODEPAGE
  3
UNDEFINED
  9
$INSBASE
 10
0.0
 20
0.0
 30
0.0
  9
$EXTMIN
 10
1.000000000000000E+20
 20
1.000000000000000E+20
 30
1.000000000000000E+20
  9
$EXTMAX
 10
-1.000000000000000E+20
 20
-1.000000000000000E+20
 30
-1.000000000000000E+20
  9
$LIMMIN
 10
0.0
 20
0.0
  9
$LIMMAX
 10
12.0
 20
9.0
  9
$ORTHOMODE
 70
     0
  9
$REGENMODE
 70
     1
  9
$FILLMODE
 70
     1
  9
$QTEXTMODE
 70
     0
  9
$MIRRTEXT
 70
     1
  9
$LTSCALE
 40
1.0
  9
$ATTMODE
 70
     1
  9
$TEXTSIZE
 40
0.2
  9
$TRACEWID
 40
0.05
  9
$TEXTSTYLE
  7
Standard
  9
$CLAYER
  8
0
  9
$CELTYPE
  6
ByLayer
  9
$CECOLOR
 62
   256
  9
$CELTSCALE
 40
1.0
  9
$DISPSILH
 70
     0
  9
$DIMSCALE
 40
1.0
  9
$DIMASZ
 40
0.18
  9
$DIMEXO
 40
0.0625
  9
$DIMDLI
 40
0.38
  9
$DIMRND
 40
0.0
  9
$DIMDLE
 40
0.0
  9
$DIMEXE
 40
0.18
  9
$DIMTP
 40
0.0
  9
$DIMTM
 40
0.0
  9
$DIMTXT
 40
0.18
  9
$DIMCEN
 40
0.09
  9
$DIMTSZ
 40
0.0
  9
$DIMTOL
 70
     0
  9
$DIMLIM
 70
     0
  9
$DIMTIH
 70
     1
  9
$DIMTOH
 70
     1
  9
$DIMSE1
 70
     0
  9
$DIMSE2
 70
     0
  9
$DIMTAD
 70
     0
  9
$DIMZIN
 70
     0
  9
$DIMBLK
  1

  9
$DIMASO
 70
     1
  9
$DIMSHO
 70
     1
  9
$DIMPOST
  1

  9
$DIMAPOST
  1

  9
$DIMALT
 70
     0
  9
$DIMALTD
 70
     2
  9
$DIMALTF
 40
25.4
  9
$DIMLFAC
 40
1.0
  9
$DIMTOFL
 70
     0
  9
$DIMTVP
 40
0.0
  9
$DIMTIX
 70
     0
  9
$DIMSOXD
 70
     0
  9
$DIMSAH
 70
     0
  9
$DIMBLK1
  1

  9
$DIMBLK2
  1

  9
$DIMSTYLE
  2
Standard
  9
$DIMCLRD
 70
     0
  9
$DIMCLRE
 70
     0
  9
$DIMCLRT
 70
     0
  9
$DIMTFAC
 40
1.0
  9
$DIMGAP
 40
0.09
  9
$DIMJUST
 70
     0
  9
$DIMSD1
 70
     0
  9
$DIMSD2
 70
     0
  9
$DIMTOLJ
 70
     1
  9
$DIMTZIN
 70
     0
  9
$DIMALTZ
 70
     0
  9
$DIMALTTZ
 70
     0
  9
$DIMUPT
 70
     0
  9
$DIMDEC
 70
     4
  9
$DIMTDEC
 70
     4
  9
$DIMALTU
 70
     2
  9
$DIMALTTD
 70
     2
  9
$DIMTXSTY
  7
Standard
  9
$DIMAUNIT
 70
     0
  9
$DIMADEC
 70
     0
  9
$DIMALTRND
 40
0.0
  9
$DIMAZIN
 70
     0
  9
$DIMDSEP
 70
    46
  9
$DIMATFIT
 70
     3
  9
$DIMFRAC
 70
     0
  9
$DIMLDRBLK
  1

  9
$DIMLUNIT
 70
     2
  9
$DIMLWD
 70
    -2
  9
$DIMLWE
 70
    -2
  9
$DIMTMOVE
 70
     0
  9
$DIMFXL
 40
1.0
  9
$DIMFXLON
 70
     0
  9
$DIMJOGANG
 40
0.7853981633974483
  9
$DIMTFILL
 70
     0
  9
$DIMTFILLCLR
 70
     0
  9
$DIMARCSYM
 70
     0
  9
$DIMLTYPE
  6

  9
$DIMLTEX1
  6

  9
$DIMLTEX2
  6

  9
$DIMTXTDIRECTION
 70
     0
  9
$LUNITS
 70
     2
  9
$LUPREC
 70
     4
  9
$SKETCHINC
 40
0.1
  9
$FILLETRAD
 40
0.5
  9
$AUNITS
 70
     0
  9
$AUPREC
 70
     0
  9
$MENU
  1
.
  9
$ELEVATION
 40
0.0
  9
$PELEVATION
 40
0.0
  9
$THICKNESS
 40
0.0
  9
$LIMCHECK
 70
     0
  9
$CHAMFERA
 40
0.5
  9
$CHAMFERB
 40
0.5
  9
$CHAMFERC
 40
1.0
  9
$CHAMFERD
 40
0.0
  9
$SKPOLY
 70
     0
  9
$TDCREATE
 40
2457917.615740729
  9
$TDUCREATE
 40
2457917.240740741
  9
$TDUPDATE
 40
2457917.615740729
  9
$TDUUPDATE
 40
2457917.240740741
  9
$TDINDWG
 40
0.0000000116
  9
$TDUSRTIMER
 40
0.0000000116
  9
$USRTIMER
 70
     1
  9
$ANGBASE
 50
0.0
  9
$ANGDIR
 70
     0
  9
$PDMODE
 70
     0
  9
$PDSIZE
 40
0.0
  9
$PLINEWID
 40
0.0
  9
$SPLFRAME
 70
     0
  9
$SPLINETYPE
 70
     6
  9
$SPLINESEGS
 70
     8
  9
$HANDSEED
  5
F2
  9
$SURFTAB1
 70
     6
  9
$SURFTAB2
 70
     6
  9
$SURFTYPE
 70
     6
  9
$SURFU
 70
     6
  9
$SURFV
 70
     6
  9
$UCSBASE
  2

  9
$UCSNAME
  2

  9
$UCSORG
 10
0.0
 20
0.0
 30
0.0
  9
$UCSXDIR
 10
1.0
 20
0.0
 30
0.0
  9
$UCSYDIR
 10
0.0
 20
1.0
 30
0.0
  9
$UCSORTHOREF
  2

  9
$UCSORTHOVIEW
 70
     0
  9
$UCSORGTOP
 10
0.0
 20
0.0
 30
0.0
  9
$UCSORGBOTTOM
 10
0.0
 20
0.0
 30
0.0
  9
$UCSORGLEFT
 10
0.0
 20
0.0
 30
0.0
  9
$UCSORGRIGHT
 10
0.0
 20
0.0
 30
0.0
  9
$UCSORGFRONT
 10
0.0
 20
0.0
 30
0.0
  9
$UCSORGBACK
 10
0.0
 20
0.0
 30
0.0
  9
$PUCSBASE
  2

  9
$PUCSNAME
  2

  9
$PUCSORG
 10
0.0
 20
0.0
 30
0.0
  9
$PUCSXDIR
 10
1.0
 20
0.0
 30
0.0
  9
$PUCSYDIR
 10
0.0
 20
1.0
 30
0.0
  9
$PUCSORTHOREF
  2

  9
$PUCSORTHOVIEW
 70
     0
  9
$PUCSORGTOP
 10
0.0
 20
0.0
 30
0.0
  9
$PUCSORGBOTTOM
 10
0.0
 20
0.0
 30
0.0
  9
$PUCSORGLEFT
 10
0.0
 20
0.0
 30
0.0
  9
$PUCSORGRIGHT
 10
0.0
 20
0.0
 30
0.0
  9
$PUCSORGFRONT
 10
0.0
 20
0.0
 30
0.0
  9
$PUCSORGBACK
 10
0.0
 20
0.0
 30
0.0
  9
$USERI1
 70
     0
  9
$USERI2
 70
     0
  9
$USERI3
 70
     0
  9
$USERI4
 70
     0
  9
$USERI5
 70
     0
  9
$USERR1
 40
0.0
  9
$USERR2
 40
0.0
  9
$USERR3
 40
0.0
  9
$USERR4
 40
0.0
  9
$USERR5
 40
0.0
  9
$WORLDVIEW
 70
     1
  9
$SHADEDGE
 70
     3
  9
$SHADEDIF
 70
    70
  9
$TILEMODE
 70
     1
  9
$MAXACTVP
 70
    64
  9
$PINSBASE
 10
0.0
 20
0.0
 30
0.0
  9
$PLIMCHECK
 70
     0
  9
$PEXTMIN
 10
1.000000000000000E+20
 20
1.000000000000000E+20
 30
1.000000000000000E+20
  9
$PEXTMAX
 10
-1.000000000000000E+20
 20
-1.000000000000000E+20
 30
-1.000000000000000E+20
  9
$PLIMMIN
 10
0.0
 20
0.0
  9
$PLIMMAX
 10
12.0
 20
9.0
  9
$UNITMODE
 70
     0
  9
$VISRETAIN
 70
     1
  9
$PLINEGEN
 70
     0
  9
$PSLTSCALE
 70
     1
  9
$TREEDEPTH
 70
  3020
  9
$CMLSTYLE
  2
Standard
  9
$CMLJUST
 70
     0
  9
$CMLSCALE
 40
1.0
  9
$PROXYGRAPHICS
 70
     1
  9
$MEASUREMENT
 70
     0
  9
$CELWEIGHT
370
    -1
  9
$ENDCAPS
280
     0
  9
$JOINSTYLE
280
     0
  9
$LWDISPLAY
290
     1
  9
$INSUNITS
 70
     1
  9
$HYPERLINKBASE
  1

  9
$STYLESHEET
  1

  9
$XEDIT
290
     1
  9
$CEPSNTYPE
380
     0
  9
$PSTYLEMODE
290
     1
  9
$FINGERPRINTGUID
  2
{C2E77C7F-198C-D9A5-7E5F-560C34094C57}
  9
$VERSIONGUID
  2
{FAEB1C32-E019-11D5-929B-00C0DF256EC4}
  9
$EXTNAMES
290
     1
  9
$PSVPSCALE
 40
0.0
  9
$OLESTARTUP
290
     0
  9
$SORTENTS
280
   127
  9
$INDEXCTL
280
     0
  9
$HIDETEXT
280
     1
  9
$XCLIPFRAME
280
     2
  9
$HALOGAP
280
     0
  9
$OBSCOLOR
 70
   257
  9
$OBSLTYPE
280
     0
  9
$INTERSECTIONDISPLAY
280
     0
  9
$INTERSECTIONCOLOR
 70
   257
  9
$DIMASSOC
280
     2
  9
$PROJECTNAME
  1

  9
$CAMERADISPLAY
290
     0
  9
$LENSLENGTH
 40
50.0
  9
$CAMERAHEIGHT
 40
0.0
  9
$STEPSPERSEC
 40
2.0
  9
$STEPSIZE
 40
6.0
  9
$3DDWFPREC
 40
2.0
  9
$PSOLWIDTH
 40
0.25
  9
$PSOLHEIGHT
 40
4.0
  9
$LOFTANG1
 40
1.570796326794897
  9
$LOFTANG2
 40
1.570796326794897
  9
$LOFTMAG1
 40
0.0
  9
$LOFTMAG2
 40
0.0
  9
$LOFTPARAM
 70
     7
  9
$LOFTNORMALS
280
     1
  9
$LATITUDE
 40
37.795
  9
$LONGITUDE
 40
-122.394
  9
$NORTHDIRECTION
 40
0.0
  9
$TIMEZONE
 70
 -8000
  9
$LIGHTGLYPHDISPLAY
280
     1
  9
$TILEMODELIGHTSYNCH
280
     1
  9
$CMATERIAL
347
3C
  9
$SOLIDHIST
280
     1
  9
$SHOWHIST
280
     1
  9
$DWFFRAME
280
     2
  9
$DGNFRAME
280
     2
  9
$REALWORLDSCALE
290
     1
  9
$INTERFERECOLOR
 62
   256
  9
$CSHADOW
280
     0
  9
$SHADOWPLANELOCATION
 40
0.0
  0
ENDSEC
  0
SECTION
  2
CLASSES
  0
CLASS
  1
ACDBDICTIONARYWDFLT
  2
AcDbDictionaryWithDefault
  3
ObjectDBX Classes
 90
        0
 91
        4
280
     0
281
     0
  0
CLASS
  1
VISUALSTYLE
  2
AcDbVisualStyle
  3
ObjectDBX Classes
 90
     4095
 91
        4
280
     0
281
     0
  0
CLASS
  1
MATERIAL
  2
AcDbMaterial
  3
ObjectDBX Classes
 90
     1153
 91
        4
280
     0
281
     0
  0
CLASS
  1
SUN
  2
AcDbSun
  3
SCENEOE
 90
     1024
 91
        4
280
     0
281
     0
  0
ENDSEC
  0
SECTION
  2
TABLES
  0
TABLE
  2
VPORT
  5
8
330
0
100
AcDbSymbolTable
 70
     1
  0
VPORT
  5
29
330
8
100
AcDbSymbolTableRecord
100
AcDbViewportTableRecord
  2
*Active
 70
     0
 10
0.0
 20
0.0
 11
1.0
 21
1.0
 12
0.0
 22
0.0
 13
0.0
 23
0.0
 14
0.5
 24
0.5
 15
0.5
 25
0.5
 16
0.0
 26
0.0
 36
1.0
 17
91.00082462281999
 27
-128.4993055234307
 37
0.0
 40
256.9986110468615
 41
0.7081814508812795
 42
50.0
 43
0.0
 44
0.0
 50
0.0
 51
0.0
 71
     0
 72
   100
 73
     1
 74
     3
 75
     0
 76
     0
 77
     0
 78
     0
281
     0
 65
     1
110
0.0
120
0.0
130
0.0
111
1.0
121
0.0
131
0.0
112
0.0
122
1.0
132
0.0
 79
     0
146
0.0
 60
     3
 61
     5
292
     1
282
     1
141
0.0
142
0.0
 63
   250
361
3F
  0
ENDTAB
  0
TABLE
  2
LTYPE
  5
5
330
0
100
AcDbSymbolTable
 70
     1
  0
LTYPE
  5
14
330
5
100
AcDbSymbolTableRecord
100
AcDbLinetypeTableRecord
  2
ByBlock
 70
     0
  3

 72
    65
 73
     0
 40
0.0
  0
LTYPE
  5
15
330
5
100
AcDbSymbolTableRecord
100
AcDbLinetypeTableRecord
  2
ByLayer
 70
     0
  3

 72
    65
 73
     0
 40
0.0
  0
LTYPE
  5
16
330
5
100
AcDbSymbolTableRecord
100
AcDbLinetypeTableRecord
  2
Continuous
 70
     0
  3
Solid line
 72
    65
 73
     0
 40
0.0
  0
ENDTAB
  0
TABLE
  2
LAYER
  5
2
330
0
100
AcDbSymbolTable
 70
     2
  0
LAYER
  5
10
330
2
100
AcDbSymbolTableRecord
100
AcDbLayerTableRecord
  2
0
 70
     0
 62
     7
  6
Continuous
370
    -3
390
F
347
3E
  0
LAYER
  5
40
330
2
100
AcDbSymbolTableRecord
100
AcDbLayerTableRecord
  2
_U+30EC_U+30A4_U+30E4_U+30FC 1
 70
     0
 62
     7
  6
Continuous
370
    -3
390
F
347
3E
  0
ENDTAB
  0
TABLE
  2
STYLE
  5
3
330
0
100
AcDbSymbolTable
 70
     1
  0
STYLE
  5
11
330
3
100
AcDbSymbolTableRecord
100
AcDbTextStyleTableRecord
  2
Standard
 70
     0
 40
0.0
 41
1.0
 50
0.0
 71
     0
 42
0.2
  3
txt
  4

  0
ENDTAB
  0
TABLE
  2
VIEW
  5
6
330
0
100
AcDbSymbolTable
 70
     0
  0
ENDTAB
  0
TABLE
  2
UCS
  5
7
330
0
100
AcDbSymbolTable
 70
     0
  0
ENDTAB
  0
TABLE
  2
APPID
  5
9
330
0
100
AcDbSymbolTable
 70
     1
  0
APPID
  5
12
330
9
100
AcDbSymbolTableRecord
100
AcDbRegAppTableRecord
  2
ACAD
 70
     0
  0
ENDTAB
  0
TABLE
  2
DIMSTYLE
  5
A
330
0
100
AcDbSymbolTable
 70
     1
100
AcDbDimStyleTable
  0
DIMSTYLE
105
27
330
A
100
AcDbSymbolTableRecord
100
AcDbDimStyleTableRecord
  2
Standard
 70
     0
178
     0
340
11
  0
ENDTAB
  0
TABLE
  2
BLOCK_RECORD
  5
1
330
0
100
AcDbSymbolTable
 70
     9
  0
BLOCK_RECORD
  5
1F
330
1
100
AcDbSymbolTableRecord
100
AcDbBlockTableRecord
  2
*Model_Space
340
22
 70
     0
280
     1
281
     0
  0
BLOCK_RECORD
  5
1B
330
1
100
AcDbSymbolTableRecord
100
AcDbBlockTableRecord
  2
*Paper_Space
340
1E
 70
     0
280
     1
281
     0
  0
BLOCK_RECORD
  5
23
330
1
100
AcDbSymbolTableRecord
100
AcDbBlockTableRecord
  2
*Paper_Space0
340
26
 70
     0
280
     1
281
     0
  0
BLOCK_RECORD
  5
41
330
1
100
AcDbSymbolTableRecord
100
AcDbBlockTableRecord
  2
block 2
340
0
102
{BLKREFS
331
42
102
}
 70
     0
280
     1
281
     0
  0
BLOCK_RECORD
  5
45
330
1
100
AcDbSymbolTableRecord
100
AcDbBlockTableRecord
  2
block 3
340
0
102
{BLKREFS
331
46
102
}
 70
     0
280
     1
281
     0
  0
BLOCK_RECORD
  5
89
330
1
100
AcDbSymbolTableRecord
100
AcDbBlockTableRecord
  2
block 4
340
0
102
{BLKREFS
331
8A
102
}
 70
     0
280
     1
281
     0
  0
BLOCK_RECORD
  5
99
330
1
100
AcDbSymbolTableRecord
100
AcDbBlockTableRecord
  2
block 5
340
0
102
{BLKREFS
331
9A
102
}
 70
     0
280
     1
281
     0
  0
BLOCK_RECORD
  5
A2
330
1
100
AcDbSymbolTableRecord
100
AcDbBlockTableRecord
  2
block 6
340
0
102
{BLKREFS
331
A3
102
}
 70
     0
280
     1
281
     0
  0
BLOCK_RECORD
  5
B2
330
1
100
AcDbSymbolTableRecord
100
AcDbBlockTableRecord
  2
block 7
340
0
102
{BLKREFS
331
B3
102
}
 70
     0
280
     1
281
     0
  0
BLOCK_RECORD
  5
CA
330
1
100
AcDbSymbolTableRecord
100
AcDbBlockTableRecord
  2
block 8
340
0
102
{BLKREFS
331
CB
102
}
 70
     0
280
     1
281
     0
  0
BLOCK_RECORD
  5
E0
330
1
100
AcDbSymbolTableRecord
100
AcDbBlockTableRecord
  2
block 9
340
0
102
{BLKREFS
331
E1
102
}
 70
     0
280
     1
281
     0
  0
ENDTAB
  0
ENDSEC
  0
SECTION
  2
BLOCKS
  0
BLOCK
  5
20
330
1F
100
AcDbEntity
  8
0
100
AcDbBlockBegin
  2
*Model_Space
 70
     0
 10
0.0
 20
0.0
 30
0.0
  3
*Model_Space
  1

  0
ENDBLK
  5
21
330
1F
100
AcDbEntity
  8
0
100
AcDbBlockEnd
  0
BLOCK
  5
1C
330
1B
100
AcDbEntity
 67
     1
  8
0
100
AcDbBlockBegin
  2
*Paper_Space
 70
     0
 10
0.0
 20
0.0
 30
0.0
  3
*Paper_Space
  1

  0
ENDBLK
  5
1D
330
1B
100
AcDbEntity
 67
     1
  8
0
100
AcDbBlockEnd
  0
BLOCK
  5
24
330
23
100
AcDbEntity
  8
0
100
AcDbBlockBegin
  2
*Paper_Space0
 70
     0
 10
0.0
 20
0.0
 30
0.0
  3
*Paper_Space0
  1

  0
ENDBLK
  5
25
330
23
100
AcDbEntity
  8
0
100
AcDbBlockEnd
  0
BLOCK
  5
43
330
41
100
AcDbEntity
  8
0
100
AcDbBlockBegin
  2
block 2
 70
     0
 10
0.0
 20
0.0
 30
0.0
  3
block 2
  1

  0
INSERT
  5
46
330
41
100
AcDbEntity
  8
_U+30EC_U+30A4_U+30E4_U+30FC 1
100
AcDbBlockReference
  2
block 3
 10
0.0
 20
0.0
 30
0.0
  0
POLYLINE
  5
4B
330
41
100
AcDbEntity
  8
_U+30EC_U+30A4_U+30E4_U+30FC 1
370
     0
100
AcDb2dPolyline
 66
     1
 10
0.0
 20
0.0
 30
0.0
  0
VERTEX
  5
4C
330
4B
100
AcDbEntity
  8
_U+30EC_U+30A4_U+30E4_U+30FC 1
370
     0
100
AcDbVertex
100
AcDb2dVertex
 10
73.34987118424444
 20
-133.4612660777456
 30
0.0
  0
VERTEX
  5
4D
330
4B
100
AcDbEntity
  8
_U+30EC_U+30A4_U+30E4_U+30FC 1
370
     0
100
AcDbVertex
100
AcDb2dVertex
 10
83.34960398468556
 20
-133.4612660777456
 30
0.0
  0
VERTEX
  5
4E
330
4B
100
AcDbEntity
  8
_U+30EC_U+30A4_U+30E4_U+30FC 1
370
     0
100
AcDbVertex
100
AcDb2dVertex
 10
83.34960398468556
 20
-130.4619846896068
 30
0.0
  0
VERTEX
  5
4F
330
4B
100
AcDbEntity
  8
_U+30EC_U+30A4_U+30E4_U+30FC 1
370
     0
100
AcDbVertex
100
AcDb2dVertex
 10
82.34983178796965
 20
-130.4619846896068
 30
0.0
  0
VERTEX
  5
50
330
4B
100
AcDbEntity
  8
_U+30EC_U+30A4_U+30E4_U+30FC 1
370
     0
100
AcDbVertex
100
AcDb2dVertex
 10
82.34983178796965
 20
-132.4614938557737
 30
0.0
  0
VERTEX
  5
51
330
4B
100
AcDbEntity
  8
_U+30EC_U+30A4_U+30E4_U+30FC 1
370
     0
100
AcDbVertex
100
AcDb2dVertex
 10
74.34964338096034
 20
-132.4614938557737
 30
0.0
  0
VERTEX
  5
52
330
4B
100
AcDbEntity
  8
_U+30EC_U+30A4_U+30E4_U+30FC 1
370
     0
100
AcDbVertex
100
AcDb2dVertex
 10
74.34964338096034
 20
-126.9617588571484
 30
0.0
  0
VERTEX
  5
53
330
4B
100
AcDbEntity
  8
_U+30EC_U+30A4_U+30E4_U+30FC 1
370
     0
100
AcDbVertex
100
AcDb2dVertex
 10
98.34953832422758
 20
-126.9617588571484
 30
0.0
  0
VERTEX
  5
54
330
4B
100
AcDbEntity
  8
_U+30EC_U+30A4_U+30E4_U+30FC 1
370
     0
100
AcDbVertex
100
AcDb2dVertex
 10
98.34953832422758
 20
-125.9619866351762
 30
0.0
  0
VERTEX
  5
55
330
4B
100
AcDbEntity
  8
_U+30EC_U+30A4_U+30E4_U+30FC 1
370
     0
100
AcDbVertex
100
AcDb2dVertex
 10
73.34987118424444
 20
-125.9619866351762
 30
0.0
  0
VERTEX
  5
56
330
4B
100
AcDbEntity
  8
_U+30EC_U+30A4_U+30E4_U+30FC 1
370
     0
100
AcDbVertex
100
AcDb2dVertex
 10
73.34987118424444
 20
-133.4612660777456
 30
0.0
  0
SEQEND
  5
58
330
4B
100
AcDbEntity
  8
_U+30EC_U+30A4_U+30E4_U+30FC 1
370
     0
  0
HATCH
  5
57
330
41
100
AcDbEntity
  8
_U+30EC_U+30A4_U+30E4_U+30FC 1
 62
     9
420
 13224394
100
AcDbHatch
 10
0.0
 20
0.0
 30
0.0
210
0.0
220
0.0
230
1.0
  2
SOLID
 70
     1
 71
     0
 91
        1
 92
        1
 93
       10
 72
     1
 10
73.34987118424444
 20
-133.4612660777456
 11
83.34960398468556
 21
-133.4612660777456
 72
     1
 10
83.34960398468556
 20
-133.4612660777456
 11
83.34960398468556
 21
-130.4619846896068
 72
     1
 10
83.34960398468556
 20
-130.4619846896068
 11
82.34983178796965
 21
-130.4619846896068
 72
     1
 10
82.34983178796965
 20
-130.4619846896068
 11
82.34983178796965
 21
-132.4614938557737
 72
     1
 10
82.34983178796965
 20
-132.4614938557737
 11
74.34964338096034
 21
-132.4614938557737
 72
     1
 10
74.34964338096034
 20
-132.4614938557737
 11
74.34964338096034
 21
-126.9617588571484
 72
     1
 10
74.34964338096034
 20
-126.9617588571484
 11
98.34953832422758
 21
-126.9617588571484
 72
     1
 10
98.34953832422758
 20
-126.9617588571484
 11
98.34953832422758
 21
-125.9619866351762
 72
     1
 10
98.34953832422758
 20
-125.9619866351762
 11
73.34987118424444
 21
-125.9619866351762
 72
     1
 10
73.34987118424444
 20
-125.9619866351762
 11
73.34987118424444
 21
-133.4612660777456
 97
        0
 75
     2
 76
     1
 98
        0
  0
POLYLINE
  5
59
330
41
100
AcDbEntity
  8
_U+30EC_U+30A4_U+30E4_U+30FC 1
 62
   179
420
  2234388
370
    25
100
AcDb2dPolyline
 66
     1
 10
0.0
 20
0.0
 30
0.0
  0
VERTEX
  5
5A
330
59
100
AcDbEntity
  8
_U+30EC_U+30A4_U+30E4_U+30FC 1
 62
   179
420
  2234388
370
    25
100
AcDbVertex
100
AcDb2dVertex
 10
73.34987118424444
 20
-125.9619866351762
 30
0.0
  0
VERTEX
  5
5B
330
59
100
AcDbEntity
  8
_U+30EC_U+30A4_U+30E4_U+30FC 1
 62
   179
420
  2234388
370
    25
100
AcDbVertex
100
AcDb2dVertex
 10
98.34989110199635
 20
-125.9619866351762
 30
0.0
  0
SEQEND
  5
5C
330
59
100
AcDbEntity
  8
_U+30EC_U+30A4_U+30E4_U+30FC 1
 62
   179
420
  2234388
370
    25
  0
POLYLINE
  5
5D
330
41
100
AcDbEntity
  8
_U+30EC_U+30A4_U+30E4_U+30FC 1
 62
   179
420
  2234388
370
    25
100
AcDb2dPolyline
 66
     1
 10
0.0
 20
0.0
 30
0.0
  0
VERTEX
  5
5E
330
5D
100
AcDbEntity
  8
_U+30EC_U+30A4_U+30E4_U+30FC 1
 62
   179
420
  2234388
370
    25
100
AcDbVertex
100
AcDb2dVertex
 10
73.34987118424444
 20
-125.9619866351762
 30
0.0
  0
VERTEX
  5
5F
330
5D
100
AcDbEntity
  8
_U+30EC_U+30A4_U+30E4_U+30FC 1
 62
   179
420
  2234388
370
    25
100
AcDbVertex
100
AcDb2dVertex
 10
73.34987118424444
 20
-133.4619716333011
 30
0.0
  0
SEQEND
  5
60
330
5D
100
AcDbEntity
  8
_U+30EC_U+30A4_U+30E4_U+30FC 1
 62
   179
420
  2234388
370
    25
  0
POLYLINE
  5
61
330
41
100
AcDbEntity
  8
_U+30EC_U+30A4_U+30E4_U+30FC 1
 62
   179
420
  2234388
370
    25
100
AcDb2dPolyline
 66
     1
 10
0.0
 20
0.0
 30
0.0
  0
VERTEX
  5
62
330
61
100
AcDbEntity
  8
_U+30EC_U+30A4_U+30E4_U+30FC 1
 62
   179
420
  2234388
370
    25
100
AcDbVertex
100
AcDb2dVertex
 10
98.34989110199635
 20
-125.9619866351762
 30
0.0
  0
VERTEX
  5
63
330
61
100
AcDbEntity
  8
_U+30EC_U+30A4_U+30E4_U+30FC 1
 62
   179
420
  2234388
370
    25
100
AcDbVertex
100
AcDb2dVertex
 10
98.34989110199635
 20
-126.9617588571484
 30
0.0
  0
SEQEND
  5
64
330
61
100
AcDbEntity
  8
_U+30EC_U+30A4_U+30E4_U+30FC 1
 62
   179
420
  2234388
370
    25
  0
POLYLINE
  5
65
330
41
100
AcDbEntity
  8
_U+30EC_U+30A4_U+30E4_U+30FC 1
 62
   179
420
  2234388
370
    25
100
AcDb2dPolyline
 66
     1
 10
0.0
 20
0.0
 30
0.0
  0
VERTEX
  5
66
330
65
100
AcDbEntity
  8
_U+30EC_U+30A4_U+30E4_U+30FC 1
 62
   179
420
  2234388
370
    25
100
AcDbVertex
100
AcDb2dVertex
 10
74.34964338096034
 20
-126.9617588571484
 30
0.0
  0
VERTEX
  5
67
330
65
100
AcDbEntity
  8
_U+30EC_U+30A4_U+30E4_U+30FC 1
 62
   179
420
  2234388
370
    25
100
AcDbVertex
100
AcDb2dVertex
 10
98.34989110199635
 20
-126.9617588571484
 30
0.0
  0
SEQEND
  5
68
330
65
100
AcDbEntity
  8
_U+30EC_U+30A4_U+30E4_U+30FC 1
 62
   179
420
  2234388
370
    25
  0
POLYLINE
  5
69
330
41
100
AcDbEntity
  8
_U+30EC_U+30A4_U+30E4_U+30FC 1
 62
   179
420
  2234388
370
    25
100
AcDb2dPolyline
 66
     1
 10
0.0
 20
0.0
 30
0.0
  0
VERTEX
  5
6A
330
69
100
AcDbEntity
  8
_U+30EC_U+30A4_U+30E4_U+30FC 1
 62
   179
420
  2234388
370
    25
100
AcDbVertex
100
AcDb2dVertex
 10
83.34960398468556
 20
-130.4619846896068
 30
0.0
  0
VERTEX
  5
6B
330
69
100
AcDbEntity
  8
_U+30EC_U+30A4_U+30E4_U+30FC 1
 62
   179
420
  2234388
370
    25
100
AcDbVertex
100
AcDb2dVertex
 10
83.34960398468556
 20
-133.4612660777456
 30
0.0
  0
SEQEND
  5
6C
330
69
100
AcDbEntity
  8
_U+30EC_U+30A4_U+30E4_U+30FC 1
 62
   179
420
  2234388
370
    25
  0
POLYLINE
  5
6D
330
41
100
AcDbEntity
  8
_U+30EC_U+30A4_U+30E4_U+30FC 1
 62
   179
420
  2234388
370
    25
100
AcDb2dPolyline
 66
     1
 10
0.0
 20
0.0
 30
0.0
  0
VERTEX
  5
6E
330
6D
100
AcDbEntity
  8
_U+30EC_U+30A4_U+30E4_U+30FC 1
 62
   179
420
  2234388
370
    25
100
AcDbVertex
100
AcDb2dVertex
 10
82.34983178796965
 20
-130.4619846896068
 30
0.0
  0
VERTEX
  5
6F
330
6D
100
AcDbEntity
  8
_U+30EC_U+30A4_U+30E4_U+30FC 1
 62
   179
420
  2234388
370
    25
100
AcDbVertex
100
AcDb2dVertex
 10
82.34983178796965
 20
-132.4614938557737
 30
0.0
  0
SEQEND
  5
70
330
6D
100
AcDbEntity
  8
_U+30EC_U+30A4_U+30E4_U+30FC 1
 62
   179
420
  2234388
370
    25
  0
POLYLINE
  5
71
330
41
100
AcDbEntity
  8
_U+30EC_U+30A4_U+30E4_U+30FC 1
 62
   179
420
  2234388
370
    25
100
AcDb2dPolyline
 66
     1
 10
0.0
 20
0.0
 30
0.0
  0
VERTEX
  5
72
330
71
100
AcDbEntity
  8
_U+30EC_U+30A4_U+30E4_U+30FC 1
 62
   179
420
  2234388
370
    25
100
AcDbVertex
100
AcDb2dVertex
 10
74.34964338096034
 20
-126.9617588571484
 30
0.0
  0
VERTEX
  5
73
330
71
100
AcDbEntity
  8
_U+30EC_U+30A4_U+30E4_U+30FC 1
 62
   179
420
  2234388
370
    25
100
AcDbVertex
100
AcDb2dVertex
 10
74.34964338096034
 20
-132.4621994113286
 30
0.0
  0
SEQEND
  5
74
330
71
100
AcDbEntity
  8
_U+30EC_U+30A4_U+30E4_U+30FC 1
 62
   179
420
  2234388
370
    25
  0
POLYLINE
  5
75
330
41
100
AcDbEntity
  8
_U+30EC_U+30A4_U+30E4_U+30FC 1
 62
   179
420
  2234388
370
    25
100
AcDb2dPolyline
 66
     1
 10
0.0
 20
0.0
 30
0.0
  0
VERTEX
  5
76
330
75
100
AcDbEntity
  8
_U+30EC_U+30A4_U+30E4_U+30FC 1
 62
   179
420
  2234388
370
    25
100
AcDbVertex
100
AcDb2dVertex
 10
82.34983178796965
 20
-130.4619846896068
 30
0.0
  0
VERTEX
  5
77
330
75
100
AcDbEntity
  8
_U+30EC_U+30A4_U+30E4_U+30FC 1
 62
   179
420
  2234388
370
    25
100
AcDbVertex
100
AcDb2dVertex
 10
83.34960398468556
 20
-130.4619846896068
 30
0.0
  0
SEQEND
  5
78
330
75
100
AcDbEntity
  8
_U+30EC_U+30A4_U+30E4_U+30FC 1
 62
   179
420
  2234388
370
    25
  0
POLYLINE
  5
79
330
41
100
AcDbEntity
  8
_U+30EC_U+30A4_U+30E4_U+30FC 1
 62
   179
420
  2234388
370
    25
100
AcDb2dPolyline
 66
     1
 10
0.0
 20
0.0
 30
0.0
  0
VERTEX
  5
7A
330
79
100
AcDbEntity
  8
_U+30EC_U+30A4_U+30E4_U+30FC 1
 62
   179
420
  2234388
370
    25
100
AcDbVertex
100
AcDb2dVertex
 10
73.34987118424444
 20
-133.4619716333011
 30
0.0
  0
VERTEX
  5
7B
330
79
100
AcDbEntity
  8
_U+30EC_U+30A4_U+30E4_U+30FC 1
 62
   179
420
  2234388
370
    25
100
AcDbVertex
100
AcDb2dVertex
 10
83.34960398468556
 20
-133.4619716333011
 30
0.0
  0
SEQEND
  5
7C
330
79
100
AcDbEntity
  8
_U+30EC_U+30A4_U+30E4_U+30FC 1
 62
   179
420
  2234388
370
    25
  0
POLYLINE
  5
7D
330
41
100
AcDbEntity
  8
_U+30EC_U+30A4_U+30E4_U+30FC 1
 62
   179
420
  2234388
370
    25
100
AcDb2dPolyline
 66
     1
 10
0.0
 20
0.0
 30
0.0
  0
VERTEX
  5
7E
330
7D
100
AcDbEntity
  8
_U+30EC_U+30A4_U+30E4_U+30FC 1
 62
   179
420
  2234388
370
    25
100
AcDbVertex
100
AcDb2dVertex
 10
74.34964338096034
 20
-132.4621994113286
 30
0.0
  0
VERTEX
  5
7F
330
7D
100
AcDbEntity
  8
_U+30EC_U+30A4_U+30E4_U+30FC 1
 62
   179
420
  2234388
370
    25
100
AcDbVertex
100
AcDb2dVertex
 10
82.34983178796965
 20
-132.4621994113286
 30
0.0
  0
SEQEND
  5
80
330
7D
100
AcDbEntity
  8
_U+30EC_U+30A4_U+30E4_U+30FC 1
 62
   179
420
  2234388
370
    25
  0
SPLINE
  5
81
330
41
100
AcDbEntity
  8
_U+30EC_U+30A4_U+30E4_U+30FC 1
 62
   179
420
  2234388
370
    25
100
AcDbSpline
210
0.0
220
0.0
230
1.0
 70
    11
 71
     3
 72
    17
 73
    13
 74
     0
 42
0.0000000001
 43
0.0000000001
 12
1.0
 22
0.0
 32
0.0
 13
1.0
 23
0.0
 33
0.0
 40
0.0
 40
0.0
 40
0.0
 40
0.0
 40
1.0
 40
1.0
 40
1.0
 40
2.0
 40
2.0
 40
2.0
 40
3.0
 40
3.0
 40
3.0
 40
4.0
 40
4.0
 40
4.0
 40
4.0
 10
73.44977784836227
 20
-121.961557191732
 30
0.0
 10
73.44977784836227
 20
-121.9064180250789
 30
0.0
 10
73.4049750717275
 20
-121.86165052509
 30
0.0
 10
73.34987118424444
 20
-121.86165052509
 30
0.0
 10
73.29473201898449
 20
-121.86165052509
 30
0.0
 10
73.24996452012661
 20
-121.9064180250789
 30
0.0
 10
73.24996452012661
 20
-121.961557191732
 30
0.0
 10
73.24996452012661
 20
-122.0170138583846
 30
0.0
 10
73.29473201898449
 20
-122.0618166361514
 30
0.0
 10
73.34987118424444
 20
-122.0618166361514
 30
0.0
 10
73.4049750717275
 20
-122.0618166361514
 30
0.0
 10
73.44977784836227
 20
-122.0170138583846
 30
0.0
 10
73.44977784836227
 20
-121.961557191732
 30
0.0
  0
SPLINE
  5
82
330
41
100
AcDbEntity
  8
_U+30EC_U+30A4_U+30E4_U+30FC 1
 62
   179
420
  2234388
370
    25
100
AcDbSpline
210
0.0
220
0.0
230
1.0
 70
    11
 71
     3
 72
    17
 73
    13
 74
     0
 42
0.0000000001
 43
0.0000000001
 12
1.0
 22
0.0
 32
0.0
 13
1.0
 23
0.0
 33
0.0
 40
0.0
 40
0.0
 40
0.0
 40
0.0
 40
1.0
 40
1.0
 40
1.0
 40
2.0
 40
2.0
 40
2.0
 40
3.0
 40
3.0
 40
3.0
 40
4.0
 40
4.0
 40
4.0
 40
4.0
 10
98.44979776611419
 20
-121.961557191732
 30
0.0
 10
98.44979776611419
 20
-121.9064180250789
 30
0.0
 10
98.40503026725631
 20
-121.86165052509
 30
0.0
 10
98.34989110199635
 20
-121.86165052509
 30
0.0
 10
98.29443443674451
 20
-121.86165052509
 30
0.0
 10
98.24963166010974
 20
-121.9064180250789
 30
0.0
 10
98.24963166010974
 20
-121.961557191732
 30
0.0
 10
98.24963166010974
 20
-122.0170138583846
 30
0.0
 10
98.29443443674451
 20
-122.0618166361514
 30
0.0
 10
98.34989110199635
 20
-122.0618166361514
 30
0.0
 10
98.40503026725631
 20
-122.0618166361514
 30
0.0
 10
98.44979776611419
 20
-122.0170138583846
 30
0.0
 10
98.44979776611419
 20
-121.961557191732
 30
0.0
  0
SPLINE
  5
83
330
41
100
AcDbEntity
  8
_U+30EC_U+30A4_U+30E4_U+30FC 1
 62
   179
420
  2234388
370
    25
100
AcDbSpline
210
0.0
220
0.0
230
1.0
 70
    11
 71
     3
 72
    17
 73
    13
 74
     0
 42
0.0000000001
 43
0.0000000001
 12
1.0
 22
0.0
 32
0.0
 13
1.0
 23
0.0
 33
0.0
 40
0.0
 40
0.0
 40
0.0
 40
0.0
 40
1.0
 40
1.0
 40
1.0
 40
2.0
 40
2.0
 40
2.0
 40
3.0
 40
3.0
 40
3.0
 40
4.0
 40
4.0
 40
4.0
 40
4.0
 10
102.4499096085073
 20
-125.9619866351762
 30
0.0
 10
102.4499096085073
 20
-125.9065299685235
 30
0.0
 10
102.4051068318725
 20
-125.8617271907568
 30
0.0
 10
102.3496527521904
 20
-125.8617271907568
 30
0.0
 10
102.2945462791376
 20
-125.8617271907568
 30
0.0
 10
102.2497435025028
 20
-125.9065299685235
 30
0.0
 10
102.2497435025028
 20
-125.9619866351762
 30
0.0
 10
102.2497435025028
 20
-126.017125801829
 30
0.0
 10
102.2945462791376
 20
-126.0618933018178
 30
0.0
 10
102.3496527521904
 20
-126.0618933018178
 30
0.0
 10
102.4051068318725
 20
-126.0618933018178
 30
0.0
 10
102.4499096085073
 20
-126.017125801829
 30
0.0
 10
102.4499096085073
 20
-125.9619866351762
 30
0.0
  0
SPLINE
  5
84
330
41
100
AcDbEntity
  8
_U+30EC_U+30A4_U+30E4_U+30FC 1
 62
   179
420
  2234388
370
    25
100
AcDbSpline
210
0.0
220
0.0
230
1.0
 70
    11
 71
     3
 72
    17
 73
    13
 74
     0
 42
0.0000000001
 43
0.0000000001
 12
1.0
 22
0.0
 32
0.0
 13
1.0
 23
0.0
 33
0.0
 40
0.0
 40
0.0
 40
0.0
 40
0.0
 40
1.0
 40
1.0
 40
1.0
 40
2.0
 40
2.0
 40
2.0
 40
3.0
 40
3.0
 40
3.0
 40
4.0
 40
4.0
 40
4.0
 40
4.0
 10
102.4499096085073
 20
-126.9617588571484
 30
0.0
 10
102.4499096085073
 20
-126.9066549682732
 30
0.0
 10
102.4051068318725
 20
-126.8618521905068
 30
0.0
 10
102.3496527521904
 20
-126.8618521905068
 30
0.0
 10
102.2945462791376
 20
-126.8618521905068
 30
0.0
 10
102.2497435025028
 20
-126.9066549682732
 30
0.0
 10
102.2497435025028
 20
-126.9617588571484
 30
0.0
 10
102.2497435025028
 20
-127.0168980238012
 30
0.0
 10
102.2945462791376
 20
-127.0616655237901
 30
0.0
 10
102.3496527521904
 20
-127.0616655237901
 30
0.0
 10
102.4051068318725
 20
-127.0616655237901
 30
0.0
 10
102.4499096085073
 20
-127.0168980238012
 30
0.0
 10
102.4499096085073
 20
-126.9617588571484
 30
0.0
  0
SPLINE
  5
85
330
41
100
AcDbEntity
  8
_U+30EC_U+30A4_U+30E4_U+30FC 1
 62
   179
420
  2234388
370
    25
100
AcDbSpline
210
0.0
220
0.0
230
1.0
 70
    11
 71
     3
 72
    17
 73
    13
 74
     0
 42
0.0000000001
 43
0.0000000001
 12
1.0
 22
0.0
 32
0.0
 13
1.0
 23
0.0
 33
0.0
 40
0.0
 40
0.0
 40
0.0
 40
0.0
 40
1.0
 40
1.0
 40
1.0
 40
2.0
 40
2.0
 40
2.0
 40
3.0
 40
3.0
 40
3.0
 40
4.0
 40
4.0
 40
4.0
 40
4.0
 10
102.4499096085073
 20
-130.4619846896068
 30
0.0
 10
102.4499096085073
 20
-130.4061752451764
 30
0.0
 10
102.4051068318725
 20
-130.3613724674096
 30
0.0
 10
102.3496527521904
 20
-130.3613724674096
 30
0.0
 10
102.2945462791376
 20
-130.3613724674096
 30
0.0
 10
102.2497435025028
 20
-130.4061752451764
 30
0.0
 10
102.2497435025028
 20
-130.4619846896068
 30
0.0
 10
102.2497435025028
 20
-130.5170885784817
 30
0.0
 10
102.2945462791376
 20
-130.5618913562485
 30
0.0
 10
102.3496527521904
 20
-130.5618913562485
 30
0.0
 10
102.4051068318725
 20
-130.5618913562485
 30
0.0
 10
102.4499096085073
 20
-130.5170885784817
 30
0.0
 10
102.4499096085073
 20
-130.4619846896068
 30
0.0
  0
SPLINE
  5
86
330
41
100
AcDbEntity
  8
_U+30EC_U+30A4_U+30E4_U+30FC 1
 62
   179
420
  2234388
370
    25
100
AcDbSpline
210
0.0
220
0.0
230
1.0
 70
    11
 71
     3
 72
    17
 73
    13
 74
     0
 42
0.0000000001
 43
0.0000000001
 12
1.0
 22
0.0
 32
0.0
 13
1.0
 23
0.0
 33
0.0
 40
0.0
 40
0.0
 40
0.0
 40
0.0
 40
1.0
 40
1.0
 40
1.0
 40
2.0
 40
2.0
 40
2.0
 40
3.0
 40
3.0
 40
3.0
 40
4.0
 40
4.0
 40
4.0
 40
4.0
 10
102.4499096085073
 20
-133.4616188555234
 30
0.0
 10
102.4499096085073
 20
-133.4065149666485
 30
0.0
 10
102.4051068318725
 20
-133.3617121888817
 30
0.0
 10
102.3496527521904
 20
-133.3617121888817
 30
0.0
 10
102.2945462791376
 20
-133.3617121888817
 30
0.0
 10
102.2497435025028
 20
-133.4065149666485
 30
0.0
 10
102.2497435025028
 20
-133.4616188555234
 30
0.0
 10
102.2497435025028
 20
-133.5174282999538
 30
0.0
 10
102.2945462791376
 20
-133.5622310777206
 30
0.0
 10
102.3496527521904
 20
-133.5622310777206
 30
0.0
 10
102.4051068318725
 20
-133.5622310777206
 30
0.0
 10
102.4499096085073
 20
-133.5174282999538
 30
0.0
 10
102.4499096085073
 20
-133.4616188555234
 30
0.0
  0
SPLINE
  5
87
330
41
100
AcDbEntity
  8
_U+30EC_U+30A4_U+30E4_U+30FC 1
 62
   179
420
  2234388
370
    25
100
AcDbSpline
210
0.0
220
0.0
230
1.0
 70
    11
 71
     3
 72
    17
 73
    13
 74
     0
 42
0.0000000001
 43
0.0000000001
 12
1.0
 22
0.0
 32
0.0
 13
1.0
 23
0.0
 33
0.0
 40
0.0
 40
0.0
 40
0.0
 40
0.0
 40
1.0
 40
1.0
 40
1.0
 40
2.0
 40
2.0
 40
2.0
 40
3.0
 40
3.0
 40
3.0
 40
4.0
 40
4.0
 40
4.0
 40
4.0
 10
83.4495106488034
 20
-137.461730798968
 30
0.0
 10
83.4495106488034
 20
-137.406591632315
 30
0.0
 10
83.4047431499455
 20
-137.3618241323264
 30
0.0
 10
83.34960398468556
 20
-137.3618241323264
 30
0.0
 10
83.29450009720249
 20
-137.3618241323264
 30
0.0
 10
83.24969732056772
 20
-137.406591632315
 30
0.0
 10
83.24969732056772
 20
-137.461730798968
 30
0.0
 10
83.24969732056772
 20
-137.516834687843
 30
0.0
 10
83.29450009720249
 20
-137.5616374656097
 30
0.0
 10
83.34960398468556
 20
-137.5616374656097
 30
0.0
 10
83.4047431499455
 20
-137.5616374656097
 30
0.0
 10
83.4495106488034
 20
-137.516834687843
 30
0.0
 10
83.4495106488034
 20
-137.461730798968
 30
0.0
  0
SPLINE
  5
88
330
41
100
AcDbEntity
  8
_U+30EC_U+30A4_U+30E4_U+30FC 1
 62
   179
420
  2234388
370
    25
100
AcDbSpline
210
0.0
220
0.0
230
1.0
 70
    11
 71
     3
 72
    17
 73
    13
 74
     0
 42
0.0000000001
 43
0.0000000001
 12
1.0
 22
0.0
 32
0.0
 13
1.0
 23
0.0
 33
0.0
 40
0.0
 40
0.0
 40
0.0
 40
0.0
 40
1.0
 40
1.0
 40
1.0
 40
2.0
 40
2.0
 40
2.0
 40
3.0
 40
3.0
 40
3.0
 40
4.0
 40
4.0
 40
4.0
 40
4.0
 10
73.44977784836227
 20
-137.461730798968
 30
0.0
 10
73.44977784836227
 20
-137.406591632315
 30
0.0
 10
73.4049750717275
 20
-137.3618241323264
 30
0.0
 10
73.34987118424444
 20
-137.3618241323264
 30
0.0
 10
73.29473201898449
 20
-137.3618241323264
 30
0.0
 10
73.24996452012661
 20
-137.406591632315
 30
0.0
 10
73.24996452012661
 20
-137.461730798968
 30
0.0
 10
73.24996452012661
 20
-137.516834687843
 30
0.0
 10
73.29473201898449
 20
-137.5616374656097
 30
0.0
 10
73.34987118424444
 20
-137.5616374656097
 30
0.0
 10
73.4049750717275
 20
-137.5616374656097
 30
0.0
 10
73.44977784836227
 20
-137.516834687843
 30
0.0
 10
73.44977784836227
 20
-137.461730798968
 30
0.0
  0
INSERT
  5
8A
330
41
100
AcDbEntity
  8
_U+30EC_U+30A4_U+30E4_U+30FC 1
100
AcDbBlockReference
  2
block 4
 10
0.0
 20
0.0
 30
0.0
  0
INSERT
  5
A3
330
41
100
AcDbEntity
  8
_U+30EC_U+30A4_U+30E4_U+30FC 1
100
AcDbBlockReference
  2
block 6
 10
0.0
 20
0.0
 30
0.0
  0
POLYLINE
  5
BA
330
41
100
AcDbEntity
  8
_U+30EC_U+30A4_U+30E4_U+30FC 1
 62
   179
420
  2234388
370
     9
100
AcDb2dPolyline
 66
     1
 10
0.0
 20
0.0
 30
0.0
  0
VERTEX
  5
BB
330
BA
100
AcDbEntity
  8
_U+30EC_U+30A4_U+30E4_U+30FC 1
 62
   179
420
  2234388
370
     9
100
AcDbVertex
100
AcDb2dVertex
 10
102.3496527521904
 20
-125.9619866351762
 30
0.0
  0
VERTEX
  5
BC
330
BA
100
AcDbEntity
  8
_U+30EC_U+30A4_U+30E4_U+30FC 1
 62
   179
420
  2234388
370
     9
100
AcDbVertex
100
AcDb2dVertex
 10
102.3496527521904
 20
-122.1916741361188
 30
0.0
  0
SEQEND
  5
BD
330
BA
100
AcDbEntity
  8
_U+30EC_U+30A4_U+30E4_U+30FC 1
 62
   179
420
  2234388
370
     9
  0
POLYLINE
  5
BE
330
41
100
AcDbEntity
  8
_U+30EC_U+30A4_U+30E4_U+30FC 1
 62
   179
420
  2234388
370
     9
100
AcDb2dPolyline
 66
     1
 10
0.0
 20
0.0
 30
0.0
  0
VERTEX
  5
BF
330
BE
100
AcDbEntity
  8
_U+30EC_U+30A4_U+30E4_U+30FC 1
 62
   179
420
  2234388
370
     9
100
AcDbVertex
100
AcDb2dVertex
 10
102.3496527521904
 20
-125.9619866351762
 30
0.0
  0
VERTEX
  5
C0
330
BE
100
AcDbEntity
  8
_U+30EC_U+30A4_U+30E4_U+30FC 1
 62
   179
420
  2234388
370
     9
100
AcDbVertex
100
AcDb2dVertex
 10
102.3496527521904
 20
-126.9617588571484
 30
0.0
  0
SEQEND
  5
C1
330
BE
100
AcDbEntity
  8
_U+30EC_U+30A4_U+30E4_U+30FC 1
 62
   179
420
  2234388
370
     9
  0
POLYLINE
  5
C2
330
41
100
AcDbEntity
  8
_U+30EC_U+30A4_U+30E4_U+30FC 1
 62
   179
420
  2234388
370
     9
100
AcDb2dPolyline
 66
     1
 10
0.0
 20
0.0
 30
0.0
  0
VERTEX
  5
C3
330
C2
100
AcDbEntity
  8
_U+30EC_U+30A4_U+30E4_U+30FC 1
 62
   179
420
  2234388
370
     9
100
AcDbVertex
100
AcDb2dVertex
 10
100.8896088149805
 20
-125.9619866351762
 30
0.0
  0
VERTEX
  5
C4
330
C2
100
AcDbEntity
  8
_U+30EC_U+30A4_U+30E4_U+30FC 1
 62
   179
420
  2234388
370
     9
100
AcDbVertex
100
AcDb2dVertex
 10
103.34977775194
 20
-125.9619866351762
 30
0.0
  0
SEQEND
  5
C5
330
C2
100
AcDbEntity
  8
_U+30EC_U+30A4_U+30E4_U+30FC 1
 62
   179
420
  2234388
370
     9
  0
POLYLINE
  5
C6
330
41
100
AcDbEntity
  8
_U+30EC_U+30A4_U+30E4_U+30FC 1
 62
   179
420
  2234388
370
     9
100
AcDb2dPolyline
 66
     1
 10
0.0
 20
0.0
 30
0.0
  0
VERTEX
  5
C7
330
C6
100
AcDbEntity
  8
_U+30EC_U+30A4_U+30E4_U+30FC 1
 62
   179
420
  2234388
370
     9
100
AcDbVertex
100
AcDb2dVertex
 10
100.8896088149805
 20
-126.9617588571484
 30
0.0
  0
VERTEX
  5
C8
330
C6
100
AcDbEntity
  8
_U+30EC_U+30A4_U+30E4_U+30FC 1
 62
   179
420
  2234388
370
     9
100
AcDbVertex
100
AcDb2dVertex
 10
103.34977775194
 20
-126.9617588571484
 30
0.0
  0
SEQEND
  5
C9
330
C6
100
AcDbEntity
  8
_U+30EC_U+30A4_U+30E4_U+30FC 1
 62
   179
420
  2234388
370
     9
  0
INSERT
  5
CB
330
41
100
AcDbEntity
  8
_U+30EC_U+30A4_U+30E4_U+30FC 1
100
AcDbBlockReference
  2
block 8
 10
0.0
 20
0.0
 30
0.0
  0
POLYLINE
  5
D0
330
41
100
AcDbEntity
  8
_U+30EC_U+30A4_U+30E4_U+30FC 1
 62
   179
420
  2234388
370
     9
100
AcDb2dPolyline
 66
     1
 10
0.0
 20
0.0
 30
0.0
  0
VERTEX
  5
D1
330
D0
100
AcDbEntity
  8
_U+30EC_U+30A4_U+30E4_U+30FC 1
 62
   179
420
  2234388
370
     9
100
AcDbVertex
100
AcDb2dVertex
 10
102.3496527521904
 20
-130.4619846896068
 30
0.0
  0
VERTEX
  5
D2
330
D0
100
AcDbEntity
  8
_U+30EC_U+30A4_U+30E4_U+30FC 1
 62
   179
420
  2234388
370
     9
100
AcDbVertex
100
AcDb2dVertex
 10
102.3496527521904
 20
-133.4767882999639
 30
0.0
  0
SEQEND
  5
D3
330
D0
100
AcDbEntity
  8
_U+30EC_U+30A4_U+30E4_U+30FC 1
 62
   179
420
  2234388
370
     9
  0
POLYLINE
  5
D4
330
41
100
AcDbEntity
  8
_U+30EC_U+30A4_U+30E4_U+30FC 1
 62
   179
420
  2234388
370
     9
100
AcDb2dPolyline
 66
     1
 10
0.0
 20
0.0
 30
0.0
  0
VERTEX
  5
D5
330
D4
100
AcDbEntity
  8
_U+30EC_U+30A4_U+30E4_U+30FC 1
 62
   179
420
  2234388
370
     9
100
AcDbVertex
100
AcDb2dVertex
 10
85.88967447543851
 20
-133.4619716333011
 30
0.0
  0
VERTEX
  5
D6
330
D4
100
AcDbEntity
  8
_U+30EC_U+30A4_U+30E4_U+30FC 1
 62
   179
420
  2234388
370
     9
100
AcDbVertex
100
AcDb2dVertex
 10
103.34977775194
 20
-133.4619716333011
 30
0.0
  0
SEQEND
  5
D7
330
D4
100
AcDbEntity
  8
_U+30EC_U+30A4_U+30E4_U+30FC 1
 62
   179
420
  2234388
370
     9
  0
POLYLINE
  5
D8
330
41
100
AcDbEntity
  8
_U+30EC_U+30A4_U+30E4_U+30FC 1
 62
   179
420
  2234388
370
     9
100
AcDb2dPolyline
 66
     1
 10
0.0
 20
0.0
 30
0.0
  0
VERTEX
  5
D9
330
D8
100
AcDbEntity
  8
_U+30EC_U+30A4_U+30E4_U+30FC 1
 62
   179
420
  2234388
370
     9
100
AcDbVertex
100
AcDb2dVertex
 10
102.3496527521904
 20
-130.4488966340547
 30
0.0
  0
VERTEX
  5
DA
330
D8
100
AcDbEntity
  8
_U+30EC_U+30A4_U+30E4_U+30FC 1
 62
   179
420
  2234388
370
     9
100
AcDbVertex
100
AcDb2dVertex
 10
102.3496527521904
 20
-126.9617588571484
 30
0.0
  0
SEQEND
  5
DB
330
D8
100
AcDbEntity
  8
_U+30EC_U+30A4_U+30E4_U+30FC 1
 62
   179
420
  2234388
370
     9
  0
POLYLINE
  5
DC
330
41
100
AcDbEntity
  8
_U+30EC_U+30A4_U+30E4_U+30FC 1
 62
   179
420
  2234388
370
     9
100
AcDb2dPolyline
 66
     1
 10
0.0
 20
0.0
 30
0.0
  0
VERTEX
  5
DD
330
DC
100
AcDbEntity
  8
_U+30EC_U+30A4_U+30E4_U+30FC 1
 62
   179
420
  2234388
370
     9
100
AcDbVertex
100
AcDb2dVertex
 10
85.88967447543851
 20
-130.4619846896068
 30
0.0
  0
VERTEX
  5
DE
330
DC
100
AcDbEntity
  8
_U+30EC_U+30A4_U+30E4_U+30FC 1
 62
   179
420
  2234388
370
     9
100
AcDbVertex
100
AcDb2dVertex
 10
103.34977775194
 20
-130.4619846896068
 30
0.0
  0
SEQEND
  5
DF
330
DC
100
AcDbEntity
  8
_U+30EC_U+30A4_U+30E4_U+30FC 1
 62
   179
420
  2234388
370
     9
  0
INSERT
  5
E1
330
41
100
AcDbEntity
  8
_U+30EC_U+30A4_U+30E4_U+30FC 1
100
AcDbBlockReference
  2
block 9
 10
0.0
 20
0.0
 30
0.0
  0
ENDBLK
  5
44
330
41
100
AcDbEntity
  8
0
100
AcDbBlockEnd
  0
BLOCK
  5
47
330
45
100
AcDbEntity
  8
0
100
AcDbBlockBegin
  2
block 3
 70
     0
 10
0.0
 20
0.0
 30
0.0
  3
block 3
  1

  0
SPLINE
  5
49
330
45
100
AcDbEntity
  8
_U+30EC_U+30A4_U+30E4_U+30FC 1
370
     0
100
AcDbSpline
210
0.0
220
0.0
230
1.0
 70
    11
 71
     3
 72
    62
 73
    58
 74
     0
 42
0.0000000001
 43
0.0000000001
 12
1.0
 22
0.0
 32
0.0
 13
1.0
 23
0.0
 33
0.0
 40
0.0
 40
0.0
 40
0.0
 40
0.0
 40
1.0
 40
1.0
 40
1.0
 40
2.0
 40
2.0
 40
2.0
 40
3.0
 40
3.0
 40
3.0
 40
4.0
 40
4.0
 40
4.0
 40
5.0
 40
5.0
 40
5.0
 40
6.0
 40
6.0
 40
6.0
 40
7.0
 40
7.0
 40
7.0
 40
8.0
 40
8.0
 40
8.0
 40
9.0
 40
9.0
 40
9.0
 40
10.0
 40
10.0
 40
10.0
 40
11.0
 40
11.0
 40
11.0
 40
12.0
 40
12.0
 40
12.0
 40
13.0
 40
13.0
 40
13.0
 40
14.0
 40
14.0
 40
14.0
 40
15.0
 40
15.0
 40
15.0
 40
16.0
 40
16.0
 40
16.0
 40
17.0
 40
17.0
 40
17.0
 40
18.0
 40
18.0
 40
18.0
 40
19.0
 40
19.0
 40
19.0
 40
19.0
 10
101.7539957427907
 20
-131.9120171111192
 30
0.0
 10
101.7539957427907
 20
-132.0074462560606
 30
0.0
 10
101.7329806603307
 20
-132.2251762907284
 30
0.0
 10
101.5469455041272
 20
-132.350233256843
 30
0.0
 10
101.434635391308
 20
-132.4239583002274
 30
0.0
 10
101.3354166413328
 20
-132.4284369243582
 30
0.0
 10
101.2506672923957
 20
-132.4325710389405
 30
0.0
 10
101.2506672923957
 20
-132.4325710389405
 30
0.0
 10
101.2506672923957
 20
-132.212429437433
 30
0.0
 10
101.2506672923957
 20
-132.212429437433
 30
0.0
 10
101.3247368453285
 20
-132.2103623801419
 30
0.0
 10
101.5593478478741
 20
-132.2000270936861
 30
0.0
 10
101.5593478478741
 20
-131.91649573525
 30
0.0
 10
101.5593478478741
 20
-131.7790364253886
 30
0.0
 10
101.489756919072
 20
-131.626418695392
 30
0.0
 10
101.2613470883999
 20
-131.626418695392
 30
0.0
 10
101.1449028609985
 20
-131.626418695392
 30
0.0
 10
101.0963270146565
 20
-131.6646592552783
 30
0.0
 10
101.0646321361922
 20
-131.6963541337426
 30
0.0
 10
100.9905625832593
 20
-131.7704236866755
 30
0.0
 10
100.9778157299639
 20
-131.8868679140769
 30
0.0
 10
100.9778157299639
 20
-131.9416449322924
 30
0.0
 10
100.9778157299639
 20
-131.9609374670098
 30
0.0
 10
100.979882787255
 20
-131.9967664600564
 30
0.0
 10
100.9840169018373
 20
-132.0243272239384
 30
0.0
 10
100.9840169018373
 20
-132.0243272239384
 30
0.0
 10
100.7893690069207
 20
-132.0243272239384
 30
0.0
 10
100.7893690069207
 20
-132.0243272239384
 30
0.0
 10
100.7959146883427
 20
-131.9860866640521
 30
0.0
 10
100.7979817456338
 20
-131.944056499132
 30
0.0
 10
100.7979817456338
 20
-131.9375108177101
 30
0.0
 10
100.7979817456338
 20
-131.8720540034903
 30
0.0
 10
100.7766221536253
 20
-131.6732719939914
 30
0.0
 10
100.5399440937886
 20
-131.6732719939914
 30
0.0
 10
100.3621771667497
 20
-131.6732719939914
 30
0.0
 10
100.3070556389857
 20
-131.8041856224309
 30
0.0
 10
100.3070556389857
 20
-131.9144286779589
 30
0.0
 10
100.3070556389857
 20
-132.1786675016776
 30
0.0
 10
100.5399440937886
 20
-132.1872802403907
 30
0.0
 10
100.6116020798818
 20
-132.191414354973
 30
0.0
 10
100.6116020798818
 20
-132.191414354973
 30
0.0
 10
100.6116020798818
 20
-132.3946749886027
 30
0.0
 10
100.6116020798818
 20
-132.3946749886027
 30
0.0
 10
100.4868896233158
 20
-132.3860622498896
 30
0.0
 10
100.110340686778
 20
-132.3585014860076
 30
0.0
 10
100.110340686778
 20
-131.9016818246635
 30
0.0
 10
100.110340686778
 20
-131.6774061085737
 30
0.0
 10
100.2374647101837
 20
-131.4362494246062
 30
0.0
 10
100.5333984123667
 20
-131.4362494246062
 30
0.0
 10
100.7197780781187
 20
-131.4362494246062
 30
0.0
 10
100.8021158602161
 20
-131.5313340599991
 30
0.0
 10
100.8634385598536
 20
-131.6308973195228
 30
0.0
 10
100.8909993237356
 20
-131.5695746198854
 30
0.0
 10
100.9712700485419
 20
-131.3876735782642
 30
0.0
 10
101.2486002351045
 20
-131.3876735782642
 30
0.0
 10
101.5869086117561
 20
-131.3876735782642
 30
0.0
 10
101.7539957427907
 20
-131.6350314341051
 30
0.0
 10
101.7539957427907
 20
-131.9120171111192
 30
0.0
  0
HATCH
  5
4A
330
45
100
AcDbEntity
  8
_U+30EC_U+30A4_U+30E4_U+30FC 1
 62
   179
420
  2234388
100
AcDbHatch
 10
0.0
 20
0.0
 30
0.0
210
0.0
220
0.0
230
1.0
  2
SOLID
 70
     1
 71
     0
 91
        1
 92
        1
 93
        1
 72
     4
 94
        3
 73
     0
 74
     1
 95
       62
 96
       58
 40
0.0
 40
0.0
 40
0.0
 40
0.0
 40
1.0
 40
1.0
 40
1.0
 40
2.0
 40
2.0
 40
2.0
 40
3.0
 40
3.0
 40
3.0
 40
4.0
 40
4.0
 40
4.0
 40
5.0
 40
5.0
 40
5.0
 40
6.0
 40
6.0
 40
6.0
 40
7.0
 40
7.0
 40
7.0
 40
8.0
 40
8.0
 40
8.0
 40
9.0
 40
9.0
 40
9.0
 40
10.0
 40
10.0
 40
10.0
 40
11.0
 40
11.0
 40
11.0
 40
12.0
 40
12.0
 40
12.0
 40
13.0
 40
13.0
 40
13.0
 40
14.0
 40
14.0
 40
14.0
 40
15.0
 40
15.0
 40
15.0
 40
16.0
 40
16.0
 40
16.0
 40
17.0
 40
17.0
 40
17.0
 40
18.0
 40
18.0
 40
18.0
 40
19.0
 40
19.0
 40
19.0
 40
19.0
 10
101.7539957427907
 20
-131.9120171111192
 10
101.7539957427907
 20
-132.0074462560606
 10
101.7329806603307
 20
-132.2251762907284
 10
101.5469455041272
 20
-132.350233256843
 10
101.434635391308
 20
-132.4239583002274
 10
101.3354166413328
 20
-132.4284369243582
 10
101.2506672923957
 20
-132.4325710389405
 10
101.2506672923957
 20
-132.4325710389405
 10
101.2506672923957
 20
-132.212429437433
 10
101.2506672923957
 20
-132.212429437433
 10
101.3247368453285
 20
-132.2103623801419
 10
101.5593478478741
 20
-132.2000270936861
 10
101.5593478478741
 20
-131.91649573525
 10
101.5593478478741
 20
-131.7790364253886
 10
101.489756919072
 20
-131.626418695392
 10
101.2613470883999
 20
-131.626418695392
 10
101.1449028609985
 20
-131.626418695392
 10
101.0963270146565
 20
-131.6646592552783
 10
101.0646321361922
 20
-131.6963541337426
 10
100.9905625832593
 20
-131.7704236866755
 10
100.9778157299639
 20
-131.8868679140769
 10
100.9778157299639
 20
-131.9416449322924
 10
100.9778157299639
 20
-131.9609374670098
 10
100.979882787255
 20
-131.9967664600564
 10
100.9840169018373
 20
-132.0243272239384
 10
100.9840169018373
 20
-132.0243272239384
 10
100.7893690069207
 20
-132.0243272239384
 10
100.7893690069207
 20
-132.0243272239384
 10
100.7959146883427
 20
-131.9860866640521
 10
100.7979817456338
 20
-131.944056499132
 10
100.7979817456338
 20
-131.9375108177101
 10
100.7979817456338
 20
-131.8720540034903
 10
100.7766221536253
 20
-131.6732719939914
 10
100.5399440937886
 20
-131.6732719939914
 10
100.3621771667497
 20
-131.6732719939914
 10
100.3070556389857
 20
-131.8041856224309
 10
100.3070556389857
 20
-131.9144286779589
 10
100.3070556389857
 20
-132.1786675016776
 10
100.5399440937886
 20
-132.1872802403907
 10
100.6116020798818
 20
-132.191414354973
 10
100.6116020798818
 20
-132.191414354973
 10
100.6116020798818
 20
-132.3946749886027
 10
100.6116020798818
 20
-132.3946749886027
 10
100.4868896233158
 20
-132.3860622498896
 10
100.110340686778
 20
-132.3585014860076
 10
100.110340686778
 20
-131.9016818246635
 10
100.110340686778
 20
-131.6774061085737
 10
100.2374647101837
 20
-131.4362494246062
 10
100.5333984123667
 20
-131.4362494246062
 10
100.7197780781187
 20
-131.4362494246062
 10
100.8021158602161
 20
-131.5313340599991
 10
100.8634385598536
 20
-131.6308973195228
 10
100.8909993237356
 20
-131.5695746198854
 10
100.9712700485419
 20
-131.3876735782642
 10
101.2486002351045
 20
-131.3876735782642
 10
101.5869086117561
 20
-131.3876735782642
 10
101.7539957427907
 20
-131.6350314341051
 10
101.7539957427907
 20
-131.9120171111192
 97
        0
 97
        0
 75
     2
 76
     1
 98
        0
  0
ENDBLK
  5
48
330
45
100
AcDbEntity
  8
0
100
AcDbBlockEnd
  0
BLOCK
  5
8B
330
89
100
AcDbEntity
  8
0
100
AcDbBlockBegin
  2
block 4
 70
     0
 10
0.0
 20
0.0
 30
0.0
  3
block 4
  1

  0
POLYLINE
  5
8D
330
89
100
AcDbEntity
  8
_U+30EC_U+30A4_U+30E4_U+30FC 1
 62
   179
420
  2234388
370
     9
100
AcDb2dPolyline
 66
     1
 10
0.0
 20
0.0
 30
0.0
  0
VERTEX
  5
8E
330
8D
100
AcDbEntity
  8
_U+30EC_U+30A4_U+30E4_U+30FC 1
 62
   179
420
  2234388
370
     9
100
AcDbVertex
100
AcDb2dVertex
 10
73.34987118424444
 20
-137.461730798968
 30
0.0
  0
VERTEX
  5
8F
330
8D
100
AcDbEntity
  8
_U+30EC_U+30A4_U+30E4_U+30FC 1
 62
   179
420
  2234388
370
     9
100
AcDbVertex
100
AcDb2dVertex
 10
83.34960398468556
 20
-137.461730798968
 30
0.0
  0
SEQEND
  5
90
330
8D
100
AcDbEntity
  8
_U+30EC_U+30A4_U+30E4_U+30FC 1
 62
   179
420
  2234388
370
     9
  0
POLYLINE
  5
91
330
89
100
AcDbEntity
  8
_U+30EC_U+30A4_U+30E4_U+30FC 1
 62
   179
420
  2234388
370
     9
100
AcDb2dPolyline
 66
     1
 10
0.0
 20
0.0
 30
0.0
  0
VERTEX
  5
92
330
91
100
AcDbEntity
  8
_U+30EC_U+30A4_U+30E4_U+30FC 1
 62
   179
420
  2234388
370
     9
100
AcDbVertex
100
AcDb2dVertex
 10
73.34987118424444
 20
-136.0016894104443
 30
0.0
  0
VERTEX
  5
93
330
91
100
AcDbEntity
  8
_U+30EC_U+30A4_U+30E4_U+30FC 1
 62
   179
420
  2234388
370
     9
100
AcDbVertex
100
AcDb2dVertex
 10
73.34987118424444
 20
-138.4615030209399
 30
0.0
  0
SEQEND
  5
94
330
91
100
AcDbEntity
  8
_U+30EC_U+30A4_U+30E4_U+30FC 1
 62
   179
420
  2234388
370
     9
  0
POLYLINE
  5
95
330
89
100
AcDbEntity
  8
_U+30EC_U+30A4_U+30E4_U+30FC 1
 62
   179
420
  2234388
370
     9
100
AcDb2dPolyline
 66
     1
 10
0.0
 20
0.0
 30
0.0
  0
VERTEX
  5
96
330
95
100
AcDbEntity
  8
_U+30EC_U+30A4_U+30E4_U+30FC 1
 62
   179
420
  2234388
370
     9
100
AcDbVertex
100
AcDb2dVertex
 10
83.34960398468556
 20
-136.0016894104443
 30
0.0
  0
VERTEX
  5
97
330
95
100
AcDbEntity
  8
_U+30EC_U+30A4_U+30E4_U+30FC 1
 62
   179
420
  2234388
370
     9
100
AcDbVertex
100
AcDb2dVertex
 10
83.34960398468556
 20
-138.4615030209399
 30
0.0
  0
SEQEND
  5
98
330
95
100
AcDbEntity
  8
_U+30EC_U+30A4_U+30E4_U+30FC 1
 62
   179
420
  2234388
370
     9
  0
INSERT
  5
9A
330
89
100
AcDbEntity
  8
_U+30EC_U+30A4_U+30E4_U+30FC 1
100
AcDbBlockReference
  2
block 5
 10
0.0
 20
0.0
 30
0.0
  0
ENDBLK
  5
8C
330
89
100
AcDbEntity
  8
0
100
AcDbBlockEnd
  0
BLOCK
  5
9B
330
99
100
AcDbEntity
  8
0
100
AcDbBlockBegin
  2
block 5
 70
     0
 10
0.0
 20
0.0
 30
0.0
  3
block 5
  1

  0
SPLINE
  5
9D
330
99
100
AcDbEntity
  8
_U+30EC_U+30A4_U+30E4_U+30FC 1
370
     0
100
AcDbSpline
210
0.0
220
0.0
230
1.0
 70
    11
 71
     3
 72
    26
 73
    22
 74
     0
 42
0.0000000001
 43
0.0000000001
 12
1.0
 22
0.0
 32
0.0
 13
1.0
 23
0.0
 33
0.0
 40
0.0
 40
0.0
 40
0.0
 40
0.0
 40
1.0
 40
1.0
 40
1.0
 40
2.0
 40
2.0
 40
2.0
 40
3.0
 40
3.0
 40
3.0
 40
4.0
 40
4.0
 40
4.0
 40
5.0
 40
5.0
 40
5.0
 40
6.0
 40
6.0
 40
6.0
 40
7.0
 40
7.0
 40
7.0
 40
7.0
 10
77.71239689897469
 20
-136.8150770057268
 30
0.0
 10
77.71239689897469
 20
-136.8150770057268
 30
0.0
 10
77.71239689897469
 20
-135.7109239027042
 30
0.0
 10
77.71239689897469
 20
-135.7109239027042
 30
0.0
 10
77.71239689897469
 20
-135.7109239027042
 30
0.0
 10
77.38235675148775
 20
-135.7109239027042
 30
0.0
 10
77.38235675148775
 20
-135.7109239027042
 30
0.0
 10
77.38235675148775
 20
-135.7109239027042
 30
0.0
 10
77.38235675148775
 20
-135.5627847968385
 30
0.0
 10
77.38235675148775
 20
-135.5627847968385
 30
0.0
 10
77.71446395626583
 20
-135.5479708862519
 30
0.0
 10
77.7609727453167
 20
-135.3850178697996
 30
0.0
 10
77.79060056648986
 20
-135.2706406996893
 30
0.0
 10
77.79060056648986
 20
-135.2706406996893
 30
0.0
 10
77.93667261506445
 20
-135.2706406996893
 30
0.0
 10
77.93667261506445
 20
-135.2706406996893
 30
0.0
 10
77.93667261506445
 20
-135.2706406996893
 30
0.0
 10
77.93667261506445
 20
-136.8150770057268
 30
0.0
 10
77.93667261506445
 20
-136.8150770057268
 30
0.0
 10
77.93667261506445
 20
-136.8150770057268
 30
0.0
 10
77.71239689897469
 20
-136.8150770057268
 30
0.0
 10
77.71239689897469
 20
-136.8150770057268
 30
0.0
  0
HATCH
  5
9E
330
99
100
AcDbEntity
  8
_U+30EC_U+30A4_U+30E4_U+30FC 1
 62
   179
420
  2234388
100
AcDbHatch
 10
0.0
 20
0.0
 30
0.0
210
0.0
220
0.0
230
1.0
  2
SOLID
 70
     1
 71
     0
 91
        1
 92
        1
 93
        1
 72
     4
 94
        3
 73
     0
 74
     1
 95
       26
 96
       22
 40
0.0
 40
0.0
 40
0.0
 40
0.0
 40
1.0
 40
1.0
 40
1.0
 40
2.0
 40
2.0
 40
2.0
 40
3.0
 40
3.0
 40
3.0
 40
4.0
 40
4.0
 40
4.0
 40
5.0
 40
5.0
 40
5.0
 40
6.0
 40
6.0
 40
6.0
 40
7.0
 40
7.0
 40
7.0
 40
7.0
 10
77.71239689897469
 20
-136.8150770057268
 10
77.71239689897469
 20
-136.8150770057268
 10
77.71239689897469
 20
-135.7109239027042
 10
77.71239689897469
 20
-135.7109239027042
 10
77.71239689897469
 20
-135.7109239027042
 10
77.38235675148775
 20
-135.7109239027042
 10
77.38235675148775
 20
-135.7109239027042
 10
77.38235675148775
 20
-135.7109239027042
 10
77.38235675148775
 20
-135.5627847968385
 10
77.38235675148775
 20
-135.5627847968385
 10
77.71446395626583
 20
-135.5479708862519
 10
77.7609727453167
 20
-135.3850178697996
 10
77.79060056648986
 20
-135.2706406996893
 10
77.79060056648986
 20
-135.2706406996893
 10
77.93667261506445
 20
-135.2706406996893
 10
77.93667261506445
 20
-135.2706406996893
 10
77.93667261506445
 20
-135.2706406996893
 10
77.93667261506445
 20
-136.8150770057268
 10
77.93667261506445
 20
-136.8150770057268
 10
77.93667261506445
 20
-136.8150770057268
 10
77.71239689897469
 20
-136.8150770057268
 10
77.71239689897469
 20
-136.8150770057268
 97
        0
 97
        0
 75
     2
 76
     1
 98
        0
  0
SPLINE
  5
9F
330
99
100
AcDbEntity
  8
_U+30EC_U+30A4_U+30E4_U+30FC 1
370
     0
100
AcDbSpline
210
0.0
220
0.0
230
1.0
 70
    11
 71
     3
 72
    29
 73
    25
 74
     0
 42
0.0000000001
 43
0.0000000001
 12
1.0
 22
0.0
 32
0.0
 13
1.0
 23
0.0
 33
0.0
 40
0.0
 40
0.0
 40
0.0
 40
0.0
 40
1.0
 40
1.0
 40
1.0
 40
2.0
 40
2.0
 40
2.0
 40
3.0
 40
3.0
 40
3.0
 40
4.0
 40
4.0
 40
4.0
 40
5.0
 40
5.0
 40
5.0
 40
6.0
 40
6.0
 40
6.0
 40
7.0
 40
7.0
 40
7.0
 40
8.0
 40
8.0
 40
8.0
 40
8.0
 10
79.33555363685014
 20
-136.6373100786879
 30
0.0
 10
79.22772214816182
 20
-136.8467718841911
 30
0.0
 10
79.0542615904795
 20
-136.86571990936
 30
0.0
 10
78.93781736307805
 20
-136.86571990936
 30
0.0
 10
78.77710365869115
 20
-136.86571990936
 30
0.0
 10
78.6353379794731
 20
-136.8192111203091
 30
0.0
 10
78.54008108930596
 20
-136.6373100786879
 30
0.0
 10
78.4365559699742
 20
-136.4426621837713
 30
0.0
 10
78.41743569003106
 20
-136.2056396143861
 30
0.0
 10
78.41743569003106
 20
-136.0430311074823
 30
0.0
 10
78.41743569003106
 20
-135.8990261161989
 30
0.0
 10
78.43431665790878
 20
-135.6471896362271
 30
0.0
 10
78.54008108930596
 20
-135.4484076267282
 30
0.0
 10
78.64808483276853
 20
-135.245491502647
 30
0.0
 10
78.80879853715544
 20
-135.2220648533473
 30
0.0
 10
78.93781736307805
 20
-135.2220648533473
 30
0.0
 10
79.0964640101738
 20
-135.2220648533473
 30
0.0
 10
79.24029674668299
 20
-135.266506585107
 30
0.0
 10
79.33555363685014
 20
-135.4484076267282
 30
0.0
 10
79.4349446415996
 20
-135.6409884643537
 30
0.0
 10
79.45819903612504
 20
-135.8693982950257
 30
0.0
 10
79.45819903612504
 20
-136.0430311074823
 30
0.0
 10
79.45819903612504
 20
-136.2142523530992
 30
0.0
 10
79.43718395366501
 20
-136.4447292410624
 30
0.0
 10
79.33555363685014
 20
-136.6373100786879
 30
0.0
  0
SPLINE
  5
A0
330
99
100
AcDbEntity
  8
_U+30EC_U+30A4_U+30E4_U+30FC 1
370
     0
100
AcDbSpline
210
0.0
220
0.0
230
1.0
 70
    11
 71
     3
 72
    17
 73
    13
 74
     0
 42
0.0000000001
 43
0.0000000001
 12
1.0
 22
0.0
 32
0.0
 13
1.0
 23
0.0
 33
0.0
 40
0.0
 40
0.0
 40
0.0
 40
0.0
 40
1.0
 40
1.0
 40
1.0
 40
2.0
 40
2.0
 40
2.0
 40
3.0
 40
3.0
 40
3.0
 40
4.0
 40
4.0
 40
4.0
 40
4.0
 10
78.93781736307805
 20
-135.4146456909727
 30
0.0
 10
78.6882201951717
 20
-135.4146456909727
 30
0.0
 10
78.64171140612082
 20
-135.6981770494088
 30
0.0
 10
78.64171140612082
 20
-136.0430311074823
 30
0.0
 10
78.64171140612082
 20
-136.362391458965
 30
0.0
 10
78.67771265394168
 20
-136.6710720144434
 30
0.0
 10
78.93781736307805
 20
-136.6710720144434
 30
0.0
 10
79.18534747369326
 20
-136.6710720144434
 30
0.0
 10
79.23409557480953
 20
-136.389952222847
 30
0.0
 10
79.23409557480953
 20
-136.0430311074823
 30
0.0
 10
79.23409557480953
 20
-135.7233262464511
 30
0.0
 10
79.19585501492327
 20
-135.4146456909727
 30
0.0
 10
78.93781736307805
 20
-135.4146456909727
 30
0.0
  0
HATCH
  5
A1
330
99
100
AcDbEntity
  8
_U+30EC_U+30A4_U+30E4_U+30FC 1
 62
   179
420
  2234388
100
AcDbHatch
 10
0.0
 20
0.0
 30
0.0
210
0.0
220
0.0
230
1.0
  2
SOLID
 70
     1
 71
     0
 91
        2
 92
        1
 93
        1
 72
     4
 94
        3
 73
     0
 74
     1
 95
       29
 96
       25
 40
0.0
 40
0.0
 40
0.0
 40
0.0
 40
1.0
 40
1.0
 40
1.0
 40
2.0
 40
2.0
 40
2.0
 40
3.0
 40
3.0
 40
3.0
 40
4.0
 40
4.0
 40
4.0
 40
5.0
 40
5.0
 40
5.0
 40
6.0
 40
6.0
 40
6.0
 40
7.0
 40
7.0
 40
7.0
 40
8.0
 40
8.0
 40
8.0
 40
8.0
 10
79.33555363685014
 20
-136.6373100786879
 10
79.22772214816182
 20
-136.8467718841911
 10
79.0542615904795
 20
-136.86571990936
 10
78.93781736307805
 20
-136.86571990936
 10
78.77710365869115
 20
-136.86571990936
 10
78.6353379794731
 20
-136.8192111203091
 10
78.54008108930596
 20
-136.6373100786879
 10
78.4365559699742
 20
-136.4426621837713
 10
78.41743569003106
 20
-136.2056396143861
 10
78.41743569003106
 20
-136.0430311074823
 10
78.41743569003106
 20
-135.8990261161989
 10
78.43431665790878
 20
-135.6471896362271
 10
78.54008108930596
 20
-135.4484076267282
 10
78.64808483276853
 20
-135.245491502647
 10
78.80879853715544
 20
-135.2220648533473
 10
78.93781736307805
 20
-135.2220648533473
 10
79.0964640101738
 20
-135.2220648533473
 10
79.24029674668299
 20
-135.266506585107
 10
79.33555363685014
 20
-135.4484076267282
 10
79.4349446415996
 20
-135.6409884643537
 10
79.45819903612504
 20
-135.8693982950257
 10
79.45819903612504
 20
-136.0430311074823
 10
79.45819903612504
 20
-136.2142523530992
 10
79.43718395366501
 20
-136.4447292410624
 10
79.33555363685014
 20
-136.6373100786879
 97
        0
 97
        0
 92
        1
 93
        1
 72
     4
 94
        3
 73
     0
 74
     1
 95
       17
 96
       13
 40
0.0
 40
0.0
 40
0.0
 40
0.0
 40
1.0
 40
1.0
 40
1.0
 40
2.0
 40
2.0
 40
2.0
 40
3.0
 40
3.0
 40
3.0
 40
4.0
 40
4.0
 40
4.0
 40
4.0
 10
78.93781736307805
 20
-135.4146456909727
 10
78.6882201951717
 20
-135.4146456909727
 10
78.64171140612082
 20
-135.6981770494088
 10
78.64171140612082
 20
-136.0430311074823
 10
78.64171140612082
 20
-136.362391458965
 10
78.67771265394168
 20
-136.6710720144434
 10
78.93781736307805
 20
-136.6710720144434
 10
79.18534747369326
 20
-136.6710720144434
 10
79.23409557480953
 20
-136.389952222847
 10
79.23409557480953
 20
-136.0430311074823
 10
79.23409557480953
 20
-135.7233262464511
 10
79.19585501492327
 20
-135.4146456909727
 10
78.93781736307805
 20
-135.4146456909727
 97
        0
 97
        0
 75
     2
 76
     1
 98
        0
  0
ENDBLK
  5
9C
330
99
100
AcDbEntity
  8
0
100
AcDbBlockEnd
  0
BLOCK
  5
A4
330
A2
100
AcDbEntity
  8
0
100
AcDbBlockBegin
  2
block 6
 70
     0
 10
0.0
 20
0.0
 30
0.0
  3
block 6
  1

  0
POLYLINE
  5
A6
330
A2
100
AcDbEntity
  8
_U+30EC_U+30A4_U+30E4_U+30FC 1
 62
   179
420
  2234388
370
     9
100
AcDb2dPolyline
 66
     1
 10
0.0
 20
0.0
 30
0.0
  0
VERTEX
  5
A7
330
A6
100
AcDbEntity
  8
_U+30EC_U+30A4_U+30E4_U+30FC 1
 62
   179
420
  2234388
370
     9
100
AcDbVertex
100
AcDb2dVertex
 10
73.34987118424444
 20
-121.961557191732
 30
0.0
  0
VERTEX
  5
A8
330
A6
100
AcDbEntity
  8
_U+30EC_U+30A4_U+30E4_U+30FC 1
 62
   179
420
  2234388
370
     9
100
AcDbVertex
100
AcDb2dVertex
 10
98.34989110199635
 20
-121.961557191732
 30
0.0
  0
SEQEND
  5
A9
330
A6
100
AcDbEntity
  8
_U+30EC_U+30A4_U+30E4_U+30FC 1
 62
   179
420
  2234388
370
     9
  0
POLYLINE
  5
AA
330
A2
100
AcDbEntity
  8
_U+30EC_U+30A4_U+30E4_U+30FC 1
 62
   179
420
  2234388
370
     9
100
AcDb2dPolyline
 66
     1
 10
0.0
 20
0.0
 30
0.0
  0
VERTEX
  5
AB
330
AA
100
AcDbEntity
  8
_U+30EC_U+30A4_U+30E4_U+30FC 1
 62
   179
420
  2234388
370
     9
100
AcDbVertex
100
AcDb2dVertex
 10
73.34987118424444
 20
-123.4215633024778
 30
0.0
  0
VERTEX
  5
AC
330
AA
100
AcDbEntity
  8
_U+30EC_U+30A4_U+30E4_U+30FC 1
 62
   179
420
  2234388
370
     9
100
AcDbVertex
100
AcDb2dVertex
 10
73.34987118424444
 20
-120.9617849697594
 30
0.0
  0
SEQEND
  5
AD
330
AA
100
AcDbEntity
  8
_U+30EC_U+30A4_U+30E4_U+30FC 1
 62
   179
420
  2234388
370
     9
  0
POLYLINE
  5
AE
330
A2
100
AcDbEntity
  8
_U+30EC_U+30A4_U+30E4_U+30FC 1
 62
   179
420
  2234388
370
     9
100
AcDb2dPolyline
 66
     1
 10
0.0
 20
0.0
 30
0.0
  0
VERTEX
  5
AF
330
AE
100
AcDbEntity
  8
_U+30EC_U+30A4_U+30E4_U+30FC 1
 62
   179
420
  2234388
370
     9
100
AcDbVertex
100
AcDb2dVertex
 10
98.34989110199635
 20
-123.4215633024778
 30
0.0
  0
VERTEX
  5
B0
330
AE
100
AcDbEntity
  8
_U+30EC_U+30A4_U+30E4_U+30FC 1
 62
   179
420
  2234388
370
     9
100
AcDbVertex
100
AcDb2dVertex
 10
98.34989110199635
 20
-120.9617849697594
 30
0.0
  0
SEQEND
  5
B1
330
AE
100
AcDbEntity
  8
_U+30EC_U+30A4_U+30E4_U+30FC 1
 62
   179
420
  2234388
370
     9
  0
INSERT
  5
B3
330
A2
100
AcDbEntity
  8
_U+30EC_U+30A4_U+30E4_U+30FC 1
100
AcDbBlockReference
  2
block 7
 10
0.0
 20
0.0
 30
0.0
  0
ENDBLK
  5
A5
330
A2
100
AcDbEntity
  8
0
100
AcDbBlockEnd
  0
BLOCK
  5
B4
330
B2
100
AcDbEntity
  8
0
100
AcDbBlockBegin
  2
block 7
 70
     0
 10
0.0
 20
0.0
 30
0.0
  3
block 7
  1

  0
SPLINE
  5
B6
330
B2
100
AcDbEntity
  8
_U+30EC_U+30A4_U+30E4_U+30FC 1
370
     0
100
AcDbSpline
210
0.0
220
0.0
230
1.0
 70
    11
 71
     3
 72
    44
 73
    40
 74
     0
 42
0.0000000001
 43
0.0000000001
 12
1.0
 22
0.0
 32
0.0
 13
1.0
 23
0.0
 33
0.0
 40
0.0
 40
0.0
 40
0.0
 40
0.0
 40
1.0
 40
1.0
 40
1.0
 40
2.0
 40
2.0
 40
2.0
 40
3.0
 40
3.0
 40
3.0
 40
4.0
 40
4.0
 40
4.0
 40
5.0
 40
5.0
 40
5.0
 40
6.0
 40
6.0
 40
6.0
 40
7.0
 40
7.0
 40
7.0
 40
8.0
 40
8.0
 40
8.0
 40
9.0
 40
9.0
 40
9.0
 40
10.0
 40
10.0
 40
10.0
 40
11.0
 40
11.0
 40
11.0
 40
12.0
 40
12.0
 40
12.0
 40
13.0
 40
13.0
 40
13.0
 40
13.0
 10
85.3541354495816
 20
-120.7340602996776
 30
0.0
 10
85.13623316013955
 20
-120.8927069467734
 30
0.0
 10
85.04304332726355
 20
-120.9667764997062
 30
0.0
 10
84.99446748092153
 20
-121.1106092362154
 30
0.0
 10
84.99446748092153
 20
-121.1106092362154
 30
0.0
 10
85.77288680581373
 20
-121.1106092362154
 30
0.0
 10
85.77288680581373
 20
-121.1106092362154
 30
0.0
 10
85.77288680581373
 20
-121.1106092362154
 30
0.0
 10
85.77288680581373
 20
-121.315764672362
 30
0.0
 10
85.77288680581373
 20
-121.315764672362
 30
0.0
 10
85.77288680581373
 20
-121.315764672362
 30
0.0
 10
84.74487031301517
 20
-121.315764672362
 30
0.0
 10
84.74487031301517
 20
-121.315764672362
 30
0.0
 10
84.77656519147948
 20
-120.9581637609931
 30
0.0
 10
84.84202200569922
 20
-120.8799600934779
 30
0.0
 10
85.22718368095015
 20
-120.5816148244553
 30
0.0
 10
85.48315427550422
 20
-120.3828328149564
 30
0.0
 10
85.54861108972396
 20
-120.3151366886712
 30
0.0
 10
85.54861108972396
 20
-120.1776773788097
 30
0.0
 10
85.54861108972396
 20
-120.0591660941172
 30
0.0
 10
85.4767808488565
 20
-119.9280802109034
 30
0.0
 10
85.28006589664874
 20
-119.9280802109034
 30
0.0
 10
85.01978893273811
 20
-119.9280802109034
 30
0.0
 10
85.01134844879925
 20
-120.1585570988666
 30
0.0
 10
85.00704207944268
 20
-120.2750013262681
 30
0.0
 10
85.00704207944268
 20
-120.2750013262681
 30
0.0
 10
84.78293861812719
 20
-120.2750013262681
 30
0.0
 10
84.78293861812719
 20
-120.2750013262681
 30
0.0
 10
84.79137910206605
 20
-120.1480495576366
 30
0.0
 10
84.80188664329606
 20
-120.0359116995917
 30
0.0
 10
84.88232962287664
 20
-119.9174004148991
 30
0.0
 10
84.99222816885612
 20
-119.7566867105122
 30
0.0
 10
85.17843557983387
 20
-119.7227525199825
 30
0.0
 10
85.29487980723532
 20
-119.7227525199825
 30
0.0
 10
85.57203773902366
 20
-119.7227525199825
 30
0.0
 10
85.77926023246144
 20
-119.9068928736691
 30
0.0
 10
85.77926023246144
 20
-120.1797444361009
 30
0.0
 10
85.77926023246144
 20
-120.408154266773
 30
0.0
 10
85.66298825983425
 20
-120.5077175262967
 30
0.0
 10
85.3541354495816
 20
-120.7340602996776
 30
0.0
  0
HATCH
  5
B7
330
B2
100
AcDbEntity
  8
_U+30EC_U+30A4_U+30E4_U+30FC 1
 62
   179
420
  2234388
100
AcDbHatch
 10
0.0
 20
0.0
 30
0.0
210
0.0
220
0.0
230
1.0
  2
SOLID
 70
     1
 71
     0
 91
        1
 92
        1
 93
        1
 72
     4
 94
        3
 73
     0
 74
     1
 95
       44
 96
       40
 40
0.0
 40
0.0
 40
0.0
 40
0.0
 40
1.0
 40
1.0
 40
1.0
 40
2.0
 40
2.0
 40
2.0
 40
3.0
 40
3.0
 40
3.0
 40
4.0
 40
4.0
 40
4.0
 40
5.0
 40
5.0
 40
5.0
 40
6.0
 40
6.0
 40
6.0
 40
7.0
 40
7.0
 40
7.0
 40
8.0
 40
8.0
 40
8.0
 40
9.0
 40
9.0
 40
9.0
 40
10.0
 40
10.0
 40
10.0
 40
11.0
 40
11.0
 40
11.0
 40
12.0
 40
12.0
 40
12.0
 40
13.0
 40
13.0
 40
13.0
 40
13.0
 10
85.3541354495816
 20
-120.7340602996776
 10
85.13623316013955
 20
-120.8927069467734
 10
85.04304332726355
 20
-120.9667764997062
 10
84.99446748092153
 20
-121.1106092362154
 10
84.99446748092153
 20
-121.1106092362154
 10
85.77288680581373
 20
-121.1106092362154
 10
85.77288680581373
 20
-121.1106092362154
 10
85.77288680581373
 20
-121.1106092362154
 10
85.77288680581373
 20
-121.315764672362
 10
85.77288680581373
 20
-121.315764672362
 10
85.77288680581373
 20
-121.315764672362
 10
84.74487031301517
 20
-121.315764672362
 10
84.74487031301517
 20
-121.315764672362
 10
84.77656519147948
 20
-120.9581637609931
 10
84.84202200569922
 20
-120.8799600934779
 10
85.22718368095015
 20
-120.5816148244553
 10
85.48315427550422
 20
-120.3828328149564
 10
85.54861108972396
 20
-120.3151366886712
 10
85.54861108972396
 20
-120.1776773788097
 10
85.54861108972396
 20
-120.0591660941172
 10
85.4767808488565
 20
-119.9280802109034
 10
85.28006589664874
 20
-119.9280802109034
 10
85.01978893273811
 20
-119.9280802109034
 10
85.01134844879925
 20
-120.1585570988666
 10
85.00704207944268
 20
-120.2750013262681
 10
85.00704207944268
 20
-120.2750013262681
 10
84.78293861812719
 20
-120.2750013262681
 10
84.78293861812719
 20
-120.2750013262681
 10
84.79137910206605
 20
-120.1480495576366
 10
84.80188664329606
 20
-120.0359116995917
 10
84.88232962287664
 20
-119.9174004148991
 10
84.99222816885612
 20
-119.7566867105122
 10
85.17843557983387
 20
-119.7227525199825
 10
85.29487980723532
 20
-119.7227525199825
 10
85.57203773902366
 20
-119.7227525199825
 10
85.77926023246144
 20
-119.9068928736691
 10
85.77926023246144
 20
-120.1797444361009
 10
85.77926023246144
 20
-120.408154266773
 10
85.66298825983425
 20
-120.5077175262967
 10
85.3541354495816
 20
-120.7340602996776
 97
        0
 97
        0
 75
     2
 76
     1
 98
        0
  0
SPLINE
  5
B8
330
B2
100
AcDbEntity
  8
_U+30EC_U+30A4_U+30E4_U+30FC 1
370
     0
100
AcDbSpline
210
0.0
220
0.0
230
1.0
 70
    11
 71
     3
 72
    53
 73
    49
 74
     0
 42
0.0000000001
 43
0.0000000001
 12
1.0
 22
0.0
 32
0.0
 13
1.0
 23
0.0
 33
0.0
 40
0.0
 40
0.0
 40
0.0
 40
0.0
 40
1.0
 40
1.0
 40
1.0
 40
2.0
 40
2.0
 40
2.0
 40
3.0
 40
3.0
 40
3.0
 40
4.0
 40
4.0
 40
4.0
 40
5.0
 40
5.0
 40
5.0
 40
6.0
 40
6.0
 40
6.0
 40
7.0
 40
7.0
 40
7.0
 40
8.0
 40
8.0
 40
8.0
 40
9.0
 40
9.0
 40
9.0
 40
10.0
 40
10.0
 40
10.0
 40
11.0
 40
11.0
 40
11.0
 40
12.0
 40
12.0
 40
12.0
 40
13.0
 40
13.0
 40
13.0
 40
14.0
 40
14.0
 40
14.0
 40
15.0
 40
15.0
 40
15.0
 40
16.0
 40
16.0
 40
16.0
 40
16.0
 10
86.41884220929808
 20
-121.3665798307695
 30
0.0
 10
86.3406385417829
 20
-121.3665798307695
 30
0.0
 10
86.23900822496803
 20
-121.3495266081175
 30
0.0
 10
86.13737790815316
 20
-121.2861368511889
 30
0.0
 10
85.96408960524509
 20
-121.1760660504352
 30
0.0
 10
85.94273001323654
 20
-121.0449801672214
 30
0.0
 10
85.92378198806767
 20
-120.9371486785331
 30
0.0
 10
85.92378198806767
 20
-120.9371486785331
 30
0.0
 10
86.14599064686628
 20
-120.9371486785331
 30
0.0
 10
86.14599064686628
 20
-120.9371486785331
 30
0.0
 10
86.20076766508176
 20
-121.135930688032
 30
0.0
 10
86.32789168848747
 20
-121.1655585092051
 30
0.0
 10
86.42090926658922
 20
-121.1655585092051
 30
0.0
 10
86.56043563374185
 20
-121.1655585092051
 30
0.0
 10
86.71270885418988
 20
-121.0661675044557
 30
0.0
 10
86.71270885418988
 20
-120.8334513044271
 30
0.0
 10
86.71270885418988
 20
-120.577480709873
 30
0.0
 10
86.53287486985984
 20
-120.5077175262967
 30
0.0
 10
86.4122965278761
 20
-120.5077175262967
 30
0.0
 10
86.3806016494118
 20
-120.5077175262967
 30
0.0
 10
86.23900822496803
 20
-120.5077175262967
 30
0.0
 10
86.15012476144858
 20
-120.6367363522193
 30
0.0
 10
86.15012476144858
 20
-120.6367363522193
 30
0.0
 10
85.97442489170085
 20
-120.6176160722762
 30
0.0
 10
85.97442489170085
 20
-120.6176160722762
 30
0.0
 10
85.97442489170085
 20
-120.6176160722762
 30
0.0
 10
86.09500323368458
 20
-119.7715006210988
 30
0.0
 10
86.09500323368458
 20
-119.7715006210988
 30
0.0
 10
86.09500323368458
 20
-119.7715006210988
 30
0.0
 10
86.87359481335105
 20
-119.7715006210988
 30
0.0
 10
86.87359481335105
 20
-119.7715006210988
 30
0.0
 10
86.87359481335105
 20
-119.7715006210988
 30
0.0
 10
86.87359481335105
 20
-119.9661485160154
 30
0.0
 10
86.87359481335105
 20
-119.9661485160154
 30
0.0
 10
86.87359481335105
 20
-119.9661485160154
 30
0.0
 10
86.2579562501369
 20
-119.9661485160154
 30
0.0
 10
86.2579562501369
 20
-119.9661485160154
 30
0.0
 10
86.2579562501369
 20
-119.9661485160154
 30
0.0
 10
86.19249943591716
 20
-120.3892062416041
 30
0.0
 10
86.19249943591716
 20
-120.3892062416041
 30
0.0
 10
86.2538221355546
 20
-120.3552720510744
 30
0.0
 10
86.33615991765207
 20
-120.3151366886712
 30
0.0
 10
86.45467120234467
 20
-120.3151366886712
 30
0.0
 10
86.70857473960758
 20
-120.3151366886712
 30
0.0
 10
86.94559730899277
 20
-120.501344099649
 30
0.0
 10
86.94559730899277
 20
-120.8143310244839
 30
0.0
 10
86.94559730899277
 20
-121.1317965734497
 30
0.0
 10
86.72132159290301
 20
-121.3665798307695
 30
0.0
 10
86.41884220929808
 20
-121.3665798307695
 30
0.0
  0
HATCH
  5
B9
330
B2
100
AcDbEntity
  8
_U+30EC_U+30A4_U+30E4_U+30FC 1
 62
   179
420
  2234388
100
AcDbHatch
 10
0.0
 20
0.0
 30
0.0
210
0.0
220
0.0
230
1.0
  2
SOLID
 70
     1
 71
     0
 91
        1
 92
        1
 93
        1
 72
     4
 94
        3
 73
     0
 74
     1
 95
       53
 96
       49
 40
0.0
 40
0.0
 40
0.0
 40
0.0
 40
1.0
 40
1.0
 40
1.0
 40
2.0
 40
2.0
 40
2.0
 40
3.0
 40
3.0
 40
3.0
 40
4.0
 40
4.0
 40
4.0
 40
5.0
 40
5.0
 40
5.0
 40
6.0
 40
6.0
 40
6.0
 40
7.0
 40
7.0
 40
7.0
 40
8.0
 40
8.0
 40
8.0
 40
9.0
 40
9.0
 40
9.0
 40
10.0
 40
10.0
 40
10.0
 40
11.0
 40
11.0
 40
11.0
 40
12.0
 40
12.0
 40
12.0
 40
13.0
 40
13.0
 40
13.0
 40
14.0
 40
14.0
 40
14.0
 40
15.0
 40
15.0
 40
15.0
 40
16.0
 40
16.0
 40
16.0
 40
16.0
 10
86.41884220929808
 20
-121.3665798307695
 10
86.3406385417829
 20
-121.3665798307695
 10
86.23900822496803
 20
-121.3495266081175
 10
86.13737790815316
 20
-121.2861368511889
 10
85.96408960524509
 20
-121.1760660504352
 10
85.94273001323654
 20
-121.0449801672214
 10
85.92378198806767
 20
-120.9371486785331
 10
85.92378198806767
 20
-120.9371486785331
 10
86.14599064686628
 20
-120.9371486785331
 10
86.14599064686628
 20
-120.9371486785331
 10
86.20076766508176
 20
-121.135930688032
 10
86.32789168848747
 20
-121.1655585092051
 10
86.42090926658922
 20
-121.1655585092051
 10
86.56043563374185
 20
-121.1655585092051
 10
86.71270885418988
 20
-121.0661675044557
 10
86.71270885418988
 20
-120.8334513044271
 10
86.71270885418988
 20
-120.577480709873
 10
86.53287486985984
 20
-120.5077175262967
 10
86.4122965278761
 20
-120.5077175262967
 10
86.3806016494118
 20
-120.5077175262967
 10
86.23900822496803
 20
-120.5077175262967
 10
86.15012476144858
 20
-120.6367363522193
 10
86.15012476144858
 20
-120.6367363522193
 10
85.97442489170085
 20
-120.6176160722762
 10
85.97442489170085
 20
-120.6176160722762
 10
85.97442489170085
 20
-120.6176160722762
 10
86.09500323368458
 20
-119.7715006210988
 10
86.09500323368458
 20
-119.7715006210988
 10
86.09500323368458
 20
-119.7715006210988
 10
86.87359481335105
 20
-119.7715006210988
 10
86.87359481335105
 20
-119.7715006210988
 10
86.87359481335105
 20
-119.7715006210988
 10
86.87359481335105
 20
-119.9661485160154
 10
86.87359481335105
 20
-119.9661485160154
 10
86.87359481335105
 20
-119.9661485160154
 10
86.2579562501369
 20
-119.9661485160154
 10
86.2579562501369
 20
-119.9661485160154
 10
86.2579562501369
 20
-119.9661485160154
 10
86.19249943591716
 20
-120.3892062416041
 10
86.19249943591716
 20
-120.3892062416041
 10
86.2538221355546
 20
-120.3552720510744
 10
86.33615991765207
 20
-120.3151366886712
 10
86.45467120234467
 20
-120.3151366886712
 10
86.70857473960758
 20
-120.3151366886712
 10
86.94559730899277
 20
-120.501344099649
 10
86.94559730899277
 20
-120.8143310244839
 10
86.94559730899277
 20
-121.1317965734497
 10
86.72132159290301
 20
-121.3665798307695
 10
86.41884220929808
 20
-121.3665798307695
 97
        0
 97
        0
 75
     2
 76
     1
 98
        0
  0
ENDBLK
  5
B5
330
B2
100
AcDbEntity
  8
0
100
AcDbBlockEnd
  0
BLOCK
  5
CC
330
CA
100
AcDbEntity
  8
0
100
AcDbBlockBegin
  2
block 8
 70
     0
 10
0.0
 20
0.0
 30
0.0
  3
block 8
  1

  0
SPLINE
  5
CE
330
CA
100
AcDbEntity
  8
_U+30EC_U+30A4_U+30E4_U+30FC 1
370
     0
100
AcDbSpline
210
0.0
220
0.0
230
1.0
 70
    11
 71
     3
 72
    26
 73
    22
 74
     0
 42
0.0000000001
 43
0.0000000001
 12
1.0
 22
0.0
 32
0.0
 13
1.0
 23
0.0
 33
0.0
 40
0.0
 40
0.0
 40
0.0
 40
0.0
 40
1.0
 40
1.0
 40
1.0
 40
2.0
 40
2.0
 40
2.0
 40
3.0
 40
3.0
 40
3.0
 40
4.0
 40
4.0
 40
4.0
 40
5.0
 40
5.0
 40
5.0
 40
6.0
 40
6.0
 40
6.0
 40
7.0
 40
7.0
 40
7.0
 40
7.0
 10
106.5244194612161
 20
-126.5383571732265
 30
0.0
 10
106.5244194612161
 20
-126.5383571732265
 30
0.0
 10
105.4202663581935
 20
-126.5383571732265
 30
0.0
 10
105.4202663581935
 20
-126.5383571732265
 30
0.0
 10
105.4202663581935
 20
-126.5383571732265
 30
0.0
 10
105.4202663581935
 20
-126.8683973207135
 30
0.0
 10
105.4202663581935
 20
-126.8683973207135
 30
0.0
 10
105.4202663581935
 20
-126.8683973207135
 30
0.0
 10
105.2721272523278
 20
-126.8683973207135
 30
0.0
 10
105.2721272523278
 20
-126.8683973207135
 30
0.0
 10
105.2573133417412
 20
-126.5362901159354
 30
0.0
 10
105.0943603252889
 20
-126.4897813268845
 30
0.0
 10
104.9799831551786
 20
-126.4601535057114
 30
0.0
 10
104.9799831551786
 20
-126.4601535057114
 30
0.0
 10
104.9799831551786
 20
-126.3140814571368
 30
0.0
 10
104.9799831551786
 20
-126.3140814571368
 30
0.0
 10
104.9799831551786
 20
-126.3140814571368
 30
0.0
 10
106.5244194612161
 20
-126.3140814571368
 30
0.0
 10
106.5244194612161
 20
-126.3140814571368
 30
0.0
 10
106.5244194612161
 20
-126.3140814571368
 30
0.0
 10
106.5244194612161
 20
-126.5383571732265
 30
0.0
 10
106.5244194612161
 20
-126.5383571732265
 30
0.0
  0
HATCH
  5
CF
330
CA
100
AcDbEntity
  8
_U+30EC_U+30A4_U+30E4_U+30FC 1
 62
   179
420
  2234388
100
AcDbHatch
 10
0.0
 20
0.0
 30
0.0
210
0.0
220
0.0
230
1.0
  2
SOLID
 70
     1
 71
     0
 91
        1
 92
        1
 93
        1
 72
     4
 94
        3
 73
     0
 74
     1
 95
       26
 96
       22
 40
0.0
 40
0.0
 40
0.0
 40
0.0
 40
1.0
 40
1.0
 40
1.0
 40
2.0
 40
2.0
 40
2.0
 40
3.0
 40
3.0
 40
3.0
 40
4.0
 40
4.0
 40
4.0
 40
5.0
 40
5.0
 40
5.0
 40
6.0
 40
6.0
 40
6.0
 40
7.0
 40
7.0
 40
7.0
 40
7.0
 10
106.5244194612161
 20
-126.5383571732265
 10
106.5244194612161
 20
-126.5383571732265
 10
105.4202663581935
 20
-126.5383571732265
 10
105.4202663581935
 20
-126.5383571732265
 10
105.4202663581935
 20
-126.5383571732265
 10
105.4202663581935
 20
-126.8683973207135
 10
105.4202663581935
 20
-126.8683973207135
 10
105.4202663581935
 20
-126.8683973207135
 10
105.2721272523278
 20
-126.8683973207135
 10
105.2721272523278
 20
-126.8683973207135
 10
105.2573133417412
 20
-126.5362901159354
 10
105.0943603252889
 20
-126.4897813268845
 10
104.9799831551786
 20
-126.4601535057114
 10
104.9799831551786
 20
-126.4601535057114
 10
104.9799831551786
 20
-126.3140814571368
 10
104.9799831551786
 20
-126.3140814571368
 10
104.9799831551786
 20
-126.3140814571368
 10
106.5244194612161
 20
-126.3140814571368
 10
106.5244194612161
 20
-126.3140814571368
 10
106.5244194612161
 20
-126.3140814571368
 10
106.5244194612161
 20
-126.5383571732265
 10
106.5244194612161
 20
-126.5383571732265
 97
        0
 97
        0
 75
     2
 76
     1
 98
        0
  0
ENDBLK
  5
CD
330
CA
100
AcDbEntity
  8
0
100
AcDbBlockEnd
  0
BLOCK
  5
E2
330
E0
100
AcDbEntity
  8
0
100
AcDbBlockBegin
  2
block 9
 70
     0
 10
0.0
 20
0.0
 30
0.0
  3
block 9
  1

  0
SPLINE
  5
E4
330
E0
100
AcDbEntity
  8
_U+30EC_U+30A4_U+30E4_U+30FC 1
370
     0
100
AcDbSpline
210
0.0
220
0.0
230
1.0
 70
    11
 71
     3
 72
    62
 73
    58
 74
     0
 42
0.0000000001
 43
0.0000000001
 12
1.0
 22
0.0
 32
0.0
 13
1.0
 23
0.0
 33
0.0
 40
0.0
 40
0.0
 40
0.0
 40
0.0
 40
1.0
 40
1.0
 40
1.0
 40
2.0
 40
2.0
 40
2.0
 40
3.0
 40
3.0
 40
3.0
 40
4.0
 40
4.0
 40
4.0
 40
5.0
 40
5.0
 40
5.0
 40
6.0
 40
6.0
 40
6.0
 40
7.0
 40
7.0
 40
7.0
 40
8.0
 40
8.0
 40
8.0
 40
9.0
 40
9.0
 40
9.0
 40
10.0
 40
10.0
 40
10.0
 40
11.0
 40
11.0
 40
11.0
 40
12.0
 40
12.0
 40
12.0
 40
13.0
 40
13.0
 40
13.0
 40
14.0
 40
14.0
 40
14.0
 40
15.0
 40
15.0
 40
15.0
 40
16.0
 40
16.0
 40
16.0
 40
17.0
 40
17.0
 40
17.0
 40
18.0
 40
18.0
 40
18.0
 40
19.0
 40
19.0
 40
19.0
 40
19.0
 10
101.5772623443974
 20
-129.5979464736769
 30
0.0
 10
101.5772623443974
 20
-129.6933756186183
 30
0.0
 10
101.5562472619373
 20
-129.9111056532861
 30
0.0
 10
101.3702121057338
 20
-130.0361626194007
 30
0.0
 10
101.2579019929147
 20
-130.1102321723336
 30
0.0
 10
101.1586832429395
 20
-130.1143662869159
 30
0.0
 10
101.0739338940024
 20
-130.1185004014982
 30
0.0
 10
101.0739338940024
 20
-130.1185004014982
 30
0.0
 10
101.0739338940024
 20
-129.8983587999907
 30
0.0
 10
101.0739338940024
 20
-129.8983587999907
 30
0.0
 10
101.1480034469352
 20
-129.8962917426995
 30
0.0
 10
101.3826144494807
 20
-129.8859564562438
 30
0.0
 10
101.3826144494807
 20
-129.6024250978077
 30
0.0
 10
101.3826144494807
 20
-129.4649657879463
 30
0.0
 10
101.3130235206787
 20
-129.3123480579497
 30
0.0
 10
101.0846136900066
 20
-129.3123480579497
 30
0.0
 10
100.9681694626052
 20
-129.3123480579497
 30
0.0
 10
100.9195936162632
 20
-129.350588617836
 30
0.0
 10
100.8878987377989
 20
-129.3822834963003
 30
0.0
 10
100.813829184866
 20
-129.4563530492331
 30
0.0
 10
100.8010823315706
 20
-129.5727972766346
 30
0.0
 10
100.8010823315706
 20
-129.6275742948501
 30
0.0
 10
100.8010823315706
 20
-129.6468668295674
 30
0.0
 10
100.8031493888617
 20
-129.6826958226141
 30
0.0
 10
100.807283503444
 20
-129.7102565864961
 30
0.0
 10
100.807283503444
 20
-129.7102565864961
 30
0.0
 10
100.6126356085274
 20
-129.7102565864961
 30
0.0
 10
100.6126356085274
 20
-129.7102565864961
 30
0.0
 10
100.6191812899494
 20
-129.6720160266098
 30
0.0
 10
100.6212483472405
 20
-129.6299858616897
 30
0.0
 10
100.6212483472405
 20
-129.6234401802677
 30
0.0
 10
100.6212483472405
 20
-129.557983366048
 30
0.0
 10
100.599888755232
 20
-129.3592013565491
 30
0.0
 10
100.3632106953953
 20
-129.3592013565491
 30
0.0
 10
100.1854437683564
 20
-129.3592013565491
 30
0.0
 10
100.1303222405924
 20
-129.4901149849886
 30
0.0
 10
100.1303222405924
 20
-129.6003580405166
 30
0.0
 10
100.1303222405924
 20
-129.8645968642352
 30
0.0
 10
100.3632106953953
 20
-129.8732096029484
 30
0.0
 10
100.4348686814885
 20
-129.8773437175307
 30
0.0
 10
100.4348686814885
 20
-129.8773437175307
 30
0.0
 10
100.4348686814885
 20
-130.0806043511604
 30
0.0
 10
100.4348686814885
 20
-130.0806043511604
 30
0.0
 10
100.3101562249225
 20
-130.0719916124473
 30
0.0
 10
99.93360728838466
 20
-130.0444308485653
 30
0.0
 10
99.93360728838466
 20
-129.5876111872212
 30
0.0
 10
99.93360728838466
 20
-129.3633354711314
 30
0.0
 10
100.0607313117904
 20
-129.1221787871639
 30
0.0
 10
100.3566650139733
 20
-129.1221787871639
 30
0.0
 10
100.5430446797254
 20
-129.1221787871639
 30
0.0
 10
100.6253824618228
 20
-129.2172634225568
 30
0.0
 10
100.6867051614603
 20
-129.3168266820805
 30
0.0
 10
100.7142659253423
 20
-129.2555039824431
 30
0.0
 10
100.7945366501486
 20
-129.0736029408219
 30
0.0
 10
101.0718668367112
 20
-129.0736029408219
 30
0.0
 10
101.4101752133627
 20
-129.0736029408219
 30
0.0
 10
101.5772623443974
 20
-129.3209607966628
 30
0.0
 10
101.5772623443974
 20
-129.5979464736769
 30
0.0
  0
HATCH
  5
E5
330
E0
100
AcDbEntity
  8
_U+30EC_U+30A4_U+30E4_U+30FC 1
 62
   179
420
  2234388
100
AcDbHatch
 10
0.0
 20
0.0
 30
0.0
210
0.0
220
0.0
230
1.0
  2
SOLID
 70
     1
 71
     0
 91
        1
 92
        1
 93
        1
 72
     4
 94
        3
 73
     0
 74
     1
 95
       62
 96
       58
 40
0.0
 40
0.0
 40
0.0
 40
0.0
 40
1.0
 40
1.0
 40
1.0
 40
2.0
 40
2.0
 40
2.0
 40
3.0
 40
3.0
 40
3.0
 40
4.0
 40
4.0
 40
4.0
 40
5.0
 40
5.0
 40
5.0
 40
6.0
 40
6.0
 40
6.0
 40
7.0
 40
7.0
 40
7.0
 40
8.0
 40
8.0
 40
8.0
 40
9.0
 40
9.0
 40
9.0
 40
10.0
 40
10.0
 40
10.0
 40
11.0
 40
11.0
 40
11.0
 40
12.0
 40
12.0
 40
12.0
 40
13.0
 40
13.0
 40
13.0
 40
14.0
 40
14.0
 40
14.0
 40
15.0
 40
15.0
 40
15.0
 40
16.0
 40
16.0
 40
16.0
 40
17.0
 40
17.0
 40
17.0
 40
18.0
 40
18.0
 40
18.0
 40
19.0
 40
19.0
 40
19.0
 40
19.0
 10
101.5772623443974
 20
-129.5979464736769
 10
101.5772623443974
 20
-129.6933756186183
 10
101.5562472619373
 20
-129.9111056532861
 10
101.3702121057338
 20
-130.0361626194007
 10
101.2579019929147
 20
-130.1102321723336
 10
101.1586832429395
 20
-130.1143662869159
 10
101.0739338940024
 20
-130.1185004014982
 10
101.0739338940024
 20
-130.1185004014982
 10
101.0739338940024
 20
-129.8983587999907
 10
101.0739338940024
 20
-129.8983587999907
 10
101.1480034469352
 20
-129.8962917426995
 10
101.3826144494807
 20
-129.8859564562438
 10
101.3826144494807
 20
-129.6024250978077
 10
101.3826144494807
 20
-129.4649657879463
 10
101.3130235206787
 20
-129.3123480579497
 10
101.0846136900066
 20
-129.3123480579497
 10
100.9681694626052
 20
-129.3123480579497
 10
100.9195936162632
 20
-129.350588617836
 10
100.8878987377989
 20
-129.3822834963003
 10
100.813829184866
 20
-129.4563530492331
 10
100.8010823315706
 20
-129.5727972766346
 10
100.8010823315706
 20
-129.6275742948501
 10
100.8010823315706
 20
-129.6468668295674
 10
100.8031493888617
 20
-129.6826958226141
 10
100.807283503444
 20
-129.7102565864961
 10
100.807283503444
 20
-129.7102565864961
 10
100.6126356085274
 20
-129.7102565864961
 10
100.6126356085274
 20
-129.7102565864961
 10
100.6191812899494
 20
-129.6720160266098
 10
100.6212483472405
 20
-129.6299858616897
 10
100.6212483472405
 20
-129.6234401802677
 10
100.6212483472405
 20
-129.557983366048
 10
100.599888755232
 20
-129.3592013565491
 10
100.3632106953953
 20
-129.3592013565491
 10
100.1854437683564
 20
-129.3592013565491
 10
100.1303222405924
 20
-129.4901149849886
 10
100.1303222405924
 20
-129.6003580405166
 10
100.1303222405924
 20
-129.8645968642352
 10
100.3632106953953
 20
-129.8732096029484
 10
100.4348686814885
 20
-129.8773437175307
 10
100.4348686814885
 20
-129.8773437175307
 10
100.4348686814885
 20
-130.0806043511604
 10
100.4348686814885
 20
-130.0806043511604
 10
100.3101562249225
 20
-130.0719916124473
 10
99.93360728838466
 20
-130.0444308485653
 10
99.93360728838466
 20
-129.5876111872212
 10
99.93360728838466
 20
-129.3633354711314
 10
100.0607313117904
 20
-129.1221787871639
 10
100.3566650139733
 20
-129.1221787871639
 10
100.5430446797254
 20
-129.1221787871639
 10
100.6253824618228
 20
-129.2172634225568
 10
100.6867051614603
 20
-129.3168266820805
 10
100.7142659253423
 20
-129.2555039824431
 10
100.7945366501486
 20
-129.0736029408219
 10
101.0718668367112
 20
-129.0736029408219
 10
101.4101752133627
 20
-129.0736029408219
 10
101.5772623443974
 20
-129.3209607966628
 10
101.5772623443974
 20
-129.5979464736769
 97
        0
 97
        0
 75
     2
 76
     1
 98
        0
  0
POLYLINE
  5
E6
330
E0
100
AcDbEntity
  8
_U+30EC_U+30A4_U+30E4_U+30FC 1
370
     0
100
AcDb2dPolyline
 66
     1
 10
0.0
 20
0.0
 30
0.0
  0
VERTEX
  5
E7
330
E6
100
AcDbEntity
  8
_U+30EC_U+30A4_U+30E4_U+30FC 1
370
     0
100
AcDbVertex
100
AcDb2dVertex
 10
101.5266194407642
 20
-128.8527723202174
 30
0.0
  0
VERTEX
  5
E8
330
E6
100
AcDbEntity
  8
_U+30EC_U+30A4_U+30E4_U+30FC 1
370
     0
100
AcDbVertex
100
AcDb2dVertex
 10
101.2747829607924
 20
-128.8527723202174
 30
0.0
  0
VERTEX
  5
E9
330
E6
100
AcDbEntity
  8
_U+30EC_U+30A4_U+30E4_U+30FC 1
370
     0
100
AcDbVertex
100
AcDb2dVertex
 10
101.2747829607924
 20
-128.6009358402456
 30
0.0
  0
VERTEX
  5
EA
330
E6
100
AcDbEntity
  8
_U+30EC_U+30A4_U+30E4_U+30FC 1
370
     0
100
AcDbVertex
100
AcDb2dVertex
 10
101.5266194407642
 20
-128.6009358402456
 30
0.0
  0
VERTEX
  5
EB
330
E6
100
AcDbEntity
  8
_U+30EC_U+30A4_U+30E4_U+30FC 1
370
     0
100
AcDbVertex
100
AcDb2dVertex
 10
101.5266194407642
 20
-128.8527723202174
 30
0.0
  0
SEQEND
  5
EC
330
E6
100
AcDbEntity
  8
_U+30EC_U+30A4_U+30E4_U+30FC 1
370
     0
  0
HATCH
  5
ED
330
E0
100
AcDbEntity
  8
_U+30EC_U+30A4_U+30E4_U+30FC 1
 62
   179
420
  2234388
100
AcDbHatch
 10
0.0
 20
0.0
 30
0.0
210
0.0
220
0.0
230
1.0
  2
SOLID
 70
     1
 71
     0
 91
        1
 92
        1
 93
        4
 72
     1
 10
101.5266194407642
 20
-128.8527723202174
 11
101.2747829607924
 21
-128.8527723202174
 72
     1
 10
101.2747829607924
 20
-128.8527723202174
 11
101.2747829607924
 21
-128.6009358402456
 72
     1
 10
101.2747829607924
 20
-128.6009358402456
 11
101.5266194407642
 21
-128.6009358402456
 72
     1
 10
101.5266194407642
 20
-128.6009358402456
 11
101.5266194407642
 21
-128.8527723202174
 97
        0
 75
     2
 76
     1
 98
        0
  0
SPLINE
  5
EE
330
E0
100
AcDbEntity
  8
_U+30EC_U+30A4_U+30E4_U+30FC 1
370
     0
100
AcDbSpline
210
0.0
220
0.0
230
1.0
 70
    11
 71
     3
 72
    53
 73
    49
 74
     0
 42
0.0000000001
 43
0.0000000001
 12
1.0
 22
0.0
 32
0.0
 13
1.0
 23
0.0
 33
0.0
 40
0.0
 40
0.0
 40
0.0
 40
0.0
 40
1.0
 40
1.0
 40
1.0
 40
2.0
 40
2.0
 40
2.0
 40
3.0
 40
3.0
 40
3.0
 40
4.0
 40
4.0
 40
4.0
 40
5.0
 40
5.0
 40
5.0
 40
6.0
 40
6.0
 40
6.0
 40
7.0
 40
7.0
 40
7.0
 40
8.0
 40
8.0
 40
8.0
 40
9.0
 40
9.0
 40
9.0
 40
10.0
 40
10.0
 40
10.0
 40
11.0
 40
11.0
 40
11.0
 40
12.0
 40
12.0
 40
12.0
 40
13.0
 40
13.0
 40
13.0
 40
14.0
 40
14.0
 40
14.0
 40
15.0
 40
15.0
 40
15.0
 40
16.0
 40
16.0
 40
16.0
 40
16.0
 10
101.5772623443974
 20
-127.8836669602166
 30
0.0
 10
101.5772623443974
 20
-127.9618706277318
 30
0.0
 10
101.5603813765196
 20
-128.0635009445466
 30
0.0
 10
101.496991619591
 20
-128.1651312613615
 30
0.0
 10
101.3870930736116
 20
-128.3384195642696
 30
0.0
 10
101.2558349356235
 20
-128.3597791562781
 30
0.0
 10
101.1480034469352
 20
-128.378727181447
 30
0.0
 10
101.1480034469352
 20
-128.378727181447
 30
0.0
 10
101.1480034469352
 20
-128.1565185226484
 30
0.0
 10
101.1480034469352
 20
-128.1565185226484
 30
0.0
 10
101.3467854564341
 20
-128.1017415044329
 30
0.0
 10
101.3764132776073
 20
-127.9746174810272
 30
0.0
 10
101.3764132776073
 20
-127.8815999029254
 30
0.0
 10
101.3764132776073
 20
-127.7420735357728
 30
0.0
 10
101.2768500180836
 20
-127.5898003153248
 30
0.0
 10
101.0443060728292
 20
-127.5898003153248
 30
0.0
 10
100.7883354782751
 20
-127.5898003153248
 30
0.0
 10
100.7184000399246
 20
-127.7696342996548
 30
0.0
 10
100.7184000399246
 20
-127.8902126416386
 30
0.0
 10
100.7184000399246
 20
-127.9219075201029
 30
0.0
 10
100.7184000399246
 20
-128.0635009445466
 30
0.0
 10
100.8475911206214
 20
-128.1523844080661
 30
0.0
 10
100.8475911206214
 20
-128.1523844080661
 30
0.0
 10
100.8286430954526
 20
-128.3280842778138
 30
0.0
 10
100.8286430954526
 20
-128.3280842778138
 30
0.0
 10
100.8286430954526
 20
-128.3280842778138
 30
0.0
 10
99.98218313472668
 20
-128.2075059358301
 30
0.0
 10
99.98218313472668
 20
-128.2075059358301
 30
0.0
 10
99.98218313472668
 20
-128.2075059358301
 30
0.0
 10
99.98218313472668
 20
-127.4289143561636
 30
0.0
 10
99.98218313472668
 20
-127.4289143561636
 30
0.0
 10
99.98218313472668
 20
-127.4289143561636
 30
0.0
 10
100.1768310296433
 20
-127.4289143561636
 30
0.0
 10
100.1768310296433
 20
-127.4289143561636
 30
0.0
 10
100.1768310296433
 20
-127.4289143561636
 30
0.0
 10
100.1768310296433
 20
-128.0445529193778
 30
0.0
 10
100.1768310296433
 20
-128.0445529193778
 30
0.0
 10
100.1768310296433
 20
-128.0445529193778
 30
0.0
 10
100.599888755232
 20
-128.1100097335975
 30
0.0
 10
100.599888755232
 20
-128.1100097335975
 30
0.0
 10
100.5661268194765
 20
-128.0486870339601
 30
0.0
 10
100.5258192022991
 20
-127.9663492518626
 30
0.0
 10
100.5258192022991
 20
-127.84783796717
 30
0.0
 10
100.5258192022991
 20
-127.5939344299071
 30
0.0
 10
100.7121988680511
 20
-127.3569118605219
 30
0.0
 10
101.0253580476603
 20
-127.3569118605219
 30
0.0
 10
101.3426513418518
 20
-127.3569118605219
 30
0.0
 10
101.5772623443974
 20
-127.5811875766117
 30
0.0
 10
101.5772623443974
 20
-127.8836669602166
 30
0.0
  0
HATCH
  5
EF
330
E0
100
AcDbEntity
  8
_U+30EC_U+30A4_U+30E4_U+30FC 1
 62
   179
420
  2234388
100
AcDbHatch
 10
0.0
 20
0.0
 30
0.0
210
0.0
220
0.0
230
1.0
  2
SOLID
 70
     1
 71
     0
 91
        1
 92
        1
 93
        1
 72
     4
 94
        3
 73
     0
 74
     1
 95
       53
 96
       49
 40
0.0
 40
0.0
 40
0.0
 40
0.0
 40
1.0
 40
1.0
 40
1.0
 40
2.0
 40
2.0
 40
2.0
 40
3.0
 40
3.0
 40
3.0
 40
4.0
 40
4.0
 40
4.0
 40
5.0
 40
5.0
 40
5.0
 40
6.0
 40
6.0
 40
6.0
 40
7.0
 40
7.0
 40
7.0
 40
8.0
 40
8.0
 40
8.0
 40
9.0
 40
9.0
 40
9.0
 40
10.0
 40
10.0
 40
10.0
 40
11.0
 40
11.0
 40
11.0
 40
12.0
 40
12.0
 40
12.0
 40
13.0
 40
13.0
 40
13.0
 40
14.0
 40
14.0
 40
14.0
 40
15.0
 40
15.0
 40
15.0
 40
16.0
 40
16.0
 40
16.0
 40
16.0
 10
101.5772623443974
 20
-127.8836669602166
 10
101.5772623443974
 20
-127.9618706277318
 10
101.5603813765196
 20
-128.0635009445466
 10
101.496991619591
 20
-128.1651312613615
 10
101.3870930736116
 20
-128.3384195642696
 10
101.2558349356235
 20
-128.3597791562781
 10
101.1480034469352
 20
-128.378727181447
 10
101.1480034469352
 20
-128.378727181447
 10
101.1480034469352
 20
-128.1565185226484
 10
101.1480034469352
 20
-128.1565185226484
 10
101.3467854564341
 20
-128.1017415044329
 10
101.3764132776073
 20
-127.9746174810272
 10
101.3764132776073
 20
-127.8815999029254
 10
101.3764132776073
 20
-127.7420735357728
 10
101.2768500180836
 20
-127.5898003153248
 10
101.0443060728292
 20
-127.5898003153248
 10
100.7883354782751
 20
-127.5898003153248
 10
100.7184000399246
 20
-127.7696342996548
 10
100.7184000399246
 20
-127.8902126416386
 10
100.7184000399246
 20
-127.9219075201029
 10
100.7184000399246
 20
-128.0635009445466
 10
100.8475911206214
 20
-128.1523844080661
 10
100.8475911206214
 20
-128.1523844080661
 10
100.8286430954526
 20
-128.3280842778138
 10
100.8286430954526
 20
-128.3280842778138
 10
100.8286430954526
 20
-128.3280842778138
 10
99.98218313472668
 20
-128.2075059358301
 10
99.98218313472668
 20
-128.2075059358301
 10
99.98218313472668
 20
-128.2075059358301
 10
99.98218313472668
 20
-127.4289143561636
 10
99.98218313472668
 20
-127.4289143561636
 10
99.98218313472668
 20
-127.4289143561636
 10
100.1768310296433
 20
-127.4289143561636
 10
100.1768310296433
 20
-127.4289143561636
 10
100.1768310296433
 20
-127.4289143561636
 10
100.1768310296433
 20
-128.0445529193778
 10
100.1768310296433
 20
-128.0445529193778
 10
100.1768310296433
 20
-128.0445529193778
 10
100.599888755232
 20
-128.1100097335975
 10
100.599888755232
 20
-128.1100097335975
 10
100.5661268194765
 20
-128.0486870339601
 10
100.5258192022991
 20
-127.9663492518626
 10
100.5258192022991
 20
-127.84783796717
 10
100.5258192022991
 20
-127.5939344299071
 10
100.7121988680511
 20
-127.3569118605219
 10
101.0253580476603
 20
-127.3569118605219
 10
101.3426513418518
 20
-127.3569118605219
 10
101.5772623443974
 20
-127.5811875766117
 10
101.5772623443974
 20
-127.8836669602166
 97
        0
 97
        0
 75
     2
 76
     1
 98
        0
  0
ENDBLK
  5
E3
330
E0
100
AcDbEntity
  8
0
100
AcDbBlockEnd
  0
ENDSEC
  0
SECTION
  2
ENTITIES
  0
INSERT
  5
42
330
1F
100
AcDbEntity
  8
_U+30EC_U+30A4_U+30E4_U+30FC 1
100
AcDbBlockReference
  2
block 2
 10
0.0
 20
0.0
 30
0.0
  0
ENDSEC
  0
SECTION
  2
OBJECTS
  0
DICTIONARY
  5
C
330
0
100
AcDbDictionary
281
     1
  3
ACAD_GROUP
350
D
  3
ACAD_LAYOUT
350
1A
  3
ACAD_MATERIAL
350
3B
  3
ACAD_MLEADERSTYLE
350
F1
  3
ACAD_MLINESTYLE
350
17
  3
ACAD_PLOTSETTINGS
350
19
  3
ACAD_PLOTSTYLENAME
350
E
  3
ACAD_TABLESTYLE
350
F0
  3
ACAD_VISUALSTYLE
350
2A
  0
SUN
  5
3F
330
29
100
AcDbSun
 90
        1
290
     0
 63
     7
421
 16777215
 40
1.0
291
     1
 91
  2455826
 92
 54000000
292
     0
 70
     2
 71
   256
280
     1
  0
DICTIONARY
  5
D
102
{ACAD_REACTORS
330
C
102
}
330
C
100
AcDbDictionary
281
     1
  0
DICTIONARY
  5
1A
102
{ACAD_REACTORS
330
C
102
}
330
C
100
AcDbDictionary
281
     1
  3
Layout1
350
1E
  3
Layout2
350
26
  3
Model
350
22
  0
DICTIONARY
  5
3B
102
{ACAD_REACTORS
330
C
102
}
330
C
100
AcDbDictionary
281
     1
  3
ByBlock
350
3D
  3
ByLayer
350
3C
  3
Global
350
3E
  0
DICTIONARY
  5
F1
102
{ACAD_REACTORS
330
C
102
}
330
C
100
AcDbDictionary
281
     1
  0
DICTIONARY
  5
17
102
{ACAD_REACTORS
330
C
102
}
330
C
100
AcDbDictionary
281
     1
  3
Standard
350
18
  0
DICTIONARY
  5
19
102
{ACAD_REACTORS
330
C
102
}
330
C
100
AcDbDictionary
281
     1
  0
ACDBDICTIONARYWDFLT
  5
E
102
{ACAD_REACTORS
330
C
102
}
330
C
100
AcDbDictionary
281
     1
  3
Normal
350
F
100
AcDbDictionaryWithDefault
340
F
  0
DICTIONARY
  5
F0
102
{ACAD_REACTORS
330
C
102
}
330
C
100
AcDbDictionary
281
     1
  0
DICTIONARY
  5
2A
102
{ACAD_REACTORS
330
C
102
}
330
C
100
AcDbDictionary
281
     1
  3
2dWireframe
350
2F
  3
3D Hidden
350
31
  3
3dWireframe
350
30
  3
Basic
350
32
  3
Brighten
350
36
  3
ColorChange
350
3A
  3
Conceptual
350
34
  3
Dim
350
35
  3
Facepattern
350
39
  3
Flat
350
2B
  3
FlatWithEdges
350
2C
  3
Gouraud
350
2D
  3
GouraudWithEdges
350
2E
  3
Linepattern
350
38
  3
Realistic
350
33
  3
Thicken
350
37
  0
LAYOUT
  5
1E
102
{ACAD_REACTORS
330
1A
102
}
330
1A
100
AcDbPlotSettings
  1

  2
none_device
  4

  6

 40
0.0
 41
0.0
 42
0.0
 43
0.0
 44
0.0
 45
0.0
 46
0.0
 47
0.0
 48
0.0
 49
0.0
140
0.0
141
0.0
142
1.0
143
1.0
 70
   688
 72
     0
 73
     0
 74
     5
  7

 75
    16
 76
     0
 77
     2
 78
   300
147
1.0
148
0.0
149
0.0
100
AcDbLayout
  1
Layout1
 70
     1
 71
     1
 10
0.0
 20
0.0
 11
12.0
 21
9.0
 12
0.0
 22
0.0
 32
0.0
 14
1.000000000000000E+20
 24
1.000000000000000E+20
 34
1.000000000000000E+20
 15
-1.000000000000000E+20
 25
-1.000000000000000E+20
 35
-1.000000000000000E+20
146
0.0
 13
0.0
 23
0.0
 33
0.0
 16
1.0
 26
0.0
 36
0.0
 17
0.0
 27
1.0
 37
0.0
 76
     0
330
1B
  0
LAYOUT
  5
26
102
{ACAD_REACTORS
330
1A
102
}
330
1A
100
AcDbPlotSettings
  1

  2
none_device
  4

  6

 40
0.0
 41
0.0
 42
0.0
 43
0.0
 44
0.0
 45
0.0
 46
0.0
 47
0.0
 48
0.0
 49
0.0
140
0.0
141
0.0
142
1.0
143
1.0
 70
   688
 72
     0
 73
     0
 74
     5
  7

 75
    16
 76
     0
 77
     2
 78
   300
147
1.0
148
0.0
149
0.0
100
AcDbLayout
  1
Layout2
 70
     1
 71
     2
 10
0.0
 20
0.0
 11
0.0
 21
0.0
 12
0.0
 22
0.0
 32
0.0
 14
0.0
 24
0.0
 34
0.0
 15
0.0
 25
0.0
 35
0.0
146
0.0
 13
0.0
 23
0.0
 33
0.0
 16
1.0
 26
0.0
 36
0.0
 17
0.0
 27
1.0
 37
0.0
 76
     0
330
23
  0
LAYOUT
  5
22
102
{ACAD_REACTORS
330
1A
102
}
330
1A
100
AcDbPlotSettings
  1

  2
none_device
  4

  6

 40
0.0
 41
0.0
 42
0.0
 43
0.0
 44
0.0
 45
0.0
 46
0.0
 47
0.0
 48
0.0
 49
0.0
140
0.0
141
0.0
142
1.0
143
1.0
 70
  1712
 72
     0
 73
     0
 74
     0
  7

 75
     0
 76
     0
 77
     2
 78
   300
147
1.0
148
0.0
149
0.0
100
AcDbLayout
  1
Model
 70
     1
 71
     0
 10
0.0
 20
0.0
 11
12.0
 21
9.0
 12
0.0
 22
0.0
 32
0.0
 14
1.000000000000000E+20
 24
1.000000000000000E+20
 34
1.000000000000000E+20
 15
-1.000000000000000E+20
 25
-1.000000000000000E+20
 35
-1.000000000000000E+20
146
0.0
 13
0.0
 23
0.0
 33
0.0
 16
1.0
 26
0.0
 36
0.0
 17
0.0
 27
1.0
 37
0.0
 76
     0
330
1F
331
29
  0
MATERIAL
  5
3D
102
{ACAD_REACTORS
330
3B
102
}
330
3B
100
AcDbMaterial
  1
ByBlock
 72
     1
 94
      127
  0
MATERIAL
  5
3C
102
{ACAD_REACTORS
330
3B
102
}
330
3B
100
AcDbMaterial
  1
ByLayer
 72
     1
 94
      127
  0
MATERIAL
  5
3E
102
{ACAD_REACTORS
330
3B
102
}
330
3B
100
AcDbMaterial
  1
Global
 72
     1
 94
      127
  0
MLINESTYLE
  5
18
102
{ACAD_REACTORS
330
17
102
}
330
17
100
AcDbMlineStyle
  2
Standard
 70
     0
  3

 62
   256
 51
90.0
 52
90.0
 71
     2
 49
0.5
 62
   256
  6
BYLAYER
 49
-0.5
 62
   256
  6
BYLAYER
  0
ACDBPLACEHOLDER
  5
F
102
{ACAD_REACTORS
330
E
102
}
330
E
  0
VISUALSTYLE
  5
2F
102
{ACAD_REACTORS
330
2A
102
}
330
2A
100
AcDbVisualStyle
  2
2dWireframe
 70
     4
177
     2
291
     0
 71
     0
176
     1
 72
     2
176
     1
 73
     0
176
     1
 90
        0
176
     1
 40
-0.6
176
     1
 41
-30.0
176
     1
 62
     5
 63
     7
421
 16777215
176
     1
 74
     1
176
     1
 91
        4
176
     1
 64
     7
176
     1
 65
   257
176
     1
 75
     1
176
     1
175
     1
176
     1
 42
1.0
176
     1
 92
        0
176
     1
 66
   257
176
     1
 43
1.0
176
     1
 76
     1
176
     1
 77
     6
176
     1
 78
     2
176
     1
 67
     7
176
     1
 79
     5
176
     1
170
     0
176
     1
171
     0
176
     1
290
     0
176
     1
 93
        1
176
     1
 44
0.0
176
     1
173
     0
176
     1
  0
VISUALSTYLE
  5
31
102
{ACAD_REACTORS
330
2A
102
}
330
2A
100
AcDbVisualStyle
  2
3D Hidden
 70
     6
177
     2
291
     0
 71
     1
176
     1
 72
     2
176
     1
 73
     2
176
     1
 90
        0
176
     1
 40
-0.6
176
     1
 41
-30.0
176
     1
 62
     5
 63
     7
421
 16777215
176
     1
 74
     2
176
     1
 91
        2
176
     1
 64
     7
176
     1
 65
   257
176
     1
 75
     2
176
     1
175
     1
176
     1
 42
40.0
176
     1
 92
        0
176
     1
 66
   257
176
     1
 43
1.0
176
     1
 76
     1
176
     1
 77
     6
176
     1
 78
     2
176
     1
 67
     7
176
     1
 79
     3
176
     1
170
     0
176
     1
171
     0
176
     1
290
     0
176
     1
 93
        1
176
     1
 44
0.0
176
     1
173
     0
176
     1
  0
VISUALSTYLE
  5
30
102
{ACAD_REACTORS
330
2A
102
}
330
2A
100
AcDbVisualStyle
  2
3dWireframe
 70
     5
177
     2
291
     0
 71
     0
176
     1
 72
     2
176
     1
 73
     0
176
     1
 90
        0
176
     1
 40
-0.6
176
     1
 41
-30.0
176
     1
 62
     5
 63
     7
421
 16777215
176
     1
 74
     1
176
     1
 91
        4
176
     1
 64
     7
176
     1
 65
   257
176
     1
 75
     1
176
     1
175
     1
176
     1
 42
1.0
176
     1
 92
        0
176
     1
 66
   257
176
     1
 43
1.0
176
     1
 76
     1
176
     1
 77
     6
176
     1
 78
     2
176
     1
 67
     7
176
     1
 79
     5
176
     1
170
     0
176
     1
171
     0
176
     1
290
     0
176
     1
 93
        1
176
     1
 44
0.0
176
     1
173
     0
176
     1
  0
VISUALSTYLE
  5
32
102
{ACAD_REACTORS
330
2A
102
}
330
2A
100
AcDbVisualStyle
  2
Basic
 70
     7
177
     2
291
     1
 71
     1
176
     1
 72
     0
176
     1
 73
     1
176
     1
 90
        0
176
     1
 40
-0.6
176
     1
 41
-30.0
176
     1
 62
     5
 63
     7
421
 16777215
176
     1
 74
     0
176
     1
 91
        4
176
     1
 64
     7
176
     1
 65
   257
176
     1
 75
     1
176
     1
175
     1
176
     1
 42
1.0
176
     1
 92
        8
176
     1
 66
     7
176
     1
 43
1.0
176
     1
 76
     1
176
     1
 77
     6
176
     1
 78
     2
176
     1
 67
     7
176
     1
 79
     5
176
     1
170
     0
176
     1
171
     0
176
     1
290
     0
176
     1
 93
        1
176
     1
 44
0.0
176
     1
173
     0
176
     1
  0
VISUALSTYLE
  5
36
102
{ACAD_REACTORS
330
2A
102
}
330
2A
100
AcDbVisualStyle
  2
Brighten
 70
    12
177
     2
291
     1
 71
     2
176
     1
 72
     2
176
     1
 73
     0
176
     1
 90
        0
176
     1
 40
-0.6
176
     1
 41
-30.0
176
     1
 62
     5
 63
     7
421
 16777215
176
     1
 74
     1
176
     1
 91
        4
176
     1
 64
     7
176
     1
 65
   257
176
     1
 75
     1
176
     1
175
     1
176
     1
 42
1.0
176
     1
 92
        8
176
     1
 66
     7
176
     1
 43
1.0
176
     1
 76
     1
176
     1
 77
     6
176
     1
 78
     2
176
     1
 67
     7
176
     1
 79
     5
176
     1
170
     0
176
     1
171
     0
176
     1
290
     0
176
     1
 93
        1
176
     1
 44
50.0
176
     1
173
     0
176
     1
  0
VISUALSTYLE
  5
3A
102
{ACAD_REACTORS
330
2A
102
}
330
2A
100
AcDbVisualStyle
  2
ColorChange
 70
    16
177
     2
291
     1
 71
     2
176
     1
 72
     2
176
     1
 73
     3
176
     1
 90
        0
176
     1
 40
-0.6
176
     1
 41
-30.0
176
     1
 62
     5
 63
     8
421
  8421504
176
     1
 74
     1
176
     1
 91
        4
176
     1
 64
     7
176
     1
 65
   257
176
     1
 75
     1
176
     1
175
     1
176
     1
 42
1.0
176
     1
 92
        8
176
     1
 66
     8
424
  8421504
176
     1
 43
1.0
176
     1
 76
     1
176
     1
 77
     6
176
     1
 78
     2
176
     1
 67
     7
176
     1
 79
     5
176
     1
170
     0
176
     1
171
     0
176
     1
290
     0
176
     1
 93
        1
176
     1
 44
0.0
176
     1
173
     0
176
     1
  0
VISUALSTYLE
  5
34
102
{ACAD_REACTORS
330
2A
102
}
330
2A
100
AcDbVisualStyle
  2
Conceptual
 70
     9
177
     2
291
     0
 71
     3
176
     1
 72
     2
176
     1
 73
     0
176
     1
 90
        0
176
     1
 40
-0.6
176
     1
 41
-30.0
176
     1
 62
     5
 63
     7
421
 16777215
176
     1
 74
     2
176
     1
 91
        2
176
     1
 64
     7
176
     1
 65
   257
176
     1
 75
     1
176
     1
175
     1
176
     1
 42
40.0
176
     1
 92
        8
176
     1
 66
     7
176
     1
 43
1.0
176
     1
 76
     1
176
     1
 77
     6
176
     1
 78
     2
176
     1
 67
     7
176
     1
 79
     3
176
     1
170
     0
176
     1
171
     0
176
     1
290
     0
176
     1
 93
        1
176
     1
 44
0.0
176
     1
173
     0
176
     1
  0
VISUALSTYLE
  5
35
102
{ACAD_REACTORS
330
2A
102
}
330
2A
100
AcDbVisualStyle
  2
Dim
 70
    11
177
     2
291
     1
 71
     2
176
     1
 72
     2
176
     1
 73
     0
176
     1
 90
        0
176
     1
 40
-0.6
176
     1
 41
-30.0
176
     1
 62
     5
 63
     7
421
 16777215
176
     1
 74
     1
176
     1
 91
        4
176
     1
 64
     7
176
     1
 65
   257
176
     1
 75
     1
176
     1
175
     1
176
     1
 42
1.0
176
     1
 92
        8
176
     1
 66
     7
176
     1
 43
1.0
176
     1
 76
     1
176
     1
 77
     6
176
     1
 78
     2
176
     1
 67
     7
176
     1
 79
     5
176
     1
170
     0
176
     1
171
     0
176
     1
290
     0
176
     1
 93
        1
176
     1
 44
-50.0
176
     1
173
     0
176
     1
  0
VISUALSTYLE
  5
39
102
{ACAD_REACTORS
330
2A
102
}
330
2A
100
AcDbVisualStyle
  2
Facepattern
 70
    15
177
     2
291
     1
 71
     2
176
     1
 72
     2
176
     1
 73
     0
176
     1
 90
        0
176
     1
 40
-0.6
176
     1
 41
-30.0
176
     1
 62
     5
 63
     7
421
 16777215
176
     1
 74
     1
176
     1
 91
        4
176
     1
 64
     7
176
     1
 65
   257
176
     1
 75
     1
176
     1
175
     1
176
     1
 42
1.0
176
     1
 92
        8
176
     1
 66
     7
176
     1
 43
1.0
176
     1
 76
     1
176
     1
 77
     6
176
     1
 78
     2
176
     1
 67
     7
176
     1
 79
     5
176
     1
170
     0
176
     1
171
     0
176
     1
290
     0
176
     1
 93
        1
176
     1
 44
0.0
176
     1
173
     0
176
     1
  0
VISUALSTYLE
  5
2B
102
{ACAD_REACTORS
330
2A
102
}
330
2A
100
AcDbVisualStyle
  2
Flat
 70
     0
177
     2
291
     1
 71
     2
176
     1
 72
     1
176
     1
 73
     1
176
     1
 90
        2
176
     1
 40
-0.6
176
     1
 41
30.0
176
     1
 62
     5
 63
     7
421
 16777215
176
     1
 74
     0
176
     1
 91
        4
176
     1
 64
     7
176
     1
 65
   257
176
     1
 75
     1
176
     1
175
     1
176
     1
 42
1.0
176
     1
 92
        8
176
     1
 66
     7
176
     1
 43
1.0
176
     1
 76
     1
176
     1
 77
     6
176
     1
 78
     2
176
     1
 67
     7
176
     1
 79
     5
176
     1
170
     0
176
     1
171
     0
176
     1
290
     0
176
     1
 93
       13
176
     1
 44
0.0
176
     1
173
     0
176
     1
  0
VISUALSTYLE
  5
2C
102
{ACAD_REACTORS
330
2A
102
}
330
2A
100
AcDbVisualStyle
  2
FlatWithEdges
 70
     1
177
     2
291
     1
 71
     2
176
     1
 72
     1
176
     1
 73
     1
176
     1
 90
        2
176
     1
 40
-0.6
176
     1
 41
30.0
176
     1
 62
     5
 63
     7
421
 16777215
176
     1
 74
     1
176
     1
 91
        4
176
     1
 64
     7
176
     1
 65
   257
176
     1
 75
     1
176
     1
175
     1
176
     1
 42
1.0
176
     1
 92
        0
176
     1
 66
   257
176
     1
 43
1.0
176
     1
 76
     1
176
     1
 77
     6
176
     1
 78
     2
176
     1
 67
     7
176
     1
 79
     5
176
     1
170
     0
176
     1
171
     0
176
     1
290
     0
176
     1
 93
       13
176
     1
 44
0.0
176
     1
173
     0
176
     1
  0
VISUALSTYLE
  5
2D
102
{ACAD_REACTORS
330
2A
102
}
330
2A
100
AcDbVisualStyle
  2
Gouraud
 70
     2
177
     2
291
     1
 71
     2
176
     1
 72
     2
176
     1
 73
     1
176
     1
 90
        2
176
     1
 40
-0.6
176
     1
 41
30.0
176
     1
 62
     5
 63
     7
421
 16777215
176
     1
 74
     0
176
     1
 91
        4
176
     1
 64
     7
176
     1
 65
   257
176
     1
 75
     1
176
     1
175
     1
176
     1
 42
1.0
176
     1
 92
        0
176
     1
 66
     7
176
     1
 43
1.0
176
     1
 76
     1
176
     1
 77
     6
176
     1
 78
     2
176
     1
 67
     7
176
     1
 79
     5
176
     1
170
     0
176
     1
171
     0
176
     1
290
     0
176
     1
 93
       13
176
     1
 44
0.0
176
     1
173
     0
176
     1
  0
VISUALSTYLE
  5
2E
102
{ACAD_REACTORS
330
2A
102
}
330
2A
100
AcDbVisualStyle
  2
GouraudWithEdges
 70
     3
177
     2
291
     1
 71
     2
176
     1
 72
     2
176
     1
 73
     1
176
     1
 90
        2
176
     1
 40
-0.6
176
     1
 41
30.0
176
     1
 62
     5
 63
     7
421
 16777215
176
     1
 74
     1
176
     1
 91
        4
176
     1
 64
     7
176
     1
 65
   257
176
     1
 75
     1
176
     1
175
     1
176
     1
 42
1.0
176
     1
 92
        0
176
     1
 66
   257
176
     1
 43
1.0
176
     1
 76
     1
176
     1
 77
     6
176
     1
 78
     2
176
     1
 67
     7
176
     1
 79
     5
176
     1
170
     0
176
     1
171
     0
176
     1
290
     0
176
     1
 93
       13
176
     1
 44
0.0
176
     1
173
     0
176
     1
  0
VISUALSTYLE
  5
38
102
{ACAD_REACTORS
330
2A
102
}
330
2A
100
AcDbVisualStyle
  2
Linepattern
 70
    14
177
     2
291
     1
 71
     2
176
     1
 72
     2
176
     1
 73
     0
176
     1
 90
        0
176
     1
 40
-0.6
176
     1
 41
-30.0
176
     1
 62
     5
 63
     7
421
 16777215
176
     1
 74
     1
176
     1
 91
        4
176
     1
 64
     7
176
     1
 65
   257
176
     1
 75
     7
176
     1
175
     7
176
     1
 42
1.0
176
     1
 92
        8
176
     1
 66
     7
176
     1
 43
1.0
176
     1
 76
     1
176
     1
 77
     6
176
     1
 78
     2
176
     1
 67
     7
176
     1
 79
     5
176
     1
170
     0
176
     1
171
     0
176
     1
290
     0
176
     1
 93
        1
176
     1
 44
0.0
176
     1
173
     0
176
     1
  0
VISUALSTYLE
  5
33
102
{ACAD_REACTORS
330
2A
102
}
330
2A
100
AcDbVisualStyle
  2
Realistic
 70
     8
177
     2
291
     0
 71
     2
176
     1
 72
     2
176
     1
 73
     0
176
     1
 90
        0
176
     1
 40
-0.6
176
     1
 41
-30.0
176
     1
 62
     5
 63
     7
421
 16777215
176
     1
 74
     1
176
     1
 91
        0
176
     1
 64
     7
176
     1
 65
   257
176
     1
 75
     1
176
     1
175
     1
176
     1
 42
1.0
176
     1
 92
        8
176
     1
 66
     8
424
  7895160
176
     1
 43
1.0
176
     1
 76
     1
176
     1
 77
     6
176
     1
 78
     2
176
     1
 67
     7
176
     1
 79
     5
176
     1
170
     0
176
     1
171
     0
176
     1
290
     0
176
     1
 93
       13
176
     1
 44
0.0
176
     1
173
     0
176
     1
  0
VISUALSTYLE
  5
37
102
{ACAD_REACTORS
330
2A
102
}
330
2A
100
AcDbVisualStyle
  2
Thicken
 70
    13
177
     2
291
     1
 71
     2
176
     1
 72
     2
176
     1
 73
     0
176
     1
 90
        0
176
     1
 40
-0.6
176
     1
 41
-30.0
176
     1
 62
     5
 63
     7
421
 16777215
176
     1
 74
     1
176
     1
 91
        4
176
     1
 64
     7
176
     1
 65
   257
176
     1
 75
     1
176
     1
175
     1
176
     1
 42
1.0
176
     1
 92
       12
176
     1
 66
     7
176
     1
 43
1.0
176
     1
 76
     1
176
     1
 77
     6
176
     1
 78
     2
176
     1
 67
     7
176
     1
 79
     5
176
     1
170
     0
176
     1
171
     0
176
     1
290
     0
176
     1
 93
        1
176
     1
 44
0.0
176
     1
173
     0
176
     1
  0
ENDSEC
  0
EOF
