  0
SECTION
  2
HEADER
  9
$ACADVER
  1
AC1024
  9
$ACADMAINTVER
 70
     6
  9
$DWGCODEPAGE
  3
UNDEFINED
  9
$INSBASE
 10
0.0
 20
0.0
 30
0.0
  9
$EXTMIN
 10
1.000000000000000E+20
 20
1.000000000000000E+20
 30
1.000000000000000E+20
  9
$EXTMAX
 10
-1.000000000000000E+20
 20
-1.000000000000000E+20
 30
-1.000000000000000E+20
  9
$LIMMIN
 10
0.0
 20
0.0
  9
$LIMMAX
 10
12.0
 20
9.0
  9
$ORTHOMODE
 70
     0
  9
$REGENMODE
 70
     1
  9
$FILLMODE
 70
     1
  9
$QTEXTMODE
 70
     0
  9
$MIRRTEXT
 70
     1
  9
$LTSCALE
 40
1.0
  9
$ATTMODE
 70
     1
  9
$TEXTSIZE
 40
0.2
  9
$TRACEWID
 40
0.05
  9
$TEXTSTYLE
  7
Standard
  9
$CLAYER
  8
0
  9
$CELTYPE
  6
ByLayer
  9
$CECOLOR
 62
   256
  9
$CELTSCALE
 40
1.0
  9
$DISPSILH
 70
     0
  9
$DIMSCALE
 40
1.0
  9
$DIMASZ
 40
0.18
  9
$DIMEXO
 40
0.0625
  9
$DIMDLI
 40
0.38
  9
$DIMRND
 40
0.0
  9
$DIMDLE
 40
0.0
  9
$DIMEXE
 40
0.18
  9
$DIMTP
 40
0.0
  9
$DIMTM
 40
0.0
  9
$DIMTXT
 40
0.18
  9
$DIMCEN
 40
0.09
  9
$DIMTSZ
 40
0.0
  9
$DIMTOL
 70
     0
  9
$DIMLIM
 70
     0
  9
$DIMTIH
 70
     1
  9
$DIMTOH
 70
     1
  9
$DIMSE1
 70
     0
  9
$DIMSE2
 70
     0
  9
$DIMTAD
 70
     0
  9
$DIMZIN
 70
     0
  9
$DIMBLK
  1

  9
$DIMASO
 70
     1
  9
$DIMSHO
 70
     1
  9
$DIMPOST
  1

  9
$DIMAPOST
  1

  9
$DIMALT
 70
     0
  9
$DIMALTD
 70
     2
  9
$DIMALTF
 40
25.4
  9
$DIMLFAC
 40
1.0
  9
$DIMTOFL
 70
     0
  9
$DIMTVP
 40
0.0
  9
$DIMTIX
 70
     0
  9
$DIMSOXD
 70
     0
  9
$DIMSAH
 70
     0
  9
$DIMBLK1
  1

  9
$DIMBLK2
  1

  9
$DIMSTYLE
  2
Standard
  9
$DIMCLRD
 70
     0
  9
$DIMCLRE
 70
     0
  9
$DIMCLRT
 70
     0
  9
$DIMTFAC
 40
1.0
  9
$DIMGAP
 40
0.09
  9
$DIMJUST
 70
     0
  9
$DIMSD1
 70
     0
  9
$DIMSD2
 70
     0
  9
$DIMTOLJ
 70
     1
  9
$DIMTZIN
 70
     0
  9
$DIMALTZ
 70
     0
  9
$DIMALTTZ
 70
     0
  9
$DIMUPT
 70
     0
  9
$DIMDEC
 70
     4
  9
$DIMTDEC
 70
     4
  9
$DIMALTU
 70
     2
  9
$DIMALTTD
 70
     2
  9
$DIMTXSTY
  7
Standard
  9
$DIMAUNIT
 70
     0
  9
$DIMADEC
 70
     0
  9
$DIMALTRND
 40
0.0
  9
$DIMAZIN
 70
     0
  9
$DIMDSEP
 70
    46
  9
$DIMATFIT
 70
     3
  9
$DIMFRAC
 70
     0
  9
$DIMLDRBLK
  1

  9
$DIMLUNIT
 70
     2
  9
$DIMLWD
 70
    -2
  9
$DIMLWE
 70
    -2
  9
$DIMTMOVE
 70
     0
  9
$DIMFXL
 40
1.0
  9
$DIMFXLON
 70
     0
  9
$DIMJOGANG
 40
0.7853981633974483
  9
$DIMTFILL
 70
     0
  9
$DIMTFILLCLR
 70
     0
  9
$DIMARCSYM
 70
     0
  9
$DIMLTYPE
  6

  9
$DIMLTEX1
  6

  9
$DIMLTEX2
  6

  9
$DIMTXTDIRECTION
 70
     0
  9
$LUNITS
 70
     2
  9
$LUPREC
 70
     4
  9
$SKETCHINC
 40
0.1
  9
$FILLETRAD
 40
0.5
  9
$AUNITS
 70
     0
  9
$AUPREC
 70
     0
  9
$MENU
  1
.
  9
$ELEVATION
 40
0.0
  9
$PELEVATION
 40
0.0
  9
$THICKNESS
 40
0.0
  9
$LIMCHECK
 70
     0
  9
$CHAMFERA
 40
0.5
  9
$CHAMFERB
 40
0.5
  9
$CHAMFERC
 40
1.0
  9
$CHAMFERD
 40
0.0
  9
$SKPOLY
 70
     0
  9
$TDCREATE
 40
2457917.615682859
  9
$TDUCREATE
 40
2457917.24068287
  9
$TDUPDATE
 40
2457917.615682859
  9
$TDUUPDATE
 40
2457917.24068287
  9
$TDINDWG
 40
0.0000000116
  9
$TDUSRTIMER
 40
0.0000000116
  9
$USRTIMER
 70
     1
  9
$ANGBASE
 50
0.0
  9
$ANGDIR
 70
     0
  9
$PDMODE
 70
     0
  9
$PDSIZE
 40
0.0
  9
$PLINEWID
 40
0.0
  9
$SPLFRAME
 70
     0
  9
$SPLINETYPE
 70
     6
  9
$SPLINESEGS
 70
     8
  9
$HANDSEED
  5
E7
  9
$SURFTAB1
 70
     6
  9
$SURFTAB2
 70
     6
  9
$SURFTYPE
 70
     6
  9
$SURFU
 70
     6
  9
$SURFV
 70
     6
  9
$UCSBASE
  2

  9
$UCSNAME
  2

  9
$UCSORG
 10
0.0
 20
0.0
 30
0.0
  9
$UCSXDIR
 10
1.0
 20
0.0
 30
0.0
  9
$UCSYDIR
 10
0.0
 20
1.0
 30
0.0
  9
$UCSORTHOREF
  2

  9
$UCSORTHOVIEW
 70
     0
  9
$UCSORGTOP
 10
0.0
 20
0.0
 30
0.0
  9
$UCSORGBOTTOM
 10
0.0
 20
0.0
 30
0.0
  9
$UCSORGLEFT
 10
0.0
 20
0.0
 30
0.0
  9
$UCSORGRIGHT
 10
0.0
 20
0.0
 30
0.0
  9
$UCSORGFRONT
 10
0.0
 20
0.0
 30
0.0
  9
$UCSORGBACK
 10
0.0
 20
0.0
 30
0.0
  9
$PUCSBASE
  2

  9
$PUCSNAME
  2

  9
$PUCSORG
 10
0.0
 20
0.0
 30
0.0
  9
$PUCSXDIR
 10
1.0
 20
0.0
 30
0.0
  9
$PUCSYDIR
 10
0.0
 20
1.0
 30
0.0
  9
$PUCSORTHOREF
  2

  9
$PUCSORTHOVIEW
 70
     0
  9
$PUCSORGTOP
 10
0.0
 20
0.0
 30
0.0
  9
$PUCSORGBOTTOM
 10
0.0
 20
0.0
 30
0.0
  9
$PUCSORGLEFT
 10
0.0
 20
0.0
 30
0.0
  9
$PUCSORGRIGHT
 10
0.0
 20
0.0
 30
0.0
  9
$PUCSORGFRONT
 10
0.0
 20
0.0
 30
0.0
  9
$PUCSORGBACK
 10
0.0
 20
0.0
 30
0.0
  9
$USERI1
 70
     0
  9
$USERI2
 70
     0
  9
$USERI3
 70
     0
  9
$USERI4
 70
     0
  9
$USERI5
 70
     0
  9
$USERR1
 40
0.0
  9
$USERR2
 40
0.0
  9
$USERR3
 40
0.0
  9
$USERR4
 40
0.0
  9
$USERR5
 40
0.0
  9
$WORLDVIEW
 70
     1
  9
$SHADEDGE
 70
     3
  9
$SHADEDIF
 70
    70
  9
$TILEMODE
 70
     1
  9
$MAXACTVP
 70
    64
  9
$PINSBASE
 10
0.0
 20
0.0
 30
0.0
  9
$PLIMCHECK
 70
     0
  9
$PEXTMIN
 10
1.000000000000000E+20
 20
1.000000000000000E+20
 30
1.000000000000000E+20
  9
$PEXTMAX
 10
-1.000000000000000E+20
 20
-1.000000000000000E+20
 30
-1.000000000000000E+20
  9
$PLIMMIN
 10
0.0
 20
0.0
  9
$PLIMMAX
 10
12.0
 20
9.0
  9
$UNITMODE
 70
     0
  9
$VISRETAIN
 70
     1
  9
$PLINEGEN
 70
     0
  9
$PSLTSCALE
 70
     1
  9
$TREEDEPTH
 70
  3020
  9
$CMLSTYLE
  2
Standard
  9
$CMLJUST
 70
     0
  9
$CMLSCALE
 40
1.0
  9
$PROXYGRAPHICS
 70
     1
  9
$MEASUREMENT
 70
     0
  9
$CELWEIGHT
370
    -1
  9
$ENDCAPS
280
     0
  9
$JOINSTYLE
280
     0
  9
$LWDISPLAY
290
     1
  9
$INSUNITS
 70
     1
  9
$HYPERLINKBASE
  1

  9
$STYLESHEET
  1

  9
$XEDIT
290
     1
  9
$CEPSNTYPE
380
     0
  9
$PSTYLEMODE
290
     1
  9
$FINGERPRINTGUID
  2
{4AA28EFF-7934-61BB-D571-51E149D4498E}
  9
$VERSIONGUID
  2
{FAEB1C32-E019-11D5-929B-00C0DF256EC4}
  9
$EXTNAMES
290
     1
  9
$PSVPSCALE
 40
0.0
  9
$OLESTARTUP
290
     0
  9
$SORTENTS
280
   127
  9
$INDEXCTL
280
     0
  9
$HIDETEXT
280
     1
  9
$XCLIPFRAME
280
     2
  9
$HALOGAP
280
     0
  9
$OBSCOLOR
 70
   257
  9
$OBSLTYPE
280
     0
  9
$INTERSECTIONDISPLAY
280
     0
  9
$INTERSECTIONCOLOR
 70
   257
  9
$DIMASSOC
280
     2
  9
$PROJECTNAME
  1

  9
$CAMERADISPLAY
290
     0
  9
$LENSLENGTH
 40
50.0
  9
$CAMERAHEIGHT
 40
0.0
  9
$STEPSPERSEC
 40
2.0
  9
$STEPSIZE
 40
6.0
  9
$3DDWFPREC
 40
2.0
  9
$PSOLWIDTH
 40
0.25
  9
$PSOLHEIGHT
 40
4.0
  9
$LOFTANG1
 40
1.570796326794897
  9
$LOFTANG2
 40
1.570796326794897
  9
$LOFTMAG1
 40
0.0
  9
$LOFTMAG2
 40
0.0
  9
$LOFTPARAM
 70
     7
  9
$LOFTNORMALS
280
     1
  9
$LATITUDE
 40
37.795
  9
$LONGITUDE
 40
-122.394
  9
$NORTHDIRECTION
 40
0.0
  9
$TIMEZONE
 70
 -8000
  9
$LIGHTGLYPHDISPLAY
280
     1
  9
$TILEMODELIGHTSYNCH
280
     1
  9
$CMATERIAL
347
3C
  9
$SOLIDHIST
280
     1
  9
$SHOWHIST
280
     1
  9
$DWFFRAME
280
     2
  9
$DGNFRAME
280
     2
  9
$REALWORLDSCALE
290
     1
  9
$INTERFERECOLOR
 62
   256
  9
$CSHADOW
280
     0
  9
$SHADOWPLANELOCATION
 40
0.0
  0
ENDSEC
  0
SECTION
  2
CLASSES
  0
CLASS
  1
ACDBDICTIONARYWDFLT
  2
AcDbDictionaryWithDefault
  3
ObjectDBX Classes
 90
        0
 91
        4
280
     0
281
     0
  0
CLASS
  1
VISUALSTYLE
  2
AcDbVisualStyle
  3
ObjectDBX Classes
 90
     4095
 91
        4
280
     0
281
     0
  0
CLASS
  1
MATERIAL
  2
AcDbMaterial
  3
ObjectDBX Classes
 90
     1153
 91
        4
280
     0
281
     0
  0
CLASS
  1
SUN
  2
AcDbSun
  3
SCENEOE
 90
     1024
 91
        4
280
     0
281
     0
  0
ENDSEC
  0
SECTION
  2
TABLES
  0
TABLE
  2
VPORT
  5
8
330
0
100
AcDbSymbolTable
 70
     1
  0
VPORT
  5
29
330
8
100
AcDbSymbolTableRecord
100
AcDbViewportTableRecord
  2
*Active
 70
     0
 10
0.0
 20
0.0
 11
1.0
 21
1.0
 12
0.0
 22
0.0
 13
0.0
 23
0.0
 14
0.5
 24
0.5
 15
0.5
 25
0.5
 16
0.0
 26
0.0
 36
1.0
 17
91.00082462281999
 27
-128.4993055234307
 37
0.0
 40
256.9986110468615
 41
0.7081814508812795
 42
50.0
 43
0.0
 44
0.0
 50
0.0
 51
0.0
 71
     0
 72
   100
 73
     1
 74
     3
 75
     0
 76
     0
 77
     0
 78
     0
281
     0
 65
     1
110
0.0
120
0.0
130
0.0
111
1.0
121
0.0
131
0.0
112
0.0
122
1.0
132
0.0
 79
     0
146
0.0
 60
     3
 61
     5
292
     1
282
     1
141
0.0
142
0.0
 63
   250
361
3F
  0
ENDTAB
  0
TABLE
  2
LTYPE
  5
5
330
0
100
AcDbSymbolTable
 70
     1
  0
LTYPE
  5
14
330
5
100
AcDbSymbolTableRecord
100
AcDbLinetypeTableRecord
  2
ByBlock
 70
     0
  3

 72
    65
 73
     0
 40
0.0
  0
LTYPE
  5
15
330
5
100
AcDbSymbolTableRecord
100
AcDbLinetypeTableRecord
  2
ByLayer
 70
     0
  3

 72
    65
 73
     0
 40
0.0
  0
LTYPE
  5
16
330
5
100
AcDbSymbolTableRecord
100
AcDbLinetypeTableRecord
  2
Continuous
 70
     0
  3
Solid line
 72
    65
 73
     0
 40
0.0
  0
ENDTAB
  0
TABLE
  2
LAYER
  5
2
330
0
100
AcDbSymbolTable
 70
     2
  0
LAYER
  5
10
330
2
100
AcDbSymbolTableRecord
100
AcDbLayerTableRecord
  2
0
 70
     0
 62
     7
  6
Continuous
370
    -3
390
F
347
3E
  0
LAYER
  5
40
330
2
100
AcDbSymbolTableRecord
100
AcDbLayerTableRecord
  2
_U+30EC_U+30A4_U+30E4_U+30FC 1
 70
     0
 62
     7
  6
Continuous
370
    -3
390
F
347
3E
  0
ENDTAB
  0
TABLE
  2
STYLE
  5
3
330
0
100
AcDbSymbolTable
 70
     1
  0
STYLE
  5
11
330
3
100
AcDbSymbolTableRecord
100
AcDbTextStyleTableRecord
  2
Standard
 70
     0
 40
0.0
 41
1.0
 50
0.0
 71
     0
 42
0.2
  3
txt
  4

  0
ENDTAB
  0
TABLE
  2
VIEW
  5
6
330
0
100
AcDbSymbolTable
 70
     0
  0
ENDTAB
  0
TABLE
  2
UCS
  5
7
330
0
100
AcDbSymbolTable
 70
     0
  0
ENDTAB
  0
TABLE
  2
APPID
  5
9
330
0
100
AcDbSymbolTable
 70
     1
  0
APPID
  5
12
330
9
100
AcDbSymbolTableRecord
100
AcDbRegAppTableRecord
  2
ACAD
 70
     0
  0
ENDTAB
  0
TABLE
  2
DIMSTYLE
  5
A
330
0
100
AcDbSymbolTable
 70
     1
100
AcDbDimStyleTable
  0
DIMSTYLE
105
27
330
A
100
AcDbSymbolTableRecord
100
AcDbDimStyleTableRecord
  2
Standard
 70
     0
178
     0
340
11
  0
ENDTAB
  0
TABLE
  2
BLOCK_RECORD
  5
1
330
0
100
AcDbSymbolTable
 70
     9
  0
BLOCK_RECORD
  5
1F
330
1
100
AcDbSymbolTableRecord
100
AcDbBlockTableRecord
  2
*Model_Space
340
22
 70
     0
280
     1
281
     0
  0
BLOCK_RECORD
  5
1B
330
1
100
AcDbSymbolTableRecord
100
AcDbBlockTableRecord
  2
*Paper_Space
340
1E
 70
     0
280
     1
281
     0
  0
BLOCK_RECORD
  5
23
330
1
100
AcDbSymbolTableRecord
100
AcDbBlockTableRecord
  2
*Paper_Space0
340
26
 70
     0
280
     1
281
     0
  0
BLOCK_RECORD
  5
41
330
1
100
AcDbSymbolTableRecord
100
AcDbBlockTableRecord
  2
block 2
340
0
102
{BLKREFS
331
42
102
}
 70
     0
280
     1
281
     0
  0
BLOCK_RECORD
  5
83
330
1
100
AcDbSymbolTableRecord
100
AcDbBlockTableRecord
  2
block 3
340
0
102
{BLKREFS
331
84
102
}
 70
     0
280
     1
281
     0
  0
BLOCK_RECORD
  5
93
330
1
100
AcDbSymbolTableRecord
100
AcDbBlockTableRecord
  2
block 4
340
0
102
{BLKREFS
331
94
102
}
 70
     0
280
     1
281
     0
  0
BLOCK_RECORD
  5
A7
330
1
100
AcDbSymbolTableRecord
100
AcDbBlockTableRecord
  2
block 5
340
0
102
{BLKREFS
331
A8
102
}
 70
     0
280
     1
281
     0
  0
BLOCK_RECORD
  5
AD
330
1
100
AcDbSymbolTableRecord
100
AcDbBlockTableRecord
  2
block 6
340
0
102
{BLKREFS
331
AE
102
}
 70
     0
280
     1
281
     0
  0
BLOCK_RECORD
  5
C1
330
1
100
AcDbSymbolTableRecord
100
AcDbBlockTableRecord
  2
block 7
340
0
102
{BLKREFS
331
C2
102
}
 70
     0
280
     1
281
     0
  0
BLOCK_RECORD
  5
CF
330
1
100
AcDbSymbolTableRecord
100
AcDbBlockTableRecord
  2
block 8
340
0
102
{BLKREFS
331
D0
102
}
 70
     0
280
     1
281
     0
  0
BLOCK_RECORD
  5
DF
330
1
100
AcDbSymbolTableRecord
100
AcDbBlockTableRecord
  2
block 9
340
0
102
{BLKREFS
331
E0
102
}
 70
     0
280
     1
281
     0
  0
ENDTAB
  0
ENDSEC
  0
SECTION
  2
BLOCKS
  0
BLOCK
  5
20
330
1F
100
AcDbEntity
  8
0
100
AcDbBlockBegin
  2
*Model_Space
 70
     0
 10
0.0
 20
0.0
 30
0.0
  3
*Model_Space
  1

  0
ENDBLK
  5
21
330
1F
100
AcDbEntity
  8
0
100
AcDbBlockEnd
  0
BLOCK
  5
1C
330
1B
100
AcDbEntity
 67
     1
  8
0
100
AcDbBlockBegin
  2
*Paper_Space
 70
     0
 10
0.0
 20
0.0
 30
0.0
  3
*Paper_Space
  1

  0
ENDBLK
  5
1D
330
1B
100
AcDbEntity
 67
     1
  8
0
100
AcDbBlockEnd
  0
BLOCK
  5
24
330
23
100
AcDbEntity
  8
0
100
AcDbBlockBegin
  2
*Paper_Space0
 70
     0
 10
0.0
 20
0.0
 30
0.0
  3
*Paper_Space0
  1

  0
ENDBLK
  5
25
330
23
100
AcDbEntity
  8
0
100
AcDbBlockEnd
  0
BLOCK
  5
43
330
41
100
AcDbEntity
  8
0
100
AcDbBlockBegin
  2
block 2
 70
     0
 10
0.0
 20
0.0
 30
0.0
  3
block 2
  1

  0
POLYLINE
  5
45
330
41
100
AcDbEntity
  8
_U+30EC_U+30A4_U+30E4_U+30FC 1
370
     0
100
AcDb2dPolyline
 66
     1
 10
0.0
 20
0.0
 30
0.0
  0
VERTEX
  5
46
330
45
100
AcDbEntity
  8
_U+30EC_U+30A4_U+30E4_U+30FC 1
370
     0
100
AcDbVertex
100
AcDb2dVertex
 10
73.5462272903461
 20
-137.9188955210757
 30
0.0
  0
VERTEX
  5
47
330
45
100
AcDbEntity
  8
_U+30EC_U+30A4_U+30E4_U+30FC 1
370
     0
100
AcDbVertex
100
AcDb2dVertex
 10
80.48466044666525
 20
-137.9485288544018
 30
0.0
  0
VERTEX
  5
48
330
45
100
AcDbEntity
  8
_U+30EC_U+30A4_U+30E4_U+30FC 1
370
     0
100
AcDbVertex
100
AcDb2dVertex
 10
80.54322155628233
 20
-134.8899455218331
 30
0.0
  0
VERTEX
  5
49
330
45
100
AcDbEntity
  8
_U+30EC_U+30A4_U+30E4_U+30FC 1
370
     0
100
AcDbVertex
100
AcDb2dVertex
 10
79.57308269214376
 20
-134.9492121884849
 30
0.0
  0
VERTEX
  5
4A
330
45
100
AcDbEntity
  8
_U+30EC_U+30A4_U+30E4_U+30FC 1
370
     0
100
AcDbVertex
100
AcDb2dVertex
 10
79.51452158252667
 20
-136.9487566324293
 30
0.0
  0
VERTEX
  5
4B
330
45
100
AcDbEntity
  8
_U+30EC_U+30A4_U+30E4_U+30FC 1
370
     0
100
AcDbVertex
100
AcDb2dVertex
 10
74.4874383774449
 20
-136.8901955213331
 30
0.0
  0
VERTEX
  5
4C
330
45
100
AcDbEntity
  8
_U+30EC_U+30A4_U+30E4_U+30FC 1
370
     0
100
AcDbVertex
100
AcDb2dVertex
 10
74.54120170940662
 20
-122.0130627472745
 30
0.0
  0
VERTEX
  5
4D
330
45
100
AcDbEntity
  8
_U+30EC_U+30A4_U+30E4_U+30FC 1
370
     0
100
AcDbVertex
100
AcDb2dVertex
 10
98.54180220821141
 20
-122.0130627472745
 30
0.0
  0
VERTEX
  5
4E
330
45
100
AcDbEntity
  8
_U+30EC_U+30A4_U+30E4_U+30FC 1
370
     0
100
AcDbVertex
100
AcDb2dVertex
 10
98.54180220821141
 20
-121.0132905253023
 30
0.0
  0
VERTEX
  5
4F
330
45
100
AcDbEntity
  8
_U+30EC_U+30A4_U+30E4_U+30FC 1
370
     0
100
AcDbVertex
100
AcDb2dVertex
 10
73.54142951269071
 20
-121.0132905253023
 30
0.0
  0
VERTEX
  5
50
330
45
100
AcDbEntity
  8
_U+30EC_U+30A4_U+30E4_U+30FC 1
370
     0
100
AcDbVertex
100
AcDb2dVertex
 10
73.5462272903461
 20
-137.9188955210757
 30
0.0
  0
SEQEND
  5
52
330
45
100
AcDbEntity
  8
_U+30EC_U+30A4_U+30E4_U+30FC 1
370
     0
  0
HATCH
  5
51
330
41
100
AcDbEntity
  8
_U+30EC_U+30A4_U+30E4_U+30FC 1
 62
   253
420
 11711154
100
AcDbHatch
 10
0.0
 20
0.0
 30
0.0
210
0.0
220
0.0
230
1.0
  2
SOLID
 70
     1
 71
     0
 91
        1
 92
        1
 93
       10
 72
     1
 10
73.5462272903461
 20
-137.9188955210757
 11
80.48466044666525
 21
-137.9485288544018
 72
     1
 10
80.48466044666525
 20
-137.9485288544018
 11
80.54322155628233
 21
-134.8899455218331
 72
     1
 10
80.54322155628233
 20
-134.8899455218331
 11
79.57308269214376
 21
-134.9492121884849
 72
     1
 10
79.57308269214376
 20
-134.9492121884849
 11
79.51452158252667
 21
-136.9487566324293
 72
     1
 10
79.51452158252667
 20
-136.9487566324293
 11
74.4874383774449
 21
-136.8901955213331
 72
     1
 10
74.4874383774449
 20
-136.8901955213331
 11
74.54120170940662
 21
-122.0130627472745
 72
     1
 10
74.54120170940662
 20
-122.0130627472745
 11
98.54180220821141
 21
-122.0130627472745
 72
     1
 10
98.54180220821141
 20
-122.0130627472745
 11
98.54180220821141
 21
-121.0132905253023
 72
     1
 10
98.54180220821141
 20
-121.0132905253023
 11
73.54142951269071
 21
-121.0132905253023
 72
     1
 10
73.54142951269071
 20
-121.0132905253023
 11
73.5462272903461
 21
-137.9188955210757
 97
        0
 75
     2
 76
     1
 98
        0
  0
POLYLINE
  5
53
330
41
100
AcDbEntity
  8
_U+30EC_U+30A4_U+30E4_U+30FC 1
 62
     7
420
 16777215
370
    25
100
AcDb2dPolyline
 66
     1
 10
0.0
 20
0.0
 30
0.0
  0
VERTEX
  5
54
330
53
100
AcDbEntity
  8
_U+30EC_U+30A4_U+30E4_U+30FC 1
 62
     7
420
 16777215
370
    25
100
AcDbVertex
100
AcDb2dVertex
 10
73.54142951269071
 20
-137.8878863544172
 30
0.0
  0
VERTEX
  5
55
330
53
100
AcDbEntity
  8
_U+30EC_U+30A4_U+30E4_U+30FC 1
 62
     7
420
 16777215
370
    25
100
AcDbVertex
100
AcDb2dVertex
 10
73.54142951269071
 20
-121.0429238586282
 30
0.0
  0
SEQEND
  5
56
330
53
100
AcDbEntity
  8
_U+30EC_U+30A4_U+30E4_U+30FC 1
 62
     7
420
 16777215
370
    25
  0
POLYLINE
  5
57
330
41
100
AcDbEntity
  8
_U+30EC_U+30A4_U+30E4_U+30FC 1
 62
     7
420
 16777215
370
    25
100
AcDb2dPolyline
 66
     1
 10
0.0
 20
0.0
 30
0.0
  0
VERTEX
  5
58
330
57
100
AcDbEntity
  8
_U+30EC_U+30A4_U+30E4_U+30FC 1
 62
     7
420
 16777215
370
    25
100
AcDbVertex
100
AcDb2dVertex
 10
98.54180220821141
 20
-122.0426960806004
 30
0.0
  0
VERTEX
  5
59
330
57
100
AcDbEntity
  8
_U+30EC_U+30A4_U+30E4_U+30FC 1
 62
     7
420
 16777215
370
    25
100
AcDbVertex
100
AcDb2dVertex
 10
98.54180220821141
 20
-121.0429238586282
 30
0.0
  0
SEQEND
  5
5A
330
57
100
AcDbEntity
  8
_U+30EC_U+30A4_U+30E4_U+30FC 1
 62
     7
420
 16777215
370
    25
  0
POLYLINE
  5
5B
330
41
100
AcDbEntity
  8
_U+30EC_U+30A4_U+30E4_U+30FC 1
 62
     7
420
 16777215
370
    25
100
AcDb2dPolyline
 66
     1
 10
0.0
 20
0.0
 30
0.0
  0
VERTEX
  5
5C
330
5B
100
AcDbEntity
  8
_U+30EC_U+30A4_U+30E4_U+30FC 1
 62
     7
420
 16777215
370
    25
100
AcDbVertex
100
AcDb2dVertex
 10
74.54120170940662
 20
-122.0426960806004
 30
0.0
  0
VERTEX
  5
5D
330
5B
100
AcDbEntity
  8
_U+30EC_U+30A4_U+30E4_U+30FC 1
 62
     7
420
 16777215
370
    25
100
AcDbVertex
100
AcDb2dVertex
 10
98.54180220821141
 20
-122.0426960806004
 30
0.0
  0
SEQEND
  5
5E
330
5B
100
AcDbEntity
  8
_U+30EC_U+30A4_U+30E4_U+30FC 1
 62
     7
420
 16777215
370
    25
  0
POLYLINE
  5
5F
330
41
100
AcDbEntity
  8
_U+30EC_U+30A4_U+30E4_U+30FC 1
 62
     7
420
 16777215
370
    25
100
AcDb2dPolyline
 66
     1
 10
0.0
 20
0.0
 30
0.0
  0
VERTEX
  5
60
330
5F
100
AcDbEntity
  8
_U+30EC_U+30A4_U+30E4_U+30FC 1
 62
     7
420
 16777215
370
    25
100
AcDbVertex
100
AcDb2dVertex
 10
73.54142951269071
 20
-137.9429902432921
 30
0.0
  0
VERTEX
  5
61
330
5F
100
AcDbEntity
  8
_U+30EC_U+30A4_U+30E4_U+30FC 1
 62
     7
420
 16777215
370
    25
100
AcDbVertex
100
AcDb2dVertex
 10
80.54117544522343
 20
-137.9429902432921
 30
0.0
  0
SEQEND
  5
62
330
5F
100
AcDbEntity
  8
_U+30EC_U+30A4_U+30E4_U+30FC 1
 62
     7
420
 16777215
370
    25
  0
POLYLINE
  5
63
330
41
100
AcDbEntity
  8
_U+30EC_U+30A4_U+30E4_U+30FC 1
 62
     7
420
 16777215
370
    25
100
AcDb2dPolyline
 66
     1
 10
0.0
 20
0.0
 30
0.0
  0
VERTEX
  5
64
330
63
100
AcDbEntity
  8
_U+30EC_U+30A4_U+30E4_U+30FC 1
 62
     7
420
 16777215
370
    25
100
AcDbVertex
100
AcDb2dVertex
 10
73.54142951269071
 20
-121.0429238586282
 30
0.0
  0
VERTEX
  5
65
330
63
100
AcDbEntity
  8
_U+30EC_U+30A4_U+30E4_U+30FC 1
 62
     7
420
 16777215
370
    25
100
AcDbVertex
100
AcDb2dVertex
 10
98.54180220821141
 20
-121.0429238586282
 30
0.0
  0
SEQEND
  5
66
330
63
100
AcDbEntity
  8
_U+30EC_U+30A4_U+30E4_U+30FC 1
 62
     7
420
 16777215
370
    25
  0
POLYLINE
  5
67
330
41
100
AcDbEntity
  8
_U+30EC_U+30A4_U+30E4_U+30FC 1
 62
     7
420
 16777215
370
    25
100
AcDb2dPolyline
 66
     1
 10
0.0
 20
0.0
 30
0.0
  0
VERTEX
  5
68
330
67
100
AcDbEntity
  8
_U+30EC_U+30A4_U+30E4_U+30FC 1
 62
     7
420
 16777215
370
    25
100
AcDbVertex
100
AcDb2dVertex
 10
74.54120170940662
 20
-136.9177474657709
 30
0.0
  0
VERTEX
  5
69
330
67
100
AcDbEntity
  8
_U+30EC_U+30A4_U+30E4_U+30FC 1
 62
     7
420
 16777215
370
    25
100
AcDbVertex
100
AcDb2dVertex
 10
74.54120170940662
 20
-122.0426960806004
 30
0.0
  0
SEQEND
  5
6A
330
67
100
AcDbEntity
  8
_U+30EC_U+30A4_U+30E4_U+30FC 1
 62
     7
420
 16777215
370
    25
  0
POLYLINE
  5
6B
330
41
100
AcDbEntity
  8
_U+30EC_U+30A4_U+30E4_U+30FC 1
 62
     7
420
 16777215
370
    25
100
AcDb2dPolyline
 66
     1
 10
0.0
 20
0.0
 30
0.0
  0
VERTEX
  5
6C
330
6B
100
AcDbEntity
  8
_U+30EC_U+30A4_U+30E4_U+30FC 1
 62
     7
420
 16777215
370
    25
100
AcDbVertex
100
AcDb2dVertex
 10
79.54140324850752
 20
-134.9423330218198
 30
0.0
  0
VERTEX
  5
6D
330
6B
100
AcDbEntity
  8
_U+30EC_U+30A4_U+30E4_U+30FC 1
 62
     7
420
 16777215
370
    25
100
AcDbVertex
100
AcDb2dVertex
 10
80.54117544522343
 20
-134.9423330218198
 30
0.0
  0
SEQEND
  5
6E
330
6B
100
AcDbEntity
  8
_U+30EC_U+30A4_U+30E4_U+30FC 1
 62
     7
420
 16777215
370
    25
  0
POLYLINE
  5
6F
330
41
100
AcDbEntity
  8
_U+30EC_U+30A4_U+30E4_U+30FC 1
 62
     7
420
 16777215
370
    25
100
AcDb2dPolyline
 66
     1
 10
0.0
 20
0.0
 30
0.0
  0
VERTEX
  5
70
330
6F
100
AcDbEntity
  8
_U+30EC_U+30A4_U+30E4_U+30FC 1
 62
     7
420
 16777215
370
    25
100
AcDbVertex
100
AcDb2dVertex
 10
80.54117544522343
 20
-137.9429902432921
 30
0.0
  0
VERTEX
  5
71
330
6F
100
AcDbEntity
  8
_U+30EC_U+30A4_U+30E4_U+30FC 1
 62
     7
420
 16777215
370
    25
100
AcDbVertex
100
AcDb2dVertex
 10
80.54117544522343
 20
-134.9423330218198
 30
0.0
  0
SEQEND
  5
72
330
6F
100
AcDbEntity
  8
_U+30EC_U+30A4_U+30E4_U+30FC 1
 62
     7
420
 16777215
370
    25
  0
POLYLINE
  5
73
330
41
100
AcDbEntity
  8
_U+30EC_U+30A4_U+30E4_U+30FC 1
 62
     7
420
 16777215
370
    25
100
AcDb2dPolyline
 66
     1
 10
0.0
 20
0.0
 30
0.0
  0
VERTEX
  5
74
330
73
100
AcDbEntity
  8
_U+30EC_U+30A4_U+30E4_U+30FC 1
 62
     7
420
 16777215
370
    25
100
AcDbVertex
100
AcDb2dVertex
 10
79.54140324850752
 20
-136.9425477435423
 30
0.0
  0
VERTEX
  5
75
330
73
100
AcDbEntity
  8
_U+30EC_U+30A4_U+30E4_U+30FC 1
 62
     7
420
 16777215
370
    25
100
AcDbVertex
100
AcDb2dVertex
 10
79.54140324850752
 20
-134.9423330218198
 30
0.0
  0
SEQEND
  5
76
330
73
100
AcDbEntity
  8
_U+30EC_U+30A4_U+30E4_U+30FC 1
 62
     7
420
 16777215
370
    25
  0
POLYLINE
  5
77
330
41
100
AcDbEntity
  8
_U+30EC_U+30A4_U+30E4_U+30FC 1
 62
     7
420
 16777215
370
    25
100
AcDb2dPolyline
 66
     1
 10
0.0
 20
0.0
 30
0.0
  0
VERTEX
  5
78
330
77
100
AcDbEntity
  8
_U+30EC_U+30A4_U+30E4_U+30FC 1
 62
     7
420
 16777215
370
    25
100
AcDbVertex
100
AcDb2dVertex
 10
74.54120170940662
 20
-136.9425477435423
 30
0.0
  0
VERTEX
  5
79
330
77
100
AcDbEntity
  8
_U+30EC_U+30A4_U+30E4_U+30FC 1
 62
     7
420
 16777215
370
    25
100
AcDbVertex
100
AcDb2dVertex
 10
79.54140324850752
 20
-136.9425477435423
 30
0.0
  0
SEQEND
  5
7A
330
77
100
AcDbEntity
  8
_U+30EC_U+30A4_U+30E4_U+30FC 1
 62
     7
420
 16777215
370
    25
  0
SPLINE
  5
7B
330
41
100
AcDbEntity
  8
_U+30EC_U+30A4_U+30E4_U+30FC 1
 62
     7
420
 16777215
370
     9
100
AcDbSpline
210
0.0
220
0.0
230
1.0
 70
    11
 71
     3
 72
    17
 73
    13
 74
     0
 42
0.0000000001
 43
0.0000000001
 12
1.0
 22
0.0
 32
0.0
 13
1.0
 23
0.0
 33
0.0
 40
0.0
 40
0.0
 40
0.0
 40
0.0
 40
1.0
 40
1.0
 40
1.0
 40
2.0
 40
2.0
 40
2.0
 40
3.0
 40
3.0
 40
3.0
 40
4.0
 40
4.0
 40
4.0
 40
4.0
 10
73.64133617680855
 20
-142.3940580199567
 30
0.0
 10
73.64133617680855
 20
-142.3382485755263
 30
0.0
 10
73.59653340017378
 20
-142.2934810755377
 30
0.0
 10
73.54142951269071
 20
-142.2934810755377
 30
0.0
 10
73.48629034743077
 20
-142.2934810755377
 30
0.0
 10
73.44152284857287
 20
-142.3382485755263
 30
0.0
 10
73.44152284857287
 20
-142.3940580199567
 30
0.0
 10
73.44152284857287
 20
-142.4491971866098
 30
0.0
 10
73.48629034743077
 20
-142.493964686599
 30
0.0
 10
73.54142951269071
 20
-142.493964686599
 30
0.0
 10
73.59653340017378
 20
-142.493964686599
 30
0.0
 10
73.64133617680855
 20
-142.4491971866098
 30
0.0
 10
73.64133617680855
 20
-142.3940580199567
 30
0.0
  0
SPLINE
  5
7C
330
41
100
AcDbEntity
  8
_U+30EC_U+30A4_U+30E4_U+30FC 1
 62
     7
420
 16777215
370
     9
100
AcDbSpline
210
0.0
220
0.0
230
1.0
 70
    11
 71
     3
 72
    17
 73
    13
 74
     0
 42
0.0000000001
 43
0.0000000001
 12
1.0
 22
0.0
 32
0.0
 13
1.0
 23
0.0
 33
0.0
 40
0.0
 40
0.0
 40
0.0
 40
0.0
 40
1.0
 40
1.0
 40
1.0
 40
2.0
 40
2.0
 40
2.0
 40
3.0
 40
3.0
 40
3.0
 40
4.0
 40
4.0
 40
4.0
 40
4.0
 10
80.54117544522343
 20
-142.3940580199567
 30
0.0
 10
80.54117544522343
 20
-142.3382485755263
 30
0.0
 10
80.49637266858866
 20
-142.2934810755377
 30
0.0
 10
80.44126878110559
 20
-142.2934810755377
 30
0.0
 10
80.38612961584565
 20
-142.2934810755377
 30
0.0
 10
80.34136211698775
 20
-142.3382485755263
 30
0.0
 10
80.34136211698775
 20
-142.3940580199567
 30
0.0
 10
80.34136211698775
 20
-142.4491971866098
 30
0.0
 10
80.38612961584565
 20
-142.493964686599
 30
0.0
 10
80.44126878110559
 20
-142.493964686599
 30
0.0
 10
80.49637266858866
 20
-142.493964686599
 30
0.0
 10
80.54117544522343
 20
-142.4491971866098
 30
0.0
 10
80.54117544522343
 20
-142.3940580199567
 30
0.0
  0
SPLINE
  5
7D
330
41
100
AcDbEntity
  8
_U+30EC_U+30A4_U+30E4_U+30FC 1
 62
     7
420
 16777215
370
     9
100
AcDbSpline
210
0.0
220
0.0
230
1.0
 70
    11
 71
     3
 72
    17
 73
    13
 74
     0
 42
0.0000000001
 43
0.0000000001
 12
1.0
 22
0.0
 32
0.0
 13
1.0
 23
0.0
 33
0.0
 40
0.0
 40
0.0
 40
0.0
 40
0.0
 40
1.0
 40
1.0
 40
1.0
 40
2.0
 40
2.0
 40
2.0
 40
3.0
 40
3.0
 40
3.0
 40
4.0
 40
4.0
 40
4.0
 40
4.0
 10
102.6414326591767
 20
-138.0456485765996
 30
0.0
 10
102.6414326591767
 20
-137.9905446877247
 30
0.0
 10
102.5966651603188
 20
-137.9457419099579
 30
0.0
 10
102.5415259950588
 20
-137.9457419099579
 30
0.0
 10
102.4864221075758
 20
-137.9457419099579
 30
0.0
 10
102.441619330941
 20
-137.9905446877247
 30
0.0
 10
102.441619330941
 20
-138.0456485765996
 30
0.0
 10
102.441619330941
 20
-138.1007877432527
 30
0.0
 10
102.4864221075758
 20
-138.1455905210194
 30
0.0
 10
102.5415259950588
 20
-138.1455905210194
 30
0.0
 10
102.5966651603188
 20
-138.1455905210194
 30
0.0
 10
102.6414326591767
 20
-138.1007877432527
 30
0.0
 10
102.6414326591767
 20
-138.0456485765996
 30
0.0
  0
SPLINE
  5
7E
330
41
100
AcDbEntity
  8
_U+30EC_U+30A4_U+30E4_U+30FC 1
 62
     7
420
 16777215
370
     9
100
AcDbSpline
210
0.0
220
0.0
230
1.0
 70
    11
 71
     3
 72
    17
 73
    13
 74
     0
 42
0.0000000001
 43
0.0000000001
 12
1.0
 22
0.0
 32
0.0
 13
1.0
 23
0.0
 33
0.0
 40
0.0
 40
0.0
 40
0.0
 40
0.0
 40
1.0
 40
1.0
 40
1.0
 40
2.0
 40
2.0
 40
2.0
 40
3.0
 40
3.0
 40
3.0
 40
4.0
 40
4.0
 40
4.0
 40
4.0
 10
102.6414326591767
 20
-134.9423330218198
 30
0.0
 10
102.6414326591767
 20
-134.8871938551674
 30
0.0
 10
102.5966651603188
 20
-134.8424263551782
 30
0.0
 10
102.5415259950588
 20
-134.8424263551782
 30
0.0
 10
102.4864221075758
 20
-134.8424263551782
 30
0.0
 10
102.441619330941
 20
-134.8871938551674
 30
0.0
 10
102.441619330941
 20
-134.9423330218198
 30
0.0
 10
102.441619330941
 20
-134.9974369106954
 30
0.0
 10
102.4864221075758
 20
-135.0422396884614
 30
0.0
 10
102.5415259950588
 20
-135.0422396884614
 30
0.0
 10
102.5966651603188
 20
-135.0422396884614
 30
0.0
 10
102.6414326591767
 20
-134.9974369106954
 30
0.0
 10
102.6414326591767
 20
-134.9423330218198
 30
0.0
  0
SPLINE
  5
7F
330
41
100
AcDbEntity
  8
_U+30EC_U+30A4_U+30E4_U+30FC 1
 62
     7
420
 16777215
370
     9
100
AcDbSpline
210
0.0
220
0.0
230
1.0
 70
    11
 71
     3
 72
    17
 73
    13
 74
     0
 42
0.0000000001
 43
0.0000000001
 12
1.0
 22
0.0
 32
0.0
 13
1.0
 23
0.0
 33
0.0
 40
0.0
 40
0.0
 40
0.0
 40
0.0
 40
1.0
 40
1.0
 40
1.0
 40
2.0
 40
2.0
 40
2.0
 40
3.0
 40
3.0
 40
3.0
 40
4.0
 40
4.0
 40
4.0
 40
4.0
 10
102.6414326591767
 20
-122.0426960806004
 30
0.0
 10
102.6414326591767
 20
-121.9875569139477
 30
0.0
 10
102.5966651603188
 20
-121.9427894139588
 30
0.0
 10
102.5415259950588
 20
-121.9427894139588
 30
0.0
 10
102.4864221075758
 20
-121.9427894139588
 30
0.0
 10
102.441619330941
 20
-121.9875569139477
 30
0.0
 10
102.441619330941
 20
-122.0426960806004
 30
0.0
 10
102.441619330941
 20
-122.0977999694756
 30
0.0
 10
102.4864221075758
 20
-122.1426027472421
 30
0.0
 10
102.5415259950588
 20
-122.1426027472421
 30
0.0
 10
102.5966651603188
 20
-122.1426027472421
 30
0.0
 10
102.6414326591767
 20
-122.0977999694756
 30
0.0
 10
102.6414326591767
 20
-122.0426960806004
 30
0.0
  0
SPLINE
  5
80
330
41
100
AcDbEntity
  8
_U+30EC_U+30A4_U+30E4_U+30FC 1
 62
     7
420
 16777215
370
     9
100
AcDbSpline
210
0.0
220
0.0
230
1.0
 70
    11
 71
     3
 72
    17
 73
    13
 74
     0
 42
0.0000000001
 43
0.0000000001
 12
1.0
 22
0.0
 32
0.0
 13
1.0
 23
0.0
 33
0.0
 40
0.0
 40
0.0
 40
0.0
 40
0.0
 40
1.0
 40
1.0
 40
1.0
 40
2.0
 40
2.0
 40
2.0
 40
3.0
 40
3.0
 40
3.0
 40
4.0
 40
4.0
 40
4.0
 40
4.0
 10
102.6414326591767
 20
-121.0429238586282
 30
0.0
 10
102.6414326591767
 20
-120.9871144141977
 30
0.0
 10
102.5966651603188
 20
-120.942311636431
 30
0.0
 10
102.5415259950588
 20
-120.942311636431
 30
0.0
 10
102.4864221075758
 20
-120.942311636431
 30
0.0
 10
102.441619330941
 20
-120.9871144141977
 30
0.0
 10
102.441619330941
 20
-121.0429238586282
 30
0.0
 10
102.441619330941
 20
-121.0980277475034
 30
0.0
 10
102.4864221075758
 20
-121.1428305252698
 30
0.0
 10
102.5415259950588
 20
-121.1428305252698
 30
0.0
 10
102.5966651603188
 20
-121.1428305252698
 30
0.0
 10
102.6414326591767
 20
-121.0980277475034
 30
0.0
 10
102.6414326591767
 20
-121.0429238586282
 30
0.0
  0
SPLINE
  5
81
330
41
100
AcDbEntity
  8
_U+30EC_U+30A4_U+30E4_U+30FC 1
 62
     7
420
 16777215
370
     9
100
AcDbSpline
210
0.0
220
0.0
230
1.0
 70
    11
 71
     3
 72
    17
 73
    13
 74
     0
 42
0.0000000001
 43
0.0000000001
 12
1.0
 22
0.0
 32
0.0
 13
1.0
 23
0.0
 33
0.0
 40
0.0
 40
0.0
 40
0.0
 40
0.0
 40
1.0
 40
1.0
 40
1.0
 40
2.0
 40
2.0
 40
2.0
 40
3.0
 40
3.0
 40
3.0
 40
4.0
 40
4.0
 40
4.0
 40
4.0
 10
98.64170887232923
 20
-117.0417888596284
 30
0.0
 10
98.64170887232923
 20
-116.9866496929757
 30
0.0
 10
98.59690609569448
 20
-116.9418821929868
 30
0.0
 10
98.54180220821141
 20
-116.9418821929868
 30
0.0
 10
98.48599276519077
 20
-116.9418821929868
 30
0.0
 10
98.44118998855602
 20
-116.9866496929757
 30
0.0
 10
98.44118998855602
 20
-117.0417888596284
 30
0.0
 10
98.44118998855602
 20
-117.0972455262814
 30
0.0
 10
98.48599276519077
 20
-117.1420483040478
 30
0.0
 10
98.54180220821141
 20
-117.1420483040478
 30
0.0
 10
98.59690609569448
 20
-117.1420483040478
 30
0.0
 10
98.64170887232923
 20
-117.0972455262814
 30
0.0
 10
98.64170887232923
 20
-117.0417888596284
 30
0.0
  0
SPLINE
  5
82
330
41
100
AcDbEntity
  8
_U+30EC_U+30A4_U+30E4_U+30FC 1
 62
     7
420
 16777215
370
     9
100
AcDbSpline
210
0.0
220
0.0
230
1.0
 70
    11
 71
     3
 72
    17
 73
    13
 74
     0
 42
0.0000000001
 43
0.0000000001
 12
1.0
 22
0.0
 32
0.0
 13
1.0
 23
0.0
 33
0.0
 40
0.0
 40
0.0
 40
0.0
 40
0.0
 40
1.0
 40
1.0
 40
1.0
 40
2.0
 40
2.0
 40
2.0
 40
3.0
 40
3.0
 40
3.0
 40
4.0
 40
4.0
 40
4.0
 40
4.0
 10
73.64133617680855
 20
-117.0417888596284
 30
0.0
 10
73.64133617680855
 20
-116.9866496929757
 30
0.0
 10
73.59653340017378
 20
-116.9418821929868
 30
0.0
 10
73.54142951269071
 20
-116.9418821929868
 30
0.0
 10
73.48629034743077
 20
-116.9418821929868
 30
0.0
 10
73.44152284857287
 20
-116.9866496929757
 30
0.0
 10
73.44152284857287
 20
-117.0417888596284
 30
0.0
 10
73.44152284857287
 20
-117.0972455262814
 30
0.0
 10
73.48629034743077
 20
-117.1420483040478
 30
0.0
 10
73.54142951269071
 20
-117.1420483040478
 30
0.0
 10
73.59653340017378
 20
-117.1420483040478
 30
0.0
 10
73.64133617680855
 20
-117.0972455262814
 30
0.0
 10
73.64133617680855
 20
-117.0417888596284
 30
0.0
  0
INSERT
  5
84
330
41
100
AcDbEntity
  8
_U+30EC_U+30A4_U+30E4_U+30FC 1
100
AcDbBlockReference
  2
block 3
 10
0.0
 20
0.0
 30
0.0
  0
POLYLINE
  5
9B
330
41
100
AcDbEntity
  8
_U+30EC_U+30A4_U+30E4_U+30FC 1
 62
     7
420
 16777215
370
     9
100
AcDb2dPolyline
 66
     1
 10
0.0
 20
0.0
 30
0.0
  0
VERTEX
  5
9C
330
9B
100
AcDbEntity
  8
_U+30EC_U+30A4_U+30E4_U+30FC 1
 62
     7
420
 16777215
370
     9
100
AcDbVertex
100
AcDb2dVertex
 10
73.54142951269071
 20
-142.3940580199567
 30
0.0
  0
VERTEX
  5
9D
330
9B
100
AcDbEntity
  8
_U+30EC_U+30A4_U+30E4_U+30FC 1
 62
     7
420
 16777215
370
     9
100
AcDbVertex
100
AcDb2dVertex
 10
80.54117544522343
 20
-142.3940580199567
 30
0.0
  0
SEQEND
  5
9E
330
9B
100
AcDbEntity
  8
_U+30EC_U+30A4_U+30E4_U+30FC 1
 62
     7
420
 16777215
370
     9
  0
POLYLINE
  5
9F
330
41
100
AcDbEntity
  8
_U+30EC_U+30A4_U+30E4_U+30FC 1
 62
     7
420
 16777215
370
     9
100
AcDb2dPolyline
 66
     1
 10
0.0
 20
0.0
 30
0.0
  0
VERTEX
  5
A0
330
9F
100
AcDbEntity
  8
_U+30EC_U+30A4_U+30E4_U+30FC 1
 62
     7
420
 16777215
370
     9
100
AcDbVertex
100
AcDb2dVertex
 10
73.54142951269071
 20
-140.934016631433
 30
0.0
  0
VERTEX
  5
A1
330
9F
100
AcDbEntity
  8
_U+30EC_U+30A4_U+30E4_U+30FC 1
 62
     7
420
 16777215
370
     9
100
AcDbVertex
100
AcDb2dVertex
 10
73.54142951269071
 20
-143.3938302419293
 30
0.0
  0
SEQEND
  5
A2
330
9F
100
AcDbEntity
  8
_U+30EC_U+30A4_U+30E4_U+30FC 1
 62
     7
420
 16777215
370
     9
  0
POLYLINE
  5
A3
330
41
100
AcDbEntity
  8
_U+30EC_U+30A4_U+30E4_U+30FC 1
 62
     7
420
 16777215
370
     9
100
AcDb2dPolyline
 66
     1
 10
0.0
 20
0.0
 30
0.0
  0
VERTEX
  5
A4
330
A3
100
AcDbEntity
  8
_U+30EC_U+30A4_U+30E4_U+30FC 1
 62
     7
420
 16777215
370
     9
100
AcDbVertex
100
AcDb2dVertex
 10
80.44126878110559
 20
-140.934016631433
 30
0.0
  0
VERTEX
  5
A5
330
A3
100
AcDbEntity
  8
_U+30EC_U+30A4_U+30E4_U+30FC 1
 62
     7
420
 16777215
370
     9
100
AcDbVertex
100
AcDb2dVertex
 10
80.44126878110559
 20
-143.3938302419293
 30
0.0
  0
SEQEND
  5
A6
330
A3
100
AcDbEntity
  8
_U+30EC_U+30A4_U+30E4_U+30FC 1
 62
     7
420
 16777215
370
     9
  0
INSERT
  5
A8
330
41
100
AcDbEntity
  8
_U+30EC_U+30A4_U+30E4_U+30FC 1
100
AcDbBlockReference
  2
block 5
 10
0.0
 20
0.0
 30
0.0
  0
INSERT
  5
AE
330
41
100
AcDbEntity
  8
_U+30EC_U+30A4_U+30E4_U+30FC 1
100
AcDbBlockReference
  2
block 6
 10
0.0
 20
0.0
 30
0.0
  0
POLYLINE
  5
C7
330
41
100
AcDbEntity
  8
_U+30EC_U+30A4_U+30E4_U+30FC 1
 62
     7
420
 16777215
370
     9
100
AcDb2dPolyline
 66
     1
 10
0.0
 20
0.0
 30
0.0
  0
VERTEX
  5
C8
330
C7
100
AcDbEntity
  8
_U+30EC_U+30A4_U+30E4_U+30FC 1
 62
     7
420
 16777215
370
     9
100
AcDbVertex
100
AcDb2dVertex
 10
102.5415259950588
 20
-122.0426960806004
 30
0.0
  0
VERTEX
  5
C9
330
C7
100
AcDbEntity
  8
_U+30EC_U+30A4_U+30E4_U+30FC 1
 62
     7
420
 16777215
370
     9
100
AcDbVertex
100
AcDb2dVertex
 10
102.5415259950588
 20
-135.0422396884614
 30
0.0
  0
SEQEND
  5
CA
330
C7
100
AcDbEntity
  8
_U+30EC_U+30A4_U+30E4_U+30FC 1
 62
     7
420
 16777215
370
     9
  0
POLYLINE
  5
CB
330
41
100
AcDbEntity
  8
_U+30EC_U+30A4_U+30E4_U+30FC 1
 62
     7
420
 16777215
370
     9
100
AcDb2dPolyline
 66
     1
 10
0.0
 20
0.0
 30
0.0
  0
VERTEX
  5
CC
330
CB
100
AcDbEntity
  8
_U+30EC_U+30A4_U+30E4_U+30FC 1
 62
     7
420
 16777215
370
     9
100
AcDbVertex
100
AcDb2dVertex
 10
81.0813487647758
 20
-134.9423330218198
 30
0.0
  0
VERTEX
  5
CD
330
CB
100
AcDbEntity
  8
_U+30EC_U+30A4_U+30E4_U+30FC 1
 62
     7
420
 16777215
370
     9
100
AcDbVertex
100
AcDb2dVertex
 10
103.5412981917747
 20
-134.9423330218198
 30
0.0
  0
SEQEND
  5
CE
330
CB
100
AcDbEntity
  8
_U+30EC_U+30A4_U+30E4_U+30FC 1
 62
     7
420
 16777215
370
     9
  0
INSERT
  5
D0
330
41
100
AcDbEntity
  8
_U+30EC_U+30A4_U+30E4_U+30FC 1
100
AcDbBlockReference
  2
block 8
 10
0.0
 20
0.0
 30
0.0
  0
POLYLINE
  5
D7
330
41
100
AcDbEntity
  8
_U+30EC_U+30A4_U+30E4_U+30FC 1
 62
     7
420
 16777215
370
     9
100
AcDb2dPolyline
 66
     1
 10
0.0
 20
0.0
 30
0.0
  0
VERTEX
  5
D8
330
D7
100
AcDbEntity
  8
_U+30EC_U+30A4_U+30E4_U+30FC 1
 62
     7
420
 16777215
370
     9
100
AcDbVertex
100
AcDb2dVertex
 10
102.5415259950588
 20
-138.0456485765996
 30
0.0
  0
VERTEX
  5
D9
330
D7
100
AcDbEntity
  8
_U+30EC_U+30A4_U+30E4_U+30FC 1
 62
     7
420
 16777215
370
     9
100
AcDbVertex
100
AcDb2dVertex
 10
102.5415259950588
 20
-135.0449913551278
 30
0.0
  0
SEQEND
  5
DA
330
D7
100
AcDbEntity
  8
_U+30EC_U+30A4_U+30E4_U+30FC 1
 62
     7
420
 16777215
370
     9
  0
POLYLINE
  5
DB
330
41
100
AcDbEntity
  8
_U+30EC_U+30A4_U+30E4_U+30FC 1
 62
     7
420
 16777215
370
     9
100
AcDb2dPolyline
 66
     1
 10
0.0
 20
0.0
 30
0.0
  0
VERTEX
  5
DC
330
DB
100
AcDbEntity
  8
_U+30EC_U+30A4_U+30E4_U+30FC 1
 62
     7
420
 16777215
370
     9
100
AcDbVertex
100
AcDb2dVertex
 10
81.0813487647758
 20
-138.0456485765996
 30
0.0
  0
VERTEX
  5
DD
330
DB
100
AcDbEntity
  8
_U+30EC_U+30A4_U+30E4_U+30FC 1
 62
     7
420
 16777215
370
     9
100
AcDbVertex
100
AcDb2dVertex
 10
103.5412981917747
 20
-138.0456485765996
 30
0.0
  0
SEQEND
  5
DE
330
DB
100
AcDbEntity
  8
_U+30EC_U+30A4_U+30E4_U+30FC 1
 62
     7
420
 16777215
370
     9
  0
INSERT
  5
E0
330
41
100
AcDbEntity
  8
_U+30EC_U+30A4_U+30E4_U+30FC 1
100
AcDbBlockReference
  2
block 9
 10
0.0
 20
0.0
 30
0.0
  0
ENDBLK
  5
44
330
41
100
AcDbEntity
  8
0
100
AcDbBlockEnd
  0
BLOCK
  5
85
330
83
100
AcDbEntity
  8
0
100
AcDbBlockBegin
  2
block 3
 70
     0
 10
0.0
 20
0.0
 30
0.0
  3
block 3
  1

  0
POLYLINE
  5
87
330
83
100
AcDbEntity
  8
_U+30EC_U+30A4_U+30E4_U+30FC 1
 62
     7
420
 16777215
370
     9
100
AcDb2dPolyline
 66
     1
 10
0.0
 20
0.0
 30
0.0
  0
VERTEX
  5
88
330
87
100
AcDbEntity
  8
_U+30EC_U+30A4_U+30E4_U+30FC 1
 62
     7
420
 16777215
370
     9
100
AcDbVertex
100
AcDb2dVertex
 10
73.54142951269071
 20
-117.0417888596284
 30
0.0
  0
VERTEX
  5
89
330
87
100
AcDbEntity
  8
_U+30EC_U+30A4_U+30E4_U+30FC 1
 62
     7
420
 16777215
370
     9
100
AcDbVertex
100
AcDb2dVertex
 10
98.54180220821141
 20
-117.0417888596284
 30
0.0
  0
SEQEND
  5
8A
330
87
100
AcDbEntity
  8
_U+30EC_U+30A4_U+30E4_U+30FC 1
 62
     7
420
 16777215
370
     9
  0
POLYLINE
  5
8B
330
83
100
AcDbEntity
  8
_U+30EC_U+30A4_U+30E4_U+30FC 1
 62
     7
420
 16777215
370
     9
100
AcDb2dPolyline
 66
     1
 10
0.0
 20
0.0
 30
0.0
  0
VERTEX
  5
8C
330
8B
100
AcDbEntity
  8
_U+30EC_U+30A4_U+30E4_U+30FC 1
 62
     7
420
 16777215
370
     9
100
AcDbVertex
100
AcDb2dVertex
 10
73.54142951269071
 20
-118.5025005259298
 30
0.0
  0
VERTEX
  5
8D
330
8B
100
AcDbEntity
  8
_U+30EC_U+30A4_U+30E4_U+30FC 1
 62
     7
420
 16777215
370
     9
100
AcDbVertex
100
AcDb2dVertex
 10
73.54142951269071
 20
-116.0406408043233
 30
0.0
  0
SEQEND
  5
8E
330
8B
100
AcDbEntity
  8
_U+30EC_U+30A4_U+30E4_U+30FC 1
 62
     7
420
 16777215
370
     9
  0
POLYLINE
  5
8F
330
83
100
AcDbEntity
  8
_U+30EC_U+30A4_U+30E4_U+30FC 1
 62
     7
420
 16777215
370
     9
100
AcDb2dPolyline
 66
     1
 10
0.0
 20
0.0
 30
0.0
  0
VERTEX
  5
90
330
8F
100
AcDbEntity
  8
_U+30EC_U+30A4_U+30E4_U+30FC 1
 62
     7
420
 16777215
370
     9
100
AcDbVertex
100
AcDb2dVertex
 10
98.54180220821141
 20
-118.5025005259298
 30
0.0
  0
VERTEX
  5
91
330
8F
100
AcDbEntity
  8
_U+30EC_U+30A4_U+30E4_U+30FC 1
 62
     7
420
 16777215
370
     9
100
AcDbVertex
100
AcDb2dVertex
 10
98.54180220821141
 20
-116.0406408043233
 30
0.0
  0
SEQEND
  5
92
330
8F
100
AcDbEntity
  8
_U+30EC_U+30A4_U+30E4_U+30FC 1
 62
     7
420
 16777215
370
     9
  0
INSERT
  5
94
330
83
100
AcDbEntity
  8
_U+30EC_U+30A4_U+30E4_U+30FC 1
100
AcDbBlockReference
  2
block 4
 10
0.0
 20
0.0
 30
0.0
  0
ENDBLK
  5
86
330
83
100
AcDbEntity
  8
0
100
AcDbBlockEnd
  0
BLOCK
  5
95
330
93
100
AcDbEntity
  8
0
100
AcDbBlockBegin
  2
block 4
 70
     0
 10
0.0
 20
0.0
 30
0.0
  3
block 4
  1

  0
SPLINE
  5
97
330
93
100
AcDbEntity
  8
_U+30EC_U+30A4_U+30E4_U+30FC 1
370
     0
100
AcDbSpline
210
0.0
220
0.0
230
1.0
 70
    11
 71
     3
 72
    44
 73
    40
 74
     0
 42
0.0000000001
 43
0.0000000001
 12
1.0
 22
0.0
 32
0.0
 13
1.0
 23
0.0
 33
0.0
 40
0.0
 40
0.0
 40
0.0
 40
0.0
 40
1.0
 40
1.0
 40
1.0
 40
2.0
 40
2.0
 40
2.0
 40
3.0
 40
3.0
 40
3.0
 40
4.0
 40
4.0
 40
4.0
 40
5.0
 40
5.0
 40
5.0
 40
6.0
 40
6.0
 40
6.0
 40
7.0
 40
7.0
 40
7.0
 40
8.0
 40
8.0
 40
8.0
 40
9.0
 40
9.0
 40
9.0
 40
10.0
 40
10.0
 40
10.0
 40
11.0
 40
11.0
 40
11.0
 40
12.0
 40
12.0
 40
12.0
 40
13.0
 40
13.0
 40
13.0
 40
13.0
 10
85.5456827585615
 20
-115.8120523799012
 30
0.0
 10
85.32778046911945
 20
-115.9706990269969
 30
0.0
 10
85.23459063624344
 20
-116.0447685799298
 30
0.0
 10
85.18601478990142
 20
-116.188601316439
 30
0.0
 10
85.18601478990142
 20
-116.188601316439
 30
0.0
 10
85.96443411479362
 20
-116.188601316439
 30
0.0
 10
85.96443411479362
 20
-116.188601316439
 30
0.0
 10
85.96443411479362
 20
-116.188601316439
 30
0.0
 10
85.96443411479362
 20
-116.3937567525856
 30
0.0
 10
85.96443411479362
 20
-116.3937567525856
 30
0.0
 10
85.96443411479362
 20
-116.3937567525856
 30
0.0
 10
84.93641762199506
 20
-116.3937567525856
 30
0.0
 10
84.93641762199506
 20
-116.3937567525856
 30
0.0
 10
84.96811250045937
 20
-116.0361558412167
 30
0.0
 10
85.03356931467911
 20
-115.9579521737015
 30
0.0
 10
85.41873098993004
 20
-115.6596069046789
 30
0.0
 10
85.67470158448411
 20
-115.4608248951799
 30
0.0
 10
85.74015839870385
 20
-115.3931287688948
 30
0.0
 10
85.74015839870385
 20
-115.2556694590333
 30
0.0
 10
85.74015839870385
 20
-115.1371581743407
 30
0.0
 10
85.6683281578364
 20
-115.006072291127
 30
0.0
 10
85.47161320562863
 20
-115.006072291127
 30
0.0
 10
85.211336241718
 20
-115.006072291127
 30
0.0
 10
85.20289575777915
 20
-115.2365491790902
 30
0.0
 10
85.19858938842258
 20
-115.3529934064916
 30
0.0
 10
85.19858938842258
 20
-115.3529934064916
 30
0.0
 10
84.97448592710708
 20
-115.3529934064916
 30
0.0
 10
84.97448592710708
 20
-115.3529934064916
 30
0.0
 10
84.98292641104594
 20
-115.2260416378602
 30
0.0
 10
84.99343395227595
 20
-115.1139037798153
 30
0.0
 10
85.07387693185653
 20
-114.9953924951227
 30
0.0
 10
85.18377547783601
 20
-114.8346787907358
 30
0.0
 10
85.36998288881375
 20
-114.8007446002061
 30
0.0
 10
85.4864271162152
 20
-114.8007446002061
 30
0.0
 10
85.76358504800355
 20
-114.8007446002061
 30
0.0
 10
85.97080754144133
 20
-114.9848849538927
 30
0.0
 10
85.97080754144133
 20
-115.2577365163245
 30
0.0
 10
85.97080754144133
 20
-115.4861463469965
 30
0.0
 10
85.85453556881414
 20
-115.5857096065202
 30
0.0
 10
85.5456827585615
 20
-115.8120523799012
 30
0.0
  0
HATCH
  5
98
330
93
100
AcDbEntity
  8
_U+30EC_U+30A4_U+30E4_U+30FC 1
 62
     7
420
 16777215
100
AcDbHatch
 10
0.0
 20
0.0
 30
0.0
210
0.0
220
0.0
230
1.0
  2
SOLID
 70
     1
 71
     0
 91
        1
 92
        1
 93
        1
 72
     4
 94
        3
 73
     0
 74
     1
 95
       44
 96
       40
 40
0.0
 40
0.0
 40
0.0
 40
0.0
 40
1.0
 40
1.0
 40
1.0
 40
2.0
 40
2.0
 40
2.0
 40
3.0
 40
3.0
 40
3.0
 40
4.0
 40
4.0
 40
4.0
 40
5.0
 40
5.0
 40
5.0
 40
6.0
 40
6.0
 40
6.0
 40
7.0
 40
7.0
 40
7.0
 40
8.0
 40
8.0
 40
8.0
 40
9.0
 40
9.0
 40
9.0
 40
10.0
 40
10.0
 40
10.0
 40
11.0
 40
11.0
 40
11.0
 40
12.0
 40
12.0
 40
12.0
 40
13.0
 40
13.0
 40
13.0
 40
13.0
 10
85.5456827585615
 20
-115.8120523799012
 10
85.32778046911945
 20
-115.9706990269969
 10
85.23459063624344
 20
-116.0447685799298
 10
85.18601478990142
 20
-116.188601316439
 10
85.18601478990142
 20
-116.188601316439
 10
85.96443411479362
 20
-116.188601316439
 10
85.96443411479362
 20
-116.188601316439
 10
85.96443411479362
 20
-116.188601316439
 10
85.96443411479362
 20
-116.3937567525856
 10
85.96443411479362
 20
-116.3937567525856
 10
85.96443411479362
 20
-116.3937567525856
 10
84.93641762199506
 20
-116.3937567525856
 10
84.93641762199506
 20
-116.3937567525856
 10
84.96811250045937
 20
-116.0361558412167
 10
85.03356931467911
 20
-115.9579521737015
 10
85.41873098993004
 20
-115.6596069046789
 10
85.67470158448411
 20
-115.4608248951799
 10
85.74015839870385
 20
-115.3931287688948
 10
85.74015839870385
 20
-115.2556694590333
 10
85.74015839870385
 20
-115.1371581743407
 10
85.6683281578364
 20
-115.006072291127
 10
85.47161320562863
 20
-115.006072291127
 10
85.211336241718
 20
-115.006072291127
 10
85.20289575777915
 20
-115.2365491790902
 10
85.19858938842258
 20
-115.3529934064916
 10
85.19858938842258
 20
-115.3529934064916
 10
84.97448592710708
 20
-115.3529934064916
 10
84.97448592710708
 20
-115.3529934064916
 10
84.98292641104594
 20
-115.2260416378602
 10
84.99343395227595
 20
-115.1139037798153
 10
85.07387693185653
 20
-114.9953924951227
 10
85.18377547783601
 20
-114.8346787907358
 10
85.36998288881375
 20
-114.8007446002061
 10
85.4864271162152
 20
-114.8007446002061
 10
85.76358504800355
 20
-114.8007446002061
 10
85.97080754144133
 20
-114.9848849538927
 10
85.97080754144133
 20
-115.2577365163245
 10
85.97080754144133
 20
-115.4861463469965
 10
85.85453556881414
 20
-115.5857096065202
 10
85.5456827585615
 20
-115.8120523799012
 97
        0
 97
        0
 75
     2
 76
     1
 98
        0
  0
SPLINE
  5
99
330
93
100
AcDbEntity
  8
_U+30EC_U+30A4_U+30E4_U+30FC 1
370
     0
100
AcDbSpline
210
0.0
220
0.0
230
1.0
 70
    11
 71
     3
 72
    53
 73
    49
 74
     0
 42
0.0000000001
 43
0.0000000001
 12
1.0
 22
0.0
 32
0.0
 13
1.0
 23
0.0
 33
0.0
 40
0.0
 40
0.0
 40
0.0
 40
0.0
 40
1.0
 40
1.0
 40
1.0
 40
2.0
 40
2.0
 40
2.0
 40
3.0
 40
3.0
 40
3.0
 40
4.0
 40
4.0
 40
4.0
 40
5.0
 40
5.0
 40
5.0
 40
6.0
 40
6.0
 40
6.0
 40
7.0
 40
7.0
 40
7.0
 40
8.0
 40
8.0
 40
8.0
 40
9.0
 40
9.0
 40
9.0
 40
10.0
 40
10.0
 40
10.0
 40
11.0
 40
11.0
 40
11.0
 40
12.0
 40
12.0
 40
12.0
 40
13.0
 40
13.0
 40
13.0
 40
14.0
 40
14.0
 40
14.0
 40
15.0
 40
15.0
 40
15.0
 40
16.0
 40
16.0
 40
16.0
 40
16.0
 10
86.61038951827796
 20
-116.444571910993
 30
0.0
 10
86.53218585076279
 20
-116.444571910993
 30
0.0
 10
86.43055553394792
 20
-116.427518688341
 30
0.0
 10
86.32892521713305
 20
-116.3641289314125
 30
0.0
 10
86.15546465945071
 20
-116.2540581306587
 30
0.0
 10
86.13427732221643
 20
-116.122972247445
 30
0.0
 10
86.11532929704757
 20
-116.0151407587566
 30
0.0
 10
86.11532929704757
 20
-116.0151407587566
 30
0.0
 10
86.33753795584617
 20
-116.0151407587566
 30
0.0
 10
86.33753795584617
 20
-116.0151407587566
 30
0.0
 10
86.39231497406165
 20
-116.2139227682556
 30
0.0
 10
86.51943899746736
 20
-116.2435505894287
 30
0.0
 10
86.61245657556911
 20
-116.2435505894287
 30
0.0
 10
86.75198294272172
 20
-116.2435505894287
 30
0.0
 10
86.90425616316978
 20
-116.1441595846792
 30
0.0
 10
86.90425616316978
 20
-115.9114433846506
 30
0.0
 10
86.90425616316978
 20
-115.6554727900966
 30
0.0
 10
86.72442217883973
 20
-115.5857096065202
 30
0.0
 10
86.60384383685599
 20
-115.5857096065202
 30
0.0
 10
86.5721489583917
 20
-115.5857096065202
 30
0.0
 10
86.43055553394792
 20
-115.5857096065202
 30
0.0
 10
86.34167207042847
 20
-115.7147284324429
 30
0.0
 10
86.34167207042847
 20
-115.7147284324429
 30
0.0
 10
86.166144455455
 20
-115.6956081524997
 30
0.0
 10
86.166144455455
 20
-115.6956081524997
 30
0.0
 10
86.166144455455
 20
-115.6956081524997
 30
0.0
 10
86.28655054266447
 20
-114.8494927013223
 30
0.0
 10
86.28655054266447
 20
-114.8494927013223
 30
0.0
 10
86.28655054266447
 20
-114.8494927013223
 30
0.0
 10
87.06514212233094
 20
-114.8494927013223
 30
0.0
 10
87.06514212233094
 20
-114.8494927013223
 30
0.0
 10
87.06514212233094
 20
-114.8494927013223
 30
0.0
 10
87.06514212233094
 20
-115.044140596239
 30
0.0
 10
87.06514212233094
 20
-115.044140596239
 30
0.0
 10
87.06514212233094
 20
-115.044140596239
 30
0.0
 10
86.44950355911679
 20
-115.044140596239
 30
0.0
 10
86.44950355911679
 20
-115.044140596239
 30
0.0
 10
86.44950355911679
 20
-115.044140596239
 30
0.0
 10
86.38404674489705
 20
-115.4671983218277
 30
0.0
 10
86.38404674489705
 20
-115.4671983218277
 30
0.0
 10
86.44536944453449
 20
-115.4332641312979
 30
0.0
 10
86.52770722663196
 20
-115.3931287688948
 30
0.0
 10
86.64621851132456
 20
-115.3931287688948
 30
0.0
 10
86.90012204858748
 20
-115.3931287688948
 30
0.0
 10
87.13714461797267
 20
-115.5793361798725
 30
0.0
 10
87.13714461797267
 20
-115.8923231047075
 30
0.0
 10
87.13714461797267
 20
-116.2097886536733
 30
0.0
 10
86.9128689018829
 20
-116.444571910993
 30
0.0
 10
86.61038951827796
 20
-116.444571910993
 30
0.0
  0
HATCH
  5
9A
330
93
100
AcDbEntity
  8
_U+30EC_U+30A4_U+30E4_U+30FC 1
 62
     7
420
 16777215
100
AcDbHatch
 10
0.0
 20
0.0
 30
0.0
210
0.0
220
0.0
230
1.0
  2
SOLID
 70
     1
 71
     0
 91
        1
 92
        1
 93
        1
 72
     4
 94
        3
 73
     0
 74
     1
 95
       53
 96
       49
 40
0.0
 40
0.0
 40
0.0
 40
0.0
 40
1.0
 40
1.0
 40
1.0
 40
2.0
 40
2.0
 40
2.0
 40
3.0
 40
3.0
 40
3.0
 40
4.0
 40
4.0
 40
4.0
 40
5.0
 40
5.0
 40
5.0
 40
6.0
 40
6.0
 40
6.0
 40
7.0
 40
7.0
 40
7.0
 40
8.0
 40
8.0
 40
8.0
 40
9.0
 40
9.0
 40
9.0
 40
10.0
 40
10.0
 40
10.0
 40
11.0
 40
11.0
 40
11.0
 40
12.0
 40
12.0
 40
12.0
 40
13.0
 40
13.0
 40
13.0
 40
14.0
 40
14.0
 40
14.0
 40
15.0
 40
15.0
 40
15.0
 40
16.0
 40
16.0
 40
16.0
 40
16.0
 10
86.61038951827796
 20
-116.444571910993
 10
86.53218585076279
 20
-116.444571910993
 10
86.43055553394792
 20
-116.427518688341
 10
86.32892521713305
 20
-116.3641289314125
 10
86.15546465945071
 20
-116.2540581306587
 10
86.13427732221643
 20
-116.122972247445
 10
86.11532929704757
 20
-116.0151407587566
 10
86.11532929704757
 20
-116.0151407587566
 10
86.33753795584617
 20
-116.0151407587566
 10
86.33753795584617
 20
-116.0151407587566
 10
86.39231497406165
 20
-116.2139227682556
 10
86.51943899746736
 20
-116.2435505894287
 10
86.61245657556911
 20
-116.2435505894287
 10
86.75198294272172
 20
-116.2435505894287
 10
86.90425616316978
 20
-116.1441595846792
 10
86.90425616316978
 20
-115.9114433846506
 10
86.90425616316978
 20
-115.6554727900966
 10
86.72442217883973
 20
-115.5857096065202
 10
86.60384383685599
 20
-115.5857096065202
 10
86.5721489583917
 20
-115.5857096065202
 10
86.43055553394792
 20
-115.5857096065202
 10
86.34167207042847
 20
-115.7147284324429
 10
86.34167207042847
 20
-115.7147284324429
 10
86.166144455455
 20
-115.6956081524997
 10
86.166144455455
 20
-115.6956081524997
 10
86.166144455455
 20
-115.6956081524997
 10
86.28655054266447
 20
-114.8494927013223
 10
86.28655054266447
 20
-114.8494927013223
 10
86.28655054266447
 20
-114.8494927013223
 10
87.06514212233094
 20
-114.8494927013223
 10
87.06514212233094
 20
-114.8494927013223
 10
87.06514212233094
 20
-114.8494927013223
 10
87.06514212233094
 20
-115.044140596239
 10
87.06514212233094
 20
-115.044140596239
 10
87.06514212233094
 20
-115.044140596239
 10
86.44950355911679
 20
-115.044140596239
 10
86.44950355911679
 20
-115.044140596239
 10
86.44950355911679
 20
-115.044140596239
 10
86.38404674489705
 20
-115.4671983218277
 10
86.38404674489705
 20
-115.4671983218277
 10
86.44536944453449
 20
-115.4332641312979
 10
86.52770722663196
 20
-115.3931287688948
 10
86.64621851132456
 20
-115.3931287688948
 10
86.90012204858748
 20
-115.3931287688948
 10
87.13714461797267
 20
-115.5793361798725
 10
87.13714461797267
 20
-115.8923231047075
 10
87.13714461797267
 20
-116.2097886536733
 10
86.9128689018829
 20
-116.444571910993
 10
86.61038951827796
 20
-116.444571910993
 97
        0
 97
        0
 75
     2
 76
     1
 98
        0
  0
ENDBLK
  5
96
330
93
100
AcDbEntity
  8
0
100
AcDbBlockEnd
  0
BLOCK
  5
A9
330
A7
100
AcDbEntity
  8
0
100
AcDbBlockBegin
  2
block 5
 70
     0
 10
0.0
 20
0.0
 30
0.0
  3
block 5
  1

  0
SPLINE
  5
AB
330
A7
100
AcDbEntity
  8
_U+30EC_U+30A4_U+30E4_U+30FC 1
370
     0
100
AcDbSpline
210
0.0
220
0.0
230
1.0
 70
    11
 71
     3
 72
    26
 73
    22
 74
     0
 42
0.0000000001
 43
0.0000000001
 12
1.0
 22
0.0
 32
0.0
 13
1.0
 23
0.0
 33
0.0
 40
0.0
 40
0.0
 40
0.0
 40
0.0
 40
1.0
 40
1.0
 40
1.0
 40
2.0
 40
2.0
 40
2.0
 40
3.0
 40
3.0
 40
3.0
 40
4.0
 40
4.0
 40
4.0
 40
5.0
 40
5.0
 40
5.0
 40
6.0
 40
6.0
 40
6.0
 40
7.0
 40
7.0
 40
7.0
 40
7.0
 10
76.9522365801543
 20
-141.7467311928619
 30
0.0
 10
76.9522365801543
 20
-141.7467311928619
 30
0.0
 10
76.71538626554337
 20
-141.7467311928619
 30
0.0
 10
76.71538626554337
 20
-141.7467311928619
 30
0.0
 10
76.74070771735997
 20
-141.437706127835
 30
0.0
 10
76.93328855498544
 20
-140.9195637668535
 30
0.0
 10
77.33946531269639
 20
-140.4138237496188
 30
0.0
 10
77.33946531269639
 20
-140.4138237496188
 30
0.0
 10
76.50161809068362
 20
-140.4138237496188
 30
0.0
 10
76.50161809068362
 20
-140.4138237496188
 30
0.0
 10
76.50161809068362
 20
-140.4138237496188
 30
0.0
 10
76.50161809068362
 20
-140.2022948868244
 30
0.0
 10
76.50161809068362
 20
-140.2022948868244
 30
0.0
 10
76.50161809068362
 20
-140.2022948868244
 30
0.0
 10
77.57631562730731
 20
-140.2022948868244
 30
0.0
 10
77.57631562730731
 20
-140.2022948868244
 30
0.0
 10
77.57631562730731
 20
-140.2022948868244
 30
0.0
 10
77.57631562730731
 20
-140.4138237496188
 30
0.0
 10
77.57631562730731
 20
-140.4138237496188
 30
0.0
 10
77.2526489064681
 20
-140.7039007894768
 30
0.0
 10
76.98617077068401
 20
-141.2961127033913
 30
0.0
 10
76.9522365801543
 20
-141.7467311928619
 30
0.0
  0
HATCH
  5
AC
330
A7
100
AcDbEntity
  8
_U+30EC_U+30A4_U+30E4_U+30FC 1
 62
     7
420
 16777215
100
AcDbHatch
 10
0.0
 20
0.0
 30
0.0
210
0.0
220
0.0
230
1.0
  2
SOLID
 70
     1
 71
     0
 91
        1
 92
        1
 93
        1
 72
     4
 94
        3
 73
     0
 74
     1
 95
       26
 96
       22
 40
0.0
 40
0.0
 40
0.0
 40
0.0
 40
1.0
 40
1.0
 40
1.0
 40
2.0
 40
2.0
 40
2.0
 40
3.0
 40
3.0
 40
3.0
 40
4.0
 40
4.0
 40
4.0
 40
5.0
 40
5.0
 40
5.0
 40
6.0
 40
6.0
 40
6.0
 40
7.0
 40
7.0
 40
7.0
 40
7.0
 10
76.9522365801543
 20
-141.7467311928619
 10
76.9522365801543
 20
-141.7467311928619
 10
76.71538626554337
 20
-141.7467311928619
 10
76.71538626554337
 20
-141.7467311928619
 10
76.74070771735997
 20
-141.437706127835
 10
76.93328855498544
 20
-140.9195637668535
 10
77.33946531269639
 20
-140.4138237496188
 10
77.33946531269639
 20
-140.4138237496188
 10
76.50161809068362
 20
-140.4138237496188
 10
76.50161809068362
 20
-140.4138237496188
 10
76.50161809068362
 20
-140.4138237496188
 10
76.50161809068362
 20
-140.2022948868244
 10
76.50161809068362
 20
-140.2022948868244
 10
76.50161809068362
 20
-140.2022948868244
 10
77.57631562730731
 20
-140.2022948868244
 10
77.57631562730731
 20
-140.2022948868244
 10
77.57631562730731
 20
-140.2022948868244
 10
77.57631562730731
 20
-140.4138237496188
 10
77.57631562730731
 20
-140.4138237496188
 10
77.2526489064681
 20
-140.7039007894768
 10
76.98617077068401
 20
-141.2961127033913
 10
76.9522365801543
 20
-141.7467311928619
 97
        0
 97
        0
 75
     2
 76
     1
 98
        0
  0
ENDBLK
  5
AA
330
A7
100
AcDbEntity
  8
0
100
AcDbBlockEnd
  0
BLOCK
  5
AF
330
AD
100
AcDbEntity
  8
0
100
AcDbBlockBegin
  2
block 6
 70
     0
 10
0.0
 20
0.0
 30
0.0
  3
block 6
  1

  0
POLYLINE
  5
B1
330
AD
100
AcDbEntity
  8
_U+30EC_U+30A4_U+30E4_U+30FC 1
 62
     7
420
 16777215
370
     9
100
AcDb2dPolyline
 66
     1
 10
0.0
 20
0.0
 30
0.0
  0
VERTEX
  5
B2
330
B1
100
AcDbEntity
  8
_U+30EC_U+30A4_U+30E4_U+30FC 1
 62
     7
420
 16777215
370
     9
100
AcDbVertex
100
AcDb2dVertex
 10
102.5415259950588
 20
-121.0429238586282
 30
0.0
  0
VERTEX
  5
B3
330
B1
100
AcDbEntity
  8
_U+30EC_U+30A4_U+30E4_U+30FC 1
 62
     7
420
 16777215
370
     9
100
AcDbVertex
100
AcDb2dVertex
 10
102.5415259950588
 20
-117.2726113595708
 30
0.0
  0
SEQEND
  5
B4
330
B1
100
AcDbEntity
  8
_U+30EC_U+30A4_U+30E4_U+30FC 1
 62
     7
420
 16777215
370
     9
  0
POLYLINE
  5
B5
330
AD
100
AcDbEntity
  8
_U+30EC_U+30A4_U+30E4_U+30FC 1
 62
     7
420
 16777215
370
     9
100
AcDb2dPolyline
 66
     1
 10
0.0
 20
0.0
 30
0.0
  0
VERTEX
  5
B6
330
B5
100
AcDbEntity
  8
_U+30EC_U+30A4_U+30E4_U+30FC 1
 62
     7
420
 16777215
370
     9
100
AcDbVertex
100
AcDb2dVertex
 10
102.5415259950588
 20
-121.0429238586282
 30
0.0
  0
VERTEX
  5
B7
330
B5
100
AcDbEntity
  8
_U+30EC_U+30A4_U+30E4_U+30FC 1
 62
     7
420
 16777215
370
     9
100
AcDbVertex
100
AcDb2dVertex
 10
102.5415259950588
 20
-122.0426960806004
 30
0.0
  0
SEQEND
  5
B8
330
B5
100
AcDbEntity
  8
_U+30EC_U+30A4_U+30E4_U+30FC 1
 62
     7
420
 16777215
370
     9
  0
POLYLINE
  5
B9
330
AD
100
AcDbEntity
  8
_U+30EC_U+30A4_U+30E4_U+30FC 1
 62
     7
420
 16777215
370
     9
100
AcDb2dPolyline
 66
     1
 10
0.0
 20
0.0
 30
0.0
  0
VERTEX
  5
BA
330
B9
100
AcDbEntity
  8
_U+30EC_U+30A4_U+30E4_U+30FC 1
 62
     7
420
 16777215
370
     9
100
AcDbVertex
100
AcDb2dVertex
 10
101.0815199211956
 20
-121.0429238586282
 30
0.0
  0
VERTEX
  5
BB
330
B9
100
AcDbEntity
  8
_U+30EC_U+30A4_U+30E4_U+30FC 1
 62
     7
420
 16777215
370
     9
100
AcDbVertex
100
AcDb2dVertex
 10
103.5412981917747
 20
-121.0429238586282
 30
0.0
  0
SEQEND
  5
BC
330
B9
100
AcDbEntity
  8
_U+30EC_U+30A4_U+30E4_U+30FC 1
 62
     7
420
 16777215
370
     9
  0
POLYLINE
  5
BD
330
AD
100
AcDbEntity
  8
_U+30EC_U+30A4_U+30E4_U+30FC 1
 62
     7
420
 16777215
370
     9
100
AcDb2dPolyline
 66
     1
 10
0.0
 20
0.0
 30
0.0
  0
VERTEX
  5
BE
330
BD
100
AcDbEntity
  8
_U+30EC_U+30A4_U+30E4_U+30FC 1
 62
     7
420
 16777215
370
     9
100
AcDbVertex
100
AcDb2dVertex
 10
101.0815199211956
 20
-122.0426960806004
 30
0.0
  0
VERTEX
  5
BF
330
BD
100
AcDbEntity
  8
_U+30EC_U+30A4_U+30E4_U+30FC 1
 62
     7
420
 16777215
370
     9
100
AcDbVertex
100
AcDb2dVertex
 10
103.5412981917747
 20
-122.0426960806004
 30
0.0
  0
SEQEND
  5
C0
330
BD
100
AcDbEntity
  8
_U+30EC_U+30A4_U+30E4_U+30FC 1
 62
     7
420
 16777215
370
     9
  0
INSERT
  5
C2
330
AD
100
AcDbEntity
  8
_U+30EC_U+30A4_U+30E4_U+30FC 1
100
AcDbBlockReference
  2
block 7
 10
0.0
 20
0.0
 30
0.0
  0
ENDBLK
  5
B0
330
AD
100
AcDbEntity
  8
0
100
AcDbBlockEnd
  0
BLOCK
  5
C3
330
C1
100
AcDbEntity
  8
0
100
AcDbBlockBegin
  2
block 7
 70
     0
 10
0.0
 20
0.0
 30
0.0
  3
block 7
  1

  0
SPLINE
  5
C5
330
C1
100
AcDbEntity
  8
_U+30EC_U+30A4_U+30E4_U+30FC 1
370
     0
100
AcDbSpline
210
0.0
220
0.0
230
1.0
 70
    11
 71
     3
 72
    26
 73
    22
 74
     0
 42
0.0000000001
 43
0.0000000001
 12
1.0
 22
0.0
 32
0.0
 13
1.0
 23
0.0
 33
0.0
 40
0.0
 40
0.0
 40
0.0
 40
0.0
 40
1.0
 40
1.0
 40
1.0
 40
2.0
 40
2.0
 40
2.0
 40
3.0
 40
3.0
 40
3.0
 40
4.0
 40
4.0
 40
4.0
 40
5.0
 40
5.0
 40
5.0
 40
6.0
 40
6.0
 40
6.0
 40
7.0
 40
7.0
 40
7.0
 40
7.0
 10
106.4813557676505
 20
-121.6187608202898
 30
0.0
 10
106.4813557676505
 20
-121.6187608202898
 30
0.0
 10
105.3772026646279
 20
-121.6187608202898
 30
0.0
 10
105.3772026646279
 20
-121.6187608202898
 30
0.0
 10
105.3772026646279
 20
-121.6187608202898
 30
0.0
 10
105.3772026646279
 20
-121.9488009677767
 30
0.0
 10
105.3772026646279
 20
-121.9488009677767
 30
0.0
 10
105.3772026646279
 20
-121.9488009677767
 30
0.0
 10
105.2290635587622
 20
-121.9488009677767
 30
0.0
 10
105.2290635587622
 20
-121.9488009677767
 30
0.0
 10
105.2142496481756
 20
-121.6166937629986
 30
0.0
 10
105.0512966317233
 20
-121.5701849739477
 30
0.0
 10
104.936919461613
 20
-121.5405571527746
 30
0.0
 10
104.936919461613
 20
-121.5405571527746
 30
0.0
 10
104.936919461613
 20
-121.3944851042
 30
0.0
 10
104.936919461613
 20
-121.3944851042
 30
0.0
 10
104.936919461613
 20
-121.3944851042
 30
0.0
 10
106.4813557676505
 20
-121.3944851042
 30
0.0
 10
106.4813557676505
 20
-121.3944851042
 30
0.0
 10
106.4813557676505
 20
-121.3944851042
 30
0.0
 10
106.4813557676505
 20
-121.6187608202898
 30
0.0
 10
106.4813557676505
 20
-121.6187608202898
 30
0.0
  0
HATCH
  5
C6
330
C1
100
AcDbEntity
  8
_U+30EC_U+30A4_U+30E4_U+30FC 1
 62
     7
420
 16777215
100
AcDbHatch
 10
0.0
 20
0.0
 30
0.0
210
0.0
220
0.0
230
1.0
  2
SOLID
 70
     1
 71
     0
 91
        1
 92
        1
 93
        1
 72
     4
 94
        3
 73
     0
 74
     1
 95
       26
 96
       22
 40
0.0
 40
0.0
 40
0.0
 40
0.0
 40
1.0
 40
1.0
 40
1.0
 40
2.0
 40
2.0
 40
2.0
 40
3.0
 40
3.0
 40
3.0
 40
4.0
 40
4.0
 40
4.0
 40
5.0
 40
5.0
 40
5.0
 40
6.0
 40
6.0
 40
6.0
 40
7.0
 40
7.0
 40
7.0
 40
7.0
 10
106.4813557676505
 20
-121.6187608202898
 10
106.4813557676505
 20
-121.6187608202898
 10
105.3772026646279
 20
-121.6187608202898
 10
105.3772026646279
 20
-121.6187608202898
 10
105.3772026646279
 20
-121.6187608202898
 10
105.3772026646279
 20
-121.9488009677767
 10
105.3772026646279
 20
-121.9488009677767
 10
105.3772026646279
 20
-121.9488009677767
 10
105.2290635587622
 20
-121.9488009677767
 10
105.2290635587622
 20
-121.9488009677767
 10
105.2142496481756
 20
-121.6166937629986
 10
105.0512966317233
 20
-121.5701849739477
 10
104.936919461613
 20
-121.5405571527746
 10
104.936919461613
 20
-121.5405571527746
 10
104.936919461613
 20
-121.3944851042
 10
104.936919461613
 20
-121.3944851042
 10
104.936919461613
 20
-121.3944851042
 10
106.4813557676505
 20
-121.3944851042
 10
106.4813557676505
 20
-121.3944851042
 10
106.4813557676505
 20
-121.3944851042
 10
106.4813557676505
 20
-121.6187608202898
 10
106.4813557676505
 20
-121.6187608202898
 97
        0
 97
        0
 75
     2
 76
     1
 98
        0
  0
ENDBLK
  5
C4
330
C1
100
AcDbEntity
  8
0
100
AcDbBlockEnd
  0
BLOCK
  5
D1
330
CF
100
AcDbEntity
  8
0
100
AcDbBlockBegin
  2
block 8
 70
     0
 10
0.0
 20
0.0
 30
0.0
  3
block 8
  1

  0
SPLINE
  5
D3
330
CF
100
AcDbEntity
  8
_U+30EC_U+30A4_U+30E4_U+30FC 1
370
     0
100
AcDbSpline
210
0.0
220
0.0
230
1.0
 70
    11
 71
     3
 72
    26
 73
    22
 74
     0
 42
0.0000000001
 43
0.0000000001
 12
1.0
 22
0.0
 32
0.0
 13
1.0
 23
0.0
 33
0.0
 40
0.0
 40
0.0
 40
0.0
 40
0.0
 40
1.0
 40
1.0
 40
1.0
 40
2.0
 40
2.0
 40
2.0
 40
3.0
 40
3.0
 40
3.0
 40
4.0
 40
4.0
 40
4.0
 40
5.0
 40
5.0
 40
5.0
 40
6.0
 40
6.0
 40
6.0
 40
7.0
 40
7.0
 40
7.0
 40
7.0
 10
101.8952446576859
 20
-129.1797118817676
 30
0.0
 10
101.8952446576859
 20
-129.1797118817676
 30
0.0
 10
100.7910915546633
 20
-129.1797118817676
 30
0.0
 10
100.7910915546633
 20
-129.1797118817676
 30
0.0
 10
100.7910915546633
 20
-129.1797118817676
 30
0.0
 10
100.7910915546633
 20
-129.5097520292545
 30
0.0
 10
100.7910915546633
 20
-129.5097520292545
 30
0.0
 10
100.7910915546633
 20
-129.5097520292545
 30
0.0
 10
100.6429524487976
 20
-129.5097520292545
 30
0.0
 10
100.6429524487976
 20
-129.5097520292545
 30
0.0
 10
100.628138538211
 20
-129.1776448244764
 30
0.0
 10
100.4651855217587
 20
-129.1311360354256
 30
0.0
 10
100.3508083516484
 20
-129.1015082142524
 30
0.0
 10
100.3508083516484
 20
-129.1015082142524
 30
0.0
 10
100.3508083516484
 20
-128.9554361656778
 30
0.0
 10
100.3508083516484
 20
-128.9554361656778
 30
0.0
 10
100.3508083516484
 20
-128.9554361656778
 30
0.0
 10
101.8952446576859
 20
-128.9554361656778
 30
0.0
 10
101.8952446576859
 20
-128.9554361656778
 30
0.0
 10
101.8952446576859
 20
-128.9554361656778
 30
0.0
 10
101.8952446576859
 20
-129.1797118817676
 30
0.0
 10
101.8952446576859
 20
-129.1797118817676
 30
0.0
  0
HATCH
  5
D4
330
CF
100
AcDbEntity
  8
_U+30EC_U+30A4_U+30E4_U+30FC 1
 62
     7
420
 16777215
100
AcDbHatch
 10
0.0
 20
0.0
 30
0.0
210
0.0
220
0.0
230
1.0
  2
SOLID
 70
     1
 71
     0
 91
        1
 92
        1
 93
        1
 72
     4
 94
        3
 73
     0
 74
     1
 95
       26
 96
       22
 40
0.0
 40
0.0
 40
0.0
 40
0.0
 40
1.0
 40
1.0
 40
1.0
 40
2.0
 40
2.0
 40
2.0
 40
3.0
 40
3.0
 40
3.0
 40
4.0
 40
4.0
 40
4.0
 40
5.0
 40
5.0
 40
5.0
 40
6.0
 40
6.0
 40
6.0
 40
7.0
 40
7.0
 40
7.0
 40
7.0
 10
101.8952446576859
 20
-129.1797118817676
 10
101.8952446576859
 20
-129.1797118817676
 10
100.7910915546633
 20
-129.1797118817676
 10
100.7910915546633
 20
-129.1797118817676
 10
100.7910915546633
 20
-129.1797118817676
 10
100.7910915546633
 20
-129.5097520292545
 10
100.7910915546633
 20
-129.5097520292545
 10
100.7910915546633
 20
-129.5097520292545
 10
100.6429524487976
 20
-129.5097520292545
 10
100.6429524487976
 20
-129.5097520292545
 10
100.628138538211
 20
-129.1776448244764
 10
100.4651855217587
 20
-129.1311360354256
 10
100.3508083516484
 20
-129.1015082142524
 10
100.3508083516484
 20
-129.1015082142524
 10
100.3508083516484
 20
-128.9554361656778
 10
100.3508083516484
 20
-128.9554361656778
 10
100.3508083516484
 20
-128.9554361656778
 10
101.8952446576859
 20
-128.9554361656778
 10
101.8952446576859
 20
-128.9554361656778
 10
101.8952446576859
 20
-128.9554361656778
 10
101.8952446576859
 20
-129.1797118817676
 10
101.8952446576859
 20
-129.1797118817676
 97
        0
 97
        0
 75
     2
 76
     1
 98
        0
  0
SPLINE
  5
D5
330
CF
100
AcDbEntity
  8
_U+30EC_U+30A4_U+30E4_U+30FC 1
370
     0
100
AcDbSpline
210
0.0
220
0.0
230
1.0
 70
    11
 71
     3
 72
    62
 73
    58
 74
     0
 42
0.0000000001
 43
0.0000000001
 12
1.0
 22
0.0
 32
0.0
 13
1.0
 23
0.0
 33
0.0
 40
0.0
 40
0.0
 40
0.0
 40
0.0
 40
1.0
 40
1.0
 40
1.0
 40
2.0
 40
2.0
 40
2.0
 40
3.0
 40
3.0
 40
3.0
 40
4.0
 40
4.0
 40
4.0
 40
5.0
 40
5.0
 40
5.0
 40
6.0
 40
6.0
 40
6.0
 40
7.0
 40
7.0
 40
7.0
 40
8.0
 40
8.0
 40
8.0
 40
9.0
 40
9.0
 40
9.0
 40
10.0
 40
10.0
 40
10.0
 40
11.0
 40
11.0
 40
11.0
 40
12.0
 40
12.0
 40
12.0
 40
13.0
 40
13.0
 40
13.0
 40
14.0
 40
14.0
 40
14.0
 40
15.0
 40
15.0
 40
15.0
 40
16.0
 40
16.0
 40
16.0
 40
17.0
 40
17.0
 40
17.0
 40
18.0
 40
18.0
 40
18.0
 40
19.0
 40
19.0
 40
19.0
 40
19.0
 10
101.9458875613191
 20
-127.9625596468288
 30
0.0
 10
101.9458875613191
 20
-128.0579887917702
 30
0.0
 10
101.9248724788591
 20
-128.275718826438
 30
0.0
 10
101.7388373226556
 20
-128.4007757925526
 30
0.0
 10
101.6265272098364
 20
-128.4745008359369
 30
0.0
 10
101.5273084598612
 20
-128.4789794600678
 30
0.0
 10
101.4425591109241
 20
-128.48311357465
 30
0.0
 10
101.4425591109241
 20
-128.48311357465
 30
0.0
 10
101.4425591109241
 20
-128.2629719731426
 30
0.0
 10
101.4425591109241
 20
-128.2629719731426
 30
0.0
 10
101.516628663857
 20
-128.2609049158515
 30
0.0
 10
101.7512396664025
 20
-128.2505696293957
 30
0.0
 10
101.7512396664025
 20
-127.9670382709596
 30
0.0
 10
101.7512396664025
 20
-127.8295789610982
 30
0.0
 10
101.6816487376004
 20
-127.6769612311016
 30
0.0
 10
101.4532389069284
 20
-127.6769612311016
 30
0.0
 10
101.3367946795269
 20
-127.6769612311016
 30
0.0
 10
101.2882188331849
 20
-127.7152017909879
 30
0.0
 10
101.2565239547206
 20
-127.7468966694522
 30
0.0
 10
101.1824544017877
 20
-127.820966222385
 30
0.0
 10
101.1697075484923
 20
-127.9374104497865
 30
0.0
 10
101.1697075484923
 20
-127.992187468002
 30
0.0
 10
101.1697075484923
 20
-128.0114800027194
 30
0.0
 10
101.1717746057835
 20
-128.0473089957659
 30
0.0
 10
101.1759087203658
 20
-128.074869759648
 30
0.0
 10
101.1759087203658
 20
-128.074869759648
 30
0.0
 10
100.9812608254491
 20
-128.074869759648
 30
0.0
 10
100.9812608254491
 20
-128.074869759648
 30
0.0
 10
100.9878065068711
 20
-128.0366291997617
 30
0.0
 10
100.9898735641623
 20
-127.9945990348416
 30
0.0
 10
100.9898735641623
 20
-127.9880533534197
 30
0.0
 10
100.9898735641623
 20
-127.9225965391999
 30
0.0
 10
100.9685139721537
 20
-127.723814529701
 30
0.0
 10
100.7318359123171
 20
-127.723814529701
 30
0.0
 10
100.5540689852781
 20
-127.723814529701
 30
0.0
 10
100.4989474575142
 20
-127.8547281581405
 30
0.0
 10
100.4989474575142
 20
-127.9649712136685
 30
0.0
 10
100.4989474575142
 20
-128.2292100373872
 30
0.0
 10
100.7318359123171
 20
-128.2378227761003
 30
0.0
 10
100.8034938984102
 20
-128.2419568906826
 30
0.0
 10
100.8034938984102
 20
-128.2419568906826
 30
0.0
 10
100.8034938984102
 20
-128.4452175243123
 30
0.0
 10
100.8034938984102
 20
-128.4452175243123
 30
0.0
 10
100.6787814418442
 20
-128.4366047855992
 30
0.0
 10
100.3022325053064
 20
-128.4090440217172
 30
0.0
 10
100.3022325053064
 20
-127.9522243603731
 30
0.0
 10
100.3022325053064
 20
-127.7279486442833
 30
0.0
 10
100.4293565287121
 20
-127.4867919603158
 30
0.0
 10
100.7252902308951
 20
-127.4867919603158
 30
0.0
 10
100.9116698966471
 20
-127.4867919603158
 30
0.0
 10
100.9940076787446
 20
-127.5818765957087
 30
0.0
 10
101.055330378382
 20
-127.6814398552324
 30
0.0
 10
101.082891142264
 20
-127.620117155595
 30
0.0
 10
101.1631618670703
 20
-127.4382161139738
 30
0.0
 10
101.4404920536329
 20
-127.4382161139738
 30
0.0
 10
101.7788004302845
 20
-127.4382161139738
 30
0.0
 10
101.9458875613191
 20
-127.6855739698147
 30
0.0
 10
101.9458875613191
 20
-127.9625596468288
 30
0.0
  0
HATCH
  5
D6
330
CF
100
AcDbEntity
  8
_U+30EC_U+30A4_U+30E4_U+30FC 1
 62
     7
420
 16777215
100
AcDbHatch
 10
0.0
 20
0.0
 30
0.0
210
0.0
220
0.0
230
1.0
  2
SOLID
 70
     1
 71
     0
 91
        1
 92
        1
 93
        1
 72
     4
 94
        3
 73
     0
 74
     1
 95
       62
 96
       58
 40
0.0
 40
0.0
 40
0.0
 40
0.0
 40
1.0
 40
1.0
 40
1.0
 40
2.0
 40
2.0
 40
2.0
 40
3.0
 40
3.0
 40
3.0
 40
4.0
 40
4.0
 40
4.0
 40
5.0
 40
5.0
 40
5.0
 40
6.0
 40
6.0
 40
6.0
 40
7.0
 40
7.0
 40
7.0
 40
8.0
 40
8.0
 40
8.0
 40
9.0
 40
9.0
 40
9.0
 40
10.0
 40
10.0
 40
10.0
 40
11.0
 40
11.0
 40
11.0
 40
12.0
 40
12.0
 40
12.0
 40
13.0
 40
13.0
 40
13.0
 40
14.0
 40
14.0
 40
14.0
 40
15.0
 40
15.0
 40
15.0
 40
16.0
 40
16.0
 40
16.0
 40
17.0
 40
17.0
 40
17.0
 40
18.0
 40
18.0
 40
18.0
 40
19.0
 40
19.0
 40
19.0
 40
19.0
 10
101.9458875613191
 20
-127.9625596468288
 10
101.9458875613191
 20
-128.0579887917702
 10
101.9248724788591
 20
-128.275718826438
 10
101.7388373226556
 20
-128.4007757925526
 10
101.6265272098364
 20
-128.4745008359369
 10
101.5273084598612
 20
-128.4789794600678
 10
101.4425591109241
 20
-128.48311357465
 10
101.4425591109241
 20
-128.48311357465
 10
101.4425591109241
 20
-128.2629719731426
 10
101.4425591109241
 20
-128.2629719731426
 10
101.516628663857
 20
-128.2609049158515
 10
101.7512396664025
 20
-128.2505696293957
 10
101.7512396664025
 20
-127.9670382709596
 10
101.7512396664025
 20
-127.8295789610982
 10
101.6816487376004
 20
-127.6769612311016
 10
101.4532389069284
 20
-127.6769612311016
 10
101.3367946795269
 20
-127.6769612311016
 10
101.2882188331849
 20
-127.7152017909879
 10
101.2565239547206
 20
-127.7468966694522
 10
101.1824544017877
 20
-127.820966222385
 10
101.1697075484923
 20
-127.9374104497865
 10
101.1697075484923
 20
-127.992187468002
 10
101.1697075484923
 20
-128.0114800027194
 10
101.1717746057835
 20
-128.0473089957659
 10
101.1759087203658
 20
-128.074869759648
 10
101.1759087203658
 20
-128.074869759648
 10
100.9812608254491
 20
-128.074869759648
 10
100.9812608254491
 20
-128.074869759648
 10
100.9878065068711
 20
-128.0366291997617
 10
100.9898735641623
 20
-127.9945990348416
 10
100.9898735641623
 20
-127.9880533534197
 10
100.9898735641623
 20
-127.9225965391999
 10
100.9685139721537
 20
-127.723814529701
 10
100.7318359123171
 20
-127.723814529701
 10
100.5540689852781
 20
-127.723814529701
 10
100.4989474575142
 20
-127.8547281581405
 10
100.4989474575142
 20
-127.9649712136685
 10
100.4989474575142
 20
-128.2292100373872
 10
100.7318359123171
 20
-128.2378227761003
 10
100.8034938984102
 20
-128.2419568906826
 10
100.8034938984102
 20
-128.2419568906826
 10
100.8034938984102
 20
-128.4452175243123
 10
100.8034938984102
 20
-128.4452175243123
 10
100.6787814418442
 20
-128.4366047855992
 10
100.3022325053064
 20
-128.4090440217172
 10
100.3022325053064
 20
-127.9522243603731
 10
100.3022325053064
 20
-127.7279486442833
 10
100.4293565287121
 20
-127.4867919603158
 10
100.7252902308951
 20
-127.4867919603158
 10
100.9116698966471
 20
-127.4867919603158
 10
100.9940076787446
 20
-127.5818765957087
 10
101.055330378382
 20
-127.6814398552324
 10
101.082891142264
 20
-127.620117155595
 10
101.1631618670703
 20
-127.4382161139738
 10
101.4404920536329
 20
-127.4382161139738
 10
101.7788004302845
 20
-127.4382161139738
 10
101.9458875613191
 20
-127.6855739698147
 10
101.9458875613191
 20
-127.9625596468288
 97
        0
 97
        0
 75
     2
 76
     1
 98
        0
  0
ENDBLK
  5
D2
330
CF
100
AcDbEntity
  8
0
100
AcDbBlockEnd
  0
BLOCK
  5
E1
330
DF
100
AcDbEntity
  8
0
100
AcDbBlockBegin
  2
block 9
 70
     0
 10
0.0
 20
0.0
 30
0.0
  3
block 9
  1

  0
SPLINE
  5
E3
330
DF
100
AcDbEntity
  8
_U+30EC_U+30A4_U+30E4_U+30FC 1
370
     0
100
AcDbSpline
210
0.0
220
0.0
230
1.0
 70
    11
 71
     3
 72
    62
 73
    58
 74
     0
 42
0.0000000001
 43
0.0000000001
 12
1.0
 22
0.0
 32
0.0
 13
1.0
 23
0.0
 33
0.0
 40
0.0
 40
0.0
 40
0.0
 40
0.0
 40
1.0
 40
1.0
 40
1.0
 40
2.0
 40
2.0
 40
2.0
 40
3.0
 40
3.0
 40
3.0
 40
4.0
 40
4.0
 40
4.0
 40
5.0
 40
5.0
 40
5.0
 40
6.0
 40
6.0
 40
6.0
 40
7.0
 40
7.0
 40
7.0
 40
8.0
 40
8.0
 40
8.0
 40
9.0
 40
9.0
 40
9.0
 40
10.0
 40
10.0
 40
10.0
 40
11.0
 40
11.0
 40
11.0
 40
12.0
 40
12.0
 40
12.0
 40
13.0
 40
13.0
 40
13.0
 40
14.0
 40
14.0
 40
14.0
 40
15.0
 40
15.0
 40
15.0
 40
16.0
 40
16.0
 40
16.0
 40
17.0
 40
17.0
 40
17.0
 40
18.0
 40
18.0
 40
18.0
 40
19.0
 40
19.0
 40
19.0
 40
19.0
 10
101.9458875613191
 20
-136.5535942583963
 30
0.0
 10
101.9458875613191
 20
-136.6490234033377
 30
0.0
 10
101.9248724788591
 20
-136.8667534380055
 30
0.0
 10
101.7388373226556
 20
-136.9918104041201
 30
0.0
 10
101.6265272098364
 20
-137.065879957053
 30
0.0
 10
101.5273084598612
 20
-137.0700140716353
 30
0.0
 10
101.4425591109241
 20
-137.0741481862176
 30
0.0
 10
101.4425591109241
 20
-137.0741481862176
 30
0.0
 10
101.4425591109241
 20
-136.8540065847101
 30
0.0
 10
101.4425591109241
 20
-136.8540065847101
 30
0.0
 10
101.516628663857
 20
-136.851939527419
 30
0.0
 10
101.7512396664025
 20
-136.8416042409632
 30
0.0
 10
101.7512396664025
 20
-136.5580728825271
 30
0.0
 10
101.7512396664025
 20
-136.4206135726657
 30
0.0
 10
101.6816487376004
 20
-136.2679958426691
 30
0.0
 10
101.4532389069284
 20
-136.2679958426691
 30
0.0
 10
101.3367946795269
 20
-136.2679958426691
 30
0.0
 10
101.2882188331849
 20
-136.3062364025554
 30
0.0
 10
101.2565239547206
 20
-136.3379312810197
 30
0.0
 10
101.1824544017877
 20
-136.4120008339526
 30
0.0
 10
101.1697075484923
 20
-136.528445061354
 30
0.0
 10
101.1697075484923
 20
-136.5832220795695
 30
0.0
 10
101.1697075484923
 20
-136.6025146142869
 30
0.0
 10
101.1717746057835
 20
-136.6383436073335
 30
0.0
 10
101.1759087203658
 20
-136.6659043712155
 30
0.0
 10
101.1759087203658
 20
-136.6659043712155
 30
0.0
 10
100.9812608254491
 20
-136.6659043712155
 30
0.0
 10
100.9812608254491
 20
-136.6659043712155
 30
0.0
 10
100.9878065068711
 20
-136.6276638113292
 30
0.0
 10
100.9898735641623
 20
-136.5856336464091
 30
0.0
 10
100.9898735641623
 20
-136.5790879649872
 30
0.0
 10
100.9898735641623
 20
-136.5136311507674
 30
0.0
 10
100.9685139721537
 20
-136.3148491412685
 30
0.0
 10
100.7318359123171
 20
-136.3148491412685
 30
0.0
 10
100.5540689852781
 20
-136.3148491412685
 30
0.0
 10
100.4989474575142
 20
-136.445762769708
 30
0.0
 10
100.4989474575142
 20
-136.556005825236
 30
0.0
 10
100.4989474575142
 20
-136.8202446489547
 30
0.0
 10
100.7318359123171
 20
-136.8288573876678
 30
0.0
 10
100.8034938984102
 20
-136.8329915022501
 30
0.0
 10
100.8034938984102
 20
-136.8329915022501
 30
0.0
 10
100.8034938984102
 20
-137.0362521358798
 30
0.0
 10
100.8034938984102
 20
-137.0362521358798
 30
0.0
 10
100.6787814418442
 20
-137.0276393971667
 30
0.0
 10
100.3022325053064
 20
-137.0000786332847
 30
0.0
 10
100.3022325053064
 20
-136.5432589719406
 30
0.0
 10
100.3022325053064
 20
-136.3189832558508
 30
0.0
 10
100.4293565287121
 20
-136.0778265718833
 30
0.0
 10
100.7252902308951
 20
-136.0778265718833
 30
0.0
 10
100.9116698966471
 20
-136.0778265718833
 30
0.0
 10
100.9940076787446
 20
-136.1729112072762
 30
0.0
 10
101.055330378382
 20
-136.2724744667999
 30
0.0
 10
101.082891142264
 20
-136.2111517671625
 30
0.0
 10
101.1631618670703
 20
-136.0292507255413
 30
0.0
 10
101.4404920536329
 20
-136.0292507255413
 30
0.0
 10
101.7788004302845
 20
-136.0292507255413
 30
0.0
 10
101.9458875613191
 20
-136.2766085813822
 30
0.0
 10
101.9458875613191
 20
-136.5535942583963
 30
0.0
  0
HATCH
  5
E4
330
DF
100
AcDbEntity
  8
_U+30EC_U+30A4_U+30E4_U+30FC 1
 62
     7
420
 16777215
100
AcDbHatch
 10
0.0
 20
0.0
 30
0.0
210
0.0
220
0.0
230
1.0
  2
SOLID
 70
     1
 71
     0
 91
        1
 92
        1
 93
        1
 72
     4
 94
        3
 73
     0
 74
     1
 95
       62
 96
       58
 40
0.0
 40
0.0
 40
0.0
 40
0.0
 40
1.0
 40
1.0
 40
1.0
 40
2.0
 40
2.0
 40
2.0
 40
3.0
 40
3.0
 40
3.0
 40
4.0
 40
4.0
 40
4.0
 40
5.0
 40
5.0
 40
5.0
 40
6.0
 40
6.0
 40
6.0
 40
7.0
 40
7.0
 40
7.0
 40
8.0
 40
8.0
 40
8.0
 40
9.0
 40
9.0
 40
9.0
 40
10.0
 40
10.0
 40
10.0
 40
11.0
 40
11.0
 40
11.0
 40
12.0
 40
12.0
 40
12.0
 40
13.0
 40
13.0
 40
13.0
 40
14.0
 40
14.0
 40
14.0
 40
15.0
 40
15.0
 40
15.0
 40
16.0
 40
16.0
 40
16.0
 40
17.0
 40
17.0
 40
17.0
 40
18.0
 40
18.0
 40
18.0
 40
19.0
 40
19.0
 40
19.0
 40
19.0
 10
101.9458875613191
 20
-136.5535942583963
 10
101.9458875613191
 20
-136.6490234033377
 10
101.9248724788591
 20
-136.8667534380055
 10
101.7388373226556
 20
-136.9918104041201
 10
101.6265272098364
 20
-137.065879957053
 10
101.5273084598612
 20
-137.0700140716353
 10
101.4425591109241
 20
-137.0741481862176
 10
101.4425591109241
 20
-137.0741481862176
 10
101.4425591109241
 20
-136.8540065847101
 10
101.4425591109241
 20
-136.8540065847101
 10
101.516628663857
 20
-136.851939527419
 10
101.7512396664025
 20
-136.8416042409632
 10
101.7512396664025
 20
-136.5580728825271
 10
101.7512396664025
 20
-136.4206135726657
 10
101.6816487376004
 20
-136.2679958426691
 10
101.4532389069284
 20
-136.2679958426691
 10
101.3367946795269
 20
-136.2679958426691
 10
101.2882188331849
 20
-136.3062364025554
 10
101.2565239547206
 20
-136.3379312810197
 10
101.1824544017877
 20
-136.4120008339526
 10
101.1697075484923
 20
-136.528445061354
 10
101.1697075484923
 20
-136.5832220795695
 10
101.1697075484923
 20
-136.6025146142869
 10
101.1717746057835
 20
-136.6383436073335
 10
101.1759087203658
 20
-136.6659043712155
 10
101.1759087203658
 20
-136.6659043712155
 10
100.9812608254491
 20
-136.6659043712155
 10
100.9812608254491
 20
-136.6659043712155
 10
100.9878065068711
 20
-136.6276638113292
 10
100.9898735641623
 20
-136.5856336464091
 10
100.9898735641623
 20
-136.5790879649872
 10
100.9898735641623
 20
-136.5136311507674
 10
100.9685139721537
 20
-136.3148491412685
 10
100.7318359123171
 20
-136.3148491412685
 10
100.5540689852781
 20
-136.3148491412685
 10
100.4989474575142
 20
-136.445762769708
 10
100.4989474575142
 20
-136.556005825236
 10
100.4989474575142
 20
-136.8202446489547
 10
100.7318359123171
 20
-136.8288573876678
 10
100.8034938984102
 20
-136.8329915022501
 10
100.8034938984102
 20
-136.8329915022501
 10
100.8034938984102
 20
-137.0362521358798
 10
100.8034938984102
 20
-137.0362521358798
 10
100.6787814418442
 20
-137.0276393971667
 10
100.3022325053064
 20
-137.0000786332847
 10
100.3022325053064
 20
-136.5432589719406
 10
100.3022325053064
 20
-136.3189832558508
 10
100.4293565287121
 20
-136.0778265718833
 10
100.7252902308951
 20
-136.0778265718833
 10
100.9116698966471
 20
-136.0778265718833
 10
100.9940076787446
 20
-136.1729112072762
 10
101.055330378382
 20
-136.2724744667999
 10
101.082891142264
 20
-136.2111517671625
 10
101.1631618670703
 20
-136.0292507255413
 10
101.4404920536329
 20
-136.0292507255413
 10
101.7788004302845
 20
-136.0292507255413
 10
101.9458875613191
 20
-136.2766085813822
 10
101.9458875613191
 20
-136.5535942583963
 97
        0
 97
        0
 75
     2
 76
     1
 98
        0
  0
ENDBLK
  5
E2
330
DF
100
AcDbEntity
  8
0
100
AcDbBlockEnd
  0
ENDSEC
  0
SECTION
  2
ENTITIES
  0
INSERT
  5
42
330
1F
100
AcDbEntity
  8
_U+30EC_U+30A4_U+30E4_U+30FC 1
100
AcDbBlockReference
  2
block 2
 10
0.0
 20
0.0
 30
0.0
  0
ENDSEC
  0
SECTION
  2
OBJECTS
  0
DICTIONARY
  5
C
330
0
100
AcDbDictionary
281
     1
  3
ACAD_GROUP
350
D
  3
ACAD_LAYOUT
350
1A
  3
ACAD_MATERIAL
350
3B
  3
ACAD_MLEADERSTYLE
350
E6
  3
ACAD_MLINESTYLE
350
17
  3
ACAD_PLOTSETTINGS
350
19
  3
ACAD_PLOTSTYLENAME
350
E
  3
ACAD_TABLESTYLE
350
E5
  3
ACAD_VISUALSTYLE
350
2A
  0
SUN
  5
3F
330
29
100
AcDbSun
 90
        1
290
     0
 63
     7
421
 16777215
 40
1.0
291
     1
 91
  2455826
 92
 54000000
292
     0
 70
     2
 71
   256
280
     1
  0
DICTIONARY
  5
D
102
{ACAD_REACTORS
330
C
102
}
330
C
100
AcDbDictionary
281
     1
  0
DICTIONARY
  5
1A
102
{ACAD_REACTORS
330
C
102
}
330
C
100
AcDbDictionary
281
     1
  3
Layout1
350
1E
  3
Layout2
350
26
  3
Model
350
22
  0
DICTIONARY
  5
3B
102
{ACAD_REACTORS
330
C
102
}
330
C
100
AcDbDictionary
281
     1
  3
ByBlock
350
3D
  3
ByLayer
350
3C
  3
Global
350
3E
  0
DICTIONARY
  5
E6
102
{ACAD_REACTORS
330
C
102
}
330
C
100
AcDbDictionary
281
     1
  0
DICTIONARY
  5
17
102
{ACAD_REACTORS
330
C
102
}
330
C
100
AcDbDictionary
281
     1
  3
Standard
350
18
  0
DICTIONARY
  5
19
102
{ACAD_REACTORS
330
C
102
}
330
C
100
AcDbDictionary
281
     1
  0
ACDBDICTIONARYWDFLT
  5
E
102
{ACAD_REACTORS
330
C
102
}
330
C
100
AcDbDictionary
281
     1
  3
Normal
350
F
100
AcDbDictionaryWithDefault
340
F
  0
DICTIONARY
  5
E5
102
{ACAD_REACTORS
330
C
102
}
330
C
100
AcDbDictionary
281
     1
  0
DICTIONARY
  5
2A
102
{ACAD_REACTORS
330
C
102
}
330
C
100
AcDbDictionary
281
     1
  3
2dWireframe
350
2F
  3
3D Hidden
350
31
  3
3dWireframe
350
30
  3
Basic
350
32
  3
Brighten
350
36
  3
ColorChange
350
3A
  3
Conceptual
350
34
  3
Dim
350
35
  3
Facepattern
350
39
  3
Flat
350
2B
  3
FlatWithEdges
350
2C
  3
Gouraud
350
2D
  3
GouraudWithEdges
350
2E
  3
Linepattern
350
38
  3
Realistic
350
33
  3
Thicken
350
37
  0
LAYOUT
  5
1E
102
{ACAD_REACTORS
330
1A
102
}
330
1A
100
AcDbPlotSettings
  1

  2
none_device
  4

  6

 40
0.0
 41
0.0
 42
0.0
 43
0.0
 44
0.0
 45
0.0
 46
0.0
 47
0.0
 48
0.0
 49
0.0
140
0.0
141
0.0
142
1.0
143
1.0
 70
   688
 72
     0
 73
     0
 74
     5
  7

 75
    16
 76
     0
 77
     2
 78
   300
147
1.0
148
0.0
149
0.0
100
AcDbLayout
  1
Layout1
 70
     1
 71
     1
 10
0.0
 20
0.0
 11
12.0
 21
9.0
 12
0.0
 22
0.0
 32
0.0
 14
1.000000000000000E+20
 24
1.000000000000000E+20
 34
1.000000000000000E+20
 15
-1.000000000000000E+20
 25
-1.000000000000000E+20
 35
-1.000000000000000E+20
146
0.0
 13
0.0
 23
0.0
 33
0.0
 16
1.0
 26
0.0
 36
0.0
 17
0.0
 27
1.0
 37
0.0
 76
     0
330
1B
  0
LAYOUT
  5
26
102
{ACAD_REACTORS
330
1A
102
}
330
1A
100
AcDbPlotSettings
  1

  2
none_device
  4

  6

 40
0.0
 41
0.0
 42
0.0
 43
0.0
 44
0.0
 45
0.0
 46
0.0
 47
0.0
 48
0.0
 49
0.0
140
0.0
141
0.0
142
1.0
143
1.0
 70
   688
 72
     0
 73
     0
 74
     5
  7

 75
    16
 76
     0
 77
     2
 78
   300
147
1.0
148
0.0
149
0.0
100
AcDbLayout
  1
Layout2
 70
     1
 71
     2
 10
0.0
 20
0.0
 11
0.0
 21
0.0
 12
0.0
 22
0.0
 32
0.0
 14
0.0
 24
0.0
 34
0.0
 15
0.0
 25
0.0
 35
0.0
146
0.0
 13
0.0
 23
0.0
 33
0.0
 16
1.0
 26
0.0
 36
0.0
 17
0.0
 27
1.0
 37
0.0
 76
     0
330
23
  0
LAYOUT
  5
22
102
{ACAD_REACTORS
330
1A
102
}
330
1A
100
AcDbPlotSettings
  1

  2
none_device
  4

  6

 40
0.0
 41
0.0
 42
0.0
 43
0.0
 44
0.0
 45
0.0
 46
0.0
 47
0.0
 48
0.0
 49
0.0
140
0.0
141
0.0
142
1.0
143
1.0
 70
  1712
 72
     0
 73
     0
 74
     0
  7

 75
     0
 76
     0
 77
     2
 78
   300
147
1.0
148
0.0
149
0.0
100
AcDbLayout
  1
Model
 70
     1
 71
     0
 10
0.0
 20
0.0
 11
12.0
 21
9.0
 12
0.0
 22
0.0
 32
0.0
 14
1.000000000000000E+20
 24
1.000000000000000E+20
 34
1.000000000000000E+20
 15
-1.000000000000000E+20
 25
-1.000000000000000E+20
 35
-1.000000000000000E+20
146
0.0
 13
0.0
 23
0.0
 33
0.0
 16
1.0
 26
0.0
 36
0.0
 17
0.0
 27
1.0
 37
0.0
 76
     0
330
1F
331
29
  0
MATERIAL
  5
3D
102
{ACAD_REACTORS
330
3B
102
}
330
3B
100
AcDbMaterial
  1
ByBlock
 72
     1
 94
      127
  0
MATERIAL
  5
3C
102
{ACAD_REACTORS
330
3B
102
}
330
3B
100
AcDbMaterial
  1
ByLayer
 72
     1
 94
      127
  0
MATERIAL
  5
3E
102
{ACAD_REACTORS
330
3B
102
}
330
3B
100
AcDbMaterial
  1
Global
 72
     1
 94
      127
  0
MLINESTYLE
  5
18
102
{ACAD_REACTORS
330
17
102
}
330
17
100
AcDbMlineStyle
  2
Standard
 70
     0
  3

 62
   256
 51
90.0
 52
90.0
 71
     2
 49
0.5
 62
   256
  6
BYLAYER
 49
-0.5
 62
   256
  6
BYLAYER
  0
ACDBPLACEHOLDER
  5
F
102
{ACAD_REACTORS
330
E
102
}
330
E
  0
VISUALSTYLE
  5
2F
102
{ACAD_REACTORS
330
2A
102
}
330
2A
100
AcDbVisualStyle
  2
2dWireframe
 70
     4
177
     2
291
     0
 71
     0
176
     1
 72
     2
176
     1
 73
     0
176
     1
 90
        0
176
     1
 40
-0.6
176
     1
 41
-30.0
176
     1
 62
     5
 63
     7
421
 16777215
176
     1
 74
     1
176
     1
 91
        4
176
     1
 64
     7
176
     1
 65
   257
176
     1
 75
     1
176
     1
175
     1
176
     1
 42
1.0
176
     1
 92
        0
176
     1
 66
   257
176
     1
 43
1.0
176
     1
 76
     1
176
     1
 77
     6
176
     1
 78
     2
176
     1
 67
     7
176
     1
 79
     5
176
     1
170
     0
176
     1
171
     0
176
     1
290
     0
176
     1
 93
        1
176
     1
 44
0.0
176
     1
173
     0
176
     1
  0
VISUALSTYLE
  5
31
102
{ACAD_REACTORS
330
2A
102
}
330
2A
100
AcDbVisualStyle
  2
3D Hidden
 70
     6
177
     2
291
     0
 71
     1
176
     1
 72
     2
176
     1
 73
     2
176
     1
 90
        0
176
     1
 40
-0.6
176
     1
 41
-30.0
176
     1
 62
     5
 63
     7
421
 16777215
176
     1
 74
     2
176
     1
 91
        2
176
     1
 64
     7
176
     1
 65
   257
176
     1
 75
     2
176
     1
175
     1
176
     1
 42
40.0
176
     1
 92
        0
176
     1
 66
   257
176
     1
 43
1.0
176
     1
 76
     1
176
     1
 77
     6
176
     1
 78
     2
176
     1
 67
     7
176
     1
 79
     3
176
     1
170
     0
176
     1
171
     0
176
     1
290
     0
176
     1
 93
        1
176
     1
 44
0.0
176
     1
173
     0
176
     1
  0
VISUALSTYLE
  5
30
102
{ACAD_REACTORS
330
2A
102
}
330
2A
100
AcDbVisualStyle
  2
3dWireframe
 70
     5
177
     2
291
     0
 71
     0
176
     1
 72
     2
176
     1
 73
     0
176
     1
 90
        0
176
     1
 40
-0.6
176
     1
 41
-30.0
176
     1
 62
     5
 63
     7
421
 16777215
176
     1
 74
     1
176
     1
 91
        4
176
     1
 64
     7
176
     1
 65
   257
176
     1
 75
     1
176
     1
175
     1
176
     1
 42
1.0
176
     1
 92
        0
176
     1
 66
   257
176
     1
 43
1.0
176
     1
 76
     1
176
     1
 77
     6
176
     1
 78
     2
176
     1
 67
     7
176
     1
 79
     5
176
     1
170
     0
176
     1
171
     0
176
     1
290
     0
176
     1
 93
        1
176
     1
 44
0.0
176
     1
173
     0
176
     1
  0
VISUALSTYLE
  5
32
102
{ACAD_REACTORS
330
2A
102
}
330
2A
100
AcDbVisualStyle
  2
Basic
 70
     7
177
     2
291
     1
 71
     1
176
     1
 72
     0
176
     1
 73
     1
176
     1
 90
        0
176
     1
 40
-0.6
176
     1
 41
-30.0
176
     1
 62
     5
 63
     7
421
 16777215
176
     1
 74
     0
176
     1
 91
        4
176
     1
 64
     7
176
     1
 65
   257
176
     1
 75
     1
176
     1
175
     1
176
     1
 42
1.0
176
     1
 92
        8
176
     1
 66
     7
176
     1
 43
1.0
176
     1
 76
     1
176
     1
 77
     6
176
     1
 78
     2
176
     1
 67
     7
176
     1
 79
     5
176
     1
170
     0
176
     1
171
     0
176
     1
290
     0
176
     1
 93
        1
176
     1
 44
0.0
176
     1
173
     0
176
     1
  0
VISUALSTYLE
  5
36
102
{ACAD_REACTORS
330
2A
102
}
330
2A
100
AcDbVisualStyle
  2
Brighten
 70
    12
177
     2
291
     1
 71
     2
176
     1
 72
     2
176
     1
 73
     0
176
     1
 90
        0
176
     1
 40
-0.6
176
     1
 41
-30.0
176
     1
 62
     5
 63
     7
421
 16777215
176
     1
 74
     1
176
     1
 91
        4
176
     1
 64
     7
176
     1
 65
   257
176
     1
 75
     1
176
     1
175
     1
176
     1
 42
1.0
176
     1
 92
        8
176
     1
 66
     7
176
     1
 43
1.0
176
     1
 76
     1
176
     1
 77
     6
176
     1
 78
     2
176
     1
 67
     7
176
     1
 79
     5
176
     1
170
     0
176
     1
171
     0
176
     1
290
     0
176
     1
 93
        1
176
     1
 44
50.0
176
     1
173
     0
176
     1
  0
VISUALSTYLE
  5
3A
102
{ACAD_REACTORS
330
2A
102
}
330
2A
100
AcDbVisualStyle
  2
ColorChange
 70
    16
177
     2
291
     1
 71
     2
176
     1
 72
     2
176
     1
 73
     3
176
     1
 90
        0
176
     1
 40
-0.6
176
     1
 41
-30.0
176
     1
 62
     5
 63
     8
421
  8421504
176
     1
 74
     1
176
     1
 91
        4
176
     1
 64
     7
176
     1
 65
   257
176
     1
 75
     1
176
     1
175
     1
176
     1
 42
1.0
176
     1
 92
        8
176
     1
 66
     8
424
  8421504
176
     1
 43
1.0
176
     1
 76
     1
176
     1
 77
     6
176
     1
 78
     2
176
     1
 67
     7
176
     1
 79
     5
176
     1
170
     0
176
     1
171
     0
176
     1
290
     0
176
     1
 93
        1
176
     1
 44
0.0
176
     1
173
     0
176
     1
  0
VISUALSTYLE
  5
34
102
{ACAD_REACTORS
330
2A
102
}
330
2A
100
AcDbVisualStyle
  2
Conceptual
 70
     9
177
     2
291
     0
 71
     3
176
     1
 72
     2
176
     1
 73
     0
176
     1
 90
        0
176
     1
 40
-0.6
176
     1
 41
-30.0
176
     1
 62
     5
 63
     7
421
 16777215
176
     1
 74
     2
176
     1
 91
        2
176
     1
 64
     7
176
     1
 65
   257
176
     1
 75
     1
176
     1
175
     1
176
     1
 42
40.0
176
     1
 92
        8
176
     1
 66
     7
176
     1
 43
1.0
176
     1
 76
     1
176
     1
 77
     6
176
     1
 78
     2
176
     1
 67
     7
176
     1
 79
     3
176
     1
170
     0
176
     1
171
     0
176
     1
290
     0
176
     1
 93
        1
176
     1
 44
0.0
176
     1
173
     0
176
     1
  0
VISUALSTYLE
  5
35
102
{ACAD_REACTORS
330
2A
102
}
330
2A
100
AcDbVisualStyle
  2
Dim
 70
    11
177
     2
291
     1
 71
     2
176
     1
 72
     2
176
     1
 73
     0
176
     1
 90
        0
176
     1
 40
-0.6
176
     1
 41
-30.0
176
     1
 62
     5
 63
     7
421
 16777215
176
     1
 74
     1
176
     1
 91
        4
176
     1
 64
     7
176
     1
 65
   257
176
     1
 75
     1
176
     1
175
     1
176
     1
 42
1.0
176
     1
 92
        8
176
     1
 66
     7
176
     1
 43
1.0
176
     1
 76
     1
176
     1
 77
     6
176
     1
 78
     2
176
     1
 67
     7
176
     1
 79
     5
176
     1
170
     0
176
     1
171
     0
176
     1
290
     0
176
     1
 93
        1
176
     1
 44
-50.0
176
     1
173
     0
176
     1
  0
VISUALSTYLE
  5
39
102
{ACAD_REACTORS
330
2A
102
}
330
2A
100
AcDbVisualStyle
  2
Facepattern
 70
    15
177
     2
291
     1
 71
     2
176
     1
 72
     2
176
     1
 73
     0
176
     1
 90
        0
176
     1
 40
-0.6
176
     1
 41
-30.0
176
     1
 62
     5
 63
     7
421
 16777215
176
     1
 74
     1
176
     1
 91
        4
176
     1
 64
     7
176
     1
 65
   257
176
     1
 75
     1
176
     1
175
     1
176
     1
 42
1.0
176
     1
 92
        8
176
     1
 66
     7
176
     1
 43
1.0
176
     1
 76
     1
176
     1
 77
     6
176
     1
 78
     2
176
     1
 67
     7
176
     1
 79
     5
176
     1
170
     0
176
     1
171
     0
176
     1
290
     0
176
     1
 93
        1
176
     1
 44
0.0
176
     1
173
     0
176
     1
  0
VISUALSTYLE
  5
2B
102
{ACAD_REACTORS
330
2A
102
}
330
2A
100
AcDbVisualStyle
  2
Flat
 70
     0
177
     2
291
     1
 71
     2
176
     1
 72
     1
176
     1
 73
     1
176
     1
 90
        2
176
     1
 40
-0.6
176
     1
 41
30.0
176
     1
 62
     5
 63
     7
421
 16777215
176
     1
 74
     0
176
     1
 91
        4
176
     1
 64
     7
176
     1
 65
   257
176
     1
 75
     1
176
     1
175
     1
176
     1
 42
1.0
176
     1
 92
        8
176
     1
 66
     7
176
     1
 43
1.0
176
     1
 76
     1
176
     1
 77
     6
176
     1
 78
     2
176
     1
 67
     7
176
     1
 79
     5
176
     1
170
     0
176
     1
171
     0
176
     1
290
     0
176
     1
 93
       13
176
     1
 44
0.0
176
     1
173
     0
176
     1
  0
VISUALSTYLE
  5
2C
102
{ACAD_REACTORS
330
2A
102
}
330
2A
100
AcDbVisualStyle
  2
FlatWithEdges
 70
     1
177
     2
291
     1
 71
     2
176
     1
 72
     1
176
     1
 73
     1
176
     1
 90
        2
176
     1
 40
-0.6
176
     1
 41
30.0
176
     1
 62
     5
 63
     7
421
 16777215
176
     1
 74
     1
176
     1
 91
        4
176
     1
 64
     7
176
     1
 65
   257
176
     1
 75
     1
176
     1
175
     1
176
     1
 42
1.0
176
     1
 92
        0
176
     1
 66
   257
176
     1
 43
1.0
176
     1
 76
     1
176
     1
 77
     6
176
     1
 78
     2
176
     1
 67
     7
176
     1
 79
     5
176
     1
170
     0
176
     1
171
     0
176
     1
290
     0
176
     1
 93
       13
176
     1
 44
0.0
176
     1
173
     0
176
     1
  0
VISUALSTYLE
  5
2D
102
{ACAD_REACTORS
330
2A
102
}
330
2A
100
AcDbVisualStyle
  2
Gouraud
 70
     2
177
     2
291
     1
 71
     2
176
     1
 72
     2
176
     1
 73
     1
176
     1
 90
        2
176
     1
 40
-0.6
176
     1
 41
30.0
176
     1
 62
     5
 63
     7
421
 16777215
176
     1
 74
     0
176
     1
 91
        4
176
     1
 64
     7
176
     1
 65
   257
176
     1
 75
     1
176
     1
175
     1
176
     1
 42
1.0
176
     1
 92
        0
176
     1
 66
     7
176
     1
 43
1.0
176
     1
 76
     1
176
     1
 77
     6
176
     1
 78
     2
176
     1
 67
     7
176
     1
 79
     5
176
     1
170
     0
176
     1
171
     0
176
     1
290
     0
176
     1
 93
       13
176
     1
 44
0.0
176
     1
173
     0
176
     1
  0
VISUALSTYLE
  5
2E
102
{ACAD_REACTORS
330
2A
102
}
330
2A
100
AcDbVisualStyle
  2
GouraudWithEdges
 70
     3
177
     2
291
     1
 71
     2
176
     1
 72
     2
176
     1
 73
     1
176
     1
 90
        2
176
     1
 40
-0.6
176
     1
 41
30.0
176
     1
 62
     5
 63
     7
421
 16777215
176
     1
 74
     1
176
     1
 91
        4
176
     1
 64
     7
176
     1
 65
   257
176
     1
 75
     1
176
     1
175
     1
176
     1
 42
1.0
176
     1
 92
        0
176
     1
 66
   257
176
     1
 43
1.0
176
     1
 76
     1
176
     1
 77
     6
176
     1
 78
     2
176
     1
 67
     7
176
     1
 79
     5
176
     1
170
     0
176
     1
171
     0
176
     1
290
     0
176
     1
 93
       13
176
     1
 44
0.0
176
     1
173
     0
176
     1
  0
VISUALSTYLE
  5
38
102
{ACAD_REACTORS
330
2A
102
}
330
2A
100
AcDbVisualStyle
  2
Linepattern
 70
    14
177
     2
291
     1
 71
     2
176
     1
 72
     2
176
     1
 73
     0
176
     1
 90
        0
176
     1
 40
-0.6
176
     1
 41
-30.0
176
     1
 62
     5
 63
     7
421
 16777215
176
     1
 74
     1
176
     1
 91
        4
176
     1
 64
     7
176
     1
 65
   257
176
     1
 75
     7
176
     1
175
     7
176
     1
 42
1.0
176
     1
 92
        8
176
     1
 66
     7
176
     1
 43
1.0
176
     1
 76
     1
176
     1
 77
     6
176
     1
 78
     2
176
     1
 67
     7
176
     1
 79
     5
176
     1
170
     0
176
     1
171
     0
176
     1
290
     0
176
     1
 93
        1
176
     1
 44
0.0
176
     1
173
     0
176
     1
  0
VISUALSTYLE
  5
33
102
{ACAD_REACTORS
330
2A
102
}
330
2A
100
AcDbVisualStyle
  2
Realistic
 70
     8
177
     2
291
     0
 71
     2
176
     1
 72
     2
176
     1
 73
     0
176
     1
 90
        0
176
     1
 40
-0.6
176
     1
 41
-30.0
176
     1
 62
     5
 63
     7
421
 16777215
176
     1
 74
     1
176
     1
 91
        0
176
     1
 64
     7
176
     1
 65
   257
176
     1
 75
     1
176
     1
175
     1
176
     1
 42
1.0
176
     1
 92
        8
176
     1
 66
     8
424
  7895160
176
     1
 43
1.0
176
     1
 76
     1
176
     1
 77
     6
176
     1
 78
     2
176
     1
 67
     7
176
     1
 79
     5
176
     1
170
     0
176
     1
171
     0
176
     1
290
     0
176
     1
 93
       13
176
     1
 44
0.0
176
     1
173
     0
176
     1
  0
VISUALSTYLE
  5
37
102
{ACAD_REACTORS
330
2A
102
}
330
2A
100
AcDbVisualStyle
  2
Thicken
 70
    13
177
     2
291
     1
 71
     2
176
     1
 72
     2
176
     1
 73
     0
176
     1
 90
        0
176
     1
 40
-0.6
176
     1
 41
-30.0
176
     1
 62
     5
 63
     7
421
 16777215
176
     1
 74
     1
176
     1
 91
        4
176
     1
 64
     7
176
     1
 65
   257
176
     1
 75
     1
176
     1
175
     1
176
     1
 42
1.0
176
     1
 92
       12
176
     1
 66
     7
176
     1
 43
1.0
176
     1
 76
     1
176
     1
 77
     6
176
     1
 78
     2
176
     1
 67
     7
176
     1
 79
     5
176
     1
170
     0
176
     1
171
     0
176
     1
290
     0
176
     1
 93
        1
176
     1
 44
0.0
176
     1
173
     0
176
     1
  0
ENDSEC
  0
EOF
