  0
SECTION
  2
HEADER
  9
$ACADVER
  1
AC1024
  9
$ACADMAINTVER
 70
     6
  9
$DWGCODEPAGE
  3
UNDEFINED
  9
$INSBASE
 10
0.0
 20
0.0
 30
0.0
  9
$EXTMIN
 10
1.000000000000000E+20
 20
1.000000000000000E+20
 30
1.000000000000000E+20
  9
$EXTMAX
 10
-1.000000000000000E+20
 20
-1.000000000000000E+20
 30
-1.000000000000000E+20
  9
$LIMMIN
 10
0.0
 20
0.0
  9
$LIMMAX
 10
12.0
 20
9.0
  9
$ORTHOMODE
 70
     0
  9
$REGENMODE
 70
     1
  9
$FILLMODE
 70
     1
  9
$QTEXTMODE
 70
     0
  9
$MIRRTEXT
 70
     1
  9
$LTSCALE
 40
1.0
  9
$ATTMODE
 70
     1
  9
$TEXTSIZE
 40
0.2
  9
$TRACEWID
 40
0.05
  9
$TEXTSTYLE
  7
Standard
  9
$CLAYER
  8
0
  9
$CELTYPE
  6
ByLayer
  9
$CECOLOR
 62
   256
  9
$CELTSCALE
 40
1.0
  9
$DISPSILH
 70
     0
  9
$DIMSCALE
 40
1.0
  9
$DIMASZ
 40
0.18
  9
$DIMEXO
 40
0.0625
  9
$DIMDLI
 40
0.38
  9
$DIMRND
 40
0.0
  9
$DIMDLE
 40
0.0
  9
$DIMEXE
 40
0.18
  9
$DIMTP
 40
0.0
  9
$DIMTM
 40
0.0
  9
$DIMTXT
 40
0.18
  9
$DIMCEN
 40
0.09
  9
$DIMTSZ
 40
0.0
  9
$DIMTOL
 70
     0
  9
$DIMLIM
 70
     0
  9
$DIMTIH
 70
     1
  9
$DIMTOH
 70
     1
  9
$DIMSE1
 70
     0
  9
$DIMSE2
 70
     0
  9
$DIMTAD
 70
     0
  9
$DIMZIN
 70
     0
  9
$DIMBLK
  1

  9
$DIMASO
 70
     1
  9
$DIMSHO
 70
     1
  9
$DIMPOST
  1

  9
$DIMAPOST
  1

  9
$DIMALT
 70
     0
  9
$DIMALTD
 70
     2
  9
$DIMALTF
 40
25.4
  9
$DIMLFAC
 40
1.0
  9
$DIMTOFL
 70
     0
  9
$DIMTVP
 40
0.0
  9
$DIMTIX
 70
     0
  9
$DIMSOXD
 70
     0
  9
$DIMSAH
 70
     0
  9
$DIMBLK1
  1

  9
$DIMBLK2
  1

  9
$DIMSTYLE
  2
Standard
  9
$DIMCLRD
 70
     0
  9
$DIMCLRE
 70
     0
  9
$DIMCLRT
 70
     0
  9
$DIMTFAC
 40
1.0
  9
$DIMGAP
 40
0.09
  9
$DIMJUST
 70
     0
  9
$DIMSD1
 70
     0
  9
$DIMSD2
 70
     0
  9
$DIMTOLJ
 70
     1
  9
$DIMTZIN
 70
     0
  9
$DIMALTZ
 70
     0
  9
$DIMALTTZ
 70
     0
  9
$DIMUPT
 70
     0
  9
$DIMDEC
 70
     4
  9
$DIMTDEC
 70
     4
  9
$DIMALTU
 70
     2
  9
$DIMALTTD
 70
     2
  9
$DIMTXSTY
  7
Standard
  9
$DIMAUNIT
 70
     0
  9
$DIMADEC
 70
     0
  9
$DIMALTRND
 40
0.0
  9
$DIMAZIN
 70
     0
  9
$DIMDSEP
 70
    46
  9
$DIMATFIT
 70
     3
  9
$DIMFRAC
 70
     0
  9
$DIMLDRBLK
  1

  9
$DIMLUNIT
 70
     2
  9
$DIMLWD
 70
    -2
  9
$DIMLWE
 70
    -2
  9
$DIMTMOVE
 70
     0
  9
$DIMFXL
 40
1.0
  9
$DIMFXLON
 70
     0
  9
$DIMJOGANG
 40
0.7853981633974483
  9
$DIMTFILL
 70
     0
  9
$DIMTFILLCLR
 70
     0
  9
$DIMARCSYM
 70
     0
  9
$DIMLTYPE
  6

  9
$DIMLTEX1
  6

  9
$DIMLTEX2
  6

  9
$DIMTXTDIRECTION
 70
     0
  9
$LUNITS
 70
     2
  9
$LUPREC
 70
     4
  9
$SKETCHINC
 40
0.1
  9
$FILLETRAD
 40
0.5
  9
$AUNITS
 70
     0
  9
$AUPREC
 70
     0
  9
$MENU
  1
.
  9
$ELEVATION
 40
0.0
  9
$PELEVATION
 40
0.0
  9
$THICKNESS
 40
0.0
  9
$LIMCHECK
 70
     0
  9
$CHAMFERA
 40
0.5
  9
$CHAMFERB
 40
0.5
  9
$CHAMFERC
 40
1.0
  9
$CHAMFERD
 40
0.0
  9
$SKPOLY
 70
     0
  9
$TDCREATE
 40
2457917.615636574
  9
$TDUCREATE
 40
2457917.240636574
  9
$TDUPDATE
 40
2457917.615648136
  9
$TDUUPDATE
 40
2457917.240648148
  9
$TDINDWG
 40
0.0000000116
  9
$TDUSRTIMER
 40
0.0000000116
  9
$USRTIMER
 70
     1
  9
$ANGBASE
 50
0.0
  9
$ANGDIR
 70
     0
  9
$PDMODE
 70
     0
  9
$PDSIZE
 40
0.0
  9
$PLINEWID
 40
0.0
  9
$SPLFRAME
 70
     0
  9
$SPLINETYPE
 70
     6
  9
$SPLINESEGS
 70
     8
  9
$HANDSEED
  5
F4
  9
$SURFTAB1
 70
     6
  9
$SURFTAB2
 70
     6
  9
$SURFTYPE
 70
     6
  9
$SURFU
 70
     6
  9
$SURFV
 70
     6
  9
$UCSBASE
  2

  9
$UCSNAME
  2

  9
$UCSORG
 10
0.0
 20
0.0
 30
0.0
  9
$UCSXDIR
 10
1.0
 20
0.0
 30
0.0
  9
$UCSYDIR
 10
0.0
 20
1.0
 30
0.0
  9
$UCSORTHOREF
  2

  9
$UCSORTHOVIEW
 70
     0
  9
$UCSORGTOP
 10
0.0
 20
0.0
 30
0.0
  9
$UCSORGBOTTOM
 10
0.0
 20
0.0
 30
0.0
  9
$UCSORGLEFT
 10
0.0
 20
0.0
 30
0.0
  9
$UCSORGRIGHT
 10
0.0
 20
0.0
 30
0.0
  9
$UCSORGFRONT
 10
0.0
 20
0.0
 30
0.0
  9
$UCSORGBACK
 10
0.0
 20
0.0
 30
0.0
  9
$PUCSBASE
  2

  9
$PUCSNAME
  2

  9
$PUCSORG
 10
0.0
 20
0.0
 30
0.0
  9
$PUCSXDIR
 10
1.0
 20
0.0
 30
0.0
  9
$PUCSYDIR
 10
0.0
 20
1.0
 30
0.0
  9
$PUCSORTHOREF
  2

  9
$PUCSORTHOVIEW
 70
     0
  9
$PUCSORGTOP
 10
0.0
 20
0.0
 30
0.0
  9
$PUCSORGBOTTOM
 10
0.0
 20
0.0
 30
0.0
  9
$PUCSORGLEFT
 10
0.0
 20
0.0
 30
0.0
  9
$PUCSORGRIGHT
 10
0.0
 20
0.0
 30
0.0
  9
$PUCSORGFRONT
 10
0.0
 20
0.0
 30
0.0
  9
$PUCSORGBACK
 10
0.0
 20
0.0
 30
0.0
  9
$USERI1
 70
     0
  9
$USERI2
 70
     0
  9
$USERI3
 70
     0
  9
$USERI4
 70
     0
  9
$USERI5
 70
     0
  9
$USERR1
 40
0.0
  9
$USERR2
 40
0.0
  9
$USERR3
 40
0.0
  9
$USERR4
 40
0.0
  9
$USERR5
 40
0.0
  9
$WORLDVIEW
 70
     1
  9
$SHADEDGE
 70
     3
  9
$SHADEDIF
 70
    70
  9
$TILEMODE
 70
     1
  9
$MAXACTVP
 70
    64
  9
$PINSBASE
 10
0.0
 20
0.0
 30
0.0
  9
$PLIMCHECK
 70
     0
  9
$PEXTMIN
 10
1.000000000000000E+20
 20
1.000000000000000E+20
 30
1.000000000000000E+20
  9
$PEXTMAX
 10
-1.000000000000000E+20
 20
-1.000000000000000E+20
 30
-1.000000000000000E+20
  9
$PLIMMIN
 10
0.0
 20
0.0
  9
$PLIMMAX
 10
12.0
 20
9.0
  9
$UNITMODE
 70
     0
  9
$VISRETAIN
 70
     1
  9
$PLINEGEN
 70
     0
  9
$PSLTSCALE
 70
     1
  9
$TREEDEPTH
 70
  3020
  9
$CMLSTYLE
  2
Standard
  9
$CMLJUST
 70
     0
  9
$CMLSCALE
 40
1.0
  9
$PROXYGRAPHICS
 70
     1
  9
$MEASUREMENT
 70
     0
  9
$CELWEIGHT
370
    -1
  9
$ENDCAPS
280
     0
  9
$JOINSTYLE
280
     0
  9
$LWDISPLAY
290
     1
  9
$INSUNITS
 70
     1
  9
$HYPERLINKBASE
  1

  9
$STYLESHEET
  1

  9
$XEDIT
290
     1
  9
$CEPSNTYPE
380
     0
  9
$PSTYLEMODE
290
     1
  9
$FINGERPRINTGUID
  2
{2A215D1C-8EA9-2D89-368B-CA56BF800907}
  9
$VERSIONGUID
  2
{FAEB1C32-E019-11D5-929B-00C0DF256EC4}
  9
$EXTNAMES
290
     1
  9
$PSVPSCALE
 40
0.0
  9
$OLESTARTUP
290
     0
  9
$SORTENTS
280
   127
  9
$INDEXCTL
280
     0
  9
$HIDETEXT
280
     1
  9
$XCLIPFRAME
280
     2
  9
$HALOGAP
280
     0
  9
$OBSCOLOR
 70
   257
  9
$OBSLTYPE
280
     0
  9
$INTERSECTIONDISPLAY
280
     0
  9
$INTERSECTIONCOLOR
 70
   257
  9
$DIMASSOC
280
     2
  9
$PROJECTNAME
  1

  9
$CAMERADISPLAY
290
     0
  9
$LENSLENGTH
 40
50.0
  9
$CAMERAHEIGHT
 40
0.0
  9
$STEPSPERSEC
 40
2.0
  9
$STEPSIZE
 40
6.0
  9
$3DDWFPREC
 40
2.0
  9
$PSOLWIDTH
 40
0.25
  9
$PSOLHEIGHT
 40
4.0
  9
$LOFTANG1
 40
1.570796326794897
  9
$LOFTANG2
 40
1.570796326794897
  9
$LOFTMAG1
 40
0.0
  9
$LOFTMAG2
 40
0.0
  9
$LOFTPARAM
 70
     7
  9
$LOFTNORMALS
280
     1
  9
$LATITUDE
 40
37.795
  9
$LONGITUDE
 40
-122.394
  9
$NORTHDIRECTION
 40
0.0
  9
$TIMEZONE
 70
 -8000
  9
$LIGHTGLYPHDISPLAY
280
     1
  9
$TILEMODELIGHTSYNCH
280
     1
  9
$CMATERIAL
347
3C
  9
$SOLIDHIST
280
     1
  9
$SHOWHIST
280
     1
  9
$DWFFRAME
280
     2
  9
$DGNFRAME
280
     2
  9
$REALWORLDSCALE
290
     1
  9
$INTERFERECOLOR
 62
   256
  9
$CSHADOW
280
     0
  9
$SHADOWPLANELOCATION
 40
0.0
  0
ENDSEC
  0
SECTION
  2
CLASSES
  0
CLASS
  1
ACDBDICTIONARYWDFLT
  2
AcDbDictionaryWithDefault
  3
ObjectDBX Classes
 90
        0
 91
        4
280
     0
281
     0
  0
CLASS
  1
VISUALSTYLE
  2
AcDbVisualStyle
  3
ObjectDBX Classes
 90
     4095
 91
        4
280
     0
281
     0
  0
CLASS
  1
MATERIAL
  2
AcDbMaterial
  3
ObjectDBX Classes
 90
     1153
 91
        4
280
     0
281
     0
  0
CLASS
  1
SUN
  2
AcDbSun
  3
SCENEOE
 90
     1024
 91
        4
280
     0
281
     0
  0
ENDSEC
  0
SECTION
  2
TABLES
  0
TABLE
  2
VPORT
  5
8
330
0
100
AcDbSymbolTable
 70
     1
  0
VPORT
  5
29
330
8
100
AcDbSymbolTableRecord
100
AcDbViewportTableRecord
  2
*Active
 70
     0
 10
0.0
 20
0.0
 11
1.0
 21
1.0
 12
0.0
 22
0.0
 13
0.0
 23
0.0
 14
0.5
 24
0.5
 15
0.5
 25
0.5
 16
0.0
 26
0.0
 36
1.0
 17
91.00082462281999
 27
-128.4993055234307
 37
0.0
 40
256.9986110468615
 41
0.7081814508812795
 42
50.0
 43
0.0
 44
0.0
 50
0.0
 51
0.0
 71
     0
 72
   100
 73
     1
 74
     3
 75
     0
 76
     0
 77
     0
 78
     0
281
     0
 65
     1
110
0.0
120
0.0
130
0.0
111
1.0
121
0.0
131
0.0
112
0.0
122
1.0
132
0.0
 79
     0
146
0.0
 60
     3
 61
     5
292
     1
282
     1
141
0.0
142
0.0
 63
   250
361
3F
  0
ENDTAB
  0
TABLE
  2
LTYPE
  5
5
330
0
100
AcDbSymbolTable
 70
     1
  0
LTYPE
  5
14
330
5
100
AcDbSymbolTableRecord
100
AcDbLinetypeTableRecord
  2
ByBlock
 70
     0
  3

 72
    65
 73
     0
 40
0.0
  0
LTYPE
  5
15
330
5
100
AcDbSymbolTableRecord
100
AcDbLinetypeTableRecord
  2
ByLayer
 70
     0
  3

 72
    65
 73
     0
 40
0.0
  0
LTYPE
  5
16
330
5
100
AcDbSymbolTableRecord
100
AcDbLinetypeTableRecord
  2
Continuous
 70
     0
  3
Solid line
 72
    65
 73
     0
 40
0.0
  0
ENDTAB
  0
TABLE
  2
LAYER
  5
2
330
0
100
AcDbSymbolTable
 70
     2
  0
LAYER
  5
10
330
2
100
AcDbSymbolTableRecord
100
AcDbLayerTableRecord
  2
0
 70
     0
 62
     7
  6
Continuous
370
    -3
390
F
347
3E
  0
LAYER
  5
40
330
2
100
AcDbSymbolTableRecord
100
AcDbLayerTableRecord
  2
_U+30EC_U+30A4_U+30E4_U+30FC 1
 70
     0
 62
     7
  6
Continuous
370
    -3
390
F
347
3E
  0
ENDTAB
  0
TABLE
  2
STYLE
  5
3
330
0
100
AcDbSymbolTable
 70
     1
  0
STYLE
  5
11
330
3
100
AcDbSymbolTableRecord
100
AcDbTextStyleTableRecord
  2
Standard
 70
     0
 40
0.0
 41
1.0
 50
0.0
 71
     0
 42
0.2
  3
txt
  4

  0
ENDTAB
  0
TABLE
  2
VIEW
  5
6
330
0
100
AcDbSymbolTable
 70
     0
  0
ENDTAB
  0
TABLE
  2
UCS
  5
7
330
0
100
AcDbSymbolTable
 70
     0
  0
ENDTAB
  0
TABLE
  2
APPID
  5
9
330
0
100
AcDbSymbolTable
 70
     1
  0
APPID
  5
12
330
9
100
AcDbSymbolTableRecord
100
AcDbRegAppTableRecord
  2
ACAD
 70
     0
  0
ENDTAB
  0
TABLE
  2
DIMSTYLE
  5
A
330
0
100
AcDbSymbolTable
 70
     1
100
AcDbDimStyleTable
  0
DIMSTYLE
105
27
330
A
100
AcDbSymbolTableRecord
100
AcDbDimStyleTableRecord
  2
Standard
 70
     0
178
     0
340
11
  0
ENDTAB
  0
TABLE
  2
BLOCK_RECORD
  5
1
330
0
100
AcDbSymbolTable
 70
    10
  0
BLOCK_RECORD
  5
1F
330
1
100
AcDbSymbolTableRecord
100
AcDbBlockTableRecord
  2
*Model_Space
340
22
 70
     0
280
     1
281
     0
  0
BLOCK_RECORD
  5
1B
330
1
100
AcDbSymbolTableRecord
100
AcDbBlockTableRecord
  2
*Paper_Space
340
1E
 70
     0
280
     1
281
     0
  0
BLOCK_RECORD
  5
23
330
1
100
AcDbSymbolTableRecord
100
AcDbBlockTableRecord
  2
*Paper_Space0
340
26
 70
     0
280
     1
281
     0
  0
BLOCK_RECORD
  5
41
330
1
100
AcDbSymbolTableRecord
100
AcDbBlockTableRecord
  2
block 2
340
0
102
{BLKREFS
331
42
102
}
 70
     0
280
     1
281
     0
  0
BLOCK_RECORD
  5
83
330
1
100
AcDbSymbolTableRecord
100
AcDbBlockTableRecord
  2
block 3
340
0
102
{BLKREFS
331
84
102
}
 70
     0
280
     1
281
     0
  0
BLOCK_RECORD
  5
93
330
1
100
AcDbSymbolTableRecord
100
AcDbBlockTableRecord
  2
block 4
340
0
102
{BLKREFS
331
94
102
}
 70
     0
280
     1
281
     0
  0
BLOCK_RECORD
  5
A7
330
1
100
AcDbSymbolTableRecord
100
AcDbBlockTableRecord
  2
block 5
340
0
102
{BLKREFS
331
A8
102
}
 70
     0
280
     1
281
     0
  0
BLOCK_RECORD
  5
AD
330
1
100
AcDbSymbolTableRecord
100
AcDbBlockTableRecord
  2
block 6
340
0
102
{BLKREFS
331
AE
102
}
 70
     0
280
     1
281
     0
  0
BLOCK_RECORD
  5
C1
330
1
100
AcDbSymbolTableRecord
100
AcDbBlockTableRecord
  2
block 7
340
0
102
{BLKREFS
331
C2
102
}
 70
     0
280
     1
281
     0
  0
BLOCK_RECORD
  5
CF
330
1
100
AcDbSymbolTableRecord
100
AcDbBlockTableRecord
  2
block 8
340
0
102
{BLKREFS
331
D0
102
}
 70
     0
280
     1
281
     0
  0
BLOCK_RECORD
  5
E0
330
1
100
AcDbSymbolTableRecord
100
AcDbBlockTableRecord
  2
block 9
340
0
102
{BLKREFS
331
E1
102
}
 70
     0
280
     1
281
     0
  0
BLOCK_RECORD
  5
EC
330
1
100
AcDbSymbolTableRecord
100
AcDbBlockTableRecord
  2
block 10
340
0
102
{BLKREFS
331
ED
102
}
 70
     0
280
     1
281
     0
  0
ENDTAB
  0
ENDSEC
  0
SECTION
  2
BLOCKS
  0
BLOCK
  5
20
330
1F
100
AcDbEntity
  8
0
100
AcDbBlockBegin
  2
*Model_Space
 70
     0
 10
0.0
 20
0.0
 30
0.0
  3
*Model_Space
  1

  0
ENDBLK
  5
21
330
1F
100
AcDbEntity
  8
0
100
AcDbBlockEnd
  0
BLOCK
  5
1C
330
1B
100
AcDbEntity
 67
     1
  8
0
100
AcDbBlockBegin
  2
*Paper_Space
 70
     0
 10
0.0
 20
0.0
 30
0.0
  3
*Paper_Space
  1

  0
ENDBLK
  5
1D
330
1B
100
AcDbEntity
 67
     1
  8
0
100
AcDbBlockEnd
  0
BLOCK
  5
24
330
23
100
AcDbEntity
  8
0
100
AcDbBlockBegin
  2
*Paper_Space0
 70
     0
 10
0.0
 20
0.0
 30
0.0
  3
*Paper_Space0
  1

  0
ENDBLK
  5
25
330
23
100
AcDbEntity
  8
0
100
AcDbBlockEnd
  0
BLOCK
  5
43
330
41
100
AcDbEntity
  8
0
100
AcDbBlockBegin
  2
block 2
 70
     0
 10
0.0
 20
0.0
 30
0.0
  3
block 2
  1

  0
POLYLINE
  5
45
330
41
100
AcDbEntity
  8
_U+30EC_U+30A4_U+30E4_U+30FC 1
370
     0
100
AcDb2dPolyline
 66
     1
 10
0.0
 20
0.0
 30
0.0
  0
VERTEX
  5
46
330
45
100
AcDbEntity
  8
_U+30EC_U+30A4_U+30E4_U+30FC 1
370
     0
100
AcDbVertex
100
AcDb2dVertex
 10
73.34987118424444
 20
-134.861723299618
 30
0.0
  0
VERTEX
  5
47
330
45
100
AcDbEntity
  8
_U+30EC_U+30A4_U+30E4_U+30FC 1
370
     0
100
AcDbVertex
100
AcDb2dVertex
 10
80.35445017220941
 20
-134.861723299618
 30
0.0
  0
VERTEX
  5
48
330
45
100
AcDbEntity
  8
_U+30EC_U+30A4_U+30E4_U+30FC 1
370
     0
100
AcDbVertex
100
AcDb2dVertex
 10
80.29588906259232
 20
-131.9209677447972
 30
0.0
  0
VERTEX
  5
49
330
45
100
AcDbEntity
  8
_U+30EC_U+30A4_U+30E4_U+30FC 1
370
     0
100
AcDbVertex
100
AcDb2dVertex
 10
79.32575019845373
 20
-131.9506010781234
 30
0.0
  0
VERTEX
  5
4A
330
45
100
AcDbEntity
  8
_U+30EC_U+30A4_U+30E4_U+30FC 1
370
     0
100
AcDbVertex
100
AcDb2dVertex
 10
79.29611686587641
 20
-133.8619510776455
 30
0.0
  0
VERTEX
  5
4B
330
45
100
AcDbEntity
  8
_U+30EC_U+30A4_U+30E4_U+30FC 1
370
     0
100
AcDbVertex
100
AcDb2dVertex
 10
74.34964338096034
 20
-133.9205121887423
 30
0.0
  0
VERTEX
  5
4C
330
45
100
AcDbEntity
  8
_U+30EC_U+30A4_U+30E4_U+30FC 1
370
     0
100
AcDbVertex
100
AcDb2dVertex
 10
74.34964338096034
 20
-125.2910738575663
 30
0.0
  0
VERTEX
  5
4D
330
45
100
AcDbEntity
  8
_U+30EC_U+30A4_U+30E4_U+30FC 1
370
     0
100
AcDbVertex
100
AcDb2dVertex
 10
98.35024387976513
 20
-125.2910738575663
 30
0.0
  0
VERTEX
  5
4E
330
45
100
AcDbEntity
  8
_U+30EC_U+30A4_U+30E4_U+30FC 1
370
     0
100
AcDbVertex
100
AcDb2dVertex
 10
98.35024387976513
 20
-124.2913016355937
 30
0.0
  0
VERTEX
  5
4F
330
45
100
AcDbEntity
  8
_U+30EC_U+30A4_U+30E4_U+30FC 1
370
     0
100
AcDbVertex
100
AcDb2dVertex
 10
73.34987118424444
 20
-124.2913016355937
 30
0.0
  0
VERTEX
  5
50
330
45
100
AcDbEntity
  8
_U+30EC_U+30A4_U+30E4_U+30FC 1
370
     0
100
AcDbVertex
100
AcDb2dVertex
 10
73.34987118424444
 20
-134.861723299618
 30
0.0
  0
SEQEND
  5
52
330
45
100
AcDbEntity
  8
_U+30EC_U+30A4_U+30E4_U+30FC 1
370
     0
  0
HATCH
  5
51
330
41
100
AcDbEntity
  8
_U+30EC_U+30A4_U+30E4_U+30FC 1
 62
   253
420
 11711154
100
AcDbHatch
 10
0.0
 20
0.0
 30
0.0
210
0.0
220
0.0
230
1.0
  2
SOLID
 70
     1
 71
     0
 91
        1
 92
        1
 93
       10
 72
     1
 10
73.34987118424444
 20
-134.861723299618
 11
80.35445017220941
 21
-134.861723299618
 72
     1
 10
80.35445017220941
 20
-134.861723299618
 11
80.29588906259232
 21
-131.9209677447972
 72
     1
 10
80.29588906259232
 20
-131.9209677447972
 11
79.32575019845373
 21
-131.9506010781234
 72
     1
 10
79.32575019845373
 20
-131.9506010781234
 11
79.29611686587641
 21
-133.8619510776455
 72
     1
 10
79.29611686587641
 20
-133.8619510776455
 11
74.34964338096034
 21
-133.9205121887423
 72
     1
 10
74.34964338096034
 20
-133.9205121887423
 11
74.34964338096034
 21
-125.2910738575663
 72
     1
 10
74.34964338096034
 20
-125.2910738575663
 11
98.35024387976513
 21
-125.2910738575663
 72
     1
 10
98.35024387976513
 20
-125.2910738575663
 11
98.35024387976513
 21
-124.2913016355937
 72
     1
 10
98.35024387976513
 20
-124.2913016355937
 11
73.34987118424444
 21
-124.2913016355937
 72
     1
 10
73.34987118424444
 20
-124.2913016355937
 11
73.34987118424444
 21
-134.861723299618
 97
        0
 75
     2
 76
     1
 98
        0
  0
POLYLINE
  5
53
330
41
100
AcDbEntity
  8
_U+30EC_U+30A4_U+30E4_U+30FC 1
 62
     7
420
 16777215
370
    25
100
AcDb2dPolyline
 66
     1
 10
0.0
 20
0.0
 30
0.0
  0
VERTEX
  5
54
330
53
100
AcDbEntity
  8
_U+30EC_U+30A4_U+30E4_U+30FC 1
 62
     7
420
 16777215
370
    25
100
AcDbVertex
100
AcDb2dVertex
 10
73.34987118424444
 20
-134.7914146885244
 30
0.0
  0
VERTEX
  5
55
330
53
100
AcDbEntity
  8
_U+30EC_U+30A4_U+30E4_U+30FC 1
 62
     7
420
 16777215
370
    25
100
AcDbVertex
100
AcDb2dVertex
 10
73.34987118424444
 20
-124.2913016355937
 30
0.0
  0
SEQEND
  5
56
330
53
100
AcDbEntity
  8
_U+30EC_U+30A4_U+30E4_U+30FC 1
 62
     7
420
 16777215
370
    25
  0
POLYLINE
  5
57
330
41
100
AcDbEntity
  8
_U+30EC_U+30A4_U+30E4_U+30FC 1
 62
     7
420
 16777215
370
    25
100
AcDb2dPolyline
 66
     1
 10
0.0
 20
0.0
 30
0.0
  0
VERTEX
  5
58
330
57
100
AcDbEntity
  8
_U+30EC_U+30A4_U+30E4_U+30FC 1
 62
     7
420
 16777215
370
    25
100
AcDbVertex
100
AcDb2dVertex
 10
98.34953832422758
 20
-125.2910738575663
 30
0.0
  0
VERTEX
  5
59
330
57
100
AcDbEntity
  8
_U+30EC_U+30A4_U+30E4_U+30FC 1
 62
     7
420
 16777215
370
    25
100
AcDbVertex
100
AcDb2dVertex
 10
98.34953832422758
 20
-124.2913016355937
 30
0.0
  0
SEQEND
  5
5A
330
57
100
AcDbEntity
  8
_U+30EC_U+30A4_U+30E4_U+30FC 1
 62
     7
420
 16777215
370
    25
  0
POLYLINE
  5
5B
330
41
100
AcDbEntity
  8
_U+30EC_U+30A4_U+30E4_U+30FC 1
 62
     7
420
 16777215
370
    25
100
AcDb2dPolyline
 66
     1
 10
0.0
 20
0.0
 30
0.0
  0
VERTEX
  5
5C
330
5B
100
AcDbEntity
  8
_U+30EC_U+30A4_U+30E4_U+30FC 1
 62
     7
420
 16777215
370
    25
100
AcDbVertex
100
AcDb2dVertex
 10
74.34964338096034
 20
-125.2910738575663
 30
0.0
  0
VERTEX
  5
5D
330
5B
100
AcDbEntity
  8
_U+30EC_U+30A4_U+30E4_U+30FC 1
 62
     7
420
 16777215
370
    25
100
AcDbVertex
100
AcDb2dVertex
 10
98.34953832422758
 20
-125.2910738575663
 30
0.0
  0
SEQEND
  5
5E
330
5B
100
AcDbEntity
  8
_U+30EC_U+30A4_U+30E4_U+30FC 1
 62
     7
420
 16777215
370
    25
  0
POLYLINE
  5
5F
330
41
100
AcDbEntity
  8
_U+30EC_U+30A4_U+30E4_U+30FC 1
 62
     7
420
 16777215
370
    25
100
AcDb2dPolyline
 66
     1
 10
0.0
 20
0.0
 30
0.0
  0
VERTEX
  5
60
330
5F
100
AcDbEntity
  8
_U+30EC_U+30A4_U+30E4_U+30FC 1
 62
     7
420
 16777215
370
    25
100
AcDbVertex
100
AcDb2dVertex
 10
73.34987118424444
 20
-134.8934027440544
 30
0.0
  0
VERTEX
  5
61
330
5F
100
AcDbEntity
  8
_U+30EC_U+30A4_U+30E4_U+30FC 1
 62
     7
420
 16777215
370
    25
100
AcDbVertex
100
AcDb2dVertex
 10
80.34961711677715
 20
-134.8934027440544
 30
0.0
  0
SEQEND
  5
62
330
5F
100
AcDbEntity
  8
_U+30EC_U+30A4_U+30E4_U+30FC 1
 62
     7
420
 16777215
370
    25
  0
POLYLINE
  5
63
330
41
100
AcDbEntity
  8
_U+30EC_U+30A4_U+30E4_U+30FC 1
 62
     7
420
 16777215
370
    25
100
AcDb2dPolyline
 66
     1
 10
0.0
 20
0.0
 30
0.0
  0
VERTEX
  5
64
330
63
100
AcDbEntity
  8
_U+30EC_U+30A4_U+30E4_U+30FC 1
 62
     7
420
 16777215
370
    25
100
AcDbVertex
100
AcDb2dVertex
 10
73.34987118424444
 20
-124.2913016355937
 30
0.0
  0
VERTEX
  5
65
330
63
100
AcDbEntity
  8
_U+30EC_U+30A4_U+30E4_U+30FC 1
 62
     7
420
 16777215
370
    25
100
AcDbVertex
100
AcDb2dVertex
 10
98.34953832422758
 20
-124.2913016355937
 30
0.0
  0
SEQEND
  5
66
330
63
100
AcDbEntity
  8
_U+30EC_U+30A4_U+30E4_U+30FC 1
 62
     7
420
 16777215
370
    25
  0
POLYLINE
  5
67
330
41
100
AcDbEntity
  8
_U+30EC_U+30A4_U+30E4_U+30FC 1
 62
     7
420
 16777215
370
    25
100
AcDb2dPolyline
 66
     1
 10
0.0
 20
0.0
 30
0.0
  0
VERTEX
  5
68
330
67
100
AcDbEntity
  8
_U+30EC_U+30A4_U+30E4_U+30FC 1
 62
     7
420
 16777215
370
    25
100
AcDbVertex
100
AcDb2dVertex
 10
74.34964338096034
 20
-133.79167774433
 30
0.0
  0
VERTEX
  5
69
330
67
100
AcDbEntity
  8
_U+30EC_U+30A4_U+30E4_U+30FC 1
 62
     7
420
 16777215
370
    25
100
AcDbVertex
100
AcDb2dVertex
 10
74.34964338096034
 20
-125.2910738575663
 30
0.0
  0
SEQEND
  5
6A
330
67
100
AcDbEntity
  8
_U+30EC_U+30A4_U+30E4_U+30FC 1
 62
     7
420
 16777215
370
    25
  0
POLYLINE
  5
6B
330
41
100
AcDbEntity
  8
_U+30EC_U+30A4_U+30E4_U+30FC 1
 62
     7
420
 16777215
370
    25
100
AcDb2dPolyline
 66
     1
 10
0.0
 20
0.0
 30
0.0
  0
VERTEX
  5
6C
330
6B
100
AcDbEntity
  8
_U+30EC_U+30A4_U+30E4_U+30FC 1
 62
     7
420
 16777215
370
    25
100
AcDbVertex
100
AcDb2dVertex
 10
79.34984492006124
 20
-131.8934158003601
 30
0.0
  0
VERTEX
  5
6D
330
6B
100
AcDbEntity
  8
_U+30EC_U+30A4_U+30E4_U+30FC 1
 62
     7
420
 16777215
370
    25
100
AcDbVertex
100
AcDb2dVertex
 10
80.34961711677715
 20
-131.8934158003601
 30
0.0
  0
SEQEND
  5
6E
330
6B
100
AcDbEntity
  8
_U+30EC_U+30A4_U+30E4_U+30FC 1
 62
     7
420
 16777215
370
    25
  0
POLYLINE
  5
6F
330
41
100
AcDbEntity
  8
_U+30EC_U+30A4_U+30E4_U+30FC 1
 62
     7
420
 16777215
370
    25
100
AcDb2dPolyline
 66
     1
 10
0.0
 20
0.0
 30
0.0
  0
VERTEX
  5
70
330
6F
100
AcDbEntity
  8
_U+30EC_U+30A4_U+30E4_U+30FC 1
 62
     7
420
 16777215
370
    25
100
AcDbVertex
100
AcDb2dVertex
 10
80.34961711677715
 20
-134.8934027440544
 30
0.0
  0
VERTEX
  5
71
330
6F
100
AcDbEntity
  8
_U+30EC_U+30A4_U+30E4_U+30FC 1
 62
     7
420
 16777215
370
    25
100
AcDbVertex
100
AcDb2dVertex
 10
80.34961711677715
 20
-131.8934158003601
 30
0.0
  0
SEQEND
  5
72
330
6F
100
AcDbEntity
  8
_U+30EC_U+30A4_U+30E4_U+30FC 1
 62
     7
420
 16777215
370
    25
  0
POLYLINE
  5
73
330
41
100
AcDbEntity
  8
_U+30EC_U+30A4_U+30E4_U+30FC 1
 62
     7
420
 16777215
370
    25
100
AcDb2dPolyline
 66
     1
 10
0.0
 20
0.0
 30
0.0
  0
VERTEX
  5
74
330
73
100
AcDbEntity
  8
_U+30EC_U+30A4_U+30E4_U+30FC 1
 62
     7
420
 16777215
370
    25
100
AcDbVertex
100
AcDb2dVertex
 10
79.34984492006124
 20
-133.8936305220819
 30
0.0
  0
VERTEX
  5
75
330
73
100
AcDbEntity
  8
_U+30EC_U+30A4_U+30E4_U+30FC 1
 62
     7
420
 16777215
370
    25
100
AcDbVertex
100
AcDb2dVertex
 10
79.34984492006124
 20
-131.8934158003601
 30
0.0
  0
SEQEND
  5
76
330
73
100
AcDbEntity
  8
_U+30EC_U+30A4_U+30E4_U+30FC 1
 62
     7
420
 16777215
370
    25
  0
POLYLINE
  5
77
330
41
100
AcDbEntity
  8
_U+30EC_U+30A4_U+30E4_U+30FC 1
 62
     7
420
 16777215
370
    25
100
AcDb2dPolyline
 66
     1
 10
0.0
 20
0.0
 30
0.0
  0
VERTEX
  5
78
330
77
100
AcDbEntity
  8
_U+30EC_U+30A4_U+30E4_U+30FC 1
 62
     7
420
 16777215
370
    25
100
AcDbVertex
100
AcDb2dVertex
 10
74.34964338096034
 20
-133.8936305220819
 30
0.0
  0
VERTEX
  5
79
330
77
100
AcDbEntity
  8
_U+30EC_U+30A4_U+30E4_U+30FC 1
 62
     7
420
 16777215
370
    25
100
AcDbVertex
100
AcDb2dVertex
 10
79.34984492006124
 20
-133.8936305220819
 30
0.0
  0
SEQEND
  5
7A
330
77
100
AcDbEntity
  8
_U+30EC_U+30A4_U+30E4_U+30FC 1
 62
     7
420
 16777215
370
    25
  0
SPLINE
  5
7B
330
41
100
AcDbEntity
  8
_U+30EC_U+30A4_U+30E4_U+30FC 1
 62
     7
420
 16777215
370
     9
100
AcDbSpline
210
0.0
220
0.0
230
1.0
 70
    11
 71
     3
 72
    17
 73
    13
 74
     0
 42
0.0000000001
 43
0.0000000001
 12
1.0
 22
0.0
 32
0.0
 13
1.0
 23
0.0
 33
0.0
 40
0.0
 40
0.0
 40
0.0
 40
0.0
 40
1.0
 40
1.0
 40
1.0
 40
2.0
 40
2.0
 40
2.0
 40
3.0
 40
3.0
 40
3.0
 40
4.0
 40
4.0
 40
4.0
 40
4.0
 10
73.44977784836227
 20
-139.2921182985105
 30
0.0
 10
73.44977784836227
 20
-139.2369791318574
 30
0.0
 10
73.4049750717275
 20
-139.1921763540907
 30
0.0
 10
73.34987118424444
 20
-139.1921763540907
 30
0.0
 10
73.29473201898449
 20
-139.1921763540907
 30
0.0
 10
73.24996452012661
 20
-139.2369791318574
 30
0.0
 10
73.24996452012661
 20
-139.2921182985105
 30
0.0
 10
73.24996452012661
 20
-139.3472221873854
 30
0.0
 10
73.29473201898449
 20
-139.3920249651521
 30
0.0
 10
73.34987118424444
 20
-139.3920249651521
 30
0.0
 10
73.4049750717275
 20
-139.3920249651521
 30
0.0
 10
73.44977784836227
 20
-139.3472221873854
 30
0.0
 10
73.44977784836227
 20
-139.2921182985105
 30
0.0
  0
SPLINE
  5
7C
330
41
100
AcDbEntity
  8
_U+30EC_U+30A4_U+30E4_U+30FC 1
 62
     7
420
 16777215
370
     9
100
AcDbSpline
210
0.0
220
0.0
230
1.0
 70
    11
 71
     3
 72
    17
 73
    13
 74
     0
 42
0.0000000001
 43
0.0000000001
 12
1.0
 22
0.0
 32
0.0
 13
1.0
 23
0.0
 33
0.0
 40
0.0
 40
0.0
 40
0.0
 40
0.0
 40
1.0
 40
1.0
 40
1.0
 40
2.0
 40
2.0
 40
2.0
 40
3.0
 40
3.0
 40
3.0
 40
4.0
 40
4.0
 40
4.0
 40
4.0
 10
80.34961711677715
 20
-139.2921182985105
 30
0.0
 10
80.34961711677715
 20
-139.2369791318574
 30
0.0
 10
80.30481434014239
 20
-139.1921763540907
 30
0.0
 10
80.24971045265931
 20
-139.1921763540907
 30
0.0
 10
80.1939010096387
 20
-139.1921763540907
 30
0.0
 10
80.14980378854149
 20
-139.2369791318574
 30
0.0
 10
80.14980378854149
 20
-139.2921182985105
 30
0.0
 10
80.14980378854149
 20
-139.3472221873854
 30
0.0
 10
80.1939010096387
 20
-139.3920249651521
 30
0.0
 10
80.24971045265931
 20
-139.3920249651521
 30
0.0
 10
80.30481434014239
 20
-139.3920249651521
 30
0.0
 10
80.34961711677715
 20
-139.3472221873854
 30
0.0
 10
80.34961711677715
 20
-139.2921182985105
 30
0.0
  0
SPLINE
  5
7D
330
41
100
AcDbEntity
  8
_U+30EC_U+30A4_U+30E4_U+30FC 1
 62
     7
420
 16777215
370
     9
100
AcDbSpline
210
0.0
220
0.0
230
1.0
 70
    11
 71
     3
 72
    17
 73
    13
 74
     0
 42
0.0000000001
 43
0.0000000001
 12
1.0
 22
0.0
 32
0.0
 13
1.0
 23
0.0
 33
0.0
 40
0.0
 40
0.0
 40
0.0
 40
0.0
 40
1.0
 40
1.0
 40
1.0
 40
2.0
 40
2.0
 40
2.0
 40
3.0
 40
3.0
 40
3.0
 40
4.0
 40
4.0
 40
4.0
 40
4.0
 10
102.4499096085073
 20
-134.89410829961
 30
0.0
 10
102.4499096085073
 20
-134.8389691329569
 30
0.0
 10
102.4051068318725
 20
-134.7942016329683
 30
0.0
 10
102.3492999744126
 20
-134.7942016329683
 30
0.0
 10
102.2941935013688
 20
-134.7942016329683
 30
0.0
 10
102.2493907247341
 20
-134.8389691329569
 30
0.0
 10
102.2493907247341
 20
-134.89410829961
 30
0.0
 10
102.2493907247341
 20
-134.9492121884849
 30
0.0
 10
102.2941935013688
 20
-134.9940149662516
 30
0.0
 10
102.3492999744126
 20
-134.9940149662516
 30
0.0
 10
102.4051068318725
 20
-134.9940149662516
 30
0.0
 10
102.4499096085073
 20
-134.9492121884849
 30
0.0
 10
102.4499096085073
 20
-134.89410829961
 30
0.0
  0
SPLINE
  5
7E
330
41
100
AcDbEntity
  8
_U+30EC_U+30A4_U+30E4_U+30FC 1
 62
     7
420
 16777215
370
     9
100
AcDbSpline
210
0.0
220
0.0
230
1.0
 70
    11
 71
     3
 72
    17
 73
    13
 74
     0
 42
0.0000000001
 43
0.0000000001
 12
1.0
 22
0.0
 32
0.0
 13
1.0
 23
0.0
 33
0.0
 40
0.0
 40
0.0
 40
0.0
 40
0.0
 40
1.0
 40
1.0
 40
1.0
 40
2.0
 40
2.0
 40
2.0
 40
3.0
 40
3.0
 40
3.0
 40
4.0
 40
4.0
 40
4.0
 40
4.0
 10
102.4499096085073
 20
-131.8934158003601
 30
0.0
 10
102.4499096085073
 20
-131.838276633707
 30
0.0
 10
102.4051068318725
 20
-131.7935091337185
 30
0.0
 10
102.3492999744126
 20
-131.7935091337185
 30
0.0
 10
102.2941935013688
 20
-131.7935091337185
 30
0.0
 10
102.2493907247341
 20
-131.838276633707
 30
0.0
 10
102.2493907247341
 20
-131.8934158003601
 30
0.0
 10
102.2493907247341
 20
-131.948519689235
 30
0.0
 10
102.2941935013688
 20
-131.9933224670017
 30
0.0
 10
102.3492999744126
 20
-131.9933224670017
 30
0.0
 10
102.4051068318725
 20
-131.9933224670017
 30
0.0
 10
102.4499096085073
 20
-131.948519689235
 30
0.0
 10
102.4499096085073
 20
-131.8934158003601
 30
0.0
  0
SPLINE
  5
7F
330
41
100
AcDbEntity
  8
_U+30EC_U+30A4_U+30E4_U+30FC 1
 62
     7
420
 16777215
370
     9
100
AcDbSpline
210
0.0
220
0.0
230
1.0
 70
    11
 71
     3
 72
    17
 73
    13
 74
     0
 42
0.0000000001
 43
0.0000000001
 12
1.0
 22
0.0
 32
0.0
 13
1.0
 23
0.0
 33
0.0
 40
0.0
 40
0.0
 40
0.0
 40
0.0
 40
1.0
 40
1.0
 40
1.0
 40
2.0
 40
2.0
 40
2.0
 40
3.0
 40
3.0
 40
3.0
 40
4.0
 40
4.0
 40
4.0
 40
4.0
 10
102.4499096085073
 20
-125.2910738575663
 30
0.0
 10
102.4499096085073
 20
-125.2359346909132
 30
0.0
 10
102.4051068318725
 20
-125.1911671909243
 30
0.0
 10
102.3492999744126
 20
-125.1911671909243
 30
0.0
 10
102.2941935013688
 20
-125.1911671909243
 30
0.0
 10
102.2493907247341
 20
-125.2359346909132
 30
0.0
 10
102.2493907247341
 20
-125.2910738575663
 30
0.0
 10
102.2493907247341
 20
-125.3461777464412
 30
0.0
 10
102.2941935013688
 20
-125.3909805242079
 30
0.0
 10
102.3492999744126
 20
-125.3909805242079
 30
0.0
 10
102.4051068318725
 20
-125.3909805242079
 30
0.0
 10
102.4499096085073
 20
-125.3461777464412
 30
0.0
 10
102.4499096085073
 20
-125.2910738575663
 30
0.0
  0
SPLINE
  5
80
330
41
100
AcDbEntity
  8
_U+30EC_U+30A4_U+30E4_U+30FC 1
 62
     7
420
 16777215
370
     9
100
AcDbSpline
210
0.0
220
0.0
230
1.0
 70
    11
 71
     3
 72
    17
 73
    13
 74
     0
 42
0.0000000001
 43
0.0000000001
 12
1.0
 22
0.0
 32
0.0
 13
1.0
 23
0.0
 33
0.0
 40
0.0
 40
0.0
 40
0.0
 40
0.0
 40
1.0
 40
1.0
 40
1.0
 40
2.0
 40
2.0
 40
2.0
 40
3.0
 40
3.0
 40
3.0
 40
4.0
 40
4.0
 40
4.0
 40
4.0
 10
102.4499096085073
 20
-124.2913016355937
 30
0.0
 10
102.4499096085073
 20
-124.2354921911633
 30
0.0
 10
102.4051068318725
 20
-124.1906894133969
 30
0.0
 10
102.3492999744126
 20
-124.1906894133969
 30
0.0
 10
102.2941935013688
 20
-124.1906894133969
 30
0.0
 10
102.2493907247341
 20
-124.2354921911633
 30
0.0
 10
102.2493907247341
 20
-124.2913016355937
 30
0.0
 10
102.2493907247341
 20
-124.346405524469
 30
0.0
 10
102.2941935013688
 20
-124.3912083022354
 30
0.0
 10
102.3492999744126
 20
-124.3912083022354
 30
0.0
 10
102.4051068318725
 20
-124.3912083022354
 30
0.0
 10
102.4499096085073
 20
-124.346405524469
 30
0.0
 10
102.4499096085073
 20
-124.2913016355937
 30
0.0
  0
SPLINE
  5
81
330
41
100
AcDbEntity
  8
_U+30EC_U+30A4_U+30E4_U+30FC 1
 62
     7
420
 16777215
370
     9
100
AcDbSpline
210
0.0
220
0.0
230
1.0
 70
    11
 71
     3
 72
    17
 73
    13
 74
     0
 42
0.0000000001
 43
0.0000000001
 12
1.0
 22
0.0
 32
0.0
 13
1.0
 23
0.0
 33
0.0
 40
0.0
 40
0.0
 40
0.0
 40
0.0
 40
1.0
 40
1.0
 40
1.0
 40
2.0
 40
2.0
 40
2.0
 40
3.0
 40
3.0
 40
3.0
 40
4.0
 40
4.0
 40
4.0
 40
4.0
 10
98.4494449883454
 20
-120.2908369143717
 30
0.0
 10
98.4494449883454
 20
-120.2357330254967
 30
0.0
 10
98.40467748948753
 20
-120.19093024773
 30
0.0
 10
98.34953832422758
 20
-120.19093024773
 30
0.0
 10
98.29443443674451
 20
-120.19093024773
 30
0.0
 10
98.24963166010974
 20
-120.2357330254967
 30
0.0
 10
98.24963166010974
 20
-120.2908369143717
 30
0.0
 10
98.24963166010974
 20
-120.3459760810247
 30
0.0
 10
98.29443443674451
 20
-120.3907435810133
 30
0.0
 10
98.34953832422758
 20
-120.3907435810133
 30
0.0
 10
98.40467748948753
 20
-120.3907435810133
 30
0.0
 10
98.4494449883454
 20
-120.3459760810247
 30
0.0
 10
98.4494449883454
 20
-120.2908369143717
 30
0.0
  0
SPLINE
  5
82
330
41
100
AcDbEntity
  8
_U+30EC_U+30A4_U+30E4_U+30FC 1
 62
     7
420
 16777215
370
     9
100
AcDbSpline
210
0.0
220
0.0
230
1.0
 70
    11
 71
     3
 72
    17
 73
    13
 74
     0
 42
0.0000000001
 43
0.0000000001
 12
1.0
 22
0.0
 32
0.0
 13
1.0
 23
0.0
 33
0.0
 40
0.0
 40
0.0
 40
0.0
 40
0.0
 40
1.0
 40
1.0
 40
1.0
 40
2.0
 40
2.0
 40
2.0
 40
3.0
 40
3.0
 40
3.0
 40
4.0
 40
4.0
 40
4.0
 40
4.0
 10
73.44977784836227
 20
-120.2908369143717
 30
0.0
 10
73.44977784836227
 20
-120.2357330254967
 30
0.0
 10
73.4049750717275
 20
-120.19093024773
 30
0.0
 10
73.34987118424444
 20
-120.19093024773
 30
0.0
 10
73.29473201898449
 20
-120.19093024773
 30
0.0
 10
73.24996452012661
 20
-120.2357330254967
 30
0.0
 10
73.24996452012661
 20
-120.2908369143717
 30
0.0
 10
73.24996452012661
 20
-120.3459760810247
 30
0.0
 10
73.29473201898449
 20
-120.3907435810133
 30
0.0
 10
73.34987118424444
 20
-120.3907435810133
 30
0.0
 10
73.4049750717275
 20
-120.3907435810133
 30
0.0
 10
73.44977784836227
 20
-120.3459760810247
 30
0.0
 10
73.44977784836227
 20
-120.2908369143717
 30
0.0
  0
INSERT
  5
84
330
41
100
AcDbEntity
  8
_U+30EC_U+30A4_U+30E4_U+30FC 1
100
AcDbBlockReference
  2
block 3
 10
0.0
 20
0.0
 30
0.0
  0
POLYLINE
  5
9B
330
41
100
AcDbEntity
  8
_U+30EC_U+30A4_U+30E4_U+30FC 1
 62
     7
420
 16777215
370
     9
100
AcDb2dPolyline
 66
     1
 10
0.0
 20
0.0
 30
0.0
  0
VERTEX
  5
9C
330
9B
100
AcDbEntity
  8
_U+30EC_U+30A4_U+30E4_U+30FC 1
 62
     7
420
 16777215
370
     9
100
AcDbVertex
100
AcDb2dVertex
 10
73.34987118424444
 20
-139.2921182985105
 30
0.0
  0
VERTEX
  5
9D
330
9B
100
AcDbEntity
  8
_U+30EC_U+30A4_U+30E4_U+30FC 1
 62
     7
420
 16777215
370
     9
100
AcDbVertex
100
AcDb2dVertex
 10
80.34961711677715
 20
-139.2921182985105
 30
0.0
  0
SEQEND
  5
9E
330
9B
100
AcDbEntity
  8
_U+30EC_U+30A4_U+30E4_U+30FC 1
 62
     7
420
 16777215
370
     9
  0
POLYLINE
  5
9F
330
41
100
AcDbEntity
  8
_U+30EC_U+30A4_U+30E4_U+30FC 1
 62
     7
420
 16777215
370
     9
100
AcDb2dPolyline
 66
     1
 10
0.0
 20
0.0
 30
0.0
  0
VERTEX
  5
A0
330
9F
100
AcDbEntity
  8
_U+30EC_U+30A4_U+30E4_U+30FC 1
 62
     7
420
 16777215
370
     9
100
AcDbVertex
100
AcDb2dVertex
 10
73.34987118424444
 20
-137.8320769099861
 30
0.0
  0
VERTEX
  5
A1
330
9F
100
AcDbEntity
  8
_U+30EC_U+30A4_U+30E4_U+30FC 1
 62
     7
420
 16777215
370
     9
100
AcDbVertex
100
AcDb2dVertex
 10
73.34987118424444
 20
-140.2918552427049
 30
0.0
  0
SEQEND
  5
A2
330
9F
100
AcDbEntity
  8
_U+30EC_U+30A4_U+30E4_U+30FC 1
 62
     7
420
 16777215
370
     9
  0
POLYLINE
  5
A3
330
41
100
AcDbEntity
  8
_U+30EC_U+30A4_U+30E4_U+30FC 1
 62
     7
420
 16777215
370
     9
100
AcDb2dPolyline
 66
     1
 10
0.0
 20
0.0
 30
0.0
  0
VERTEX
  5
A4
330
A3
100
AcDbEntity
  8
_U+30EC_U+30A4_U+30E4_U+30FC 1
 62
     7
420
 16777215
370
     9
100
AcDbVertex
100
AcDb2dVertex
 10
80.24971045265931
 20
-137.8320769099861
 30
0.0
  0
VERTEX
  5
A5
330
A3
100
AcDbEntity
  8
_U+30EC_U+30A4_U+30E4_U+30FC 1
 62
     7
420
 16777215
370
     9
100
AcDbVertex
100
AcDb2dVertex
 10
80.24971045265931
 20
-140.2918552427049
 30
0.0
  0
SEQEND
  5
A6
330
A3
100
AcDbEntity
  8
_U+30EC_U+30A4_U+30E4_U+30FC 1
 62
     7
420
 16777215
370
     9
  0
INSERT
  5
A8
330
41
100
AcDbEntity
  8
_U+30EC_U+30A4_U+30E4_U+30FC 1
100
AcDbBlockReference
  2
block 5
 10
0.0
 20
0.0
 30
0.0
  0
INSERT
  5
AE
330
41
100
AcDbEntity
  8
_U+30EC_U+30A4_U+30E4_U+30FC 1
100
AcDbBlockReference
  2
block 6
 10
0.0
 20
0.0
 30
0.0
  0
POLYLINE
  5
C7
330
41
100
AcDbEntity
  8
_U+30EC_U+30A4_U+30E4_U+30FC 1
 62
     7
420
 16777215
370
     9
100
AcDb2dPolyline
 66
     1
 10
0.0
 20
0.0
 30
0.0
  0
VERTEX
  5
C8
330
C7
100
AcDbEntity
  8
_U+30EC_U+30A4_U+30E4_U+30FC 1
 62
     7
420
 16777215
370
     9
100
AcDbVertex
100
AcDb2dVertex
 10
102.3492999744126
 20
-125.2910738575663
 30
0.0
  0
VERTEX
  5
C9
330
C7
100
AcDbEntity
  8
_U+30EC_U+30A4_U+30E4_U+30FC 1
 62
     7
420
 16777215
370
     9
100
AcDbVertex
100
AcDb2dVertex
 10
102.3492999744126
 20
-131.790757467052
 30
0.0
  0
SEQEND
  5
CA
330
C7
100
AcDbEntity
  8
_U+30EC_U+30A4_U+30E4_U+30FC 1
 62
     7
420
 16777215
370
     9
  0
POLYLINE
  5
CB
330
41
100
AcDbEntity
  8
_U+30EC_U+30A4_U+30E4_U+30FC 1
 62
     7
420
 16777215
370
     9
100
AcDb2dPolyline
 66
     1
 10
0.0
 20
0.0
 30
0.0
  0
VERTEX
  5
CC
330
CB
100
AcDbEntity
  8
_U+30EC_U+30A4_U+30E4_U+30FC 1
 62
     7
420
 16777215
370
     9
100
AcDbVertex
100
AcDb2dVertex
 10
80.88979043632952
 20
-131.8934158003601
 30
0.0
  0
VERTEX
  5
CD
330
CB
100
AcDbEntity
  8
_U+30EC_U+30A4_U+30E4_U+30FC 1
 62
     7
420
 16777215
370
     9
100
AcDbVertex
100
AcDb2dVertex
 10
103.34977775194
 20
-131.8934158003601
 30
0.0
  0
SEQEND
  5
CE
330
CB
100
AcDbEntity
  8
_U+30EC_U+30A4_U+30E4_U+30FC 1
 62
     7
420
 16777215
370
     9
  0
INSERT
  5
D0
330
41
100
AcDbEntity
  8
_U+30EC_U+30A4_U+30E4_U+30FC 1
100
AcDbBlockReference
  2
block 8
 10
0.0
 20
0.0
 30
0.0
  0
INSERT
  5
E1
330
41
100
AcDbEntity
  8
_U+30EC_U+30A4_U+30E4_U+30FC 1
100
AcDbBlockReference
  2
block 9
 10
0.0
 20
0.0
 30
0.0
  0
ENDBLK
  5
44
330
41
100
AcDbEntity
  8
0
100
AcDbBlockEnd
  0
BLOCK
  5
85
330
83
100
AcDbEntity
  8
0
100
AcDbBlockBegin
  2
block 3
 70
     0
 10
0.0
 20
0.0
 30
0.0
  3
block 3
  1

  0
POLYLINE
  5
87
330
83
100
AcDbEntity
  8
_U+30EC_U+30A4_U+30E4_U+30FC 1
 62
     7
420
 16777215
370
     9
100
AcDb2dPolyline
 66
     1
 10
0.0
 20
0.0
 30
0.0
  0
VERTEX
  5
88
330
87
100
AcDbEntity
  8
_U+30EC_U+30A4_U+30E4_U+30FC 1
 62
     7
420
 16777215
370
     9
100
AcDbVertex
100
AcDb2dVertex
 10
73.34987118424444
 20
-120.2908369143717
 30
0.0
  0
VERTEX
  5
89
330
87
100
AcDbEntity
  8
_U+30EC_U+30A4_U+30E4_U+30FC 1
 62
     7
420
 16777215
370
     9
100
AcDbVertex
100
AcDb2dVertex
 10
98.34953832422758
 20
-120.2908369143717
 30
0.0
  0
SEQEND
  5
8A
330
87
100
AcDbEntity
  8
_U+30EC_U+30A4_U+30E4_U+30FC 1
 62
     7
420
 16777215
370
     9
  0
POLYLINE
  5
8B
330
83
100
AcDbEntity
  8
_U+30EC_U+30A4_U+30E4_U+30FC 1
 62
     7
420
 16777215
370
     9
100
AcDb2dPolyline
 66
     1
 10
0.0
 20
0.0
 30
0.0
  0
VERTEX
  5
8C
330
8B
100
AcDbEntity
  8
_U+30EC_U+30A4_U+30E4_U+30FC 1
 62
     7
420
 16777215
370
     9
100
AcDbVertex
100
AcDb2dVertex
 10
73.34987118424444
 20
-121.7508783028957
 30
0.0
  0
VERTEX
  5
8D
330
8B
100
AcDbEntity
  8
_U+30EC_U+30A4_U+30E4_U+30FC 1
 62
     7
420
 16777215
370
     9
100
AcDbVertex
100
AcDb2dVertex
 10
73.34987118424444
 20
-119.2910646923994
 30
0.0
  0
SEQEND
  5
8E
330
8B
100
AcDbEntity
  8
_U+30EC_U+30A4_U+30E4_U+30FC 1
 62
     7
420
 16777215
370
     9
  0
POLYLINE
  5
8F
330
83
100
AcDbEntity
  8
_U+30EC_U+30A4_U+30E4_U+30FC 1
 62
     7
420
 16777215
370
     9
100
AcDb2dPolyline
 66
     1
 10
0.0
 20
0.0
 30
0.0
  0
VERTEX
  5
90
330
8F
100
AcDbEntity
  8
_U+30EC_U+30A4_U+30E4_U+30FC 1
 62
     7
420
 16777215
370
     9
100
AcDbVertex
100
AcDb2dVertex
 10
98.34953832422758
 20
-121.7508783028957
 30
0.0
  0
VERTEX
  5
91
330
8F
100
AcDbEntity
  8
_U+30EC_U+30A4_U+30E4_U+30FC 1
 62
     7
420
 16777215
370
     9
100
AcDbVertex
100
AcDb2dVertex
 10
98.34953832422758
 20
-119.2910646923994
 30
0.0
  0
SEQEND
  5
92
330
8F
100
AcDbEntity
  8
_U+30EC_U+30A4_U+30E4_U+30FC 1
 62
     7
420
 16777215
370
     9
  0
INSERT
  5
94
330
83
100
AcDbEntity
  8
_U+30EC_U+30A4_U+30E4_U+30FC 1
100
AcDbBlockReference
  2
block 4
 10
0.0
 20
0.0
 30
0.0
  0
ENDBLK
  5
86
330
83
100
AcDbEntity
  8
0
100
AcDbBlockEnd
  0
BLOCK
  5
95
330
93
100
AcDbEntity
  8
0
100
AcDbBlockBegin
  2
block 4
 70
     0
 10
0.0
 20
0.0
 30
0.0
  3
block 4
  1

  0
SPLINE
  5
97
330
93
100
AcDbEntity
  8
_U+30EC_U+30A4_U+30E4_U+30FC 1
370
     0
100
AcDbSpline
210
0.0
220
0.0
230
1.0
 70
    11
 71
     3
 72
    44
 73
    40
 74
     0
 42
0.0000000001
 43
0.0000000001
 12
1.0
 22
0.0
 32
0.0
 13
1.0
 23
0.0
 33
0.0
 40
0.0
 40
0.0
 40
0.0
 40
0.0
 40
1.0
 40
1.0
 40
1.0
 40
2.0
 40
2.0
 40
2.0
 40
3.0
 40
3.0
 40
3.0
 40
4.0
 40
4.0
 40
4.0
 40
5.0
 40
5.0
 40
5.0
 40
6.0
 40
6.0
 40
6.0
 40
7.0
 40
7.0
 40
7.0
 40
8.0
 40
8.0
 40
8.0
 40
9.0
 40
9.0
 40
9.0
 40
10.0
 40
10.0
 40
10.0
 40
11.0
 40
11.0
 40
11.0
 40
12.0
 40
12.0
 40
12.0
 40
13.0
 40
13.0
 40
13.0
 40
13.0
 10
85.3541354495816
 20
-119.0624999702344
 30
0.0
 10
85.13623316013955
 20
-119.2211466173301
 30
0.0
 10
85.04304332726355
 20
-119.295216170263
 30
0.0
 10
84.99446748092153
 20
-119.4390489067722
 30
0.0
 10
84.99446748092153
 20
-119.4390489067722
 30
0.0
 10
85.77288680581373
 20
-119.4390489067722
 30
0.0
 10
85.77288680581373
 20
-119.4390489067722
 30
0.0
 10
85.77288680581373
 20
-119.4390489067722
 30
0.0
 10
85.77288680581373
 20
-119.6442043429188
 30
0.0
 10
85.77288680581373
 20
-119.6442043429188
 30
0.0
 10
85.77288680581373
 20
-119.6442043429188
 30
0.0
 10
84.74487031301517
 20
-119.6442043429188
 30
0.0
 10
84.74487031301517
 20
-119.6442043429188
 30
0.0
 10
84.77656519147948
 20
-119.2866034315499
 30
0.0
 10
84.84202200569922
 20
-119.2083997640347
 30
0.0
 10
85.22718368095015
 20
-118.9100544950121
 30
0.0
 10
85.48315427550422
 20
-118.7112724855132
 30
0.0
 10
85.54861108972396
 20
-118.643576359228
 30
0.0
 10
85.54861108972396
 20
-118.5061170493665
 30
0.0
 10
85.54861108972396
 20
-118.3876057646739
 30
0.0
 10
85.4767808488565
 20
-118.2565198814602
 30
0.0
 10
85.28006589664874
 20
-118.2565198814602
 30
0.0
 10
85.01978893273811
 20
-118.2565198814602
 30
0.0
 10
85.01134844879925
 20
-118.4869967694234
 30
0.0
 10
85.00704207944268
 20
-118.6034409968248
 30
0.0
 10
85.00704207944268
 20
-118.6034409968248
 30
0.0
 10
84.78293861812719
 20
-118.6034409968248
 30
0.0
 10
84.78293861812719
 20
-118.6034409968248
 30
0.0
 10
84.79137910206605
 20
-118.4764892281934
 30
0.0
 10
84.80188664329606
 20
-118.3643513701485
 30
0.0
 10
84.88232962287664
 20
-118.2458400854559
 30
0.0
 10
84.99222816885612
 20
-118.085126381069
 30
0.0
 10
85.17843557983387
 20
-118.0511921905393
 30
0.0
 10
85.29487980723532
 20
-118.0511921905393
 30
0.0
 10
85.57203773902366
 20
-118.0511921905393
 30
0.0
 10
85.77926023246144
 20
-118.2353325442259
 30
0.0
 10
85.77926023246144
 20
-118.5081841066577
 30
0.0
 10
85.77926023246144
 20
-118.7365939373297
 30
0.0
 10
85.66298825983425
 20
-118.8361571968535
 30
0.0
 10
85.3541354495816
 20
-119.0624999702344
 30
0.0
  0
HATCH
  5
98
330
93
100
AcDbEntity
  8
_U+30EC_U+30A4_U+30E4_U+30FC 1
 62
     7
420
 16777215
100
AcDbHatch
 10
0.0
 20
0.0
 30
0.0
210
0.0
220
0.0
230
1.0
  2
SOLID
 70
     1
 71
     0
 91
        1
 92
        1
 93
        1
 72
     4
 94
        3
 73
     0
 74
     1
 95
       44
 96
       40
 40
0.0
 40
0.0
 40
0.0
 40
0.0
 40
1.0
 40
1.0
 40
1.0
 40
2.0
 40
2.0
 40
2.0
 40
3.0
 40
3.0
 40
3.0
 40
4.0
 40
4.0
 40
4.0
 40
5.0
 40
5.0
 40
5.0
 40
6.0
 40
6.0
 40
6.0
 40
7.0
 40
7.0
 40
7.0
 40
8.0
 40
8.0
 40
8.0
 40
9.0
 40
9.0
 40
9.0
 40
10.0
 40
10.0
 40
10.0
 40
11.0
 40
11.0
 40
11.0
 40
12.0
 40
12.0
 40
12.0
 40
13.0
 40
13.0
 40
13.0
 40
13.0
 10
85.3541354495816
 20
-119.0624999702344
 10
85.13623316013955
 20
-119.2211466173301
 10
85.04304332726355
 20
-119.295216170263
 10
84.99446748092153
 20
-119.4390489067722
 10
84.99446748092153
 20
-119.4390489067722
 10
85.77288680581373
 20
-119.4390489067722
 10
85.77288680581373
 20
-119.4390489067722
 10
85.77288680581373
 20
-119.4390489067722
 10
85.77288680581373
 20
-119.6442043429188
 10
85.77288680581373
 20
-119.6442043429188
 10
85.77288680581373
 20
-119.6442043429188
 10
84.74487031301517
 20
-119.6442043429188
 10
84.74487031301517
 20
-119.6442043429188
 10
84.77656519147948
 20
-119.2866034315499
 10
84.84202200569922
 20
-119.2083997640347
 10
85.22718368095015
 20
-118.9100544950121
 10
85.48315427550422
 20
-118.7112724855132
 10
85.54861108972396
 20
-118.643576359228
 10
85.54861108972396
 20
-118.5061170493665
 10
85.54861108972396
 20
-118.3876057646739
 10
85.4767808488565
 20
-118.2565198814602
 10
85.28006589664874
 20
-118.2565198814602
 10
85.01978893273811
 20
-118.2565198814602
 10
85.01134844879925
 20
-118.4869967694234
 10
85.00704207944268
 20
-118.6034409968248
 10
85.00704207944268
 20
-118.6034409968248
 10
84.78293861812719
 20
-118.6034409968248
 10
84.78293861812719
 20
-118.6034409968248
 10
84.79137910206605
 20
-118.4764892281934
 10
84.80188664329606
 20
-118.3643513701485
 10
84.88232962287664
 20
-118.2458400854559
 10
84.99222816885612
 20
-118.085126381069
 10
85.17843557983387
 20
-118.0511921905393
 10
85.29487980723532
 20
-118.0511921905393
 10
85.57203773902366
 20
-118.0511921905393
 10
85.77926023246144
 20
-118.2353325442259
 10
85.77926023246144
 20
-118.5081841066577
 10
85.77926023246144
 20
-118.7365939373297
 10
85.66298825983425
 20
-118.8361571968535
 10
85.3541354495816
 20
-119.0624999702344
 97
        0
 97
        0
 75
     2
 76
     1
 98
        0
  0
SPLINE
  5
99
330
93
100
AcDbEntity
  8
_U+30EC_U+30A4_U+30E4_U+30FC 1
370
     0
100
AcDbSpline
210
0.0
220
0.0
230
1.0
 70
    11
 71
     3
 72
    53
 73
    49
 74
     0
 42
0.0000000001
 43
0.0000000001
 12
1.0
 22
0.0
 32
0.0
 13
1.0
 23
0.0
 33
0.0
 40
0.0
 40
0.0
 40
0.0
 40
0.0
 40
1.0
 40
1.0
 40
1.0
 40
2.0
 40
2.0
 40
2.0
 40
3.0
 40
3.0
 40
3.0
 40
4.0
 40
4.0
 40
4.0
 40
5.0
 40
5.0
 40
5.0
 40
6.0
 40
6.0
 40
6.0
 40
7.0
 40
7.0
 40
7.0
 40
8.0
 40
8.0
 40
8.0
 40
9.0
 40
9.0
 40
9.0
 40
10.0
 40
10.0
 40
10.0
 40
11.0
 40
11.0
 40
11.0
 40
12.0
 40
12.0
 40
12.0
 40
13.0
 40
13.0
 40
13.0
 40
14.0
 40
14.0
 40
14.0
 40
15.0
 40
15.0
 40
15.0
 40
16.0
 40
16.0
 40
16.0
 40
16.0
 10
86.41884220929808
 20
-119.6950195013263
 30
0.0
 10
86.3406385417829
 20
-119.6950195013263
 30
0.0
 10
86.23900822496803
 20
-119.6779662786743
 30
0.0
 10
86.13737790815316
 20
-119.6145765217457
 30
0.0
 10
85.96391735047084
 20
-119.5045057209919
 30
0.0
 10
85.94273001323654
 20
-119.3734198377782
 30
0.0
 10
85.92378198806767
 20
-119.2655883490899
 30
0.0
 10
85.92378198806767
 20
-119.2655883490899
 30
0.0
 10
86.14599064686628
 20
-119.2655883490899
 30
0.0
 10
86.14599064686628
 20
-119.2655883490899
 30
0.0
 10
86.20076766508176
 20
-119.4643703585888
 30
0.0
 10
86.32789168848747
 20
-119.4939981797619
 30
0.0
 10
86.42090926658922
 20
-119.4939981797619
 30
0.0
 10
86.56043563374185
 20
-119.4939981797619
 30
0.0
 10
86.71270885418988
 20
-119.3946071750125
 30
0.0
 10
86.71270885418988
 20
-119.1618909749838
 30
0.0
 10
86.71270885418988
 20
-118.9059203804298
 30
0.0
 10
86.53287486985984
 20
-118.8361571968535
 30
0.0
 10
86.4122965278761
 20
-118.8361571968535
 30
0.0
 10
86.3806016494118
 20
-118.8361571968535
 30
0.0
 10
86.23900822496803
 20
-118.8361571968535
 30
0.0
 10
86.15012476144858
 20
-118.9651760227761
 30
0.0
 10
86.15012476144858
 20
-118.9651760227761
 30
0.0
 10
85.9745971464751
 20
-118.9460557428329
 30
0.0
 10
85.9745971464751
 20
-118.9460557428329
 30
0.0
 10
85.9745971464751
 20
-118.9460557428329
 30
0.0
 10
86.09500323368458
 20
-118.0999402916556
 30
0.0
 10
86.09500323368458
 20
-118.0999402916556
 30
0.0
 10
86.09500323368458
 20
-118.0999402916556
 30
0.0
 10
86.87359481335105
 20
-118.0999402916556
 30
0.0
 10
86.87359481335105
 20
-118.0999402916556
 30
0.0
 10
86.87359481335105
 20
-118.0999402916556
 30
0.0
 10
86.87359481335105
 20
-118.2945881865722
 30
0.0
 10
86.87359481335105
 20
-118.2945881865722
 30
0.0
 10
86.87359481335105
 20
-118.2945881865722
 30
0.0
 10
86.2579562501369
 20
-118.2945881865722
 30
0.0
 10
86.2579562501369
 20
-118.2945881865722
 30
0.0
 10
86.2579562501369
 20
-118.2945881865722
 30
0.0
 10
86.19249943591716
 20
-118.7176459121609
 30
0.0
 10
86.19249943591716
 20
-118.7176459121609
 30
0.0
 10
86.2538221355546
 20
-118.6837117216312
 30
0.0
 10
86.33615991765207
 20
-118.643576359228
 30
0.0
 10
86.45467120234467
 20
-118.643576359228
 30
0.0
 10
86.70857473960758
 20
-118.643576359228
 30
0.0
 10
86.94559730899277
 20
-118.8297837702058
 30
0.0
 10
86.94559730899277
 20
-119.1427706950407
 30
0.0
 10
86.94559730899277
 20
-119.4602362440065
 30
0.0
 10
86.72132159290301
 20
-119.6950195013263
 30
0.0
 10
86.41884220929808
 20
-119.6950195013263
 30
0.0
  0
HATCH
  5
9A
330
93
100
AcDbEntity
  8
_U+30EC_U+30A4_U+30E4_U+30FC 1
 62
     7
420
 16777215
100
AcDbHatch
 10
0.0
 20
0.0
 30
0.0
210
0.0
220
0.0
230
1.0
  2
SOLID
 70
     1
 71
     0
 91
        1
 92
        1
 93
        1
 72
     4
 94
        3
 73
     0
 74
     1
 95
       53
 96
       49
 40
0.0
 40
0.0
 40
0.0
 40
0.0
 40
1.0
 40
1.0
 40
1.0
 40
2.0
 40
2.0
 40
2.0
 40
3.0
 40
3.0
 40
3.0
 40
4.0
 40
4.0
 40
4.0
 40
5.0
 40
5.0
 40
5.0
 40
6.0
 40
6.0
 40
6.0
 40
7.0
 40
7.0
 40
7.0
 40
8.0
 40
8.0
 40
8.0
 40
9.0
 40
9.0
 40
9.0
 40
10.0
 40
10.0
 40
10.0
 40
11.0
 40
11.0
 40
11.0
 40
12.0
 40
12.0
 40
12.0
 40
13.0
 40
13.0
 40
13.0
 40
14.0
 40
14.0
 40
14.0
 40
15.0
 40
15.0
 40
15.0
 40
16.0
 40
16.0
 40
16.0
 40
16.0
 10
86.41884220929808
 20
-119.6950195013263
 10
86.3406385417829
 20
-119.6950195013263
 10
86.23900822496803
 20
-119.6779662786743
 10
86.13737790815316
 20
-119.6145765217457
 10
85.96391735047084
 20
-119.5045057209919
 10
85.94273001323654
 20
-119.3734198377782
 10
85.92378198806767
 20
-119.2655883490899
 10
85.92378198806767
 20
-119.2655883490899
 10
86.14599064686628
 20
-119.2655883490899
 10
86.14599064686628
 20
-119.2655883490899
 10
86.20076766508176
 20
-119.4643703585888
 10
86.32789168848747
 20
-119.4939981797619
 10
86.42090926658922
 20
-119.4939981797619
 10
86.56043563374185
 20
-119.4939981797619
 10
86.71270885418988
 20
-119.3946071750125
 10
86.71270885418988
 20
-119.1618909749838
 10
86.71270885418988
 20
-118.9059203804298
 10
86.53287486985984
 20
-118.8361571968535
 10
86.4122965278761
 20
-118.8361571968535
 10
86.3806016494118
 20
-118.8361571968535
 10
86.23900822496803
 20
-118.8361571968535
 10
86.15012476144858
 20
-118.9651760227761
 10
86.15012476144858
 20
-118.9651760227761
 10
85.9745971464751
 20
-118.9460557428329
 10
85.9745971464751
 20
-118.9460557428329
 10
85.9745971464751
 20
-118.9460557428329
 10
86.09500323368458
 20
-118.0999402916556
 10
86.09500323368458
 20
-118.0999402916556
 10
86.09500323368458
 20
-118.0999402916556
 10
86.87359481335105
 20
-118.0999402916556
 10
86.87359481335105
 20
-118.0999402916556
 10
86.87359481335105
 20
-118.0999402916556
 10
86.87359481335105
 20
-118.2945881865722
 10
86.87359481335105
 20
-118.2945881865722
 10
86.87359481335105
 20
-118.2945881865722
 10
86.2579562501369
 20
-118.2945881865722
 10
86.2579562501369
 20
-118.2945881865722
 10
86.2579562501369
 20
-118.2945881865722
 10
86.19249943591716
 20
-118.7176459121609
 10
86.19249943591716
 20
-118.7176459121609
 10
86.2538221355546
 20
-118.6837117216312
 10
86.33615991765207
 20
-118.643576359228
 10
86.45467120234467
 20
-118.643576359228
 10
86.70857473960758
 20
-118.643576359228
 10
86.94559730899277
 20
-118.8297837702058
 10
86.94559730899277
 20
-119.1427706950407
 10
86.94559730899277
 20
-119.4602362440065
 10
86.72132159290301
 20
-119.6950195013263
 10
86.41884220929808
 20
-119.6950195013263
 97
        0
 97
        0
 75
     2
 76
     1
 98
        0
  0
ENDBLK
  5
96
330
93
100
AcDbEntity
  8
0
100
AcDbBlockEnd
  0
BLOCK
  5
A9
330
A7
100
AcDbEntity
  8
0
100
AcDbBlockBegin
  2
block 5
 70
     0
 10
0.0
 20
0.0
 30
0.0
  3
block 5
  1

  0
SPLINE
  5
AB
330
A7
100
AcDbEntity
  8
_U+30EC_U+30A4_U+30E4_U+30FC 1
370
     0
100
AcDbSpline
210
0.0
220
0.0
230
1.0
 70
    11
 71
     3
 72
    26
 73
    22
 74
     0
 42
0.0000000001
 43
0.0000000001
 12
1.0
 22
0.0
 32
0.0
 13
1.0
 23
0.0
 33
0.0
 40
0.0
 40
0.0
 40
0.0
 40
0.0
 40
1.0
 40
1.0
 40
1.0
 40
2.0
 40
2.0
 40
2.0
 40
3.0
 40
3.0
 40
3.0
 40
4.0
 40
4.0
 40
4.0
 40
5.0
 40
5.0
 40
5.0
 40
6.0
 40
6.0
 40
6.0
 40
7.0
 40
7.0
 40
7.0
 40
7.0
 10
76.76051701640016
 20
-138.644767217943
 30
0.0
 10
76.76051701640016
 20
-138.644767217943
 30
0.0
 10
76.52366670178922
 20
-138.644767217943
 30
0.0
 10
76.52366670178922
 20
-138.644767217943
 30
0.0
 10
76.5489881536058
 20
-138.3357421529161
 30
0.0
 10
76.74156899123128
 20
-137.8175997919345
 30
0.0
 10
77.14774574894223
 20
-137.3118597746998
 30
0.0
 10
77.14774574894223
 20
-137.3118597746998
 30
0.0
 10
76.30989852692947
 20
-137.3118597746998
 30
0.0
 10
76.30989852692947
 20
-137.3118597746998
 30
0.0
 10
76.30989852692947
 20
-137.3118597746998
 30
0.0
 10
76.30989852692947
 20
-137.1003309119055
 30
0.0
 10
76.30989852692947
 20
-137.1003309119055
 30
0.0
 10
76.30989852692947
 20
-137.1003309119055
 30
0.0
 10
77.38459606355316
 20
-137.1003309119055
 30
0.0
 10
77.38459606355316
 20
-137.1003309119055
 30
0.0
 10
77.38459606355316
 20
-137.1003309119055
 30
0.0
 10
77.38459606355316
 20
-137.3118597746998
 30
0.0
 10
77.38459606355316
 20
-137.3118597746998
 30
0.0
 10
77.06092934271393
 20
-137.6019368145579
 30
0.0
 10
76.79445120692986
 20
-138.1941487284723
 30
0.0
 10
76.76051701640016
 20
-138.644767217943
 30
0.0
  0
HATCH
  5
AC
330
A7
100
AcDbEntity
  8
_U+30EC_U+30A4_U+30E4_U+30FC 1
 62
     7
420
 16777215
100
AcDbHatch
 10
0.0
 20
0.0
 30
0.0
210
0.0
220
0.0
230
1.0
  2
SOLID
 70
     1
 71
     0
 91
        1
 92
        1
 93
        1
 72
     4
 94
        3
 73
     0
 74
     1
 95
       26
 96
       22
 40
0.0
 40
0.0
 40
0.0
 40
0.0
 40
1.0
 40
1.0
 40
1.0
 40
2.0
 40
2.0
 40
2.0
 40
3.0
 40
3.0
 40
3.0
 40
4.0
 40
4.0
 40
4.0
 40
5.0
 40
5.0
 40
5.0
 40
6.0
 40
6.0
 40
6.0
 40
7.0
 40
7.0
 40
7.0
 40
7.0
 10
76.76051701640016
 20
-138.644767217943
 10
76.76051701640016
 20
-138.644767217943
 10
76.52366670178922
 20
-138.644767217943
 10
76.52366670178922
 20
-138.644767217943
 10
76.5489881536058
 20
-138.3357421529161
 10
76.74156899123128
 20
-137.8175997919345
 10
77.14774574894223
 20
-137.3118597746998
 10
77.14774574894223
 20
-137.3118597746998
 10
76.30989852692947
 20
-137.3118597746998
 10
76.30989852692947
 20
-137.3118597746998
 10
76.30989852692947
 20
-137.3118597746998
 10
76.30989852692947
 20
-137.1003309119055
 10
76.30989852692947
 20
-137.1003309119055
 10
76.30989852692947
 20
-137.1003309119055
 10
77.38459606355316
 20
-137.1003309119055
 10
77.38459606355316
 20
-137.1003309119055
 10
77.38459606355316
 20
-137.1003309119055
 10
77.38459606355316
 20
-137.3118597746998
 10
77.38459606355316
 20
-137.3118597746998
 10
77.06092934271393
 20
-137.6019368145579
 10
76.79445120692986
 20
-138.1941487284723
 10
76.76051701640016
 20
-138.644767217943
 97
        0
 97
        0
 75
     2
 76
     1
 98
        0
  0
ENDBLK
  5
AA
330
A7
100
AcDbEntity
  8
0
100
AcDbBlockEnd
  0
BLOCK
  5
AF
330
AD
100
AcDbEntity
  8
0
100
AcDbBlockBegin
  2
block 6
 70
     0
 10
0.0
 20
0.0
 30
0.0
  3
block 6
  1

  0
POLYLINE
  5
B1
330
AD
100
AcDbEntity
  8
_U+30EC_U+30A4_U+30E4_U+30FC 1
 62
     7
420
 16777215
370
     9
100
AcDb2dPolyline
 66
     1
 10
0.0
 20
0.0
 30
0.0
  0
VERTEX
  5
B2
330
B1
100
AcDbEntity
  8
_U+30EC_U+30A4_U+30E4_U+30FC 1
 62
     7
420
 16777215
370
     9
100
AcDbVertex
100
AcDb2dVertex
 10
102.3492999744126
 20
-124.2913016355937
 30
0.0
  0
VERTEX
  5
B3
330
B1
100
AcDbEntity
  8
_U+30EC_U+30A4_U+30E4_U+30FC 1
 62
     7
420
 16777215
370
     9
100
AcDbVertex
100
AcDb2dVertex
 10
102.3492999744126
 20
-120.5209891365363
 30
0.0
  0
SEQEND
  5
B4
330
B1
100
AcDbEntity
  8
_U+30EC_U+30A4_U+30E4_U+30FC 1
 62
     7
420
 16777215
370
     9
  0
POLYLINE
  5
B5
330
AD
100
AcDbEntity
  8
_U+30EC_U+30A4_U+30E4_U+30FC 1
 62
     7
420
 16777215
370
     9
100
AcDb2dPolyline
 66
     1
 10
0.0
 20
0.0
 30
0.0
  0
VERTEX
  5
B6
330
B5
100
AcDbEntity
  8
_U+30EC_U+30A4_U+30E4_U+30FC 1
 62
     7
420
 16777215
370
     9
100
AcDbVertex
100
AcDb2dVertex
 10
102.3492999744126
 20
-124.2913016355937
 30
0.0
  0
VERTEX
  5
B7
330
B5
100
AcDbEntity
  8
_U+30EC_U+30A4_U+30E4_U+30FC 1
 62
     7
420
 16777215
370
     9
100
AcDbVertex
100
AcDb2dVertex
 10
102.3492999744126
 20
-125.2910738575663
 30
0.0
  0
SEQEND
  5
B8
330
B5
100
AcDbEntity
  8
_U+30EC_U+30A4_U+30E4_U+30FC 1
 62
     7
420
 16777215
370
     9
  0
POLYLINE
  5
B9
330
AD
100
AcDbEntity
  8
_U+30EC_U+30A4_U+30E4_U+30FC 1
 62
     7
420
 16777215
370
     9
100
AcDb2dPolyline
 66
     1
 10
0.0
 20
0.0
 30
0.0
  0
VERTEX
  5
BA
330
B9
100
AcDbEntity
  8
_U+30EC_U+30A4_U+30E4_U+30FC 1
 62
     7
420
 16777215
370
     9
100
AcDbVertex
100
AcDb2dVertex
 10
100.8892913149886
 20
-124.2913016355937
 30
0.0
  0
VERTEX
  5
BB
330
B9
100
AcDbEntity
  8
_U+30EC_U+30A4_U+30E4_U+30FC 1
 62
     7
420
 16777215
370
     9
100
AcDbVertex
100
AcDb2dVertex
 10
103.34977775194
 20
-124.2913016355937
 30
0.0
  0
SEQEND
  5
BC
330
B9
100
AcDbEntity
  8
_U+30EC_U+30A4_U+30E4_U+30FC 1
 62
     7
420
 16777215
370
     9
  0
POLYLINE
  5
BD
330
AD
100
AcDbEntity
  8
_U+30EC_U+30A4_U+30E4_U+30FC 1
 62
     7
420
 16777215
370
     9
100
AcDb2dPolyline
 66
     1
 10
0.0
 20
0.0
 30
0.0
  0
VERTEX
  5
BE
330
BD
100
AcDbEntity
  8
_U+30EC_U+30A4_U+30E4_U+30FC 1
 62
     7
420
 16777215
370
     9
100
AcDbVertex
100
AcDb2dVertex
 10
100.8892913149886
 20
-125.2910738575663
 30
0.0
  0
VERTEX
  5
BF
330
BD
100
AcDbEntity
  8
_U+30EC_U+30A4_U+30E4_U+30FC 1
 62
     7
420
 16777215
370
     9
100
AcDbVertex
100
AcDb2dVertex
 10
103.34977775194
 20
-125.2910738575663
 30
0.0
  0
SEQEND
  5
C0
330
BD
100
AcDbEntity
  8
_U+30EC_U+30A4_U+30E4_U+30FC 1
 62
     7
420
 16777215
370
     9
  0
INSERT
  5
C2
330
AD
100
AcDbEntity
  8
_U+30EC_U+30A4_U+30E4_U+30FC 1
100
AcDbBlockReference
  2
block 7
 10
0.0
 20
0.0
 30
0.0
  0
ENDBLK
  5
B0
330
AD
100
AcDbEntity
  8
0
100
AcDbBlockEnd
  0
BLOCK
  5
C3
330
C1
100
AcDbEntity
  8
0
100
AcDbBlockBegin
  2
block 7
 70
     0
 10
0.0
 20
0.0
 30
0.0
  3
block 7
  1

  0
SPLINE
  5
C5
330
C1
100
AcDbEntity
  8
_U+30EC_U+30A4_U+30E4_U+30FC 1
370
     0
100
AcDbSpline
210
0.0
220
0.0
230
1.0
 70
    11
 71
     3
 72
    26
 73
    22
 74
     0
 42
0.0000000001
 43
0.0000000001
 12
1.0
 22
0.0
 32
0.0
 13
1.0
 23
0.0
 33
0.0
 40
0.0
 40
0.0
 40
0.0
 40
0.0
 40
1.0
 40
1.0
 40
1.0
 40
2.0
 40
2.0
 40
2.0
 40
3.0
 40
3.0
 40
3.0
 40
4.0
 40
4.0
 40
4.0
 40
5.0
 40
5.0
 40
5.0
 40
6.0
 40
6.0
 40
6.0
 40
7.0
 40
7.0
 40
7.0
 40
7.0
 10
106.2898084586706
 20
-124.8671413533318
 30
0.0
 10
106.2898084586706
 20
-124.8671413533318
 30
0.0
 10
105.185655355648
 20
-124.8671413533318
 30
0.0
 10
105.185655355648
 20
-124.8671413533318
 30
0.0
 10
105.185655355648
 20
-124.8671413533318
 30
0.0
 10
105.185655355648
 20
-125.1971815008188
 30
0.0
 10
105.185655355648
 20
-125.1971815008188
 30
0.0
 10
105.185655355648
 20
-125.1971815008188
 30
0.0
 10
105.0375162497823
 20
-125.1971815008188
 30
0.0
 10
105.0375162497823
 20
-125.1971815008188
 30
0.0
 10
105.0227023391957
 20
-124.8650742960407
 30
0.0
 10
104.8597493227434
 20
-124.8185655069898
 30
0.0
 10
104.7453721526331
 20
-124.7889376858167
 30
0.0
 10
104.7453721526331
 20
-124.7889376858167
 30
0.0
 10
104.7453721526331
 20
-124.6428656372421
 30
0.0
 10
104.7453721526331
 20
-124.6428656372421
 30
0.0
 10
104.7453721526331
 20
-124.6428656372421
 30
0.0
 10
106.2898084586706
 20
-124.6428656372421
 30
0.0
 10
106.2898084586706
 20
-124.6428656372421
 30
0.0
 10
106.2898084586706
 20
-124.6428656372421
 30
0.0
 10
106.2898084586706
 20
-124.8671413533318
 30
0.0
 10
106.2898084586706
 20
-124.8671413533318
 30
0.0
  0
HATCH
  5
C6
330
C1
100
AcDbEntity
  8
_U+30EC_U+30A4_U+30E4_U+30FC 1
 62
     7
420
 16777215
100
AcDbHatch
 10
0.0
 20
0.0
 30
0.0
210
0.0
220
0.0
230
1.0
  2
SOLID
 70
     1
 71
     0
 91
        1
 92
        1
 93
        1
 72
     4
 94
        3
 73
     0
 74
     1
 95
       26
 96
       22
 40
0.0
 40
0.0
 40
0.0
 40
0.0
 40
1.0
 40
1.0
 40
1.0
 40
2.0
 40
2.0
 40
2.0
 40
3.0
 40
3.0
 40
3.0
 40
4.0
 40
4.0
 40
4.0
 40
5.0
 40
5.0
 40
5.0
 40
6.0
 40
6.0
 40
6.0
 40
7.0
 40
7.0
 40
7.0
 40
7.0
 10
106.2898084586706
 20
-124.8671413533318
 10
106.2898084586706
 20
-124.8671413533318
 10
105.185655355648
 20
-124.8671413533318
 10
105.185655355648
 20
-124.8671413533318
 10
105.185655355648
 20
-124.8671413533318
 10
105.185655355648
 20
-125.1971815008188
 10
105.185655355648
 20
-125.1971815008188
 10
105.185655355648
 20
-125.1971815008188
 10
105.0375162497823
 20
-125.1971815008188
 10
105.0375162497823
 20
-125.1971815008188
 10
105.0227023391957
 20
-124.8650742960407
 10
104.8597493227434
 20
-124.8185655069898
 10
104.7453721526331
 20
-124.7889376858167
 10
104.7453721526331
 20
-124.7889376858167
 10
104.7453721526331
 20
-124.6428656372421
 10
104.7453721526331
 20
-124.6428656372421
 10
104.7453721526331
 20
-124.6428656372421
 10
106.2898084586706
 20
-124.6428656372421
 10
106.2898084586706
 20
-124.6428656372421
 10
106.2898084586706
 20
-124.6428656372421
 10
106.2898084586706
 20
-124.8671413533318
 10
106.2898084586706
 20
-124.8671413533318
 97
        0
 97
        0
 75
     2
 76
     1
 98
        0
  0
ENDBLK
  5
C4
330
C1
100
AcDbEntity
  8
0
100
AcDbBlockEnd
  0
BLOCK
  5
D1
330
CF
100
AcDbEntity
  8
0
100
AcDbBlockBegin
  2
block 8
 70
     0
 10
0.0
 20
0.0
 30
0.0
  3
block 8
  1

  0
SPLINE
  5
D3
330
CF
100
AcDbEntity
  8
_U+30EC_U+30A4_U+30E4_U+30FC 1
370
     0
100
AcDbSpline
210
0.0
220
0.0
230
1.0
 70
    11
 71
     3
 72
    32
 73
    28
 74
     0
 42
0.0000000001
 43
0.0000000001
 12
1.0
 22
0.0
 32
0.0
 13
1.0
 23
0.0
 33
0.0
 40
0.0
 40
0.0
 40
0.0
 40
0.0
 40
1.0
 40
1.0
 40
1.0
 40
2.0
 40
2.0
 40
2.0
 40
3.0
 40
3.0
 40
3.0
 40
4.0
 40
4.0
 40
4.0
 40
5.0
 40
5.0
 40
5.0
 40
6.0
 40
6.0
 40
6.0
 40
7.0
 40
7.0
 40
7.0
 40
8.0
 40
8.0
 40
8.0
 40
9.0
 40
9.0
 40
9.0
 40
9.0
 10
101.7543402523392
 20
-129.3995089737265
 30
0.0
 10
101.7543402523392
 20
-129.9155842774169
 30
0.0
 10
101.200368898311
 20
-129.9241970161301
 30
0.0
 10
100.986428468677
 20
-129.9241970161301
 30
0.0
 10
100.7559515807138
 20
-129.9241970161301
 30
0.0
 10
100.1086181390353
 20
-129.9049044814127
 30
0.0
 10
100.1086181390353
 20
-129.3612684138402
 30
0.0
 10
100.1086181390353
 20
-129.1879801109322
 30
0.0
 10
100.1785535773859
 20
-128.9423448028339
 30
0.0
 10
100.510660782164
 20
-128.9044487524961
 30
0.0
 10
100.510660782164
 20
-128.9044487524961
 30
0.0
 10
100.510660782164
 20
-129.1180446725816
 30
0.0
 10
100.510660782164
 20
-129.1180446725816
 30
0.0
 10
100.4534721971089
 20
-129.1287244685859
 30
0.0
 10
100.3053330912431
 20
-129.1604193470502
 30
0.0
 10
100.3053330912431
 20
-129.3633354711314
 30
0.0
 10
100.3053330912431
 20
-129.6554795682806
 30
0.0
 10
100.6333061814389
 20
-129.6954426759095
 30
0.0
 10
100.8382893628113
 20
-129.7081895292049
 30
0.0
 10
100.7600856952961
 20
-129.6151719511032
 30
0.0
 10
100.7008300529498
 20
-129.5473035700437
 30
0.0
 10
100.7008300529498
 20
-129.3654025284225
 30
0.0
 10
100.7008300529498
 20
-129.1855685440925
 30
0.0
 10
100.8090060511866
 20
-128.8830891604876
 30
0.0
 10
101.2151828088976
 20
-128.8830891604876
 30
0.0
 10
101.5345431603803
 20
-128.8830891604876
 30
0.0
 10
101.7543402523392
 20
-129.082215679535
 30
0.0
 10
101.7543402523392
 20
-129.3995089737265
 30
0.0
  0
SPLINE
  5
D4
330
CF
100
AcDbEntity
  8
_U+30EC_U+30A4_U+30E4_U+30FC 1
370
     0
100
AcDbSpline
210
0.0
220
0.0
230
1.0
 70
    11
 71
     3
 72
    17
 73
    13
 74
     0
 42
0.0000000001
 43
0.0000000001
 12
1.0
 22
0.0
 32
0.0
 13
1.0
 23
0.0
 33
0.0
 40
0.0
 40
0.0
 40
0.0
 40
0.0
 40
1.0
 40
1.0
 40
1.0
 40
2.0
 40
2.0
 40
2.0
 40
3.0
 40
3.0
 40
3.0
 40
4.0
 40
4.0
 40
4.0
 40
4.0
 10
100.8954779478664
 20
-129.3826280058488
 30
0.0
 10
100.8954779478664
 20
-129.6447997722763
 30
0.0
 10
101.1070068106607
 20
-129.6826958226141
 30
0.0
 10
101.2234510380622
 20
-129.6826958226141
 30
0.0
 10
101.3991509078099
 20
-129.6826958226141
 30
0.0
 10
101.5621039242623
 20
-129.5876111872212
 30
0.0
 10
101.5621039242623
 20
-129.4036430883088
 30
0.0
 10
101.5621039242623
 20
-129.2830647463251
 30
0.0
 10
101.502848281916
 20
-129.1073648765773
 30
0.0
 10
101.2172498661888
 20
-129.1073648765773
 30
0.0
 10
100.992974150099
 20
-129.1073648765773
 30
0.0
 10
100.8954779478664
 20
-129.2468912437299
 30
0.0
 10
100.8954779478664
 20
-129.3826280058488
 30
0.0
  0
HATCH
  5
D5
330
CF
100
AcDbEntity
  8
_U+30EC_U+30A4_U+30E4_U+30FC 1
 62
     7
420
 16777215
100
AcDbHatch
 10
0.0
 20
0.0
 30
0.0
210
0.0
220
0.0
230
1.0
  2
SOLID
 70
     1
 71
     0
 91
        2
 92
        1
 93
        1
 72
     4
 94
        3
 73
     0
 74
     1
 95
       32
 96
       28
 40
0.0
 40
0.0
 40
0.0
 40
0.0
 40
1.0
 40
1.0
 40
1.0
 40
2.0
 40
2.0
 40
2.0
 40
3.0
 40
3.0
 40
3.0
 40
4.0
 40
4.0
 40
4.0
 40
5.0
 40
5.0
 40
5.0
 40
6.0
 40
6.0
 40
6.0
 40
7.0
 40
7.0
 40
7.0
 40
8.0
 40
8.0
 40
8.0
 40
9.0
 40
9.0
 40
9.0
 40
9.0
 10
101.7543402523392
 20
-129.3995089737265
 10
101.7543402523392
 20
-129.9155842774169
 10
101.200368898311
 20
-129.9241970161301
 10
100.986428468677
 20
-129.9241970161301
 10
100.7559515807138
 20
-129.9241970161301
 10
100.1086181390353
 20
-129.9049044814127
 10
100.1086181390353
 20
-129.3612684138402
 10
100.1086181390353
 20
-129.1879801109322
 10
100.1785535773859
 20
-128.9423448028339
 10
100.510660782164
 20
-128.9044487524961
 10
100.510660782164
 20
-128.9044487524961
 10
100.510660782164
 20
-129.1180446725816
 10
100.510660782164
 20
-129.1180446725816
 10
100.4534721971089
 20
-129.1287244685859
 10
100.3053330912431
 20
-129.1604193470502
 10
100.3053330912431
 20
-129.3633354711314
 10
100.3053330912431
 20
-129.6554795682806
 10
100.6333061814389
 20
-129.6954426759095
 10
100.8382893628113
 20
-129.7081895292049
 10
100.7600856952961
 20
-129.6151719511032
 10
100.7008300529498
 20
-129.5473035700437
 10
100.7008300529498
 20
-129.3654025284225
 10
100.7008300529498
 20
-129.1855685440925
 10
100.8090060511866
 20
-128.8830891604876
 10
101.2151828088976
 20
-128.8830891604876
 10
101.5345431603803
 20
-128.8830891604876
 10
101.7543402523392
 20
-129.082215679535
 10
101.7543402523392
 20
-129.3995089737265
 97
        0
 97
        0
 92
        1
 93
        1
 72
     4
 94
        3
 73
     0
 74
     1
 95
       17
 96
       13
 40
0.0
 40
0.0
 40
0.0
 40
0.0
 40
1.0
 40
1.0
 40
1.0
 40
2.0
 40
2.0
 40
2.0
 40
3.0
 40
3.0
 40
3.0
 40
4.0
 40
4.0
 40
4.0
 40
4.0
 10
100.8954779478664
 20
-129.3826280058488
 10
100.8954779478664
 20
-129.6447997722763
 10
101.1070068106607
 20
-129.6826958226141
 10
101.2234510380622
 20
-129.6826958226141
 10
101.3991509078099
 20
-129.6826958226141
 10
101.5621039242623
 20
-129.5876111872212
 10
101.5621039242623
 20
-129.4036430883088
 10
101.5621039242623
 20
-129.2830647463251
 10
101.502848281916
 20
-129.1073648765773
 10
101.2172498661888
 20
-129.1073648765773
 10
100.992974150099
 20
-129.1073648765773
 10
100.8954779478664
 20
-129.2468912437299
 10
100.8954779478664
 20
-129.3826280058488
 97
        0
 97
        0
 75
     2
 76
     1
 98
        0
  0
POLYLINE
  5
D6
330
CF
100
AcDbEntity
  8
_U+30EC_U+30A4_U+30E4_U+30FC 1
370
     0
100
AcDb2dPolyline
 66
     1
 10
0.0
 20
0.0
 30
0.0
  0
VERTEX
  5
D7
330
D6
100
AcDbEntity
  8
_U+30EC_U+30A4_U+30E4_U+30FC 1
370
     0
100
AcDbVertex
100
AcDb2dVertex
 10
101.703697348706
 20
-128.6667371640139
 30
0.0
  0
VERTEX
  5
D8
330
D6
100
AcDbEntity
  8
_U+30EC_U+30A4_U+30E4_U+30FC 1
370
     0
100
AcDbVertex
100
AcDb2dVertex
 10
101.4518608687343
 20
-128.6667371640139
 30
0.0
  0
VERTEX
  5
D9
330
D6
100
AcDbEntity
  8
_U+30EC_U+30A4_U+30E4_U+30FC 1
370
     0
100
AcDbVertex
100
AcDb2dVertex
 10
101.4518608687343
 20
-128.4149006840421
 30
0.0
  0
VERTEX
  5
DA
330
D6
100
AcDbEntity
  8
_U+30EC_U+30A4_U+30E4_U+30FC 1
370
     0
100
AcDbVertex
100
AcDb2dVertex
 10
101.703697348706
 20
-128.4149006840421
 30
0.0
  0
VERTEX
  5
DB
330
D6
100
AcDbEntity
  8
_U+30EC_U+30A4_U+30E4_U+30FC 1
370
     0
100
AcDbVertex
100
AcDb2dVertex
 10
101.703697348706
 20
-128.6667371640139
 30
0.0
  0
SEQEND
  5
DC
330
D6
100
AcDbEntity
  8
_U+30EC_U+30A4_U+30E4_U+30FC 1
370
     0
  0
HATCH
  5
DD
330
CF
100
AcDbEntity
  8
_U+30EC_U+30A4_U+30E4_U+30FC 1
 62
     7
420
 16777215
100
AcDbHatch
 10
0.0
 20
0.0
 30
0.0
210
0.0
220
0.0
230
1.0
  2
SOLID
 70
     1
 71
     0
 91
        1
 92
        1
 93
        4
 72
     1
 10
101.703697348706
 20
-128.6667371640139
 11
101.4518608687343
 21
-128.6667371640139
 72
     1
 10
101.4518608687343
 20
-128.6667371640139
 11
101.4518608687343
 21
-128.4149006840421
 72
     1
 10
101.4518608687343
 20
-128.4149006840421
 11
101.703697348706
 21
-128.4149006840421
 72
     1
 10
101.703697348706
 20
-128.4149006840421
 11
101.703697348706
 21
-128.6667371640139
 97
        0
 75
     2
 76
     1
 98
        0
  0
SPLINE
  5
DE
330
CF
100
AcDbEntity
  8
_U+30EC_U+30A4_U+30E4_U+30FC 1
370
     0
100
AcDbSpline
210
0.0
220
0.0
230
1.0
 70
    11
 71
     3
 72
    53
 73
    49
 74
     0
 42
0.0000000001
 43
0.0000000001
 12
1.0
 22
0.0
 32
0.0
 13
1.0
 23
0.0
 33
0.0
 40
0.0
 40
0.0
 40
0.0
 40
0.0
 40
1.0
 40
1.0
 40
1.0
 40
2.0
 40
2.0
 40
2.0
 40
3.0
 40
3.0
 40
3.0
 40
4.0
 40
4.0
 40
4.0
 40
5.0
 40
5.0
 40
5.0
 40
6.0
 40
6.0
 40
6.0
 40
7.0
 40
7.0
 40
7.0
 40
8.0
 40
8.0
 40
8.0
 40
9.0
 40
9.0
 40
9.0
 40
10.0
 40
10.0
 40
10.0
 40
11.0
 40
11.0
 40
11.0
 40
12.0
 40
12.0
 40
12.0
 40
13.0
 40
13.0
 40
13.0
 40
14.0
 40
14.0
 40
14.0
 40
15.0
 40
15.0
 40
15.0
 40
16.0
 40
16.0
 40
16.0
 40
16.0
 10
101.7543402523392
 20
-127.6976318040131
 30
0.0
 10
101.7543402523392
 20
-127.7758354715283
 30
0.0
 10
101.7374592844615
 20
-127.8774657883431
 30
0.0
 10
101.6740695275329
 20
-127.979096105158
 30
0.0
 10
101.5641709815534
 20
-128.1523844080661
 30
0.0
 10
101.4329128435654
 20
-128.1737440000746
 30
0.0
 10
101.3250813548771
 20
-128.1926920252435
 30
0.0
 10
101.3250813548771
 20
-128.1926920252435
 30
0.0
 10
101.3250813548771
 20
-127.9704833664449
 30
0.0
 10
101.3250813548771
 20
-127.9704833664449
 30
0.0
 10
101.523863364376
 20
-127.9157063482294
 30
0.0
 10
101.5534911855491
 20
-127.7885823248237
 30
0.0
 10
101.5534911855491
 20
-127.6955647467219
 30
0.0
 10
101.5534911855491
 20
-127.5560383795693
 30
0.0
 10
101.4539279260254
 20
-127.4037651591213
 30
0.0
 10
101.2213839807711
 20
-127.4037651591213
 30
0.0
 10
100.965413386217
 20
-127.4037651591213
 30
0.0
 10
100.8954779478664
 20
-127.5835991434513
 30
0.0
 10
100.8954779478664
 20
-127.7041774854351
 30
0.0
 10
100.8954779478664
 20
-127.7358723638994
 30
0.0
 10
100.8954779478664
 20
-127.8774657883431
 30
0.0
 10
101.0246690285633
 20
-127.9663492518626
 30
0.0
 10
101.0246690285633
 20
-127.9663492518626
 30
0.0
 10
101.0057210033944
 20
-128.1420491216103
 30
0.0
 10
101.0057210033944
 20
-128.1420491216103
 30
0.0
 10
101.0057210033944
 20
-128.1420491216103
 30
0.0
 10
100.1592610426685
 20
-128.0214707796266
 30
0.0
 10
100.1592610426685
 20
-128.0214707796266
 30
0.0
 10
100.1592610426685
 20
-128.0214707796266
 30
0.0
 10
100.1592610426685
 20
-127.2428791999601
 30
0.0
 10
100.1592610426685
 20
-127.2428791999601
 30
0.0
 10
100.1592610426685
 20
-127.2428791999601
 30
0.0
 10
100.3539089375851
 20
-127.2428791999601
 30
0.0
 10
100.3539089375851
 20
-127.2428791999601
 30
0.0
 10
100.3539089375851
 20
-127.2428791999601
 30
0.0
 10
100.3539089375851
 20
-127.8585177631743
 30
0.0
 10
100.3539089375851
 20
-127.8585177631743
 30
0.0
 10
100.3539089375851
 20
-127.8585177631743
 30
0.0
 10
100.7769666631738
 20
-127.923974577394
 30
0.0
 10
100.7769666631738
 20
-127.923974577394
 30
0.0
 10
100.7432047274184
 20
-127.8626518777566
 30
0.0
 10
100.7028971102409
 20
-127.7803140956591
 30
0.0
 10
100.7028971102409
 20
-127.6618028109665
 30
0.0
 10
100.7028971102409
 20
-127.4078992737036
 30
0.0
 10
100.889276775993
 20
-127.1708767043184
 30
0.0
 10
101.2024359556022
 20
-127.1708767043184
 30
0.0
 10
101.5197292497937
 20
-127.1708767043184
 30
0.0
 10
101.7543402523392
 20
-127.3951524204082
 30
0.0
 10
101.7543402523392
 20
-127.6976318040131
 30
0.0
  0
HATCH
  5
DF
330
CF
100
AcDbEntity
  8
_U+30EC_U+30A4_U+30E4_U+30FC 1
 62
     7
420
 16777215
100
AcDbHatch
 10
0.0
 20
0.0
 30
0.0
210
0.0
220
0.0
230
1.0
  2
SOLID
 70
     1
 71
     0
 91
        1
 92
        1
 93
        1
 72
     4
 94
        3
 73
     0
 74
     1
 95
       53
 96
       49
 40
0.0
 40
0.0
 40
0.0
 40
0.0
 40
1.0
 40
1.0
 40
1.0
 40
2.0
 40
2.0
 40
2.0
 40
3.0
 40
3.0
 40
3.0
 40
4.0
 40
4.0
 40
4.0
 40
5.0
 40
5.0
 40
5.0
 40
6.0
 40
6.0
 40
6.0
 40
7.0
 40
7.0
 40
7.0
 40
8.0
 40
8.0
 40
8.0
 40
9.0
 40
9.0
 40
9.0
 40
10.0
 40
10.0
 40
10.0
 40
11.0
 40
11.0
 40
11.0
 40
12.0
 40
12.0
 40
12.0
 40
13.0
 40
13.0
 40
13.0
 40
14.0
 40
14.0
 40
14.0
 40
15.0
 40
15.0
 40
15.0
 40
16.0
 40
16.0
 40
16.0
 40
16.0
 10
101.7543402523392
 20
-127.6976318040131
 10
101.7543402523392
 20
-127.7758354715283
 10
101.7374592844615
 20
-127.8774657883431
 10
101.6740695275329
 20
-127.979096105158
 10
101.5641709815534
 20
-128.1523844080661
 10
101.4329128435654
 20
-128.1737440000746
 10
101.3250813548771
 20
-128.1926920252435
 10
101.3250813548771
 20
-128.1926920252435
 10
101.3250813548771
 20
-127.9704833664449
 10
101.3250813548771
 20
-127.9704833664449
 10
101.523863364376
 20
-127.9157063482294
 10
101.5534911855491
 20
-127.7885823248237
 10
101.5534911855491
 20
-127.6955647467219
 10
101.5534911855491
 20
-127.5560383795693
 10
101.4539279260254
 20
-127.4037651591213
 10
101.2213839807711
 20
-127.4037651591213
 10
100.965413386217
 20
-127.4037651591213
 10
100.8954779478664
 20
-127.5835991434513
 10
100.8954779478664
 20
-127.7041774854351
 10
100.8954779478664
 20
-127.7358723638994
 10
100.8954779478664
 20
-127.8774657883431
 10
101.0246690285633
 20
-127.9663492518626
 10
101.0246690285633
 20
-127.9663492518626
 10
101.0057210033944
 20
-128.1420491216103
 10
101.0057210033944
 20
-128.1420491216103
 10
101.0057210033944
 20
-128.1420491216103
 10
100.1592610426685
 20
-128.0214707796266
 10
100.1592610426685
 20
-128.0214707796266
 10
100.1592610426685
 20
-128.0214707796266
 10
100.1592610426685
 20
-127.2428791999601
 10
100.1592610426685
 20
-127.2428791999601
 10
100.1592610426685
 20
-127.2428791999601
 10
100.3539089375851
 20
-127.2428791999601
 10
100.3539089375851
 20
-127.2428791999601
 10
100.3539089375851
 20
-127.2428791999601
 10
100.3539089375851
 20
-127.8585177631743
 10
100.3539089375851
 20
-127.8585177631743
 10
100.3539089375851
 20
-127.8585177631743
 10
100.7769666631738
 20
-127.923974577394
 10
100.7769666631738
 20
-127.923974577394
 10
100.7432047274184
 20
-127.8626518777566
 10
100.7028971102409
 20
-127.7803140956591
 10
100.7028971102409
 20
-127.6618028109665
 10
100.7028971102409
 20
-127.4078992737036
 10
100.889276775993
 20
-127.1708767043184
 10
101.2024359556022
 20
-127.1708767043184
 10
101.5197292497937
 20
-127.1708767043184
 10
101.7543402523392
 20
-127.3951524204082
 10
101.7543402523392
 20
-127.6976318040131
 97
        0
 97
        0
 75
     2
 76
     1
 98
        0
  0
ENDBLK
  5
D2
330
CF
100
AcDbEntity
  8
0
100
AcDbBlockEnd
  0
BLOCK
  5
E2
330
E0
100
AcDbEntity
  8
0
100
AcDbBlockBegin
  2
block 9
 70
     0
 10
0.0
 20
0.0
 30
0.0
  3
block 9
  1

  0
POLYLINE
  5
E4
330
E0
100
AcDbEntity
  8
_U+30EC_U+30A4_U+30E4_U+30FC 1
 62
     7
420
 16777215
370
     9
100
AcDb2dPolyline
 66
     1
 10
0.0
 20
0.0
 30
0.0
  0
VERTEX
  5
E5
330
E4
100
AcDbEntity
  8
_U+30EC_U+30A4_U+30E4_U+30FC 1
 62
     7
420
 16777215
370
     9
100
AcDbVertex
100
AcDb2dVertex
 10
102.3492999744126
 20
-134.89410829961
 30
0.0
  0
VERTEX
  5
E6
330
E4
100
AcDbEntity
  8
_U+30EC_U+30A4_U+30E4_U+30FC 1
 62
     7
420
 16777215
370
     9
100
AcDbVertex
100
AcDb2dVertex
 10
102.3492999744126
 20
-131.8934158003601
 30
0.0
  0
SEQEND
  5
E7
330
E4
100
AcDbEntity
  8
_U+30EC_U+30A4_U+30E4_U+30FC 1
 62
     7
420
 16777215
370
     9
  0
POLYLINE
  5
E8
330
E0
100
AcDbEntity
  8
_U+30EC_U+30A4_U+30E4_U+30FC 1
 62
     7
420
 16777215
370
     9
100
AcDb2dPolyline
 66
     1
 10
0.0
 20
0.0
 30
0.0
  0
VERTEX
  5
E9
330
E8
100
AcDbEntity
  8
_U+30EC_U+30A4_U+30E4_U+30FC 1
 62
     7
420
 16777215
370
     9
100
AcDbVertex
100
AcDb2dVertex
 10
80.88979043632952
 20
-134.89410829961
 30
0.0
  0
VERTEX
  5
EA
330
E8
100
AcDbEntity
  8
_U+30EC_U+30A4_U+30E4_U+30FC 1
 62
     7
420
 16777215
370
     9
100
AcDbVertex
100
AcDb2dVertex
 10
103.34977775194
 20
-134.89410829961
 30
0.0
  0
SEQEND
  5
EB
330
E8
100
AcDbEntity
  8
_U+30EC_U+30A4_U+30E4_U+30FC 1
 62
     7
420
 16777215
370
     9
  0
INSERT
  5
ED
330
E0
100
AcDbEntity
  8
_U+30EC_U+30A4_U+30E4_U+30FC 1
100
AcDbBlockReference
  2
block 10
 10
0.0
 20
0.0
 30
0.0
  0
ENDBLK
  5
E3
330
E0
100
AcDbEntity
  8
0
100
AcDbBlockEnd
  0
BLOCK
  5
EE
330
EC
100
AcDbEntity
  8
0
100
AcDbBlockBegin
  2
block 10
 70
     0
 10
0.0
 20
0.0
 30
0.0
  3
block 10
  1

  0
SPLINE
  5
F0
330
EC
100
AcDbEntity
  8
_U+30EC_U+30A4_U+30E4_U+30FC 1
370
     0
100
AcDbSpline
210
0.0
220
0.0
230
1.0
 70
    11
 71
     3
 72
    62
 73
    58
 74
     0
 42
0.0000000001
 43
0.0000000001
 12
1.0
 22
0.0
 32
0.0
 13
1.0
 23
0.0
 33
0.0
 40
0.0
 40
0.0
 40
0.0
 40
0.0
 40
1.0
 40
1.0
 40
1.0
 40
2.0
 40
2.0
 40
2.0
 40
3.0
 40
3.0
 40
3.0
 40
4.0
 40
4.0
 40
4.0
 40
5.0
 40
5.0
 40
5.0
 40
6.0
 40
6.0
 40
6.0
 40
7.0
 40
7.0
 40
7.0
 40
8.0
 40
8.0
 40
8.0
 40
9.0
 40
9.0
 40
9.0
 40
10.0
 40
10.0
 40
10.0
 40
11.0
 40
11.0
 40
11.0
 40
12.0
 40
12.0
 40
12.0
 40
13.0
 40
13.0
 40
13.0
 40
14.0
 40
14.0
 40
14.0
 40
15.0
 40
15.0
 40
15.0
 40
16.0
 40
16.0
 40
16.0
 40
17.0
 40
17.0
 40
17.0
 40
18.0
 40
18.0
 40
18.0
 40
19.0
 40
19.0
 40
19.0
 40
19.0
 10
101.7543402523392
 20
-133.4013318893927
 30
0.0
 10
101.7543402523392
 20
-133.4967610343342
 30
0.0
 10
101.7333251698792
 20
-133.714491069002
 30
0.0
 10
101.5472900136757
 20
-133.8395480351165
 30
0.0
 10
101.4349799008565
 20
-133.9136175880494
 30
0.0
 10
101.3357611508813
 20
-133.9177517026317
 30
0.0
 10
101.2510118019442
 20
-133.921885817214
 30
0.0
 10
101.2510118019442
 20
-133.921885817214
 30
0.0
 10
101.2510118019442
 20
-133.7017442157065
 30
0.0
 10
101.2510118019442
 20
-133.7017442157065
 30
0.0
 10
101.3250813548771
 20
-133.6996771584154
 30
0.0
 10
101.5596923574226
 20
-133.6893418719596
 30
0.0
 10
101.5596923574226
 20
-133.4058105135236
 30
0.0
 10
101.5596923574226
 20
-133.2683512036621
 30
0.0
 10
101.4901014286205
 20
-133.1157334736655
 30
0.0
 10
101.2616915979485
 20
-133.1157334736655
 30
0.0
 10
101.145247370547
 20
-133.1157334736655
 30
0.0
 10
101.096671524205
 20
-133.1539740335518
 30
0.0
 10
101.0649766457407
 20
-133.1856689120161
 30
0.0
 10
100.9909070928078
 20
-133.259738464949
 30
0.0
 10
100.9781602395124
 20
-133.3761826923504
 30
0.0
 10
100.9781602395124
 20
-133.4309597105659
 30
0.0
 10
100.9781602395124
 20
-133.4502522452833
 30
0.0
 10
100.9802272968036
 20
-133.4860812383299
 30
0.0
 10
100.9843614113859
 20
-133.5136420022119
 30
0.0
 10
100.9843614113859
 20
-133.5136420022119
 30
0.0
 10
100.7897135164692
 20
-133.5136420022119
 30
0.0
 10
100.7897135164692
 20
-133.5136420022119
 30
0.0
 10
100.7962591978912
 20
-133.4754014423256
 30
0.0
 10
100.7983262551824
 20
-133.4333712774055
 30
0.0
 10
100.7983262551824
 20
-133.4268255959836
 30
0.0
 10
100.7983262551824
 20
-133.3613687817638
 30
0.0
 10
100.7769666631738
 20
-133.1625867722649
 30
0.0
 10
100.5402886033372
 20
-133.1625867722649
 30
0.0
 10
100.3625216762983
 20
-133.1625867722649
 30
0.0
 10
100.3074001485343
 20
-133.2935004007044
 30
0.0
 10
100.3074001485343
 20
-133.4037434562324
 30
0.0
 10
100.3074001485343
 20
-133.6679822799511
 30
0.0
 10
100.5402886033372
 20
-133.6765950186642
 30
0.0
 10
100.6119465894303
 20
-133.6807291332465
 30
0.0
 10
100.6119465894303
 20
-133.6807291332465
 30
0.0
 10
100.6119465894303
 20
-133.8839897668762
 30
0.0
 10
100.6119465894303
 20
-133.8839897668762
 30
0.0
 10
100.4872341328643
 20
-133.8753770281631
 30
0.0
 10
100.1106851963265
 20
-133.8478162642811
 30
0.0
 10
100.1106851963265
 20
-133.390996602937
 30
0.0
 10
100.1106851963265
 20
-133.1667208868472
 30
0.0
 10
100.2378092197322
 20
-132.9255642028797
 30
0.0
 10
100.5337429219152
 20
-132.9255642028797
 30
0.0
 10
100.7201225876672
 20
-132.9255642028797
 30
0.0
 10
100.8024603697647
 20
-133.0206488382726
 30
0.0
 10
100.8637830694021
 20
-133.1202120977964
 30
0.0
 10
100.8913438332841
 20
-133.0588893981589
 30
0.0
 10
100.9716145580904
 20
-132.8769883565377
 30
0.0
 10
101.248944744653
 20
-132.8769883565377
 30
0.0
 10
101.5872531213046
 20
-132.8769883565377
 30
0.0
 10
101.7543402523392
 20
-133.1243462123786
 30
0.0
 10
101.7543402523392
 20
-133.4013318893927
 30
0.0
  0
HATCH
  5
F1
330
EC
100
AcDbEntity
  8
_U+30EC_U+30A4_U+30E4_U+30FC 1
 62
     7
420
 16777215
100
AcDbHatch
 10
0.0
 20
0.0
 30
0.0
210
0.0
220
0.0
230
1.0
  2
SOLID
 70
     1
 71
     0
 91
        1
 92
        1
 93
        1
 72
     4
 94
        3
 73
     0
 74
     1
 95
       62
 96
       58
 40
0.0
 40
0.0
 40
0.0
 40
0.0
 40
1.0
 40
1.0
 40
1.0
 40
2.0
 40
2.0
 40
2.0
 40
3.0
 40
3.0
 40
3.0
 40
4.0
 40
4.0
 40
4.0
 40
5.0
 40
5.0
 40
5.0
 40
6.0
 40
6.0
 40
6.0
 40
7.0
 40
7.0
 40
7.0
 40
8.0
 40
8.0
 40
8.0
 40
9.0
 40
9.0
 40
9.0
 40
10.0
 40
10.0
 40
10.0
 40
11.0
 40
11.0
 40
11.0
 40
12.0
 40
12.0
 40
12.0
 40
13.0
 40
13.0
 40
13.0
 40
14.0
 40
14.0
 40
14.0
 40
15.0
 40
15.0
 40
15.0
 40
16.0
 40
16.0
 40
16.0
 40
17.0
 40
17.0
 40
17.0
 40
18.0
 40
18.0
 40
18.0
 40
19.0
 40
19.0
 40
19.0
 40
19.0
 10
101.7543402523392
 20
-133.4013318893927
 10
101.7543402523392
 20
-133.4967610343342
 10
101.7333251698792
 20
-133.714491069002
 10
101.5472900136757
 20
-133.8395480351165
 10
101.4349799008565
 20
-133.9136175880494
 10
101.3357611508813
 20
-133.9177517026317
 10
101.2510118019442
 20
-133.921885817214
 10
101.2510118019442
 20
-133.921885817214
 10
101.2510118019442
 20
-133.7017442157065
 10
101.2510118019442
 20
-133.7017442157065
 10
101.3250813548771
 20
-133.6996771584154
 10
101.5596923574226
 20
-133.6893418719596
 10
101.5596923574226
 20
-133.4058105135236
 10
101.5596923574226
 20
-133.2683512036621
 10
101.4901014286205
 20
-133.1157334736655
 10
101.2616915979485
 20
-133.1157334736655
 10
101.145247370547
 20
-133.1157334736655
 10
101.096671524205
 20
-133.1539740335518
 10
101.0649766457407
 20
-133.1856689120161
 10
100.9909070928078
 20
-133.259738464949
 10
100.9781602395124
 20
-133.3761826923504
 10
100.9781602395124
 20
-133.4309597105659
 10
100.9781602395124
 20
-133.4502522452833
 10
100.9802272968036
 20
-133.4860812383299
 10
100.9843614113859
 20
-133.5136420022119
 10
100.9843614113859
 20
-133.5136420022119
 10
100.7897135164692
 20
-133.5136420022119
 10
100.7897135164692
 20
-133.5136420022119
 10
100.7962591978912
 20
-133.4754014423256
 10
100.7983262551824
 20
-133.4333712774055
 10
100.7983262551824
 20
-133.4268255959836
 10
100.7983262551824
 20
-133.3613687817638
 10
100.7769666631738
 20
-133.1625867722649
 10
100.5402886033372
 20
-133.1625867722649
 10
100.3625216762983
 20
-133.1625867722649
 10
100.3074001485343
 20
-133.2935004007044
 10
100.3074001485343
 20
-133.4037434562324
 10
100.3074001485343
 20
-133.6679822799511
 10
100.5402886033372
 20
-133.6765950186642
 10
100.6119465894303
 20
-133.6807291332465
 10
100.6119465894303
 20
-133.6807291332465
 10
100.6119465894303
 20
-133.8839897668762
 10
100.6119465894303
 20
-133.8839897668762
 10
100.4872341328643
 20
-133.8753770281631
 10
100.1106851963265
 20
-133.8478162642811
 10
100.1106851963265
 20
-133.390996602937
 10
100.1106851963265
 20
-133.1667208868472
 10
100.2378092197322
 20
-132.9255642028797
 10
100.5337429219152
 20
-132.9255642028797
 10
100.7201225876672
 20
-132.9255642028797
 10
100.8024603697647
 20
-133.0206488382726
 10
100.8637830694021
 20
-133.1202120977964
 10
100.8913438332841
 20
-133.0588893981589
 10
100.9716145580904
 20
-132.8769883565377
 10
101.248944744653
 20
-132.8769883565377
 10
101.5872531213046
 20
-132.8769883565377
 10
101.7543402523392
 20
-133.1243462123786
 10
101.7543402523392
 20
-133.4013318893927
 97
        0
 97
        0
 75
     2
 76
     1
 98
        0
  0
ENDBLK
  5
EF
330
EC
100
AcDbEntity
  8
0
100
AcDbBlockEnd
  0
ENDSEC
  0
SECTION
  2
ENTITIES
  0
INSERT
  5
42
330
1F
100
AcDbEntity
  8
_U+30EC_U+30A4_U+30E4_U+30FC 1
100
AcDbBlockReference
  2
block 2
 10
0.0
 20
0.0
 30
0.0
  0
ENDSEC
  0
SECTION
  2
OBJECTS
  0
DICTIONARY
  5
C
330
0
100
AcDbDictionary
281
     1
  3
ACAD_GROUP
350
D
  3
ACAD_LAYOUT
350
1A
  3
ACAD_MATERIAL
350
3B
  3
ACAD_MLEADERSTYLE
350
F3
  3
ACAD_MLINESTYLE
350
17
  3
ACAD_PLOTSETTINGS
350
19
  3
ACAD_PLOTSTYLENAME
350
E
  3
ACAD_TABLESTYLE
350
F2
  3
ACAD_VISUALSTYLE
350
2A
  0
SUN
  5
3F
330
29
100
AcDbSun
 90
        1
290
     0
 63
     7
421
 16777215
 40
1.0
291
     1
 91
  2455826
 92
 54000000
292
     0
 70
     2
 71
   256
280
     1
  0
DICTIONARY
  5
D
102
{ACAD_REACTORS
330
C
102
}
330
C
100
AcDbDictionary
281
     1
  0
DICTIONARY
  5
1A
102
{ACAD_REACTORS
330
C
102
}
330
C
100
AcDbDictionary
281
     1
  3
Layout1
350
1E
  3
Layout2
350
26
  3
Model
350
22
  0
DICTIONARY
  5
3B
102
{ACAD_REACTORS
330
C
102
}
330
C
100
AcDbDictionary
281
     1
  3
ByBlock
350
3D
  3
ByLayer
350
3C
  3
Global
350
3E
  0
DICTIONARY
  5
F3
102
{ACAD_REACTORS
330
C
102
}
330
C
100
AcDbDictionary
281
     1
  0
DICTIONARY
  5
17
102
{ACAD_REACTORS
330
C
102
}
330
C
100
AcDbDictionary
281
     1
  3
Standard
350
18
  0
DICTIONARY
  5
19
102
{ACAD_REACTORS
330
C
102
}
330
C
100
AcDbDictionary
281
     1
  0
ACDBDICTIONARYWDFLT
  5
E
102
{ACAD_REACTORS
330
C
102
}
330
C
100
AcDbDictionary
281
     1
  3
Normal
350
F
100
AcDbDictionaryWithDefault
340
F
  0
DICTIONARY
  5
F2
102
{ACAD_REACTORS
330
C
102
}
330
C
100
AcDbDictionary
281
     1
  0
DICTIONARY
  5
2A
102
{ACAD_REACTORS
330
C
102
}
330
C
100
AcDbDictionary
281
     1
  3
2dWireframe
350
2F
  3
3D Hidden
350
31
  3
3dWireframe
350
30
  3
Basic
350
32
  3
Brighten
350
36
  3
ColorChange
350
3A
  3
Conceptual
350
34
  3
Dim
350
35
  3
Facepattern
350
39
  3
Flat
350
2B
  3
FlatWithEdges
350
2C
  3
Gouraud
350
2D
  3
GouraudWithEdges
350
2E
  3
Linepattern
350
38
  3
Realistic
350
33
  3
Thicken
350
37
  0
LAYOUT
  5
1E
102
{ACAD_REACTORS
330
1A
102
}
330
1A
100
AcDbPlotSettings
  1

  2
none_device
  4

  6

 40
0.0
 41
0.0
 42
0.0
 43
0.0
 44
0.0
 45
0.0
 46
0.0
 47
0.0
 48
0.0
 49
0.0
140
0.0
141
0.0
142
1.0
143
1.0
 70
   688
 72
     0
 73
     0
 74
     5
  7

 75
    16
 76
     0
 77
     2
 78
   300
147
1.0
148
0.0
149
0.0
100
AcDbLayout
  1
Layout1
 70
     1
 71
     1
 10
0.0
 20
0.0
 11
12.0
 21
9.0
 12
0.0
 22
0.0
 32
0.0
 14
1.000000000000000E+20
 24
1.000000000000000E+20
 34
1.000000000000000E+20
 15
-1.000000000000000E+20
 25
-1.000000000000000E+20
 35
-1.000000000000000E+20
146
0.0
 13
0.0
 23
0.0
 33
0.0
 16
1.0
 26
0.0
 36
0.0
 17
0.0
 27
1.0
 37
0.0
 76
     0
330
1B
  0
LAYOUT
  5
26
102
{ACAD_REACTORS
330
1A
102
}
330
1A
100
AcDbPlotSettings
  1

  2
none_device
  4

  6

 40
0.0
 41
0.0
 42
0.0
 43
0.0
 44
0.0
 45
0.0
 46
0.0
 47
0.0
 48
0.0
 49
0.0
140
0.0
141
0.0
142
1.0
143
1.0
 70
   688
 72
     0
 73
     0
 74
     5
  7

 75
    16
 76
     0
 77
     2
 78
   300
147
1.0
148
0.0
149
0.0
100
AcDbLayout
  1
Layout2
 70
     1
 71
     2
 10
0.0
 20
0.0
 11
0.0
 21
0.0
 12
0.0
 22
0.0
 32
0.0
 14
0.0
 24
0.0
 34
0.0
 15
0.0
 25
0.0
 35
0.0
146
0.0
 13
0.0
 23
0.0
 33
0.0
 16
1.0
 26
0.0
 36
0.0
 17
0.0
 27
1.0
 37
0.0
 76
     0
330
23
  0
LAYOUT
  5
22
102
{ACAD_REACTORS
330
1A
102
}
330
1A
100
AcDbPlotSettings
  1

  2
none_device
  4

  6

 40
0.0
 41
0.0
 42
0.0
 43
0.0
 44
0.0
 45
0.0
 46
0.0
 47
0.0
 48
0.0
 49
0.0
140
0.0
141
0.0
142
1.0
143
1.0
 70
  1712
 72
     0
 73
     0
 74
     0
  7

 75
     0
 76
     0
 77
     2
 78
   300
147
1.0
148
0.0
149
0.0
100
AcDbLayout
  1
Model
 70
     1
 71
     0
 10
0.0
 20
0.0
 11
12.0
 21
9.0
 12
0.0
 22
0.0
 32
0.0
 14
1.000000000000000E+20
 24
1.000000000000000E+20
 34
1.000000000000000E+20
 15
-1.000000000000000E+20
 25
-1.000000000000000E+20
 35
-1.000000000000000E+20
146
0.0
 13
0.0
 23
0.0
 33
0.0
 16
1.0
 26
0.0
 36
0.0
 17
0.0
 27
1.0
 37
0.0
 76
     0
330
1F
331
29
  0
MATERIAL
  5
3D
102
{ACAD_REACTORS
330
3B
102
}
330
3B
100
AcDbMaterial
  1
ByBlock
 72
     1
 94
      127
  0
MATERIAL
  5
3C
102
{ACAD_REACTORS
330
3B
102
}
330
3B
100
AcDbMaterial
  1
ByLayer
 72
     1
 94
      127
  0
MATERIAL
  5
3E
102
{ACAD_REACTORS
330
3B
102
}
330
3B
100
AcDbMaterial
  1
Global
 72
     1
 94
      127
  0
MLINESTYLE
  5
18
102
{ACAD_REACTORS
330
17
102
}
330
17
100
AcDbMlineStyle
  2
Standard
 70
     0
  3

 62
   256
 51
90.0
 52
90.0
 71
     2
 49
0.5
 62
   256
  6
BYLAYER
 49
-0.5
 62
   256
  6
BYLAYER
  0
ACDBPLACEHOLDER
  5
F
102
{ACAD_REACTORS
330
E
102
}
330
E
  0
VISUALSTYLE
  5
2F
102
{ACAD_REACTORS
330
2A
102
}
330
2A
100
AcDbVisualStyle
  2
2dWireframe
 70
     4
177
     2
291
     0
 71
     0
176
     1
 72
     2
176
     1
 73
     0
176
     1
 90
        0
176
     1
 40
-0.6
176
     1
 41
-30.0
176
     1
 62
     5
 63
     7
421
 16777215
176
     1
 74
     1
176
     1
 91
        4
176
     1
 64
     7
176
     1
 65
   257
176
     1
 75
     1
176
     1
175
     1
176
     1
 42
1.0
176
     1
 92
        0
176
     1
 66
   257
176
     1
 43
1.0
176
     1
 76
     1
176
     1
 77
     6
176
     1
 78
     2
176
     1
 67
     7
176
     1
 79
     5
176
     1
170
     0
176
     1
171
     0
176
     1
290
     0
176
     1
 93
        1
176
     1
 44
0.0
176
     1
173
     0
176
     1
  0
VISUALSTYLE
  5
31
102
{ACAD_REACTORS
330
2A
102
}
330
2A
100
AcDbVisualStyle
  2
3D Hidden
 70
     6
177
     2
291
     0
 71
     1
176
     1
 72
     2
176
     1
 73
     2
176
     1
 90
        0
176
     1
 40
-0.6
176
     1
 41
-30.0
176
     1
 62
     5
 63
     7
421
 16777215
176
     1
 74
     2
176
     1
 91
        2
176
     1
 64
     7
176
     1
 65
   257
176
     1
 75
     2
176
     1
175
     1
176
     1
 42
40.0
176
     1
 92
        0
176
     1
 66
   257
176
     1
 43
1.0
176
     1
 76
     1
176
     1
 77
     6
176
     1
 78
     2
176
     1
 67
     7
176
     1
 79
     3
176
     1
170
     0
176
     1
171
     0
176
     1
290
     0
176
     1
 93
        1
176
     1
 44
0.0
176
     1
173
     0
176
     1
  0
VISUALSTYLE
  5
30
102
{ACAD_REACTORS
330
2A
102
}
330
2A
100
AcDbVisualStyle
  2
3dWireframe
 70
     5
177
     2
291
     0
 71
     0
176
     1
 72
     2
176
     1
 73
     0
176
     1
 90
        0
176
     1
 40
-0.6
176
     1
 41
-30.0
176
     1
 62
     5
 63
     7
421
 16777215
176
     1
 74
     1
176
     1
 91
        4
176
     1
 64
     7
176
     1
 65
   257
176
     1
 75
     1
176
     1
175
     1
176
     1
 42
1.0
176
     1
 92
        0
176
     1
 66
   257
176
     1
 43
1.0
176
     1
 76
     1
176
     1
 77
     6
176
     1
 78
     2
176
     1
 67
     7
176
     1
 79
     5
176
     1
170
     0
176
     1
171
     0
176
     1
290
     0
176
     1
 93
        1
176
     1
 44
0.0
176
     1
173
     0
176
     1
  0
VISUALSTYLE
  5
32
102
{ACAD_REACTORS
330
2A
102
}
330
2A
100
AcDbVisualStyle
  2
Basic
 70
     7
177
     2
291
     1
 71
     1
176
     1
 72
     0
176
     1
 73
     1
176
     1
 90
        0
176
     1
 40
-0.6
176
     1
 41
-30.0
176
     1
 62
     5
 63
     7
421
 16777215
176
     1
 74
     0
176
     1
 91
        4
176
     1
 64
     7
176
     1
 65
   257
176
     1
 75
     1
176
     1
175
     1
176
     1
 42
1.0
176
     1
 92
        8
176
     1
 66
     7
176
     1
 43
1.0
176
     1
 76
     1
176
     1
 77
     6
176
     1
 78
     2
176
     1
 67
     7
176
     1
 79
     5
176
     1
170
     0
176
     1
171
     0
176
     1
290
     0
176
     1
 93
        1
176
     1
 44
0.0
176
     1
173
     0
176
     1
  0
VISUALSTYLE
  5
36
102
{ACAD_REACTORS
330
2A
102
}
330
2A
100
AcDbVisualStyle
  2
Brighten
 70
    12
177
     2
291
     1
 71
     2
176
     1
 72
     2
176
     1
 73
     0
176
     1
 90
        0
176
     1
 40
-0.6
176
     1
 41
-30.0
176
     1
 62
     5
 63
     7
421
 16777215
176
     1
 74
     1
176
     1
 91
        4
176
     1
 64
     7
176
     1
 65
   257
176
     1
 75
     1
176
     1
175
     1
176
     1
 42
1.0
176
     1
 92
        8
176
     1
 66
     7
176
     1
 43
1.0
176
     1
 76
     1
176
     1
 77
     6
176
     1
 78
     2
176
     1
 67
     7
176
     1
 79
     5
176
     1
170
     0
176
     1
171
     0
176
     1
290
     0
176
     1
 93
        1
176
     1
 44
50.0
176
     1
173
     0
176
     1
  0
VISUALSTYLE
  5
3A
102
{ACAD_REACTORS
330
2A
102
}
330
2A
100
AcDbVisualStyle
  2
ColorChange
 70
    16
177
     2
291
     1
 71
     2
176
     1
 72
     2
176
     1
 73
     3
176
     1
 90
        0
176
     1
 40
-0.6
176
     1
 41
-30.0
176
     1
 62
     5
 63
     8
421
  8421504
176
     1
 74
     1
176
     1
 91
        4
176
     1
 64
     7
176
     1
 65
   257
176
     1
 75
     1
176
     1
175
     1
176
     1
 42
1.0
176
     1
 92
        8
176
     1
 66
     8
424
  8421504
176
     1
 43
1.0
176
     1
 76
     1
176
     1
 77
     6
176
     1
 78
     2
176
     1
 67
     7
176
     1
 79
     5
176
     1
170
     0
176
     1
171
     0
176
     1
290
     0
176
     1
 93
        1
176
     1
 44
0.0
176
     1
173
     0
176
     1
  0
VISUALSTYLE
  5
34
102
{ACAD_REACTORS
330
2A
102
}
330
2A
100
AcDbVisualStyle
  2
Conceptual
 70
     9
177
     2
291
     0
 71
     3
176
     1
 72
     2
176
     1
 73
     0
176
     1
 90
        0
176
     1
 40
-0.6
176
     1
 41
-30.0
176
     1
 62
     5
 63
     7
421
 16777215
176
     1
 74
     2
176
     1
 91
        2
176
     1
 64
     7
176
     1
 65
   257
176
     1
 75
     1
176
     1
175
     1
176
     1
 42
40.0
176
     1
 92
        8
176
     1
 66
     7
176
     1
 43
1.0
176
     1
 76
     1
176
     1
 77
     6
176
     1
 78
     2
176
     1
 67
     7
176
     1
 79
     3
176
     1
170
     0
176
     1
171
     0
176
     1
290
     0
176
     1
 93
        1
176
     1
 44
0.0
176
     1
173
     0
176
     1
  0
VISUALSTYLE
  5
35
102
{ACAD_REACTORS
330
2A
102
}
330
2A
100
AcDbVisualStyle
  2
Dim
 70
    11
177
     2
291
     1
 71
     2
176
     1
 72
     2
176
     1
 73
     0
176
     1
 90
        0
176
     1
 40
-0.6
176
     1
 41
-30.0
176
     1
 62
     5
 63
     7
421
 16777215
176
     1
 74
     1
176
     1
 91
        4
176
     1
 64
     7
176
     1
 65
   257
176
     1
 75
     1
176
     1
175
     1
176
     1
 42
1.0
176
     1
 92
        8
176
     1
 66
     7
176
     1
 43
1.0
176
     1
 76
     1
176
     1
 77
     6
176
     1
 78
     2
176
     1
 67
     7
176
     1
 79
     5
176
     1
170
     0
176
     1
171
     0
176
     1
290
     0
176
     1
 93
        1
176
     1
 44
-50.0
176
     1
173
     0
176
     1
  0
VISUALSTYLE
  5
39
102
{ACAD_REACTORS
330
2A
102
}
330
2A
100
AcDbVisualStyle
  2
Facepattern
 70
    15
177
     2
291
     1
 71
     2
176
     1
 72
     2
176
     1
 73
     0
176
     1
 90
        0
176
     1
 40
-0.6
176
     1
 41
-30.0
176
     1
 62
     5
 63
     7
421
 16777215
176
     1
 74
     1
176
     1
 91
        4
176
     1
 64
     7
176
     1
 65
   257
176
     1
 75
     1
176
     1
175
     1
176
     1
 42
1.0
176
     1
 92
        8
176
     1
 66
     7
176
     1
 43
1.0
176
     1
 76
     1
176
     1
 77
     6
176
     1
 78
     2
176
     1
 67
     7
176
     1
 79
     5
176
     1
170
     0
176
     1
171
     0
176
     1
290
     0
176
     1
 93
        1
176
     1
 44
0.0
176
     1
173
     0
176
     1
  0
VISUALSTYLE
  5
2B
102
{ACAD_REACTORS
330
2A
102
}
330
2A
100
AcDbVisualStyle
  2
Flat
 70
     0
177
     2
291
     1
 71
     2
176
     1
 72
     1
176
     1
 73
     1
176
     1
 90
        2
176
     1
 40
-0.6
176
     1
 41
30.0
176
     1
 62
     5
 63
     7
421
 16777215
176
     1
 74
     0
176
     1
 91
        4
176
     1
 64
     7
176
     1
 65
   257
176
     1
 75
     1
176
     1
175
     1
176
     1
 42
1.0
176
     1
 92
        8
176
     1
 66
     7
176
     1
 43
1.0
176
     1
 76
     1
176
     1
 77
     6
176
     1
 78
     2
176
     1
 67
     7
176
     1
 79
     5
176
     1
170
     0
176
     1
171
     0
176
     1
290
     0
176
     1
 93
       13
176
     1
 44
0.0
176
     1
173
     0
176
     1
  0
VISUALSTYLE
  5
2C
102
{ACAD_REACTORS
330
2A
102
}
330
2A
100
AcDbVisualStyle
  2
FlatWithEdges
 70
     1
177
     2
291
     1
 71
     2
176
     1
 72
     1
176
     1
 73
     1
176
     1
 90
        2
176
     1
 40
-0.6
176
     1
 41
30.0
176
     1
 62
     5
 63
     7
421
 16777215
176
     1
 74
     1
176
     1
 91
        4
176
     1
 64
     7
176
     1
 65
   257
176
     1
 75
     1
176
     1
175
     1
176
     1
 42
1.0
176
     1
 92
        0
176
     1
 66
   257
176
     1
 43
1.0
176
     1
 76
     1
176
     1
 77
     6
176
     1
 78
     2
176
     1
 67
     7
176
     1
 79
     5
176
     1
170
     0
176
     1
171
     0
176
     1
290
     0
176
     1
 93
       13
176
     1
 44
0.0
176
     1
173
     0
176
     1
  0
VISUALSTYLE
  5
2D
102
{ACAD_REACTORS
330
2A
102
}
330
2A
100
AcDbVisualStyle
  2
Gouraud
 70
     2
177
     2
291
     1
 71
     2
176
     1
 72
     2
176
     1
 73
     1
176
     1
 90
        2
176
     1
 40
-0.6
176
     1
 41
30.0
176
     1
 62
     5
 63
     7
421
 16777215
176
     1
 74
     0
176
     1
 91
        4
176
     1
 64
     7
176
     1
 65
   257
176
     1
 75
     1
176
     1
175
     1
176
     1
 42
1.0
176
     1
 92
        0
176
     1
 66
     7
176
     1
 43
1.0
176
     1
 76
     1
176
     1
 77
     6
176
     1
 78
     2
176
     1
 67
     7
176
     1
 79
     5
176
     1
170
     0
176
     1
171
     0
176
     1
290
     0
176
     1
 93
       13
176
     1
 44
0.0
176
     1
173
     0
176
     1
  0
VISUALSTYLE
  5
2E
102
{ACAD_REACTORS
330
2A
102
}
330
2A
100
AcDbVisualStyle
  2
GouraudWithEdges
 70
     3
177
     2
291
     1
 71
     2
176
     1
 72
     2
176
     1
 73
     1
176
     1
 90
        2
176
     1
 40
-0.6
176
     1
 41
30.0
176
     1
 62
     5
 63
     7
421
 16777215
176
     1
 74
     1
176
     1
 91
        4
176
     1
 64
     7
176
     1
 65
   257
176
     1
 75
     1
176
     1
175
     1
176
     1
 42
1.0
176
     1
 92
        0
176
     1
 66
   257
176
     1
 43
1.0
176
     1
 76
     1
176
     1
 77
     6
176
     1
 78
     2
176
     1
 67
     7
176
     1
 79
     5
176
     1
170
     0
176
     1
171
     0
176
     1
290
     0
176
     1
 93
       13
176
     1
 44
0.0
176
     1
173
     0
176
     1
  0
VISUALSTYLE
  5
38
102
{ACAD_REACTORS
330
2A
102
}
330
2A
100
AcDbVisualStyle
  2
Linepattern
 70
    14
177
     2
291
     1
 71
     2
176
     1
 72
     2
176
     1
 73
     0
176
     1
 90
        0
176
     1
 40
-0.6
176
     1
 41
-30.0
176
     1
 62
     5
 63
     7
421
 16777215
176
     1
 74
     1
176
     1
 91
        4
176
     1
 64
     7
176
     1
 65
   257
176
     1
 75
     7
176
     1
175
     7
176
     1
 42
1.0
176
     1
 92
        8
176
     1
 66
     7
176
     1
 43
1.0
176
     1
 76
     1
176
     1
 77
     6
176
     1
 78
     2
176
     1
 67
     7
176
     1
 79
     5
176
     1
170
     0
176
     1
171
     0
176
     1
290
     0
176
     1
 93
        1
176
     1
 44
0.0
176
     1
173
     0
176
     1
  0
VISUALSTYLE
  5
33
102
{ACAD_REACTORS
330
2A
102
}
330
2A
100
AcDbVisualStyle
  2
Realistic
 70
     8
177
     2
291
     0
 71
     2
176
     1
 72
     2
176
     1
 73
     0
176
     1
 90
        0
176
     1
 40
-0.6
176
     1
 41
-30.0
176
     1
 62
     5
 63
     7
421
 16777215
176
     1
 74
     1
176
     1
 91
        0
176
     1
 64
     7
176
     1
 65
   257
176
     1
 75
     1
176
     1
175
     1
176
     1
 42
1.0
176
     1
 92
        8
176
     1
 66
     8
424
  7895160
176
     1
 43
1.0
176
     1
 76
     1
176
     1
 77
     6
176
     1
 78
     2
176
     1
 67
     7
176
     1
 79
     5
176
     1
170
     0
176
     1
171
     0
176
     1
290
     0
176
     1
 93
       13
176
     1
 44
0.0
176
     1
173
     0
176
     1
  0
VISUALSTYLE
  5
37
102
{ACAD_REACTORS
330
2A
102
}
330
2A
100
AcDbVisualStyle
  2
Thicken
 70
    13
177
     2
291
     1
 71
     2
176
     1
 72
     2
176
     1
 73
     0
176
     1
 90
        0
176
     1
 40
-0.6
176
     1
 41
-30.0
176
     1
 62
     5
 63
     7
421
 16777215
176
     1
 74
     1
176
     1
 91
        4
176
     1
 64
     7
176
     1
 65
   257
176
     1
 75
     1
176
     1
175
     1
176
     1
 42
1.0
176
     1
 92
       12
176
     1
 66
     7
176
     1
 43
1.0
176
     1
 76
     1
176
     1
 77
     6
176
     1
 78
     2
176
     1
 67
     7
176
     1
 79
     5
176
     1
170
     0
176
     1
171
     0
176
     1
290
     0
176
     1
 93
        1
176
     1
 44
0.0
176
     1
173
     0
176
     1
  0
ENDSEC
  0
EOF
