  0
SECTION
  2
HEADER
  9
$ACADVER
  1
AC1024
  9
$ACADMAINTVER
 70
     6
  9
$DWGCODEPAGE
  3
UNDEFINED
  9
$INSBASE
 10
0.0
 20
0.0
 30
0.0
  9
$EXTMIN
 10
1.000000000000000E+20
 20
1.000000000000000E+20
 30
1.000000000000000E+20
  9
$EXTMAX
 10
-1.000000000000000E+20
 20
-1.000000000000000E+20
 30
-1.000000000000000E+20
  9
$LIMMIN
 10
0.0
 20
0.0
  9
$LIMMAX
 10
12.0
 20
9.0
  9
$ORTHOMODE
 70
     0
  9
$REGENMODE
 70
     1
  9
$FILLMODE
 70
     1
  9
$QTEXTMODE
 70
     0
  9
$MIRRTEXT
 70
     1
  9
$LTSCALE
 40
1.0
  9
$ATTMODE
 70
     1
  9
$TEXTSIZE
 40
0.2
  9
$TRACEWID
 40
0.05
  9
$TEXTSTYLE
  7
Standard
  9
$CLAYER
  8
0
  9
$CELTYPE
  6
ByLayer
  9
$CECOLOR
 62
   256
  9
$CELTSCALE
 40
1.0
  9
$DISPSILH
 70
     0
  9
$DIMSCALE
 40
1.0
  9
$DIMASZ
 40
0.18
  9
$DIMEXO
 40
0.0625
  9
$DIMDLI
 40
0.38
  9
$DIMRND
 40
0.0
  9
$DIMDLE
 40
0.0
  9
$DIMEXE
 40
0.18
  9
$DIMTP
 40
0.0
  9
$DIMTM
 40
0.0
  9
$DIMTXT
 40
0.18
  9
$DIMCEN
 40
0.09
  9
$DIMTSZ
 40
0.0
  9
$DIMTOL
 70
     0
  9
$DIMLIM
 70
     0
  9
$DIMTIH
 70
     1
  9
$DIMTOH
 70
     1
  9
$DIMSE1
 70
     0
  9
$DIMSE2
 70
     0
  9
$DIMTAD
 70
     0
  9
$DIMZIN
 70
     0
  9
$DIMBLK
  1

  9
$DIMASO
 70
     1
  9
$DIMSHO
 70
     1
  9
$DIMPOST
  1

  9
$DIMAPOST
  1

  9
$DIMALT
 70
     0
  9
$DIMALTD
 70
     2
  9
$DIMALTF
 40
25.4
  9
$DIMLFAC
 40
1.0
  9
$DIMTOFL
 70
     0
  9
$DIMTVP
 40
0.0
  9
$DIMTIX
 70
     0
  9
$DIMSOXD
 70
     0
  9
$DIMSAH
 70
     0
  9
$DIMBLK1
  1

  9
$DIMBLK2
  1

  9
$DIMSTYLE
  2
Standard
  9
$DIMCLRD
 70
     0
  9
$DIMCLRE
 70
     0
  9
$DIMCLRT
 70
     0
  9
$DIMTFAC
 40
1.0
  9
$DIMGAP
 40
0.09
  9
$DIMJUST
 70
     0
  9
$DIMSD1
 70
     0
  9
$DIMSD2
 70
     0
  9
$DIMTOLJ
 70
     1
  9
$DIMTZIN
 70
     0
  9
$DIMALTZ
 70
     0
  9
$DIMALTTZ
 70
     0
  9
$DIMUPT
 70
     0
  9
$DIMDEC
 70
     4
  9
$DIMTDEC
 70
     4
  9
$DIMALTU
 70
     2
  9
$DIMALTTD
 70
     2
  9
$DIMTXSTY
  7
Standard
  9
$DIMAUNIT
 70
     0
  9
$DIMADEC
 70
     0
  9
$DIMALTRND
 40
0.0
  9
$DIMAZIN
 70
     0
  9
$DIMDSEP
 70
    46
  9
$DIMATFIT
 70
     3
  9
$DIMFRAC
 70
     0
  9
$DIMLDRBLK
  1

  9
$DIMLUNIT
 70
     2
  9
$DIMLWD
 70
    -2
  9
$DIMLWE
 70
    -2
  9
$DIMTMOVE
 70
     0
  9
$DIMFXL
 40
1.0
  9
$DIMFXLON
 70
     0
  9
$DIMJOGANG
 40
0.7853981633974483
  9
$DIMTFILL
 70
     0
  9
$DIMTFILLCLR
 70
     0
  9
$DIMARCSYM
 70
     0
  9
$DIMLTYPE
  6

  9
$DIMLTEX1
  6

  9
$DIMLTEX2
  6

  9
$DIMTXTDIRECTION
 70
     0
  9
$LUNITS
 70
     2
  9
$LUPREC
 70
     4
  9
$SKETCHINC
 40
0.1
  9
$FILLETRAD
 40
0.5
  9
$AUNITS
 70
     0
  9
$AUPREC
 70
     0
  9
$MENU
  1
.
  9
$ELEVATION
 40
0.0
  9
$PELEVATION
 40
0.0
  9
$THICKNESS
 40
0.0
  9
$LIMCHECK
 70
     0
  9
$CHAMFERA
 40
0.5
  9
$CHAMFERB
 40
0.5
  9
$CHAMFERC
 40
1.0
  9
$CHAMFERD
 40
0.0
  9
$SKPOLY
 70
     0
  9
$TDCREATE
 40
2457917.615625
  9
$TDUCREATE
 40
2457917.240625
  9
$TDUPDATE
 40
2457917.615625
  9
$TDUUPDATE
 40
2457917.240625
  9
$TDINDWG
 40
0.0000000116
  9
$TDUSRTIMER
 40
0.0000000116
  9
$USRTIMER
 70
     1
  9
$ANGBASE
 50
0.0
  9
$ANGDIR
 70
     0
  9
$PDMODE
 70
     0
  9
$PDSIZE
 40
0.0
  9
$PLINEWID
 40
0.0
  9
$SPLFRAME
 70
     0
  9
$SPLINETYPE
 70
     6
  9
$SPLINESEGS
 70
     8
  9
$HANDSEED
  5
EA
  9
$SURFTAB1
 70
     6
  9
$SURFTAB2
 70
     6
  9
$SURFTYPE
 70
     6
  9
$SURFU
 70
     6
  9
$SURFV
 70
     6
  9
$UCSBASE
  2

  9
$UCSNAME
  2

  9
$UCSORG
 10
0.0
 20
0.0
 30
0.0
  9
$UCSXDIR
 10
1.0
 20
0.0
 30
0.0
  9
$UCSYDIR
 10
0.0
 20
1.0
 30
0.0
  9
$UCSORTHOREF
  2

  9
$UCSORTHOVIEW
 70
     0
  9
$UCSORGTOP
 10
0.0
 20
0.0
 30
0.0
  9
$UCSORGBOTTOM
 10
0.0
 20
0.0
 30
0.0
  9
$UCSORGLEFT
 10
0.0
 20
0.0
 30
0.0
  9
$UCSORGRIGHT
 10
0.0
 20
0.0
 30
0.0
  9
$UCSORGFRONT
 10
0.0
 20
0.0
 30
0.0
  9
$UCSORGBACK
 10
0.0
 20
0.0
 30
0.0
  9
$PUCSBASE
  2

  9
$PUCSNAME
  2

  9
$PUCSORG
 10
0.0
 20
0.0
 30
0.0
  9
$PUCSXDIR
 10
1.0
 20
0.0
 30
0.0
  9
$PUCSYDIR
 10
0.0
 20
1.0
 30
0.0
  9
$PUCSORTHOREF
  2

  9
$PUCSORTHOVIEW
 70
     0
  9
$PUCSORGTOP
 10
0.0
 20
0.0
 30
0.0
  9
$PUCSORGBOTTOM
 10
0.0
 20
0.0
 30
0.0
  9
$PUCSORGLEFT
 10
0.0
 20
0.0
 30
0.0
  9
$PUCSORGRIGHT
 10
0.0
 20
0.0
 30
0.0
  9
$PUCSORGFRONT
 10
0.0
 20
0.0
 30
0.0
  9
$PUCSORGBACK
 10
0.0
 20
0.0
 30
0.0
  9
$USERI1
 70
     0
  9
$USERI2
 70
     0
  9
$USERI3
 70
     0
  9
$USERI4
 70
     0
  9
$USERI5
 70
     0
  9
$USERR1
 40
0.0
  9
$USERR2
 40
0.0
  9
$USERR3
 40
0.0
  9
$USERR4
 40
0.0
  9
$USERR5
 40
0.0
  9
$WORLDVIEW
 70
     1
  9
$SHADEDGE
 70
     3
  9
$SHADEDIF
 70
    70
  9
$TILEMODE
 70
     1
  9
$MAXACTVP
 70
    64
  9
$PINSBASE
 10
0.0
 20
0.0
 30
0.0
  9
$PLIMCHECK
 70
     0
  9
$PEXTMIN
 10
1.000000000000000E+20
 20
1.000000000000000E+20
 30
1.000000000000000E+20
  9
$PEXTMAX
 10
-1.000000000000000E+20
 20
-1.000000000000000E+20
 30
-1.000000000000000E+20
  9
$PLIMMIN
 10
0.0
 20
0.0
  9
$PLIMMAX
 10
12.0
 20
9.0
  9
$UNITMODE
 70
     0
  9
$VISRETAIN
 70
     1
  9
$PLINEGEN
 70
     0
  9
$PSLTSCALE
 70
     1
  9
$TREEDEPTH
 70
  3020
  9
$CMLSTYLE
  2
Standard
  9
$CMLJUST
 70
     0
  9
$CMLSCALE
 40
1.0
  9
$PROXYGRAPHICS
 70
     1
  9
$MEASUREMENT
 70
     0
  9
$CELWEIGHT
370
    -1
  9
$ENDCAPS
280
     0
  9
$JOINSTYLE
280
     0
  9
$LWDISPLAY
290
     1
  9
$INSUNITS
 70
     1
  9
$HYPERLINKBASE
  1

  9
$STYLESHEET
  1

  9
$XEDIT
290
     1
  9
$CEPSNTYPE
380
     0
  9
$PSTYLEMODE
290
     1
  9
$FINGERPRINTGUID
  2
{660A162E-94C0-A1D0-3C2C-56BB65375CC4}
  9
$VERSIONGUID
  2
{FAEB1C32-E019-11D5-929B-00C0DF256EC4}
  9
$EXTNAMES
290
     1
  9
$PSVPSCALE
 40
0.0
  9
$OLESTARTUP
290
     0
  9
$SORTENTS
280
   127
  9
$INDEXCTL
280
     0
  9
$HIDETEXT
280
     1
  9
$XCLIPFRAME
280
     2
  9
$HALOGAP
280
     0
  9
$OBSCOLOR
 70
   257
  9
$OBSLTYPE
280
     0
  9
$INTERSECTIONDISPLAY
280
     0
  9
$INTERSECTIONCOLOR
 70
   257
  9
$DIMASSOC
280
     2
  9
$PROJECTNAME
  1

  9
$CAMERADISPLAY
290
     0
  9
$LENSLENGTH
 40
50.0
  9
$CAMERAHEIGHT
 40
0.0
  9
$STEPSPERSEC
 40
2.0
  9
$STEPSIZE
 40
6.0
  9
$3DDWFPREC
 40
2.0
  9
$PSOLWIDTH
 40
0.25
  9
$PSOLHEIGHT
 40
4.0
  9
$LOFTANG1
 40
1.570796326794897
  9
$LOFTANG2
 40
1.570796326794897
  9
$LOFTMAG1
 40
0.0
  9
$LOFTMAG2
 40
0.0
  9
$LOFTPARAM
 70
     7
  9
$LOFTNORMALS
280
     1
  9
$LATITUDE
 40
37.795
  9
$LONGITUDE
 40
-122.394
  9
$NORTHDIRECTION
 40
0.0
  9
$TIMEZONE
 70
 -8000
  9
$LIGHTGLYPHDISPLAY
280
     1
  9
$TILEMODELIGHTSYNCH
280
     1
  9
$CMATERIAL
347
3C
  9
$SOLIDHIST
280
     1
  9
$SHOWHIST
280
     1
  9
$DWFFRAME
280
     2
  9
$DGNFRAME
280
     2
  9
$REALWORLDSCALE
290
     1
  9
$INTERFERECOLOR
 62
   256
  9
$CSHADOW
280
     0
  9
$SHADOWPLANELOCATION
 40
0.0
  0
ENDSEC
  0
SECTION
  2
CLASSES
  0
CLASS
  1
ACDBDICTIONARYWDFLT
  2
AcDbDictionaryWithDefault
  3
ObjectDBX Classes
 90
        0
 91
        4
280
     0
281
     0
  0
CLASS
  1
VISUALSTYLE
  2
AcDbVisualStyle
  3
ObjectDBX Classes
 90
     4095
 91
        4
280
     0
281
     0
  0
CLASS
  1
MATERIAL
  2
AcDbMaterial
  3
ObjectDBX Classes
 90
     1153
 91
        4
280
     0
281
     0
  0
CLASS
  1
SUN
  2
AcDbSun
  3
SCENEOE
 90
     1024
 91
        4
280
     0
281
     0
  0
ENDSEC
  0
SECTION
  2
TABLES
  0
TABLE
  2
VPORT
  5
8
330
0
100
AcDbSymbolTable
 70
     1
  0
VPORT
  5
29
330
8
100
AcDbSymbolTableRecord
100
AcDbViewportTableRecord
  2
*Active
 70
     0
 10
0.0
 20
0.0
 11
1.0
 21
1.0
 12
0.0
 22
0.0
 13
0.0
 23
0.0
 14
0.5
 24
0.5
 15
0.5
 25
0.5
 16
0.0
 26
0.0
 36
1.0
 17
91.00082462281999
 27
-128.4993055234307
 37
0.0
 40
256.9986110468615
 41
0.7081814508812795
 42
50.0
 43
0.0
 44
0.0
 50
0.0
 51
0.0
 71
     0
 72
   100
 73
     1
 74
     3
 75
     0
 76
     0
 77
     0
 78
     0
281
     0
 65
     1
110
0.0
120
0.0
130
0.0
111
1.0
121
0.0
131
0.0
112
0.0
122
1.0
132
0.0
 79
     0
146
0.0
 60
     3
 61
     5
292
     1
282
     1
141
0.0
142
0.0
 63
   250
361
3F
  0
ENDTAB
  0
TABLE
  2
LTYPE
  5
5
330
0
100
AcDbSymbolTable
 70
     1
  0
LTYPE
  5
14
330
5
100
AcDbSymbolTableRecord
100
AcDbLinetypeTableRecord
  2
ByBlock
 70
     0
  3

 72
    65
 73
     0
 40
0.0
  0
LTYPE
  5
15
330
5
100
AcDbSymbolTableRecord
100
AcDbLinetypeTableRecord
  2
ByLayer
 70
     0
  3

 72
    65
 73
     0
 40
0.0
  0
LTYPE
  5
16
330
5
100
AcDbSymbolTableRecord
100
AcDbLinetypeTableRecord
  2
Continuous
 70
     0
  3
Solid line
 72
    65
 73
     0
 40
0.0
  0
ENDTAB
  0
TABLE
  2
LAYER
  5
2
330
0
100
AcDbSymbolTable
 70
     2
  0
LAYER
  5
10
330
2
100
AcDbSymbolTableRecord
100
AcDbLayerTableRecord
  2
0
 70
     0
 62
     7
  6
Continuous
370
    -3
390
F
347
3E
  0
LAYER
  5
40
330
2
100
AcDbSymbolTableRecord
100
AcDbLayerTableRecord
  2
_U+30EC_U+30A4_U+30E4_U+30FC 1
 70
     0
 62
     7
  6
Continuous
370
    -3
390
F
347
3E
  0
ENDTAB
  0
TABLE
  2
STYLE
  5
3
330
0
100
AcDbSymbolTable
 70
     1
  0
STYLE
  5
11
330
3
100
AcDbSymbolTableRecord
100
AcDbTextStyleTableRecord
  2
Standard
 70
     0
 40
0.0
 41
1.0
 50
0.0
 71
     0
 42
0.2
  3
txt
  4

  0
ENDTAB
  0
TABLE
  2
VIEW
  5
6
330
0
100
AcDbSymbolTable
 70
     0
  0
ENDTAB
  0
TABLE
  2
UCS
  5
7
330
0
100
AcDbSymbolTable
 70
     0
  0
ENDTAB
  0
TABLE
  2
APPID
  5
9
330
0
100
AcDbSymbolTable
 70
     1
  0
APPID
  5
12
330
9
100
AcDbSymbolTableRecord
100
AcDbRegAppTableRecord
  2
ACAD
 70
     0
  0
ENDTAB
  0
TABLE
  2
DIMSTYLE
  5
A
330
0
100
AcDbSymbolTable
 70
     1
100
AcDbDimStyleTable
  0
DIMSTYLE
105
27
330
A
100
AcDbSymbolTableRecord
100
AcDbDimStyleTableRecord
  2
Standard
 70
     0
178
     0
340
11
  0
ENDTAB
  0
TABLE
  2
BLOCK_RECORD
  5
1
330
0
100
AcDbSymbolTable
 70
     7
  0
BLOCK_RECORD
  5
1F
330
1
100
AcDbSymbolTableRecord
100
AcDbBlockTableRecord
  2
*Model_Space
340
22
 70
     0
280
     1
281
     0
  0
BLOCK_RECORD
  5
1B
330
1
100
AcDbSymbolTableRecord
100
AcDbBlockTableRecord
  2
*Paper_Space
340
1E
 70
     0
280
     1
281
     0
  0
BLOCK_RECORD
  5
23
330
1
100
AcDbSymbolTableRecord
100
AcDbBlockTableRecord
  2
*Paper_Space0
340
26
 70
     0
280
     1
281
     0
  0
BLOCK_RECORD
  5
41
330
1
100
AcDbSymbolTableRecord
100
AcDbBlockTableRecord
  2
block 2
340
0
102
{BLKREFS
331
42
102
}
 70
     0
280
     1
281
     0
  0
BLOCK_RECORD
  5
7A
330
1
100
AcDbSymbolTableRecord
100
AcDbBlockTableRecord
  2
block 3
340
0
102
{BLKREFS
331
7B
102
}
 70
     0
280
     1
281
     0
  0
BLOCK_RECORD
  5
8C
330
1
100
AcDbSymbolTableRecord
100
AcDbBlockTableRecord
  2
block 4
340
0
102
{BLKREFS
331
8D
102
}
 70
     0
280
     1
281
     0
  0
BLOCK_RECORD
  5
A0
330
1
100
AcDbSymbolTableRecord
100
AcDbBlockTableRecord
  2
block 5
340
0
102
{BLKREFS
331
A1
102
}
 70
     0
280
     1
281
     0
  0
BLOCK_RECORD
  5
B5
330
1
100
AcDbSymbolTableRecord
100
AcDbBlockTableRecord
  2
block 6
340
0
102
{BLKREFS
331
B6
102
}
 70
     0
280
     1
281
     0
  0
BLOCK_RECORD
  5
D6
330
1
100
AcDbSymbolTableRecord
100
AcDbBlockTableRecord
  2
block 7
340
0
102
{BLKREFS
331
D7
102
}
 70
     0
280
     1
281
     0
  0
ENDTAB
  0
ENDSEC
  0
SECTION
  2
BLOCKS
  0
BLOCK
  5
20
330
1F
100
AcDbEntity
  8
0
100
AcDbBlockBegin
  2
*Model_Space
 70
     0
 10
0.0
 20
0.0
 30
0.0
  3
*Model_Space
  1

  0
ENDBLK
  5
21
330
1F
100
AcDbEntity
  8
0
100
AcDbBlockEnd
  0
BLOCK
  5
1C
330
1B
100
AcDbEntity
 67
     1
  8
0
100
AcDbBlockBegin
  2
*Paper_Space
 70
     0
 10
0.0
 20
0.0
 30
0.0
  3
*Paper_Space
  1

  0
ENDBLK
  5
1D
330
1B
100
AcDbEntity
 67
     1
  8
0
100
AcDbBlockEnd
  0
BLOCK
  5
24
330
23
100
AcDbEntity
  8
0
100
AcDbBlockBegin
  2
*Paper_Space0
 70
     0
 10
0.0
 20
0.0
 30
0.0
  3
*Paper_Space0
  1

  0
ENDBLK
  5
25
330
23
100
AcDbEntity
  8
0
100
AcDbBlockEnd
  0
BLOCK
  5
43
330
41
100
AcDbEntity
  8
0
100
AcDbBlockBegin
  2
block 2
 70
     0
 10
0.0
 20
0.0
 30
0.0
  3
block 2
  1

  0
POLYLINE
  5
45
330
41
100
AcDbEntity
  8
_U+30EC_U+30A4_U+30E4_U+30FC 1
370
     0
100
AcDb2dPolyline
 66
     1
 10
0.0
 20
0.0
 30
0.0
  0
VERTEX
  5
46
330
45
100
AcDbEntity
  8
_U+30EC_U+30A4_U+30E4_U+30FC 1
370
     0
100
AcDbVertex
100
AcDb2dVertex
 10
69.84862238467986
 20
-125.7132430241272
 30
0.0
  0
VERTEX
  5
47
330
45
100
AcDbEntity
  8
_U+30EC_U+30A4_U+30E4_U+30FC 1
370
     0
100
AcDbVertex
100
AcDb2dVertex
 10
89.83708131917622
 20
-125.7132430241272
 30
0.0
  0
VERTEX
  5
48
330
45
100
AcDbEntity
  8
_U+30EC_U+30A4_U+30E4_U+30FC 1
370
     0
100
AcDbVertex
100
AcDb2dVertex
 10
89.83708131917622
 20
-134.913052466272
 30
0.0
  0
VERTEX
  5
49
330
45
100
AcDbEntity
  8
_U+30EC_U+30A4_U+30E4_U+30FC 1
370
     0
100
AcDbVertex
100
AcDb2dVertex
 10
93.83751066156121
 20
-134.913052466272
 30
0.0
  0
VERTEX
  5
4A
330
45
100
AcDbEntity
  8
_U+30EC_U+30A4_U+30E4_U+30FC 1
370
     0
100
AcDbVertex
100
AcDb2dVertex
 10
93.83751066156121
 20
-133.912574688744
 30
0.0
  0
VERTEX
  5
4B
330
45
100
AcDbEntity
  8
_U+30EC_U+30A4_U+30E4_U+30FC 1
370
     0
100
AcDbVertex
100
AcDb2dVertex
 10
90.73761942175999
 20
-133.912574688744
 30
0.0
  0
VERTEX
  5
4C
330
45
100
AcDbEntity
  8
_U+30EC_U+30A4_U+30E4_U+30FC 1
370
     0
100
AcDbVertex
100
AcDb2dVertex
 10
90.73761942175999
 20
-125.7132430241272
 30
0.0
  0
VERTEX
  5
4D
330
45
100
AcDbEntity
  8
_U+30EC_U+30A4_U+30E4_U+30FC 1
370
     0
100
AcDbVertex
100
AcDb2dVertex
 10
106.8372303299107
 20
-125.7132430241272
 30
0.0
  0
VERTEX
  5
4E
330
45
100
AcDbEntity
  8
_U+30EC_U+30A4_U+30E4_U+30FC 1
370
     0
100
AcDbVertex
100
AcDb2dVertex
 10
106.8372303299107
 20
-124.7135060799329
 30
0.0
  0
VERTEX
  5
4F
330
45
100
AcDbEntity
  8
_U+30EC_U+30A4_U+30E4_U+30FC 1
370
     0
100
AcDbVertex
100
AcDb2dVertex
 10
69.84862238467986
 20
-124.7135060799329
 30
0.0
  0
VERTEX
  5
50
330
45
100
AcDbEntity
  8
_U+30EC_U+30A4_U+30E4_U+30FC 1
370
     0
100
AcDbVertex
100
AcDb2dVertex
 10
69.84862238467986
 20
-125.7132430241272
 30
0.0
  0
SEQEND
  5
52
330
45
100
AcDbEntity
  8
_U+30EC_U+30A4_U+30E4_U+30FC 1
370
     0
  0
HATCH
  5
51
330
41
100
AcDbEntity
  8
_U+30EC_U+30A4_U+30E4_U+30FC 1
 62
   253
420
 11711154
100
AcDbHatch
 10
0.0
 20
0.0
 30
0.0
210
0.0
220
0.0
230
1.0
  2
SOLID
 70
     1
 71
     0
 91
        1
 92
        1
 93
       10
 72
     1
 10
69.84862238467986
 20
-125.7132430241272
 11
89.83708131917622
 21
-125.7132430241272
 72
     1
 10
89.83708131917622
 20
-125.7132430241272
 11
89.83708131917622
 21
-134.913052466272
 72
     1
 10
89.83708131917622
 20
-134.913052466272
 11
93.83751066156121
 21
-134.913052466272
 72
     1
 10
93.83751066156121
 20
-134.913052466272
 11
93.83751066156121
 21
-133.912574688744
 72
     1
 10
93.83751066156121
 20
-133.912574688744
 11
90.73761942175999
 21
-133.912574688744
 72
     1
 10
90.73761942175999
 20
-133.912574688744
 11
90.73761942175999
 21
-125.7132430241272
 72
     1
 10
90.73761942175999
 20
-125.7132430241272
 11
106.8372303299107
 21
-125.7132430241272
 72
     1
 10
106.8372303299107
 20
-125.7132430241272
 11
106.8372303299107
 21
-124.7135060799329
 72
     1
 10
106.8372303299107
 20
-124.7135060799329
 11
69.84862238467986
 21
-124.7135060799329
 72
     1
 10
69.84862238467986
 20
-124.7135060799329
 11
69.84862238467986
 21
-125.7132430241272
 97
        0
 75
     2
 76
     1
 98
        0
  0
POLYLINE
  5
53
330
41
100
AcDbEntity
  8
_U+30EC_U+30A4_U+30E4_U+30FC 1
 62
     7
420
 16777215
370
    25
100
AcDb2dPolyline
 66
     1
 10
0.0
 20
0.0
 30
0.0
  0
VERTEX
  5
54
330
53
100
AcDbEntity
  8
_U+30EC_U+30A4_U+30E4_U+30FC 1
 62
     7
420
 16777215
370
    25
100
AcDbVertex
100
AcDb2dVertex
 10
89.83708131917622
 20
-125.7132430241272
 30
0.0
  0
VERTEX
  5
55
330
53
100
AcDbEntity
  8
_U+30EC_U+30A4_U+30E4_U+30FC 1
 62
     7
420
 16777215
370
    25
100
AcDbVertex
100
AcDb2dVertex
 10
69.83758044051712
 20
-125.7132430241272
 30
0.0
  0
VERTEX
  5
56
330
53
100
AcDbEntity
  8
_U+30EC_U+30A4_U+30E4_U+30FC 1
 62
     7
420
 16777215
370
    25
100
AcDbVertex
100
AcDb2dVertex
 10
69.82107220476684
 20
-125.7132430241272
 30
0.0
  0
VERTEX
  5
57
330
53
100
AcDbEntity
  8
_U+30EC_U+30A4_U+30E4_U+30FC 1
 62
     7
420
 16777215
370
    25
100
AcDbVertex
100
AcDb2dVertex
 10
69.82107220476684
 20
-124.7135060799329
 30
0.0
  0
VERTEX
  5
58
330
53
100
AcDbEntity
  8
_U+30EC_U+30A4_U+30E4_U+30FC 1
 62
     7
420
 16777215
370
    25
100
AcDbVertex
100
AcDb2dVertex
 10
69.83758044051712
 20
-124.7135060799329
 30
0.0
  0
VERTEX
  5
59
330
53
100
AcDbEntity
  8
_U+30EC_U+30A4_U+30E4_U+30FC 1
 62
     7
420
 16777215
370
    25
100
AcDbVertex
100
AcDb2dVertex
 10
106.8372303299107
 20
-124.7135060799329
 30
0.0
  0
VERTEX
  5
5A
330
53
100
AcDbEntity
  8
_U+30EC_U+30A4_U+30E4_U+30FC 1
 62
     7
420
 16777215
370
    25
100
AcDbVertex
100
AcDb2dVertex
 10
106.8372303299107
 20
-125.7132430241272
 30
0.0
  0
VERTEX
  5
5B
330
53
100
AcDbEntity
  8
_U+30EC_U+30A4_U+30E4_U+30FC 1
 62
     7
420
 16777215
370
    25
100
AcDbVertex
100
AcDb2dVertex
 10
90.73761942175999
 20
-125.7132430241272
 30
0.0
  0
VERTEX
  5
5C
330
53
100
AcDbEntity
  8
_U+30EC_U+30A4_U+30E4_U+30FC 1
 62
     7
420
 16777215
370
    25
100
AcDbVertex
100
AcDb2dVertex
 10
90.73761942175999
 20
-133.912574688744
 30
0.0
  0
VERTEX
  5
5D
330
53
100
AcDbEntity
  8
_U+30EC_U+30A4_U+30E4_U+30FC 1
 62
     7
420
 16777215
370
    25
100
AcDbVertex
100
AcDb2dVertex
 10
93.83751066156121
 20
-133.912574688744
 30
0.0
  0
VERTEX
  5
5E
330
53
100
AcDbEntity
  8
_U+30EC_U+30A4_U+30E4_U+30FC 1
 62
     7
420
 16777215
370
    25
100
AcDbVertex
100
AcDb2dVertex
 10
93.83751066156121
 20
-134.913052466272
 30
0.0
  0
VERTEX
  5
5F
330
53
100
AcDbEntity
  8
_U+30EC_U+30A4_U+30E4_U+30FC 1
 62
     7
420
 16777215
370
    25
100
AcDbVertex
100
AcDb2dVertex
 10
89.83708131917622
 20
-134.913052466272
 30
0.0
  0
VERTEX
  5
60
330
53
100
AcDbEntity
  8
_U+30EC_U+30A4_U+30E4_U+30FC 1
 62
     7
420
 16777215
370
    25
100
AcDbVertex
100
AcDb2dVertex
 10
89.83708131917622
 20
-125.7132430241272
 30
0.0
  0
SEQEND
  5
61
330
53
100
AcDbEntity
  8
_U+30EC_U+30A4_U+30E4_U+30FC 1
 62
     7
420
 16777215
370
    25
  0
SPLINE
  5
62
330
41
100
AcDbEntity
  8
_U+30EC_U+30A4_U+30E4_U+30FC 1
 62
     7
420
 16777215
370
     9
100
AcDbSpline
210
0.0
220
0.0
230
1.0
 70
    11
 71
     3
 72
    17
 73
    13
 74
     0
 42
0.0000000001
 43
0.0000000001
 12
1.0
 22
0.0
 32
0.0
 13
1.0
 23
0.0
 33
0.0
 40
0.0
 40
0.0
 40
0.0
 40
0.0
 40
1.0
 40
1.0
 40
1.0
 40
2.0
 40
2.0
 40
2.0
 40
3.0
 40
3.0
 40
3.0
 40
4.0
 40
4.0
 40
4.0
 40
4.0
 10
69.92097710505615
 20
-120.713746914266
 30
0.0
 10
69.92097710505615
 20
-120.6586077476132
 30
0.0
 10
69.87617432842138
 20
-120.6138402476243
 30
0.0
 10
69.82107220476684
 20
-120.6138402476243
 30
0.0
 10
69.76593127567837
 20
-120.6138402476243
 30
0.0
 10
69.72116377682048
 20
-120.6586077476132
 30
0.0
 10
69.72116377682048
 20
-120.713746914266
 30
0.0
 10
69.72116377682048
 20
-120.7688508031412
 30
0.0
 10
69.76593127567837
 20
-120.8136535809076
 30
0.0
 10
69.82107220476684
 20
-120.8136535809076
 30
0.0
 10
69.87617432842138
 20
-120.8136535809076
 30
0.0
 10
69.92097710505615
 20
-120.7688508031412
 30
0.0
 10
69.92097710505615
 20
-120.713746914266
 30
0.0
  0
SPLINE
  5
63
330
41
100
AcDbEntity
  8
_U+30EC_U+30A4_U+30E4_U+30FC 1
 62
     7
420
 16777215
370
     9
100
AcDbSpline
210
0.0
220
0.0
230
1.0
 70
    11
 71
     3
 72
    17
 73
    13
 74
     0
 42
0.0000000001
 43
0.0000000001
 12
1.0
 22
0.0
 32
0.0
 13
1.0
 23
0.0
 33
0.0
 40
0.0
 40
0.0
 40
0.0
 40
0.0
 40
1.0
 40
1.0
 40
1.0
 40
2.0
 40
2.0
 40
2.0
 40
3.0
 40
3.0
 40
3.0
 40
4.0
 40
4.0
 40
4.0
 40
4.0
 10
106.9371369940286
 20
-120.713746914266
 30
0.0
 10
106.9371369940286
 20
-120.6586077476132
 30
0.0
 10
106.8923721954993
 20
-120.6138402476243
 30
0.0
 10
106.8372303299107
 20
-120.6138402476243
 30
0.0
 10
106.7821264424277
 20
-120.6138402476243
 30
0.0
 10
106.7373236657929
 20
-120.6586077476132
 30
0.0
 10
106.7373236657929
 20
-120.713746914266
 30
0.0
 10
106.7373236657929
 20
-120.7688508031412
 30
0.0
 10
106.7821264424277
 20
-120.8136535809076
 30
0.0
 10
106.8372303299107
 20
-120.8136535809076
 30
0.0
 10
106.8923721954993
 20
-120.8136535809076
 30
0.0
 10
106.9371369940286
 20
-120.7688508031412
 30
0.0
 10
106.9371369940286
 20
-120.713746914266
 30
0.0
  0
SPLINE
  5
64
330
41
100
AcDbEntity
  8
_U+30EC_U+30A4_U+30E4_U+30FC 1
 62
     7
420
 16777215
370
     9
100
AcDbSpline
210
0.0
220
0.0
230
1.0
 70
    11
 71
     3
 72
    17
 73
    13
 74
     0
 42
0.0000000001
 43
0.0000000001
 12
1.0
 22
0.0
 32
0.0
 13
1.0
 23
0.0
 33
0.0
 40
0.0
 40
0.0
 40
0.0
 40
0.0
 40
1.0
 40
1.0
 40
1.0
 40
2.0
 40
2.0
 40
2.0
 40
3.0
 40
3.0
 40
3.0
 40
4.0
 40
4.0
 40
4.0
 40
4.0
 10
110.9368960586529
 20
-125.7132430241272
 30
0.0
 10
110.9368960586529
 20
-125.658139135252
 30
0.0
 10
110.8920932820181
 20
-125.6133363574856
 30
0.0
 10
110.8369893945351
 20
-125.6133363574856
 30
0.0
 10
110.7818502292751
 20
-125.6133363574856
 30
0.0
 10
110.7370827304172
 20
-125.658139135252
 30
0.0
 10
110.7370827304172
 20
-125.7132430241272
 30
0.0
 10
110.7370827304172
 20
-125.7690524685577
 30
0.0
 10
110.7818502292751
 20
-125.8138552463244
 30
0.0
 10
110.8369893945351
 20
-125.8138552463244
 30
0.0
 10
110.8920932820181
 20
-125.8138552463244
 30
0.0
 10
110.9368960586529
 20
-125.7690524685577
 30
0.0
 10
110.9368960586529
 20
-125.7132430241272
 30
0.0
  0
SPLINE
  5
65
330
41
100
AcDbEntity
  8
_U+30EC_U+30A4_U+30E4_U+30FC 1
 62
     7
420
 16777215
370
     9
100
AcDbSpline
210
0.0
220
0.0
230
1.0
 70
    11
 71
     3
 72
    17
 73
    13
 74
     0
 42
0.0000000001
 43
0.0000000001
 12
1.0
 22
0.0
 32
0.0
 13
1.0
 23
0.0
 33
0.0
 40
0.0
 40
0.0
 40
0.0
 40
0.0
 40
1.0
 40
1.0
 40
1.0
 40
2.0
 40
2.0
 40
2.0
 40
3.0
 40
3.0
 40
3.0
 40
4.0
 40
4.0
 40
4.0
 40
4.0
 10
110.9368960586529
 20
-124.7135060799329
 30
0.0
 10
110.9368960586529
 20
-124.6583669132798
 30
0.0
 10
110.8920932820181
 20
-124.6135994132909
 30
0.0
 10
110.8369893945351
 20
-124.6135994132909
 30
0.0
 10
110.7818502292751
 20
-124.6135994132909
 30
0.0
 10
110.7370827304172
 20
-124.6583669132798
 30
0.0
 10
110.7370827304172
 20
-124.7135060799329
 30
0.0
 10
110.7370827304172
 20
-124.7686099688078
 30
0.0
 10
110.7818502292751
 20
-124.8134127465745
 30
0.0
 10
110.8369893945351
 20
-124.8134127465745
 30
0.0
 10
110.8920932820181
 20
-124.8134127465745
 30
0.0
 10
110.9368960586529
 20
-124.7686099688078
 30
0.0
 10
110.9368960586529
 20
-124.7135060799329
 30
0.0
  0
SPLINE
  5
66
330
41
100
AcDbEntity
  8
_U+30EC_U+30A4_U+30E4_U+30FC 1
 62
     7
420
 16777215
370
     9
100
AcDbSpline
210
0.0
220
0.0
230
1.0
 70
    11
 71
     3
 72
    17
 73
    13
 74
     0
 42
0.0000000001
 43
0.0000000001
 12
1.0
 22
0.0
 32
0.0
 13
1.0
 23
0.0
 33
0.0
 40
0.0
 40
0.0
 40
0.0
 40
0.0
 40
1.0
 40
1.0
 40
1.0
 40
2.0
 40
2.0
 40
2.0
 40
3.0
 40
3.0
 40
3.0
 40
4.0
 40
4.0
 40
4.0
 40
4.0
 10
110.9368960586529
 20
-133.912574688744
 30
0.0
 10
110.9368960586529
 20
-133.857470799869
 30
0.0
 10
110.8920932820181
 20
-133.8126680221023
 30
0.0
 10
110.8369893945351
 20
-133.8126680221023
 30
0.0
 10
110.7818502292751
 20
-133.8126680221023
 30
0.0
 10
110.7370827304172
 20
-133.857470799869
 30
0.0
 10
110.7370827304172
 20
-133.912574688744
 30
0.0
 10
110.7370827304172
 20
-133.9683841331744
 30
0.0
 10
110.7818502292751
 20
-134.0131869109411
 30
0.0
 10
110.8369893945351
 20
-134.0131869109411
 30
0.0
 10
110.8920932820181
 20
-134.0131869109411
 30
0.0
 10
110.9368960586529
 20
-133.9683841331744
 30
0.0
 10
110.9368960586529
 20
-133.912574688744
 30
0.0
  0
SPLINE
  5
67
330
41
100
AcDbEntity
  8
_U+30EC_U+30A4_U+30E4_U+30FC 1
 62
     7
420
 16777215
370
     9
100
AcDbSpline
210
0.0
220
0.0
230
1.0
 70
    11
 71
     3
 72
    17
 73
    13
 74
     0
 42
0.0000000001
 43
0.0000000001
 12
1.0
 22
0.0
 32
0.0
 13
1.0
 23
0.0
 33
0.0
 40
0.0
 40
0.0
 40
0.0
 40
0.0
 40
1.0
 40
1.0
 40
1.0
 40
2.0
 40
2.0
 40
2.0
 40
3.0
 40
3.0
 40
3.0
 40
4.0
 40
4.0
 40
4.0
 40
4.0
 10
89.93765826105474
 20
-138.9128116319383
 30
0.0
 10
89.93765826105474
 20
-138.8576724652858
 30
0.0
 10
89.89289076219686
 20
-138.8129049652966
 30
0.0
 10
89.83708131917622
 20
-138.8129049652966
 30
0.0
 10
89.78194442199896
 20
-138.8129049652966
 30
0.0
 10
89.73714164423224
 20
-138.8576724652858
 30
0.0
 10
89.73714164423224
 20
-138.9128116319383
 30
0.0
 10
89.73714164423224
 20
-138.9679155208138
 30
0.0
 10
89.78194442199896
 20
-139.0127182985799
 30
0.0
 10
89.83708131917622
 20
-139.0127182985799
 30
0.0
 10
89.89289076219686
 20
-139.0127182985799
 30
0.0
 10
89.93765826105474
 20
-138.9679155208138
 30
0.0
 10
89.93765826105474
 20
-138.9128116319383
 30
0.0
  0
SPLINE
  5
68
330
41
100
AcDbEntity
  8
_U+30EC_U+30A4_U+30E4_U+30FC 1
 62
     7
420
 16777215
370
     9
100
AcDbSpline
210
0.0
220
0.0
230
1.0
 70
    11
 71
     3
 72
    17
 73
    13
 74
     0
 42
0.0000000001
 43
0.0000000001
 12
1.0
 22
0.0
 32
0.0
 13
1.0
 23
0.0
 33
0.0
 40
0.0
 40
0.0
 40
0.0
 40
0.0
 40
1.0
 40
1.0
 40
1.0
 40
2.0
 40
2.0
 40
2.0
 40
3.0
 40
3.0
 40
3.0
 40
4.0
 40
4.0
 40
4.0
 40
4.0
 10
93.93741732567905
 20
-138.9128116319383
 30
0.0
 10
93.93741732567905
 20
-138.8576724652858
 30
0.0
 10
93.89261454904428
 20
-138.8129049652966
 30
0.0
 10
93.83751066156121
 20
-138.8129049652966
 30
0.0
 10
93.78237149630127
 20
-138.8129049652966
 30
0.0
 10
93.73760399744337
 20
-138.8576724652858
 30
0.0
 10
93.73760399744337
 20
-138.9128116319383
 30
0.0
 10
93.73760399744337
 20
-138.9679155208138
 30
0.0
 10
93.78237149630127
 20
-139.0127182985799
 30
0.0
 10
93.83751066156121
 20
-139.0127182985799
 30
0.0
 10
93.89261454904428
 20
-139.0127182985799
 30
0.0
 10
93.93741732567905
 20
-138.9679155208138
 30
0.0
 10
93.93741732567905
 20
-138.9128116319383
 30
0.0
  0
SPLINE
  5
69
330
41
100
AcDbEntity
  8
_U+30EC_U+30A4_U+30E4_U+30FC 1
 62
     7
420
 16777215
370
     9
100
AcDbSpline
210
0.0
220
0.0
230
1.0
 70
    11
 71
     3
 72
    17
 73
    13
 74
     0
 42
0.0000000001
 43
0.0000000001
 12
1.0
 22
0.0
 32
0.0
 13
1.0
 23
0.0
 33
0.0
 40
0.0
 40
0.0
 40
0.0
 40
0.0
 40
1.0
 40
1.0
 40
1.0
 40
2.0
 40
2.0
 40
2.0
 40
3.0
 40
3.0
 40
3.0
 40
4.0
 40
4.0
 40
4.0
 40
4.0
 10
69.92097710505615
 20
-138.9128116319383
 30
0.0
 10
69.92097710505615
 20
-138.8576724652858
 30
0.0
 10
69.87617432842138
 20
-138.8129049652966
 30
0.0
 10
69.82107220476684
 20
-138.8129049652966
 30
0.0
 10
69.76593127567837
 20
-138.8129049652966
 30
0.0
 10
69.72116377682048
 20
-138.8576724652858
 30
0.0
 10
69.72116377682048
 20
-138.9128116319383
 30
0.0
 10
69.72116377682048
 20
-138.9679155208138
 30
0.0
 10
69.76593127567837
 20
-139.0127182985799
 30
0.0
 10
69.82107220476684
 20
-139.0127182985799
 30
0.0
 10
69.87617432842138
 20
-139.0127182985799
 30
0.0
 10
69.92097710505615
 20
-138.9679155208138
 30
0.0
 10
69.92097710505615
 20
-138.9128116319383
 30
0.0
  0
POLYLINE
  5
6A
330
41
100
AcDbEntity
  8
_U+30EC_U+30A4_U+30E4_U+30FC 1
 62
     7
420
 16777215
370
     9
100
AcDb2dPolyline
 66
     1
 10
0.0
 20
0.0
 30
0.0
  0
VERTEX
  5
6B
330
6A
100
AcDbEntity
  8
_U+30EC_U+30A4_U+30E4_U+30FC 1
 62
     7
420
 16777215
370
     9
100
AcDbVertex
100
AcDb2dVertex
 10
110.8369893945351
 20
-124.7135060799329
 30
0.0
  0
VERTEX
  5
6C
330
6A
100
AcDbEntity
  8
_U+30EC_U+30A4_U+30E4_U+30FC 1
 62
     7
420
 16777215
370
     9
100
AcDbVertex
100
AcDb2dVertex
 10
110.8369893945351
 20
-120.9431935808754
 30
0.0
  0
SEQEND
  5
6D
330
6A
100
AcDbEntity
  8
_U+30EC_U+30A4_U+30E4_U+30FC 1
 62
     7
420
 16777215
370
     9
  0
POLYLINE
  5
6E
330
41
100
AcDbEntity
  8
_U+30EC_U+30A4_U+30E4_U+30FC 1
 62
     7
420
 16777215
370
     9
100
AcDb2dPolyline
 66
     1
 10
0.0
 20
0.0
 30
0.0
  0
VERTEX
  5
6F
330
6E
100
AcDbEntity
  8
_U+30EC_U+30A4_U+30E4_U+30FC 1
 62
     7
420
 16777215
370
     9
100
AcDbVertex
100
AcDb2dVertex
 10
110.8369893945351
 20
-125.7132430241272
 30
0.0
  0
VERTEX
  5
70
330
6E
100
AcDbEntity
  8
_U+30EC_U+30A4_U+30E4_U+30FC 1
 62
     7
420
 16777215
370
     9
100
AcDbVertex
100
AcDb2dVertex
 10
110.8369893945351
 20
-124.7135060799329
 30
0.0
  0
SEQEND
  5
71
330
6E
100
AcDbEntity
  8
_U+30EC_U+30A4_U+30E4_U+30FC 1
 62
     7
420
 16777215
370
     9
  0
POLYLINE
  5
72
330
41
100
AcDbEntity
  8
_U+30EC_U+30A4_U+30E4_U+30FC 1
 62
     7
420
 16777215
370
     9
100
AcDb2dPolyline
 66
     1
 10
0.0
 20
0.0
 30
0.0
  0
VERTEX
  5
73
330
72
100
AcDbEntity
  8
_U+30EC_U+30A4_U+30E4_U+30FC 1
 62
     7
420
 16777215
370
     9
100
AcDbVertex
100
AcDb2dVertex
 10
109.3769480428949
 20
-125.7132430241272
 30
0.0
  0
VERTEX
  5
74
330
72
100
AcDbEntity
  8
_U+30EC_U+30A4_U+30E4_U+30FC 1
 62
     7
420
 16777215
370
     9
100
AcDbVertex
100
AcDb2dVertex
 10
111.8374318690116
 20
-125.7132430241272
 30
0.0
  0
SEQEND
  5
75
330
72
100
AcDbEntity
  8
_U+30EC_U+30A4_U+30E4_U+30FC 1
 62
     7
420
 16777215
370
     9
  0
POLYLINE
  5
76
330
41
100
AcDbEntity
  8
_U+30EC_U+30A4_U+30E4_U+30FC 1
 62
     7
420
 16777215
370
     9
100
AcDb2dPolyline
 66
     1
 10
0.0
 20
0.0
 30
0.0
  0
VERTEX
  5
77
330
76
100
AcDbEntity
  8
_U+30EC_U+30A4_U+30E4_U+30FC 1
 62
     7
420
 16777215
370
     9
100
AcDbVertex
100
AcDb2dVertex
 10
109.3769480428949
 20
-124.7135060799329
 30
0.0
  0
VERTEX
  5
78
330
76
100
AcDbEntity
  8
_U+30EC_U+30A4_U+30E4_U+30FC 1
 62
     7
420
 16777215
370
     9
100
AcDbVertex
100
AcDb2dVertex
 10
111.8374318690116
 20
-124.7135060799329
 30
0.0
  0
SEQEND
  5
79
330
76
100
AcDbEntity
  8
_U+30EC_U+30A4_U+30E4_U+30FC 1
 62
     7
420
 16777215
370
     9
  0
INSERT
  5
7B
330
41
100
AcDbEntity
  8
_U+30EC_U+30A4_U+30E4_U+30FC 1
100
AcDbBlockReference
  2
block 3
 10
0.0
 20
0.0
 30
0.0
  0
POLYLINE
  5
80
330
41
100
AcDbEntity
  8
_U+30EC_U+30A4_U+30E4_U+30FC 1
 62
     7
420
 16777215
370
     9
100
AcDb2dPolyline
 66
     1
 10
0.0
 20
0.0
 30
0.0
  0
VERTEX
  5
81
330
80
100
AcDbEntity
  8
_U+30EC_U+30A4_U+30E4_U+30FC 1
 62
     7
420
 16777215
370
     9
100
AcDbVertex
100
AcDb2dVertex
 10
69.8155318299685
 20
-120.713746914266
 30
0.0
  0
VERTEX
  5
82
330
80
100
AcDbEntity
  8
_U+30EC_U+30A4_U+30E4_U+30FC 1
 62
     7
420
 16777215
370
     9
100
AcDbVertex
100
AcDb2dVertex
 10
106.8372303299107
 20
-120.713746914266
 30
0.0
  0
SEQEND
  5
83
330
80
100
AcDbEntity
  8
_U+30EC_U+30A4_U+30E4_U+30FC 1
 62
     7
420
 16777215
370
     9
  0
POLYLINE
  5
84
330
41
100
AcDbEntity
  8
_U+30EC_U+30A4_U+30E4_U+30FC 1
 62
     7
420
 16777215
370
     9
100
AcDb2dPolyline
 66
     1
 10
0.0
 20
0.0
 30
0.0
  0
VERTEX
  5
85
330
84
100
AcDbEntity
  8
_U+30EC_U+30A4_U+30E4_U+30FC 1
 62
     7
420
 16777215
370
     9
100
AcDbVertex
100
AcDb2dVertex
 10
69.82107220476684
 20
-122.1737530250122
 30
0.0
  0
VERTEX
  5
86
330
84
100
AcDbEntity
  8
_U+30EC_U+30A4_U+30E4_U+30FC 1
 62
     7
420
 16777215
370
     9
100
AcDbVertex
100
AcDb2dVertex
 10
69.82107220476684
 20
-119.7132691367382
 30
0.0
  0
SEQEND
  5
87
330
84
100
AcDbEntity
  8
_U+30EC_U+30A4_U+30E4_U+30FC 1
 62
     7
420
 16777215
370
     9
  0
POLYLINE
  5
88
330
41
100
AcDbEntity
  8
_U+30EC_U+30A4_U+30E4_U+30FC 1
 62
     7
420
 16777215
370
     9
100
AcDb2dPolyline
 66
     1
 10
0.0
 20
0.0
 30
0.0
  0
VERTEX
  5
89
330
88
100
AcDbEntity
  8
_U+30EC_U+30A4_U+30E4_U+30FC 1
 62
     7
420
 16777215
370
     9
100
AcDbVertex
100
AcDb2dVertex
 10
106.8372303299107
 20
-122.1737530250122
 30
0.0
  0
VERTEX
  5
8A
330
88
100
AcDbEntity
  8
_U+30EC_U+30A4_U+30E4_U+30FC 1
 62
     7
420
 16777215
370
     9
100
AcDbVertex
100
AcDb2dVertex
 10
106.8372303299107
 20
-119.7132691367382
 30
0.0
  0
SEQEND
  5
8B
330
88
100
AcDbEntity
  8
_U+30EC_U+30A4_U+30E4_U+30FC 1
 62
     7
420
 16777215
370
     9
  0
INSERT
  5
8D
330
41
100
AcDbEntity
  8
_U+30EC_U+30A4_U+30E4_U+30FC 1
100
AcDbBlockReference
  2
block 4
 10
0.0
 20
0.0
 30
0.0
  0
POLYLINE
  5
94
330
41
100
AcDbEntity
  8
_U+30EC_U+30A4_U+30E4_U+30FC 1
 62
     7
420
 16777215
370
     9
100
AcDb2dPolyline
 66
     1
 10
0.0
 20
0.0
 30
0.0
  0
VERTEX
  5
95
330
94
100
AcDbEntity
  8
_U+30EC_U+30A4_U+30E4_U+30FC 1
 62
     7
420
 16777215
370
     9
100
AcDbVertex
100
AcDb2dVertex
 10
89.83708131917622
 20
-138.9128116319383
 30
0.0
  0
VERTEX
  5
96
330
94
100
AcDbEntity
  8
_U+30EC_U+30A4_U+30E4_U+30FC 1
 62
     7
420
 16777215
370
     9
100
AcDbVertex
100
AcDb2dVertex
 10
69.85962905106571
 20
-138.9128116319383
 30
0.0
  0
SEQEND
  5
97
330
94
100
AcDbEntity
  8
_U+30EC_U+30A4_U+30E4_U+30FC 1
 62
     7
420
 16777215
370
     9
  0
POLYLINE
  5
98
330
41
100
AcDbEntity
  8
_U+30EC_U+30A4_U+30E4_U+30FC 1
 62
     7
420
 16777215
370
     9
100
AcDb2dPolyline
 66
     1
 10
0.0
 20
0.0
 30
0.0
  0
VERTEX
  5
99
330
98
100
AcDbEntity
  8
_U+30EC_U+30A4_U+30E4_U+30FC 1
 62
     7
420
 16777215
370
     9
100
AcDbVertex
100
AcDb2dVertex
 10
89.83708131917622
 20
-137.4527702434146
 30
0.0
  0
VERTEX
  5
9A
330
98
100
AcDbEntity
  8
_U+30EC_U+30A4_U+30E4_U+30FC 1
 62
     7
420
 16777215
370
     9
100
AcDbVertex
100
AcDb2dVertex
 10
89.83708131917622
 20
-139.9132541316882
 30
0.0
  0
SEQEND
  5
9B
330
98
100
AcDbEntity
  8
_U+30EC_U+30A4_U+30E4_U+30FC 1
 62
     7
420
 16777215
370
     9
  0
POLYLINE
  5
9C
330
41
100
AcDbEntity
  8
_U+30EC_U+30A4_U+30E4_U+30FC 1
 62
     7
420
 16777215
370
     9
100
AcDb2dPolyline
 66
     1
 10
0.0
 20
0.0
 30
0.0
  0
VERTEX
  5
9D
330
9C
100
AcDbEntity
  8
_U+30EC_U+30A4_U+30E4_U+30FC 1
 62
     7
420
 16777215
370
     9
100
AcDbVertex
100
AcDb2dVertex
 10
69.82107220476684
 20
-128.2536663568256
 30
0.0
  0
VERTEX
  5
9E
330
9C
100
AcDbEntity
  8
_U+30EC_U+30A4_U+30E4_U+30FC 1
 62
     7
420
 16777215
370
     9
100
AcDbVertex
100
AcDb2dVertex
 10
69.82107220476684
 20
-139.9132541316882
 30
0.0
  0
SEQEND
  5
9F
330
9C
100
AcDbEntity
  8
_U+30EC_U+30A4_U+30E4_U+30FC 1
 62
     7
420
 16777215
370
     9
  0
INSERT
  5
A1
330
41
100
AcDbEntity
  8
_U+30EC_U+30A4_U+30E4_U+30FC 1
100
AcDbBlockReference
  2
block 5
 10
0.0
 20
0.0
 30
0.0
  0
POLYLINE
  5
A9
330
41
100
AcDbEntity
  8
_U+30EC_U+30A4_U+30E4_U+30FC 1
 62
     7
420
 16777215
370
     9
100
AcDb2dPolyline
 66
     1
 10
0.0
 20
0.0
 30
0.0
  0
VERTEX
  5
AA
330
A9
100
AcDbEntity
  8
_U+30EC_U+30A4_U+30E4_U+30FC 1
 62
     7
420
 16777215
370
     9
100
AcDbVertex
100
AcDb2dVertex
 10
89.83708131917622
 20
-138.9128116319383
 30
0.0
  0
VERTEX
  5
AB
330
A9
100
AcDbEntity
  8
_U+30EC_U+30A4_U+30E4_U+30FC 1
 62
     7
420
 16777215
370
     9
100
AcDbVertex
100
AcDb2dVertex
 10
93.83751066156121
 20
-138.9128116319383
 30
0.0
  0
SEQEND
  5
AC
330
A9
100
AcDbEntity
  8
_U+30EC_U+30A4_U+30E4_U+30FC 1
 62
     7
420
 16777215
370
     9
  0
POLYLINE
  5
AD
330
41
100
AcDbEntity
  8
_U+30EC_U+30A4_U+30E4_U+30FC 1
 62
     7
420
 16777215
370
     9
100
AcDb2dPolyline
 66
     1
 10
0.0
 20
0.0
 30
0.0
  0
VERTEX
  5
AE
330
AD
100
AcDbEntity
  8
_U+30EC_U+30A4_U+30E4_U+30FC 1
 62
     7
420
 16777215
370
     9
100
AcDbVertex
100
AcDb2dVertex
 10
89.83708131917622
 20
-137.4527702434146
 30
0.0
  0
VERTEX
  5
AF
330
AD
100
AcDbEntity
  8
_U+30EC_U+30A4_U+30E4_U+30FC 1
 62
     7
420
 16777215
370
     9
100
AcDbVertex
100
AcDb2dVertex
 10
89.83708131917622
 20
-139.9132541316882
 30
0.0
  0
SEQEND
  5
B0
330
AD
100
AcDbEntity
  8
_U+30EC_U+30A4_U+30E4_U+30FC 1
 62
     7
420
 16777215
370
     9
  0
POLYLINE
  5
B1
330
41
100
AcDbEntity
  8
_U+30EC_U+30A4_U+30E4_U+30FC 1
 62
     7
420
 16777215
370
     9
100
AcDb2dPolyline
 66
     1
 10
0.0
 20
0.0
 30
0.0
  0
VERTEX
  5
B2
330
B1
100
AcDbEntity
  8
_U+30EC_U+30A4_U+30E4_U+30FC 1
 62
     7
420
 16777215
370
     9
100
AcDbVertex
100
AcDb2dVertex
 10
93.83751066156121
 20
-137.4527702434146
 30
0.0
  0
VERTEX
  5
B3
330
B1
100
AcDbEntity
  8
_U+30EC_U+30A4_U+30E4_U+30FC 1
 62
     7
420
 16777215
370
     9
100
AcDbVertex
100
AcDb2dVertex
 10
93.83751066156121
 20
-139.9132541316882
 30
0.0
  0
SEQEND
  5
B4
330
B1
100
AcDbEntity
  8
_U+30EC_U+30A4_U+30E4_U+30FC 1
 62
     7
420
 16777215
370
     9
  0
INSERT
  5
B6
330
41
100
AcDbEntity
  8
_U+30EC_U+30A4_U+30E4_U+30FC 1
100
AcDbBlockReference
  2
block 6
 10
0.0
 20
0.0
 30
0.0
  0
POLYLINE
  5
CE
330
41
100
AcDbEntity
  8
_U+30EC_U+30A4_U+30E4_U+30FC 1
 62
     7
420
 16777215
370
     9
100
AcDb2dPolyline
 66
     1
 10
0.0
 20
0.0
 30
0.0
  0
VERTEX
  5
CF
330
CE
100
AcDbEntity
  8
_U+30EC_U+30A4_U+30E4_U+30FC 1
 62
     7
420
 16777215
370
     9
100
AcDbVertex
100
AcDb2dVertex
 10
110.8369893945351
 20
-133.912574688744
 30
0.0
  0
VERTEX
  5
D0
330
CE
100
AcDbEntity
  8
_U+30EC_U+30A4_U+30E4_U+30FC 1
 62
     7
420
 16777215
370
     9
100
AcDbVertex
100
AcDb2dVertex
 10
110.8369893945351
 20
-125.7132430241272
 30
0.0
  0
SEQEND
  5
D1
330
CE
100
AcDbEntity
  8
_U+30EC_U+30A4_U+30E4_U+30FC 1
 62
     7
420
 16777215
370
     9
  0
POLYLINE
  5
D2
330
41
100
AcDbEntity
  8
_U+30EC_U+30A4_U+30E4_U+30FC 1
 62
     7
420
 16777215
370
     9
100
AcDb2dPolyline
 66
     1
 10
0.0
 20
0.0
 30
0.0
  0
VERTEX
  5
D3
330
D2
100
AcDbEntity
  8
_U+30EC_U+30A4_U+30E4_U+30FC 1
 62
     7
420
 16777215
370
     9
100
AcDbVertex
100
AcDb2dVertex
 10
96.3772283745454
 20
-133.912574688744
 30
0.0
  0
VERTEX
  5
D4
330
D2
100
AcDbEntity
  8
_U+30EC_U+30A4_U+30E4_U+30FC 1
 62
     7
420
 16777215
370
     9
100
AcDbVertex
100
AcDb2dVertex
 10
111.8374318690116
 20
-133.912574688744
 30
0.0
  0
SEQEND
  5
D5
330
D2
100
AcDbEntity
  8
_U+30EC_U+30A4_U+30E4_U+30FC 1
 62
     7
420
 16777215
370
     9
  0
INSERT
  5
D7
330
41
100
AcDbEntity
  8
_U+30EC_U+30A4_U+30E4_U+30FC 1
100
AcDbBlockReference
  2
block 7
 10
0.0
 20
0.0
 30
0.0
  0
ENDBLK
  5
44
330
41
100
AcDbEntity
  8
0
100
AcDbBlockEnd
  0
BLOCK
  5
7C
330
7A
100
AcDbEntity
  8
0
100
AcDbBlockBegin
  2
block 3
 70
     0
 10
0.0
 20
0.0
 30
0.0
  3
block 3
  1

  0
SPLINE
  5
7E
330
7A
100
AcDbEntity
  8
_U+30EC_U+30A4_U+30E4_U+30FC 1
370
     0
100
AcDbSpline
210
0.0
220
0.0
230
1.0
 70
    11
 71
     3
 72
    26
 73
    22
 74
     0
 42
0.0000000001
 43
0.0000000001
 12
1.0
 22
0.0
 32
0.0
 13
1.0
 23
0.0
 33
0.0
 40
0.0
 40
0.0
 40
0.0
 40
0.0
 40
1.0
 40
1.0
 40
1.0
 40
2.0
 40
2.0
 40
2.0
 40
3.0
 40
3.0
 40
3.0
 40
4.0
 40
4.0
 40
4.0
 40
5.0
 40
5.0
 40
5.0
 40
6.0
 40
6.0
 40
6.0
 40
7.0
 40
7.0
 40
7.0
 40
7.0
 10
109.721468071528
 20
-125.407332325419
 30
0.0
 10
109.721468071528
 20
-125.407332325419
 30
0.0
 10
108.6173149685054
 20
-125.407332325419
 30
0.0
 10
108.6173149685054
 20
-125.407332325419
 30
0.0
 10
108.6173149685054
 20
-125.407332325419
 30
0.0
 10
108.6173149685054
 20
-125.7373724729059
 30
0.0
 10
108.6173149685054
 20
-125.7373724729059
 30
0.0
 10
108.6173149685054
 20
-125.7373724729059
 30
0.0
 10
108.4691758626397
 20
-125.7373724729059
 30
0.0
 10
108.4691758626397
 20
-125.7373724729059
 30
0.0
 10
108.4543619520531
 20
-125.4052652681279
 30
0.0
 10
108.2914089356008
 20
-125.358756479077
 30
0.0
 10
108.1770317654905
 20
-125.3291286579038
 30
0.0
 10
108.1770317654905
 20
-125.3291286579038
 30
0.0
 10
108.1770317654905
 20
-125.1830566093292
 30
0.0
 10
108.1770317654905
 20
-125.1830566093292
 30
0.0
 10
108.1770317654905
 20
-125.1830566093292
 30
0.0
 10
109.721468071528
 20
-125.1830566093292
 30
0.0
 10
109.721468071528
 20
-125.1830566093292
 30
0.0
 10
109.721468071528
 20
-125.1830566093292
 30
0.0
 10
109.721468071528
 20
-125.407332325419
 30
0.0
 10
109.721468071528
 20
-125.407332325419
 30
0.0
  0
HATCH
  5
7F
330
7A
100
AcDbEntity
  8
_U+30EC_U+30A4_U+30E4_U+30FC 1
 62
     7
420
 16777215
100
AcDbHatch
 10
0.0
 20
0.0
 30
0.0
210
0.0
220
0.0
230
1.0
  2
SOLID
 70
     1
 71
     0
 91
        1
 92
        1
 93
        1
 72
     4
 94
        3
 73
     0
 74
     1
 95
       26
 96
       22
 40
0.0
 40
0.0
 40
0.0
 40
0.0
 40
1.0
 40
1.0
 40
1.0
 40
2.0
 40
2.0
 40
2.0
 40
3.0
 40
3.0
 40
3.0
 40
4.0
 40
4.0
 40
4.0
 40
5.0
 40
5.0
 40
5.0
 40
6.0
 40
6.0
 40
6.0
 40
7.0
 40
7.0
 40
7.0
 40
7.0
 10
109.721468071528
 20
-125.407332325419
 10
109.721468071528
 20
-125.407332325419
 10
108.6173149685054
 20
-125.407332325419
 10
108.6173149685054
 20
-125.407332325419
 10
108.6173149685054
 20
-125.407332325419
 10
108.6173149685054
 20
-125.7373724729059
 10
108.6173149685054
 20
-125.7373724729059
 10
108.6173149685054
 20
-125.7373724729059
 10
108.4691758626397
 20
-125.7373724729059
 10
108.4691758626397
 20
-125.7373724729059
 10
108.4543619520531
 20
-125.4052652681279
 10
108.2914089356008
 20
-125.358756479077
 10
108.1770317654905
 20
-125.3291286579038
 10
108.1770317654905
 20
-125.3291286579038
 10
108.1770317654905
 20
-125.1830566093292
 10
108.1770317654905
 20
-125.1830566093292
 10
108.1770317654905
 20
-125.1830566093292
 10
109.721468071528
 20
-125.1830566093292
 10
109.721468071528
 20
-125.1830566093292
 10
109.721468071528
 20
-125.1830566093292
 10
109.721468071528
 20
-125.407332325419
 10
109.721468071528
 20
-125.407332325419
 97
        0
 97
        0
 75
     2
 76
     1
 98
        0
  0
ENDBLK
  5
7D
330
7A
100
AcDbEntity
  8
0
100
AcDbBlockEnd
  0
BLOCK
  5
8E
330
8C
100
AcDbEntity
  8
0
100
AcDbBlockBegin
  2
block 4
 70
     0
 10
0.0
 20
0.0
 30
0.0
  3
block 4
  1

  0
SPLINE
  5
90
330
8C
100
AcDbEntity
  8
_U+30EC_U+30A4_U+30E4_U+30FC 1
370
     0
100
AcDbSpline
210
0.0
220
0.0
230
1.0
 70
    11
 71
     3
 72
    62
 73
    58
 74
     0
 42
0.0000000001
 43
0.0000000001
 12
1.0
 22
0.0
 32
0.0
 13
1.0
 23
0.0
 33
0.0
 40
0.0
 40
0.0
 40
0.0
 40
0.0
 40
1.0
 40
1.0
 40
1.0
 40
2.0
 40
2.0
 40
2.0
 40
3.0
 40
3.0
 40
3.0
 40
4.0
 40
4.0
 40
4.0
 40
5.0
 40
5.0
 40
5.0
 40
6.0
 40
6.0
 40
6.0
 40
7.0
 40
7.0
 40
7.0
 40
8.0
 40
8.0
 40
8.0
 40
9.0
 40
9.0
 40
9.0
 40
10.0
 40
10.0
 40
10.0
 40
11.0
 40
11.0
 40
11.0
 40
12.0
 40
12.0
 40
12.0
 40
13.0
 40
13.0
 40
13.0
 40
14.0
 40
14.0
 40
14.0
 40
15.0
 40
15.0
 40
15.0
 40
16.0
 40
16.0
 40
16.0
 40
17.0
 40
17.0
 40
17.0
 40
18.0
 40
18.0
 40
18.0
 40
19.0
 40
19.0
 40
19.0
 40
19.0
 10
87.74020858266564
 20
-120.1184217364635
 30
0.0
 10
87.6449516924985
 20
-120.1184217364635
 30
0.0
 10
87.42704940305643
 20
-120.0972343992292
 30
0.0
 10
87.30233694649039
 20
-119.9110269882514
 30
0.0
 10
87.22826739355752
 20
-119.7988891302065
 30
0.0
 10
87.22396102420096
 20
-119.6994981254571
 30
0.0
 10
87.21982690961866
 20
-119.6149210312942
 30
0.0
 10
87.21982690961866
 20
-119.6149210312942
 30
0.0
 10
87.43979625635185
 20
-119.6149210312942
 30
0.0
 10
87.43979625635185
 20
-119.6149210312942
 30
0.0
 10
87.44186331364301
 20
-119.6889905842271
 30
0.0
 10
87.45254310964728
 20
-119.9237738415468
 30
0.0
 10
87.73607446808334
 20
-119.9237738415468
 30
0.0
 10
87.87353377794481
 20
-119.9237738415468
 30
0.0
 10
88.02580699839285
 20
-119.8540106579705
 30
0.0
 10
88.02580699839285
 20
-119.6254285725242
 30
0.0
 10
88.02580699839285
 20
-119.509156599897
 30
0.0
 10
87.98773869328085
 20
-119.4604084987807
 30
0.0
 10
87.95604381481655
 20
-119.4287136203164
 30
0.0
 10
87.88197426188368
 20
-119.3546440673836
 30
0.0
 10
87.76553003448224
 20
-119.3420694688624
 30
0.0
 10
87.7105807614925
 20
-119.3420694688624
 30
0.0
 10
87.69163273632363
 20
-119.3420694688624
 30
0.0
 10
87.65563148850276
 20
-119.3441365261535
 30
0.0
 10
87.62807072462077
 20
-119.3482706407358
 30
0.0
 10
87.62807072462077
 20
-119.3482706407358
 30
0.0
 10
87.62807072462077
 20
-119.1536227458192
 30
0.0
 10
87.62807072462077
 20
-119.1536227458192
 30
0.0
 10
87.66613902973278
 20
-119.1599961724669
 30
0.0
 10
87.70851370420135
 20
-119.1622354845324
 30
0.0
 10
87.71488713084906
 20
-119.1622354845324
 30
0.0
 10
87.78034394506881
 20
-119.1622354845324
 30
0.0
 10
87.97929820934199
 20
-119.1410481472981
 30
0.0
 10
87.97929820934199
 20
-118.9040255779129
 30
0.0
 10
87.97929820934199
 20
-118.7264309056483
 30
0.0
 10
87.84804007135396
 20
-118.6713093778843
 30
0.0
 10
87.7381415253745
 20
-118.6713093778843
 30
0.0
 10
87.47373044688158
 20
-118.6713093778843
 30
0.0
 10
87.4652899629427
 20
-118.9040255779129
 30
0.0
 10
87.46098359358615
 20
-118.9760280735546
 30
0.0
 10
87.46098359358615
 20
-118.9760280735546
 30
0.0
 10
87.25789521473067
 20
-118.9760280735546
 30
0.0
 10
87.25789521473067
 20
-118.9760280735546
 30
0.0
 10
87.26633569866954
 20
-118.8511433622143
 30
0.0
 10
87.29389646255153
 20
-118.4745944256765
 30
0.0
 10
87.75071612389566
 20
-118.4745944256765
 30
0.0
 10
87.97499183998542
 20
-118.4745944256765
 30
0.0
 10
88.21614852395291
 20
-118.601546194308
 30
0.0
 10
88.21614852395291
 20
-118.8976521512652
 30
0.0
 10
88.21614852395291
 20
-119.0838595622429
 30
0.0
 10
88.12106388856002
 20
-119.1663695991147
 30
0.0
 10
88.0215006290363
 20
-119.2276922987521
 30
0.0
 10
88.08299558344801
 20
-119.2552530626341
 30
0.0
 10
88.2648966250692
 20
-119.3356960422147
 30
0.0
 10
88.2648966250692
 20
-119.612853974003
 30
0.0
 10
88.2648966250692
 20
-119.9513346054288
 30
0.0
 10
88.017366514454
 20
-120.1184217364635
 30
0.0
 10
87.74020858266564
 20
-120.1184217364635
 30
0.0
  0
HATCH
  5
91
330
8C
100
AcDbEntity
  8
_U+30EC_U+30A4_U+30E4_U+30FC 1
 62
     7
420
 16777215
100
AcDbHatch
 10
0.0
 20
0.0
 30
0.0
210
0.0
220
0.0
230
1.0
  2
SOLID
 70
     1
 71
     0
 91
        1
 92
        1
 93
        1
 72
     4
 94
        3
 73
     0
 74
     1
 95
       62
 96
       58
 40
0.0
 40
0.0
 40
0.0
 40
0.0
 40
1.0
 40
1.0
 40
1.0
 40
2.0
 40
2.0
 40
2.0
 40
3.0
 40
3.0
 40
3.0
 40
4.0
 40
4.0
 40
4.0
 40
5.0
 40
5.0
 40
5.0
 40
6.0
 40
6.0
 40
6.0
 40
7.0
 40
7.0
 40
7.0
 40
8.0
 40
8.0
 40
8.0
 40
9.0
 40
9.0
 40
9.0
 40
10.0
 40
10.0
 40
10.0
 40
11.0
 40
11.0
 40
11.0
 40
12.0
 40
12.0
 40
12.0
 40
13.0
 40
13.0
 40
13.0
 40
14.0
 40
14.0
 40
14.0
 40
15.0
 40
15.0
 40
15.0
 40
16.0
 40
16.0
 40
16.0
 40
17.0
 40
17.0
 40
17.0
 40
18.0
 40
18.0
 40
18.0
 40
19.0
 40
19.0
 40
19.0
 40
19.0
 10
87.74020858266564
 20
-120.1184217364635
 10
87.6449516924985
 20
-120.1184217364635
 10
87.42704940305643
 20
-120.0972343992292
 10
87.30233694649039
 20
-119.9110269882514
 10
87.22826739355752
 20
-119.7988891302065
 10
87.22396102420096
 20
-119.6994981254571
 10
87.21982690961866
 20
-119.6149210312942
 10
87.21982690961866
 20
-119.6149210312942
 10
87.43979625635185
 20
-119.6149210312942
 10
87.43979625635185
 20
-119.6149210312942
 10
87.44186331364301
 20
-119.6889905842271
 10
87.45254310964728
 20
-119.9237738415468
 10
87.73607446808334
 20
-119.9237738415468
 10
87.87353377794481
 20
-119.9237738415468
 10
88.02580699839285
 20
-119.8540106579705
 10
88.02580699839285
 20
-119.6254285725242
 10
88.02580699839285
 20
-119.509156599897
 10
87.98773869328085
 20
-119.4604084987807
 10
87.95604381481655
 20
-119.4287136203164
 10
87.88197426188368
 20
-119.3546440673836
 10
87.76553003448224
 20
-119.3420694688624
 10
87.7105807614925
 20
-119.3420694688624
 10
87.69163273632363
 20
-119.3420694688624
 10
87.65563148850276
 20
-119.3441365261535
 10
87.62807072462077
 20
-119.3482706407358
 10
87.62807072462077
 20
-119.3482706407358
 10
87.62807072462077
 20
-119.1536227458192
 10
87.62807072462077
 20
-119.1536227458192
 10
87.66613902973278
 20
-119.1599961724669
 10
87.70851370420135
 20
-119.1622354845324
 10
87.71488713084906
 20
-119.1622354845324
 10
87.78034394506881
 20
-119.1622354845324
 10
87.97929820934199
 20
-119.1410481472981
 10
87.97929820934199
 20
-118.9040255779129
 10
87.97929820934199
 20
-118.7264309056483
 10
87.84804007135396
 20
-118.6713093778843
 10
87.7381415253745
 20
-118.6713093778843
 10
87.47373044688158
 20
-118.6713093778843
 10
87.4652899629427
 20
-118.9040255779129
 10
87.46098359358615
 20
-118.9760280735546
 10
87.46098359358615
 20
-118.9760280735546
 10
87.25789521473067
 20
-118.9760280735546
 10
87.25789521473067
 20
-118.9760280735546
 10
87.26633569866954
 20
-118.8511433622143
 10
87.29389646255153
 20
-118.4745944256765
 10
87.75071612389566
 20
-118.4745944256765
 10
87.97499183998542
 20
-118.4745944256765
 10
88.21614852395291
 20
-118.601546194308
 10
88.21614852395291
 20
-118.8976521512652
 10
88.21614852395291
 20
-119.0838595622429
 10
88.12106388856002
 20
-119.1663695991147
 10
88.0215006290363
 20
-119.2276922987521
 10
88.08299558344801
 20
-119.2552530626341
 10
88.2648966250692
 20
-119.3356960422147
 10
88.2648966250692
 20
-119.612853974003
 10
88.2648966250692
 20
-119.9513346054288
 10
88.017366514454
 20
-120.1184217364635
 10
87.74020858266564
 20
-120.1184217364635
 97
        0
 97
        0
 75
     2
 76
     1
 98
        0
  0
SPLINE
  5
92
330
8C
100
AcDbEntity
  8
_U+30EC_U+30A4_U+30E4_U+30FC 1
370
     0
100
AcDbSpline
210
0.0
220
0.0
230
1.0
 70
    11
 71
     3
 72
    26
 73
    22
 74
     0
 42
0.0000000001
 43
0.0000000001
 12
1.0
 22
0.0
 32
0.0
 13
1.0
 23
0.0
 33
0.0
 40
0.0
 40
0.0
 40
0.0
 40
0.0
 40
1.0
 40
1.0
 40
1.0
 40
2.0
 40
2.0
 40
2.0
 40
3.0
 40
3.0
 40
3.0
 40
4.0
 40
4.0
 40
4.0
 40
5.0
 40
5.0
 40
5.0
 40
6.0
 40
6.0
 40
6.0
 40
7.0
 40
7.0
 40
7.0
 40
7.0
 10
88.83661022084641
 20
-120.067606578056
 30
0.0
 10
88.83661022084641
 20
-120.067606578056
 30
0.0
 10
88.59975990623548
 20
-120.067606578056
 30
0.0
 10
88.59975990623548
 20
-120.067606578056
 30
0.0
 10
88.62508135805207
 20
-119.7587537678034
 30
0.0
 10
88.81766219567753
 20
-119.2404391520475
 30
0.0
 10
89.2238389533885
 20
-118.7348713895871
 30
0.0
 10
89.2238389533885
 20
-118.7348713895871
 30
0.0
 10
88.38599173137573
 20
-118.7348713895871
 30
0.0
 10
88.38599173137573
 20
-118.7348713895871
 30
0.0
 10
88.38599173137573
 20
-118.7348713895871
 30
0.0
 10
88.38599173137573
 20
-118.5233425267928
 30
0.0
 10
88.38599173137573
 20
-118.5233425267928
 30
0.0
 10
88.38599173137573
 20
-118.5233425267928
 30
0.0
 10
89.46068926799941
 20
-118.5233425267928
 30
0.0
 10
89.46068926799941
 20
-118.5233425267928
 30
0.0
 10
89.46068926799941
 20
-118.5233425267928
 30
0.0
 10
89.46068926799941
 20
-118.7348713895871
 30
0.0
 10
89.46068926799941
 20
-118.7348713895871
 30
0.0
 10
89.1370225471602
 20
-119.0246039198966
 30
0.0
 10
88.87054441137612
 20
-119.6169880885853
 30
0.0
 10
88.83661022084641
 20
-120.067606578056
 30
0.0
  0
HATCH
  5
93
330
8C
100
AcDbEntity
  8
_U+30EC_U+30A4_U+30E4_U+30FC 1
 62
     7
420
 16777215
100
AcDbHatch
 10
0.0
 20
0.0
 30
0.0
210
0.0
220
0.0
230
1.0
  2
SOLID
 70
     1
 71
     0
 91
        1
 92
        1
 93
        1
 72
     4
 94
        3
 73
     0
 74
     1
 95
       26
 96
       22
 40
0.0
 40
0.0
 40
0.0
 40
0.0
 40
1.0
 40
1.0
 40
1.0
 40
2.0
 40
2.0
 40
2.0
 40
3.0
 40
3.0
 40
3.0
 40
4.0
 40
4.0
 40
4.0
 40
5.0
 40
5.0
 40
5.0
 40
6.0
 40
6.0
 40
6.0
 40
7.0
 40
7.0
 40
7.0
 40
7.0
 10
88.83661022084641
 20
-120.067606578056
 10
88.83661022084641
 20
-120.067606578056
 10
88.59975990623548
 20
-120.067606578056
 10
88.59975990623548
 20
-120.067606578056
 10
88.62508135805207
 20
-119.7587537678034
 10
88.81766219567753
 20
-119.2404391520475
 10
89.2238389533885
 20
-118.7348713895871
 10
89.2238389533885
 20
-118.7348713895871
 10
88.38599173137573
 20
-118.7348713895871
 10
88.38599173137573
 20
-118.7348713895871
 10
88.38599173137573
 20
-118.7348713895871
 10
88.38599173137573
 20
-118.5233425267928
 10
88.38599173137573
 20
-118.5233425267928
 10
88.38599173137573
 20
-118.5233425267928
 10
89.46068926799941
 20
-118.5233425267928
 10
89.46068926799941
 20
-118.5233425267928
 10
89.46068926799941
 20
-118.5233425267928
 10
89.46068926799941
 20
-118.7348713895871
 10
89.46068926799941
 20
-118.7348713895871
 10
89.1370225471602
 20
-119.0246039198966
 10
88.87054441137612
 20
-119.6169880885853
 10
88.83661022084641
 20
-120.067606578056
 97
        0
 97
        0
 75
     2
 76
     1
 98
        0
  0
ENDBLK
  5
8F
330
8C
100
AcDbEntity
  8
0
100
AcDbBlockEnd
  0
BLOCK
  5
A2
330
A0
100
AcDbEntity
  8
0
100
AcDbBlockBegin
  2
block 5
 70
     0
 10
0.0
 20
0.0
 30
0.0
  3
block 5
  1

  0
SPLINE
  5
A4
330
A0
100
AcDbEntity
  8
_U+30EC_U+30A4_U+30E4_U+30FC 1
370
     0
100
AcDbSpline
210
0.0
220
0.0
230
1.0
 70
    11
 71
     3
 72
    44
 73
    40
 74
     0
 42
0.0000000001
 43
0.0000000001
 12
1.0
 22
0.0
 32
0.0
 13
1.0
 23
0.0
 33
0.0
 40
0.0
 40
0.0
 40
0.0
 40
0.0
 40
1.0
 40
1.0
 40
1.0
 40
2.0
 40
2.0
 40
2.0
 40
3.0
 40
3.0
 40
3.0
 40
4.0
 40
4.0
 40
4.0
 40
5.0
 40
5.0
 40
5.0
 40
6.0
 40
6.0
 40
6.0
 40
7.0
 40
7.0
 40
7.0
 40
8.0
 40
8.0
 40
8.0
 40
9.0
 40
9.0
 40
9.0
 40
10.0
 40
10.0
 40
10.0
 40
11.0
 40
11.0
 40
11.0
 40
12.0
 40
12.0
 40
12.0
 40
13.0
 40
13.0
 40
13.0
 40
13.0
 10
79.34158255394934
 20
-137.685997144398
 30
0.0
 10
79.12368026450727
 20
-137.844816046268
 30
0.0
 10
79.03049043163126
 20
-137.9188855992008
 30
0.0
 10
78.98191458528925
 20
-138.0625460809358
 30
0.0
 10
78.98191458528925
 20
-138.0625460809358
 30
0.0
 10
79.76033391018144
 20
-138.0625460809358
 30
0.0
 10
79.76033391018144
 20
-138.0625460809358
 30
0.0
 10
79.76033391018144
 20
-138.0625460809358
 30
0.0
 10
79.76033391018144
 20
-138.2678737718566
 30
0.0
 10
79.76033391018144
 20
-138.2678737718566
 30
0.0
 10
79.76033391018144
 20
-138.2678737718566
 30
0.0
 10
78.7323174173829
 20
-138.2678737718566
 30
0.0
 10
78.7323174173829
 20
-138.2678737718566
 30
0.0
 10
78.7640122958472
 20
-137.9102728604877
 30
0.0
 10
78.82964136484121
 20
-137.8320691929725
 30
0.0
 10
79.21463078531788
 20
-137.5337239239499
 30
0.0
 10
79.47060137987194
 20
-137.334941914451
 30
0.0
 10
79.53605819409168
 20
-137.2670735333916
 30
0.0
 10
79.53605819409168
 20
-137.1296142235301
 30
0.0
 10
79.53605819409168
 20
-137.0111029388375
 30
0.0
 10
79.46422795322422
 20
-136.880189310398
 30
0.0
 10
79.26751300101645
 20
-136.880189310398
 30
0.0
 10
79.00723603710583
 20
-136.880189310398
 30
0.0
 10
78.99879555316697
 20
-137.1106661983612
 30
0.0
 10
78.99448918381042
 20
-137.2271104257627
 30
0.0
 10
78.99448918381042
 20
-137.2271104257627
 30
0.0
 10
78.77038572249491
 20
-137.2271104257627
 30
0.0
 10
78.77038572249491
 20
-137.2271104257627
 30
0.0
 10
78.77882620643376
 20
-137.099986402357
 30
0.0
 10
78.78933374766378
 20
-136.9880207990863
 30
0.0
 10
78.86977672724437
 20
-136.8695095143937
 30
0.0
 10
78.97967527322383
 20
-136.7086235552326
 30
0.0
 10
79.16588268420159
 20
-136.6748616194771
 30
0.0
 10
79.28232691160304
 20
-136.6748616194771
 30
0.0
 10
79.55948484339139
 20
-136.6748616194771
 30
0.0
 10
79.76670733682916
 20
-136.8588297183895
 30
0.0
 10
79.76670733682916
 20
-137.1316812808213
 30
0.0
 10
79.76670733682916
 20
-137.3600911114933
 30
0.0
 10
79.65043536420198
 20
-137.459654371017
 30
0.0
 10
79.34158255394934
 20
-137.685997144398
 30
0.0
  0
HATCH
  5
A5
330
A0
100
AcDbEntity
  8
_U+30EC_U+30A4_U+30E4_U+30FC 1
 62
     7
420
 16777215
100
AcDbHatch
 10
0.0
 20
0.0
 30
0.0
210
0.0
220
0.0
230
1.0
  2
SOLID
 70
     1
 71
     0
 91
        1
 92
        1
 93
        1
 72
     4
 94
        3
 73
     0
 74
     1
 95
       44
 96
       40
 40
0.0
 40
0.0
 40
0.0
 40
0.0
 40
1.0
 40
1.0
 40
1.0
 40
2.0
 40
2.0
 40
2.0
 40
3.0
 40
3.0
 40
3.0
 40
4.0
 40
4.0
 40
4.0
 40
5.0
 40
5.0
 40
5.0
 40
6.0
 40
6.0
 40
6.0
 40
7.0
 40
7.0
 40
7.0
 40
8.0
 40
8.0
 40
8.0
 40
9.0
 40
9.0
 40
9.0
 40
10.0
 40
10.0
 40
10.0
 40
11.0
 40
11.0
 40
11.0
 40
12.0
 40
12.0
 40
12.0
 40
13.0
 40
13.0
 40
13.0
 40
13.0
 10
79.34158255394934
 20
-137.685997144398
 10
79.12368026450727
 20
-137.844816046268
 10
79.03049043163126
 20
-137.9188855992008
 10
78.98191458528925
 20
-138.0625460809358
 10
78.98191458528925
 20
-138.0625460809358
 10
79.76033391018144
 20
-138.0625460809358
 10
79.76033391018144
 20
-138.0625460809358
 10
79.76033391018144
 20
-138.0625460809358
 10
79.76033391018144
 20
-138.2678737718566
 10
79.76033391018144
 20
-138.2678737718566
 10
79.76033391018144
 20
-138.2678737718566
 10
78.7323174173829
 20
-138.2678737718566
 10
78.7323174173829
 20
-138.2678737718566
 10
78.7640122958472
 20
-137.9102728604877
 10
78.82964136484121
 20
-137.8320691929725
 10
79.21463078531788
 20
-137.5337239239499
 10
79.47060137987194
 20
-137.334941914451
 10
79.53605819409168
 20
-137.2670735333916
 10
79.53605819409168
 20
-137.1296142235301
 10
79.53605819409168
 20
-137.0111029388375
 10
79.46422795322422
 20
-136.880189310398
 10
79.26751300101645
 20
-136.880189310398
 10
79.00723603710583
 20
-136.880189310398
 10
78.99879555316697
 20
-137.1106661983612
 10
78.99448918381042
 20
-137.2271104257627
 10
78.99448918381042
 20
-137.2271104257627
 10
78.77038572249491
 20
-137.2271104257627
 10
78.77038572249491
 20
-137.2271104257627
 10
78.77882620643376
 20
-137.099986402357
 10
78.78933374766378
 20
-136.9880207990863
 10
78.86977672724437
 20
-136.8695095143937
 10
78.97967527322383
 20
-136.7086235552326
 10
79.16588268420159
 20
-136.6748616194771
 10
79.28232691160304
 20
-136.6748616194771
 10
79.55948484339139
 20
-136.6748616194771
 10
79.76670733682916
 20
-136.8588297183895
 10
79.76670733682916
 20
-137.1316812808213
 10
79.76670733682916
 20
-137.3600911114933
 10
79.65043536420198
 20
-137.459654371017
 10
79.34158255394934
 20
-137.685997144398
 97
        0
 97
        0
 75
     2
 76
     1
 98
        0
  0
SPLINE
  5
A6
330
A0
100
AcDbEntity
  8
_U+30EC_U+30A4_U+30E4_U+30FC 1
370
     0
100
AcDbSpline
210
0.0
220
0.0
230
1.0
 70
    11
 71
     3
 72
    29
 73
    25
 74
     0
 42
0.0000000001
 43
0.0000000001
 12
1.0
 22
0.0
 32
0.0
 13
1.0
 23
0.0
 33
0.0
 40
0.0
 40
0.0
 40
0.0
 40
0.0
 40
1.0
 40
1.0
 40
1.0
 40
2.0
 40
2.0
 40
2.0
 40
3.0
 40
3.0
 40
3.0
 40
4.0
 40
4.0
 40
4.0
 40
5.0
 40
5.0
 40
5.0
 40
6.0
 40
6.0
 40
6.0
 40
7.0
 40
7.0
 40
7.0
 40
8.0
 40
8.0
 40
8.0
 40
8.0
 10
80.82297361260676
 20
-138.0901068448178
 30
0.0
 10
80.71514212391844
 20
-138.2995686503209
 30
0.0
 10
80.54168156623611
 20
-138.3185166754898
 30
0.0
 10
80.42523733883466
 20
-138.3185166754898
 30
0.0
 10
80.26452363444776
 20
-138.3185166754898
 30
0.0
 10
80.12275795522973
 20
-138.272007886439
 30
0.0
 10
80.02750106506257
 20
-138.0901068448178
 30
0.0
 10
79.92397594573082
 20
-137.8954589499012
 30
0.0
 10
79.90485566578768
 20
-137.658436380516
 30
0.0
 10
79.90485566578768
 20
-137.4954833640636
 30
0.0
 10
79.90485566578768
 20
-137.3518228823287
 30
0.0
 10
79.9217366336654
 20
-137.099986402357
 30
0.0
 10
80.02750106506257
 20
-136.901204392858
 30
0.0
 10
80.13550480852516
 20
-136.6979437592283
 30
0.0
 10
80.29621851291206
 20
-136.6748616194771
 30
0.0
 10
80.42523733883466
 20
-136.6748616194771
 30
0.0
 10
80.58388398593043
 20
-136.6748616194771
 30
0.0
 10
80.7277167224396
 20
-136.7193033512368
 30
0.0
 10
80.82297361260676
 20
-136.901204392858
 30
0.0
 10
80.92236461735622
 20
-137.0937852304835
 30
0.0
 10
80.94561901188166
 20
-137.3221950611556
 30
0.0
 10
80.94561901188166
 20
-137.4954833640636
 30
0.0
 10
80.94561901188166
 20
-137.6670491192291
 30
0.0
 10
80.92460392942164
 20
-137.8975260071923
 30
0.0
 10
80.82297361260676
 20
-138.0901068448178
 30
0.0
  0
SPLINE
  5
A7
330
A0
100
AcDbEntity
  8
_U+30EC_U+30A4_U+30E4_U+30FC 1
370
     0
100
AcDbSpline
210
0.0
220
0.0
230
1.0
 70
    11
 71
     3
 72
    17
 73
    13
 74
     0
 42
0.0000000001
 43
0.0000000001
 12
1.0
 22
0.0
 32
0.0
 13
1.0
 23
0.0
 33
0.0
 40
0.0
 40
0.0
 40
0.0
 40
0.0
 40
1.0
 40
1.0
 40
1.0
 40
2.0
 40
2.0
 40
2.0
 40
3.0
 40
3.0
 40
3.0
 40
4.0
 40
4.0
 40
4.0
 40
4.0
 10
80.42523733883466
 20
-136.8674424571026
 30
0.0
 10
80.17564017092832
 20
-136.8674424571026
 30
0.0
 10
80.12913138187744
 20
-137.1509738155387
 30
0.0
 10
80.12913138187744
 20
-137.4954833640636
 30
0.0
 10
80.12913138187744
 20
-137.8151882250948
 30
0.0
 10
80.1651326296983
 20
-138.1238687805732
 30
0.0
 10
80.42523733883466
 20
-138.1238687805732
 30
0.0
 10
80.67276744944986
 20
-138.1238687805732
 30
0.0
 10
80.72151555056615
 20
-137.8424044794283
 30
0.0
 10
80.72151555056615
 20
-137.4954833640636
 30
0.0
 10
80.72151555056615
 20
-137.176123012581
 30
0.0
 10
80.68344724545415
 20
-136.8674424571026
 30
0.0
 10
80.42523733883466
 20
-136.8674424571026
 30
0.0
  0
HATCH
  5
A8
330
A0
100
AcDbEntity
  8
_U+30EC_U+30A4_U+30E4_U+30FC 1
 62
     7
420
 16777215
100
AcDbHatch
 10
0.0
 20
0.0
 30
0.0
210
0.0
220
0.0
230
1.0
  2
SOLID
 70
     1
 71
     0
 91
        2
 92
        1
 93
        1
 72
     4
 94
        3
 73
     0
 74
     1
 95
       29
 96
       25
 40
0.0
 40
0.0
 40
0.0
 40
0.0
 40
1.0
 40
1.0
 40
1.0
 40
2.0
 40
2.0
 40
2.0
 40
3.0
 40
3.0
 40
3.0
 40
4.0
 40
4.0
 40
4.0
 40
5.0
 40
5.0
 40
5.0
 40
6.0
 40
6.0
 40
6.0
 40
7.0
 40
7.0
 40
7.0
 40
8.0
 40
8.0
 40
8.0
 40
8.0
 10
80.82297361260676
 20
-138.0901068448178
 10
80.71514212391844
 20
-138.2995686503209
 10
80.54168156623611
 20
-138.3185166754898
 10
80.42523733883466
 20
-138.3185166754898
 10
80.26452363444776
 20
-138.3185166754898
 10
80.12275795522973
 20
-138.272007886439
 10
80.02750106506257
 20
-138.0901068448178
 10
79.92397594573082
 20
-137.8954589499012
 10
79.90485566578768
 20
-137.658436380516
 10
79.90485566578768
 20
-137.4954833640636
 10
79.90485566578768
 20
-137.3518228823287
 10
79.9217366336654
 20
-137.099986402357
 10
80.02750106506257
 20
-136.901204392858
 10
80.13550480852516
 20
-136.6979437592283
 10
80.29621851291206
 20
-136.6748616194771
 10
80.42523733883466
 20
-136.6748616194771
 10
80.58388398593043
 20
-136.6748616194771
 10
80.7277167224396
 20
-136.7193033512368
 10
80.82297361260676
 20
-136.901204392858
 10
80.92236461735622
 20
-137.0937852304835
 10
80.94561901188166
 20
-137.3221950611556
 10
80.94561901188166
 20
-137.4954833640636
 10
80.94561901188166
 20
-137.6670491192291
 10
80.92460392942164
 20
-137.8975260071923
 10
80.82297361260676
 20
-138.0901068448178
 97
        0
 97
        0
 92
        1
 93
        1
 72
     4
 94
        3
 73
     0
 74
     1
 95
       17
 96
       13
 40
0.0
 40
0.0
 40
0.0
 40
0.0
 40
1.0
 40
1.0
 40
1.0
 40
2.0
 40
2.0
 40
2.0
 40
3.0
 40
3.0
 40
3.0
 40
4.0
 40
4.0
 40
4.0
 40
4.0
 10
80.42523733883466
 20
-136.8674424571026
 10
80.17564017092832
 20
-136.8674424571026
 10
80.12913138187744
 20
-137.1509738155387
 10
80.12913138187744
 20
-137.4954833640636
 10
80.12913138187744
 20
-137.8151882250948
 10
80.1651326296983
 20
-138.1238687805732
 10
80.42523733883466
 20
-138.1238687805732
 10
80.67276744944986
 20
-138.1238687805732
 10
80.72151555056615
 20
-137.8424044794283
 10
80.72151555056615
 20
-137.4954833640636
 10
80.72151555056615
 20
-137.176123012581
 10
80.68344724545415
 20
-136.8674424571026
 10
80.42523733883466
 20
-136.8674424571026
 97
        0
 97
        0
 75
     2
 76
     1
 98
        0
  0
ENDBLK
  5
A3
330
A0
100
AcDbEntity
  8
0
100
AcDbBlockEnd
  0
BLOCK
  5
B7
330
B5
100
AcDbEntity
  8
0
100
AcDbBlockBegin
  2
block 6
 70
     0
 10
0.0
 20
0.0
 30
0.0
  3
block 6
  1

  0
POLYLINE
  5
B9
330
B5
100
AcDbEntity
  8
_U+30EC_U+30A4_U+30E4_U+30FC 1
370
     0
100
AcDb2dPolyline
 66
     1
 10
0.0
 20
0.0
 30
0.0
  0
VERTEX
  5
BA
330
B9
100
AcDbEntity
  8
_U+30EC_U+30A4_U+30E4_U+30FC 1
370
     0
100
AcDbVertex
100
AcDb2dVertex
 10
92.16905108372858
 20
-137.920952656492
 30
0.0
  0
VERTEX
  5
BB
330
B9
100
AcDbEntity
  8
_U+30EC_U+30A4_U+30E4_U+30FC 1
370
     0
100
AcDbVertex
100
AcDb2dVertex
 10
92.16905108372858
 20
-138.2678737718566
 30
0.0
  0
VERTEX
  5
BC
330
B9
100
AcDbEntity
  8
_U+30EC_U+30A4_U+30E4_U+30FC 1
370
     0
100
AcDbVertex
100
AcDb2dVertex
 10
91.95097653951225
 20
-138.2678737718566
 30
0.0
  0
VERTEX
  5
BD
330
B9
100
AcDbEntity
  8
_U+30EC_U+30A4_U+30E4_U+30FC 1
370
     0
100
AcDbVertex
100
AcDb2dVertex
 10
91.95097653951225
 20
-137.920952656492
 30
0.0
  0
VERTEX
  5
BE
330
B9
100
AcDbEntity
  8
_U+30EC_U+30A4_U+30E4_U+30FC 1
370
     0
100
AcDbVertex
100
AcDb2dVertex
 10
91.29537486866921
 20
-137.920952656492
 30
0.0
  0
VERTEX
  5
BF
330
B9
100
AcDbEntity
  8
_U+30EC_U+30A4_U+30E4_U+30FC 1
370
     0
100
AcDbVertex
100
AcDb2dVertex
 10
91.29537486866921
 20
-137.6966769404022
 30
0.0
  0
VERTEX
  5
C0
330
B9
100
AcDbEntity
  8
_U+30EC_U+30A4_U+30E4_U+30FC 1
370
     0
100
AcDbVertex
100
AcDb2dVertex
 10
91.97440318881196
 20
-136.7234374658192
 30
0.0
  0
VERTEX
  5
C1
330
B9
100
AcDbEntity
  8
_U+30EC_U+30A4_U+30E4_U+30FC 1
370
     0
100
AcDbVertex
100
AcDb2dVertex
 10
92.16905108372858
 20
-136.7234374658192
 30
0.0
  0
VERTEX
  5
C2
330
B9
100
AcDbEntity
  8
_U+30EC_U+30A4_U+30E4_U+30FC 1
370
     0
100
AcDbVertex
100
AcDb2dVertex
 10
92.16905108372858
 20
-137.7218261374445
 30
0.0
  0
VERTEX
  5
C3
330
B9
100
AcDbEntity
  8
_U+30EC_U+30A4_U+30E4_U+30FC 1
370
     0
100
AcDbVertex
100
AcDb2dVertex
 10
92.37644583194061
 20
-137.7218261374445
 30
0.0
  0
VERTEX
  5
C4
330
B9
100
AcDbEntity
  8
_U+30EC_U+30A4_U+30E4_U+30FC 1
370
     0
100
AcDbVertex
100
AcDb2dVertex
 10
92.37644583194061
 20
-137.920952656492
 30
0.0
  0
VERTEX
  5
C5
330
B9
100
AcDbEntity
  8
_U+30EC_U+30A4_U+30E4_U+30FC 1
370
     0
100
AcDbVertex
100
AcDb2dVertex
 10
92.16905108372858
 20
-137.920952656492
 30
0.0
  0
SEQEND
  5
C6
330
B9
100
AcDbEntity
  8
_U+30EC_U+30A4_U+30E4_U+30FC 1
370
     0
  0
POLYLINE
  5
C7
330
B5
100
AcDbEntity
  8
_U+30EC_U+30A4_U+30E4_U+30FC 1
370
     0
100
AcDb2dPolyline
 66
     1
 10
0.0
 20
0.0
 30
0.0
  0
VERTEX
  5
C8
330
C7
100
AcDbEntity
  8
_U+30EC_U+30A4_U+30E4_U+30FC 1
370
     0
100
AcDbVertex
100
AcDb2dVertex
 10
91.95097653951225
 20
-137.0662244666015
 30
0.0
  0
VERTEX
  5
C9
330
C7
100
AcDbEntity
  8
_U+30EC_U+30A4_U+30E4_U+30FC 1
370
     0
100
AcDbVertex
100
AcDb2dVertex
 10
91.49415687816813
 20
-137.7218261374445
 30
0.0
  0
VERTEX
  5
CA
330
C7
100
AcDbEntity
  8
_U+30EC_U+30A4_U+30E4_U+30FC 1
370
     0
100
AcDbVertex
100
AcDb2dVertex
 10
91.95097653951225
 20
-137.7218261374445
 30
0.0
  0
VERTEX
  5
CB
330
C7
100
AcDbEntity
  8
_U+30EC_U+30A4_U+30E4_U+30FC 1
370
     0
100
AcDbVertex
100
AcDb2dVertex
 10
91.95097653951225
 20
-137.0662244666015
 30
0.0
  0
SEQEND
  5
CC
330
C7
100
AcDbEntity
  8
_U+30EC_U+30A4_U+30E4_U+30FC 1
370
     0
  0
HATCH
  5
CD
330
B5
100
AcDbEntity
  8
_U+30EC_U+30A4_U+30E4_U+30FC 1
 62
     7
420
 16777215
100
AcDbHatch
 10
0.0
 20
0.0
 30
0.0
210
0.0
220
0.0
230
1.0
  2
SOLID
 70
     1
 71
     0
 91
        2
 92
        1
 93
       11
 72
     1
 10
92.16905108372858
 20
-137.920952656492
 11
92.16905108372858
 21
-138.2678737718566
 72
     1
 10
92.16905108372858
 20
-138.2678737718566
 11
91.95097653951225
 21
-138.2678737718566
 72
     1
 10
91.95097653951225
 20
-138.2678737718566
 11
91.95097653951225
 21
-137.920952656492
 72
     1
 10
91.95097653951225
 20
-137.920952656492
 11
91.29537486866921
 21
-137.920952656492
 72
     1
 10
91.29537486866921
 20
-137.920952656492
 11
91.29537486866921
 21
-137.6966769404022
 72
     1
 10
91.29537486866921
 20
-137.6966769404022
 11
91.97440318881196
 21
-136.7234374658192
 72
     1
 10
91.97440318881196
 20
-136.7234374658192
 11
92.16905108372858
 21
-136.7234374658192
 72
     1
 10
92.16905108372858
 20
-136.7234374658192
 11
92.16905108372858
 21
-137.7218261374445
 72
     1
 10
92.16905108372858
 20
-137.7218261374445
 11
92.37644583194061
 21
-137.7218261374445
 72
     1
 10
92.37644583194061
 20
-137.7218261374445
 11
92.37644583194061
 21
-137.920952656492
 72
     1
 10
92.37644583194061
 20
-137.920952656492
 11
92.16905108372858
 21
-137.920952656492
 97
        0
 92
        1
 93
        3
 72
     1
 10
91.95097653951225
 20
-137.0662244666015
 11
91.49415687816813
 21
-137.7218261374445
 72
     1
 10
91.49415687816813
 20
-137.7218261374445
 11
91.95097653951225
 21
-137.7218261374445
 72
     1
 10
91.95097653951225
 20
-137.7218261374445
 11
91.95097653951225
 21
-137.0662244666015
 97
        0
 75
     2
 76
     1
 98
        0
  0
ENDBLK
  5
B8
330
B5
100
AcDbEntity
  8
0
100
AcDbBlockEnd
  0
BLOCK
  5
D8
330
D6
100
AcDbEntity
  8
0
100
AcDbBlockBegin
  2
block 7
 70
     0
 10
0.0
 20
0.0
 30
0.0
  3
block 7
  1

  0
SPLINE
  5
DA
330
D6
100
AcDbEntity
  8
_U+30EC_U+30A4_U+30E4_U+30FC 1
370
     0
100
AcDbSpline
210
0.0
220
0.0
230
1.0
 70
    11
 71
     3
 72
    29
 73
    25
 74
     0
 42
0.0000000001
 43
0.0000000001
 12
1.0
 22
0.0
 32
0.0
 13
1.0
 23
0.0
 33
0.0
 40
0.0
 40
0.0
 40
0.0
 40
0.0
 40
1.0
 40
1.0
 40
1.0
 40
2.0
 40
2.0
 40
2.0
 40
3.0
 40
3.0
 40
3.0
 40
4.0
 40
4.0
 40
4.0
 40
5.0
 40
5.0
 40
5.0
 40
6.0
 40
6.0
 40
6.0
 40
7.0
 40
7.0
 40
7.0
 40
8.0
 40
8.0
 40
8.0
 40
8.0
 10
110.2416774898007
 20
-130.6759168510116
 30
0.0
 10
110.2416774898007
 20
-130.9425672415699
 30
0.0
 10
110.1042181799392
 20
-131.1961262692843
 30
0.0
 10
109.7552300072834
 20
-131.1961262692843
 30
0.0
 10
109.4992594127294
 20
-131.1961262692843
 30
0.0
 10
109.4041747773365
 20
-131.0545328448405
 30
0.0
 10
109.342852077699
 20
-130.9487684134434
 30
0.0
 10
109.2835964353527
 20
-131.0734808700094
 30
0.0
 10
109.1692192652424
 20
-131.1496174802334
 30
0.0
 10
109.0083333060813
 20
-131.1496174802334
 30
0.0
 10
108.7334146863583
 20
-131.1496174802334
 30
0.0
 10
108.598022433788
 20
-130.9508354707345
 30
0.0
 10
108.598022433788
 20
-130.6759168510116
 30
0.0
 10
108.598022433788
 20
-130.3923854925755
 30
0.0
 10
108.7420274250714
 20
-130.2018717122412
 30
0.0
 10
109.0083333060813
 20
-130.2018717122412
 30
0.0
 10
109.1692192652424
 20
-130.2018717122412
 30
0.0
 10
109.2835964353527
 20
-130.2804198893049
 30
0.0
 10
109.342852077699
 20
-130.405132345871
 30
0.0
 10
109.3934949813322
 20
-130.3162488823515
 30
0.0
 10
109.4885796167251
 20
-130.1574299804815
 30
0.0
 10
109.7510958927011
 20
-130.1574299804815
 30
0.0
 10
110.1255777719478
 20
-130.1574299804815
 30
0.0
 10
110.2416774898007
 20
-130.4368272243352
 30
0.0
 10
110.2416774898007
 20
-130.6759168510116
 30
0.0
  0
SPLINE
  5
DB
330
D6
100
AcDbEntity
  8
_U+30EC_U+30A4_U+30E4_U+30FC 1
370
     0
100
AcDbSpline
210
0.0
220
0.0
230
1.0
 70
    11
 71
     3
 72
    17
 73
    13
 74
     0
 42
0.0000000001
 43
0.0000000001
 12
1.0
 22
0.0
 32
0.0
 13
1.0
 23
0.0
 33
0.0
 40
0.0
 40
0.0
 40
0.0
 40
0.0
 40
1.0
 40
1.0
 40
1.0
 40
2.0
 40
2.0
 40
2.0
 40
3.0
 40
3.0
 40
3.0
 40
4.0
 40
4.0
 40
4.0
 40
4.0
 10
108.7906032714135
 20
-130.6759168510116
 30
0.0
 10
108.7906032714135
 20
-130.8409369247551
 30
0.0
 10
108.8856879068064
 20
-130.9253417641437
 30
0.0
 10
109.0210801593767
 20
-130.9253417641437
 30
0.0
 10
109.1437255586516
 20
-130.9253417641437
 30
0.0
 10
109.2622368433442
 20
-130.8536837780505
 30
0.0
 10
109.2622368433442
 20
-130.6759168510116
 30
0.0
 10
109.2622368433442
 20
-130.4981499239727
 30
0.0
 10
109.1437255586516
 20
-130.426147428331
 30
0.0
 10
109.0210801593767
 20
-130.426147428331
 30
0.0
 10
108.8856879068064
 20
-130.426147428331
 30
0.0
 10
108.7906032714135
 20
-130.5129638345593
 30
0.0
 10
108.7906032714135
 20
-130.6759168510116
 30
0.0
  0
SPLINE
  5
DC
330
D6
100
AcDbEntity
  8
_U+30EC_U+30A4_U+30E4_U+30FC 1
370
     0
100
AcDbSpline
210
0.0
220
0.0
230
1.0
 70
    11
 71
     3
 72
    17
 73
    13
 74
     0
 42
0.0000000001
 43
0.0000000001
 12
1.0
 22
0.0
 32
0.0
 13
1.0
 23
0.0
 33
0.0
 40
0.0
 40
0.0
 40
0.0
 40
0.0
 40
1.0
 40
1.0
 40
1.0
 40
2.0
 40
2.0
 40
2.0
 40
3.0
 40
3.0
 40
3.0
 40
4.0
 40
4.0
 40
4.0
 40
4.0
 10
109.4506835663873
 20
-130.6759168510116
 30
0.0
 10
109.4506835663873
 20
-130.8195773327465
 30
0.0
 10
109.5374999726156
 20
-130.9721950627431
 30
0.0
 10
109.7404160966968
 20
-130.9721950627431
 30
0.0
 10
109.9457437876177
 20
-130.9721950627431
 30
0.0
 10
110.0470295948841
 20
-130.8450710393373
 30
0.0
 10
110.0470295948841
 20
-130.6759168510116
 30
0.0
 10
110.0470295948841
 20
-130.4898816948081
 30
0.0
 10
109.9243841956092
 20
-130.3796386392801
 30
0.0
 10
109.7466172685703
 20
-130.3796386392801
 30
0.0
 10
109.5247531193202
 20
-130.3796386392801
 30
0.0
 10
109.4506835663873
 20
-130.5425916557324
 30
0.0
 10
109.4506835663873
 20
-130.6759168510116
 30
0.0
  0
HATCH
  5
DD
330
D6
100
AcDbEntity
  8
_U+30EC_U+30A4_U+30E4_U+30FC 1
 62
     7
420
 16777215
100
AcDbHatch
 10
0.0
 20
0.0
 30
0.0
210
0.0
220
0.0
230
1.0
  2
SOLID
 70
     1
 71
     0
 91
        3
 92
        1
 93
        1
 72
     4
 94
        3
 73
     0
 74
     1
 95
       29
 96
       25
 40
0.0
 40
0.0
 40
0.0
 40
0.0
 40
1.0
 40
1.0
 40
1.0
 40
2.0
 40
2.0
 40
2.0
 40
3.0
 40
3.0
 40
3.0
 40
4.0
 40
4.0
 40
4.0
 40
5.0
 40
5.0
 40
5.0
 40
6.0
 40
6.0
 40
6.0
 40
7.0
 40
7.0
 40
7.0
 40
8.0
 40
8.0
 40
8.0
 40
8.0
 10
110.2416774898007
 20
-130.6759168510116
 10
110.2416774898007
 20
-130.9425672415699
 10
110.1042181799392
 20
-131.1961262692843
 10
109.7552300072834
 20
-131.1961262692843
 10
109.4992594127294
 20
-131.1961262692843
 10
109.4041747773365
 20
-131.0545328448405
 10
109.342852077699
 20
-130.9487684134434
 10
109.2835964353527
 20
-131.0734808700094
 10
109.1692192652424
 20
-131.1496174802334
 10
109.0083333060813
 20
-131.1496174802334
 10
108.7334146863583
 20
-131.1496174802334
 10
108.598022433788
 20
-130.9508354707345
 10
108.598022433788
 20
-130.6759168510116
 10
108.598022433788
 20
-130.3923854925755
 10
108.7420274250714
 20
-130.2018717122412
 10
109.0083333060813
 20
-130.2018717122412
 10
109.1692192652424
 20
-130.2018717122412
 10
109.2835964353527
 20
-130.2804198893049
 10
109.342852077699
 20
-130.405132345871
 10
109.3934949813322
 20
-130.3162488823515
 10
109.4885796167251
 20
-130.1574299804815
 10
109.7510958927011
 20
-130.1574299804815
 10
110.1255777719478
 20
-130.1574299804815
 10
110.2416774898007
 20
-130.4368272243352
 10
110.2416774898007
 20
-130.6759168510116
 97
        0
 97
        0
 92
        1
 93
        1
 72
     4
 94
        3
 73
     0
 74
     1
 95
       17
 96
       13
 40
0.0
 40
0.0
 40
0.0
 40
0.0
 40
1.0
 40
1.0
 40
1.0
 40
2.0
 40
2.0
 40
2.0
 40
3.0
 40
3.0
 40
3.0
 40
4.0
 40
4.0
 40
4.0
 40
4.0
 10
108.7906032714135
 20
-130.6759168510116
 10
108.7906032714135
 20
-130.8409369247551
 10
108.8856879068064
 20
-130.9253417641437
 10
109.0210801593767
 20
-130.9253417641437
 10
109.1437255586516
 20
-130.9253417641437
 10
109.2622368433442
 20
-130.8536837780505
 10
109.2622368433442
 20
-130.6759168510116
 10
109.2622368433442
 20
-130.4981499239727
 10
109.1437255586516
 20
-130.426147428331
 10
109.0210801593767
 20
-130.426147428331
 10
108.8856879068064
 20
-130.426147428331
 10
108.7906032714135
 20
-130.5129638345593
 10
108.7906032714135
 20
-130.6759168510116
 97
        0
 97
        0
 92
        1
 93
        1
 72
     4
 94
        3
 73
     0
 74
     1
 95
       17
 96
       13
 40
0.0
 40
0.0
 40
0.0
 40
0.0
 40
1.0
 40
1.0
 40
1.0
 40
2.0
 40
2.0
 40
2.0
 40
3.0
 40
3.0
 40
3.0
 40
4.0
 40
4.0
 40
4.0
 40
4.0
 10
109.4506835663873
 20
-130.6759168510116
 10
109.4506835663873
 20
-130.8195773327465
 10
109.5374999726156
 20
-130.9721950627431
 10
109.7404160966968
 20
-130.9721950627431
 10
109.9457437876177
 20
-130.9721950627431
 10
110.0470295948841
 20
-130.8450710393373
 10
110.0470295948841
 20
-130.6759168510116
 10
110.0470295948841
 20
-130.4898816948081
 10
109.9243841956092
 20
-130.3796386392801
 10
109.7466172685703
 20
-130.3796386392801
 10
109.5247531193202
 20
-130.3796386392801
 10
109.4506835663873
 20
-130.5425916557324
 10
109.4506835663873
 20
-130.6759168510116
 97
        0
 97
        0
 75
     2
 76
     1
 98
        0
  0
POLYLINE
  5
DE
330
D6
100
AcDbEntity
  8
_U+30EC_U+30A4_U+30E4_U+30FC 1
370
     0
100
AcDb2dPolyline
 66
     1
 10
0.0
 20
0.0
 30
0.0
  0
VERTEX
  5
DF
330
DE
100
AcDbEntity
  8
_U+30EC_U+30A4_U+30E4_U+30FC 1
370
     0
100
AcDbVertex
100
AcDb2dVertex
 10
110.1910345861675
 20
-129.9390109267166
 30
0.0
  0
VERTEX
  5
E0
330
DE
100
AcDbEntity
  8
_U+30EC_U+30A4_U+30E4_U+30FC 1
370
     0
100
AcDbVertex
100
AcDb2dVertex
 10
109.9391981061958
 20
-129.9390109267166
 30
0.0
  0
VERTEX
  5
E1
330
DE
100
AcDbEntity
  8
_U+30EC_U+30A4_U+30E4_U+30FC 1
370
     0
100
AcDbVertex
100
AcDb2dVertex
 10
109.9391981061958
 20
-129.6871744467449
 30
0.0
  0
VERTEX
  5
E2
330
DE
100
AcDbEntity
  8
_U+30EC_U+30A4_U+30E4_U+30FC 1
370
     0
100
AcDbVertex
100
AcDb2dVertex
 10
110.1910345861675
 20
-129.6871744467449
 30
0.0
  0
VERTEX
  5
E3
330
DE
100
AcDbEntity
  8
_U+30EC_U+30A4_U+30E4_U+30FC 1
370
     0
100
AcDbVertex
100
AcDb2dVertex
 10
110.1910345861675
 20
-129.9390109267166
 30
0.0
  0
SEQEND
  5
E4
330
DE
100
AcDbEntity
  8
_U+30EC_U+30A4_U+30E4_U+30FC 1
370
     0
  0
HATCH
  5
E5
330
D6
100
AcDbEntity
  8
_U+30EC_U+30A4_U+30E4_U+30FC 1
 62
     7
420
 16777215
100
AcDbHatch
 10
0.0
 20
0.0
 30
0.0
210
0.0
220
0.0
230
1.0
  2
SOLID
 70
     1
 71
     0
 91
        1
 92
        1
 93
        4
 72
     1
 10
110.1910345861675
 20
-129.9390109267166
 11
109.9391981061958
 21
-129.9390109267166
 72
     1
 10
109.9391981061958
 20
-129.9390109267166
 11
109.9391981061958
 21
-129.6871744467449
 72
     1
 10
109.9391981061958
 20
-129.6871744467449
 11
110.1910345861675
 21
-129.6871744467449
 72
     1
 10
110.1910345861675
 20
-129.6871744467449
 11
110.1910345861675
 21
-129.9390109267166
 97
        0
 75
     2
 76
     1
 98
        0
  0
SPLINE
  5
E6
330
D6
100
AcDbEntity
  8
_U+30EC_U+30A4_U+30E4_U+30FC 1
370
     0
100
AcDbSpline
210
0.0
220
0.0
230
1.0
 70
    11
 71
     3
 72
    44
 73
    40
 74
     0
 42
0.0000000001
 43
0.0000000001
 12
1.0
 22
0.0
 32
0.0
 13
1.0
 23
0.0
 33
0.0
 40
0.0
 40
0.0
 40
0.0
 40
0.0
 40
1.0
 40
1.0
 40
1.0
 40
2.0
 40
2.0
 40
2.0
 40
3.0
 40
3.0
 40
3.0
 40
4.0
 40
4.0
 40
4.0
 40
5.0
 40
5.0
 40
5.0
 40
6.0
 40
6.0
 40
6.0
 40
7.0
 40
7.0
 40
7.0
 40
8.0
 40
8.0
 40
8.0
 40
9.0
 40
9.0
 40
9.0
 40
10.0
 40
10.0
 40
10.0
 40
11.0
 40
11.0
 40
11.0
 40
12.0
 40
12.0
 40
12.0
 40
13.0
 40
13.0
 40
13.0
 40
13.0
 10
109.6091579587088
 20
-128.8579399634452
 30
0.0
 10
109.7679768605788
 20
-129.075669998113
 30
0.0
 10
109.8420464135117
 20
-129.1686875762148
 30
0.0
 10
109.9857068952466
 20
-129.2176079321053
 30
0.0
 10
109.9857068952466
 20
-129.2176079321053
 30
0.0
 10
109.9857068952466
 20
-128.4390163524389
 30
0.0
 10
109.9857068952466
 20
-128.4390163524389
 30
0.0
 10
109.9857068952466
 20
-128.4390163524389
 30
0.0
 10
110.1910345861675
 20
-128.4390163524389
 30
0.0
 10
110.1910345861675
 20
-128.4390163524389
 30
0.0
 10
110.1910345861675
 20
-128.4390163524389
 30
0.0
 10
110.1910345861675
 20
-129.4670328452374
 30
0.0
 10
110.1910345861675
 20
-129.4670328452374
 30
0.0
 10
109.8334336747986
 20
-129.4353379667731
 30
0.0
 10
109.7552300072834
 20
-129.3698811525534
 30
0.0
 10
109.4568847382608
 20
-128.9847194773024
 30
0.0
 10
109.2581027287619
 20
-128.7287488827484
 30
0.0
 10
109.1902343477024
 20
-128.6632920685286
 30
0.0
 10
109.052775037841
 20
-128.6632920685286
 30
0.0
 10
108.9342637531484
 20
-128.6632920685286
 30
0.0
 10
108.8033501247089
 20
-128.7352945641703
 30
0.0
 10
108.8033501247089
 20
-128.9320095163781
 30
0.0
 10
108.8033501247089
 20
-129.1921142255145
 30
0.0
 10
109.0338270126721
 20
-129.2007269642276
 30
0.0
 10
109.1502712400736
 20
-129.2048610788099
 30
0.0
 10
109.1502712400736
 20
-129.2048610788099
 30
0.0
 10
109.1502712400736
 20
-129.4291367948997
 30
0.0
 10
109.1502712400736
 20
-129.4291367948997
 30
0.0
 10
109.0231472166678
 20
-129.4205240561865
 30
0.0
 10
108.9111816133972
 20
-129.4098442601823
 30
0.0
 10
108.7926703287046
 20
-129.3295735353759
 30
0.0
 10
108.6317843695435
 20
-129.2196749893965
 30
0.0
 10
108.598022433788
 20
-129.0332953236445
 30
0.0
 10
108.598022433788
 20
-128.9171956057915
 30
0.0
 10
108.598022433788
 20
-128.6398654192289
 30
0.0
 10
108.7819905327003
 20
-128.4324706710169
 30
0.0
 10
109.0548420951321
 20
-128.4324706710169
 30
0.0
 10
109.2835964353527
 20
-128.4324706710169
 30
0.0
 10
109.3828151853279
 20
-128.5489148984183
 30
0.0
 10
109.6091579587088
 20
-128.8579399634452
 30
0.0
  0
HATCH
  5
E7
330
D6
100
AcDbEntity
  8
_U+30EC_U+30A4_U+30E4_U+30FC 1
 62
     7
420
 16777215
100
AcDbHatch
 10
0.0
 20
0.0
 30
0.0
210
0.0
220
0.0
230
1.0
  2
SOLID
 70
     1
 71
     0
 91
        1
 92
        1
 93
        1
 72
     4
 94
        3
 73
     0
 74
     1
 95
       44
 96
       40
 40
0.0
 40
0.0
 40
0.0
 40
0.0
 40
1.0
 40
1.0
 40
1.0
 40
2.0
 40
2.0
 40
2.0
 40
3.0
 40
3.0
 40
3.0
 40
4.0
 40
4.0
 40
4.0
 40
5.0
 40
5.0
 40
5.0
 40
6.0
 40
6.0
 40
6.0
 40
7.0
 40
7.0
 40
7.0
 40
8.0
 40
8.0
 40
8.0
 40
9.0
 40
9.0
 40
9.0
 40
10.0
 40
10.0
 40
10.0
 40
11.0
 40
11.0
 40
11.0
 40
12.0
 40
12.0
 40
12.0
 40
13.0
 40
13.0
 40
13.0
 40
13.0
 10
109.6091579587088
 20
-128.8579399634452
 10
109.7679768605788
 20
-129.075669998113
 10
109.8420464135117
 20
-129.1686875762148
 10
109.9857068952466
 20
-129.2176079321053
 10
109.9857068952466
 20
-129.2176079321053
 10
109.9857068952466
 20
-128.4390163524389
 10
109.9857068952466
 20
-128.4390163524389
 10
109.9857068952466
 20
-128.4390163524389
 10
110.1910345861675
 20
-128.4390163524389
 10
110.1910345861675
 20
-128.4390163524389
 10
110.1910345861675
 20
-128.4390163524389
 10
110.1910345861675
 20
-129.4670328452374
 10
110.1910345861675
 20
-129.4670328452374
 10
109.8334336747986
 20
-129.4353379667731
 10
109.7552300072834
 20
-129.3698811525534
 10
109.4568847382608
 20
-128.9847194773024
 10
109.2581027287619
 20
-128.7287488827484
 10
109.1902343477024
 20
-128.6632920685286
 10
109.052775037841
 20
-128.6632920685286
 10
108.9342637531484
 20
-128.6632920685286
 10
108.8033501247089
 20
-128.7352945641703
 10
108.8033501247089
 20
-128.9320095163781
 10
108.8033501247089
 20
-129.1921142255145
 10
109.0338270126721
 20
-129.2007269642276
 10
109.1502712400736
 20
-129.2048610788099
 10
109.1502712400736
 20
-129.2048610788099
 10
109.1502712400736
 20
-129.4291367948997
 10
109.1502712400736
 20
-129.4291367948997
 10
109.0231472166678
 20
-129.4205240561865
 10
108.9111816133972
 20
-129.4098442601823
 10
108.7926703287046
 20
-129.3295735353759
 10
108.6317843695435
 20
-129.2196749893965
 10
108.598022433788
 20
-129.0332953236445
 10
108.598022433788
 20
-128.9171956057915
 10
108.598022433788
 20
-128.6398654192289
 10
108.7819905327003
 20
-128.4324706710169
 10
109.0548420951321
 20
-128.4324706710169
 10
109.2835964353527
 20
-128.4324706710169
 10
109.3828151853279
 20
-128.5489148984183
 10
109.6091579587088
 20
-128.8579399634452
 97
        0
 97
        0
 75
     2
 76
     1
 98
        0
  0
ENDBLK
  5
D9
330
D6
100
AcDbEntity
  8
0
100
AcDbBlockEnd
  0
ENDSEC
  0
SECTION
  2
ENTITIES
  0
INSERT
  5
42
330
1F
100
AcDbEntity
  8
_U+30EC_U+30A4_U+30E4_U+30FC 1
100
AcDbBlockReference
  2
block 2
 10
0.0
 20
0.0
 30
0.0
  0
ENDSEC
  0
SECTION
  2
OBJECTS
  0
DICTIONARY
  5
C
330
0
100
AcDbDictionary
281
     1
  3
ACAD_GROUP
350
D
  3
ACAD_LAYOUT
350
1A
  3
ACAD_MATERIAL
350
3B
  3
ACAD_MLEADERSTYLE
350
E9
  3
ACAD_MLINESTYLE
350
17
  3
ACAD_PLOTSETTINGS
350
19
  3
ACAD_PLOTSTYLENAME
350
E
  3
ACAD_TABLESTYLE
350
E8
  3
ACAD_VISUALSTYLE
350
2A
  0
SUN
  5
3F
330
29
100
AcDbSun
 90
        1
290
     0
 63
     7
421
 16777215
 40
1.0
291
     1
 91
  2455826
 92
 54000000
292
     0
 70
     2
 71
   256
280
     1
  0
DICTIONARY
  5
D
102
{ACAD_REACTORS
330
C
102
}
330
C
100
AcDbDictionary
281
     1
  0
DICTIONARY
  5
1A
102
{ACAD_REACTORS
330
C
102
}
330
C
100
AcDbDictionary
281
     1
  3
Layout1
350
1E
  3
Layout2
350
26
  3
Model
350
22
  0
DICTIONARY
  5
3B
102
{ACAD_REACTORS
330
C
102
}
330
C
100
AcDbDictionary
281
     1
  3
ByBlock
350
3D
  3
ByLayer
350
3C
  3
Global
350
3E
  0
DICTIONARY
  5
E9
102
{ACAD_REACTORS
330
C
102
}
330
C
100
AcDbDictionary
281
     1
  0
DICTIONARY
  5
17
102
{ACAD_REACTORS
330
C
102
}
330
C
100
AcDbDictionary
281
     1
  3
Standard
350
18
  0
DICTIONARY
  5
19
102
{ACAD_REACTORS
330
C
102
}
330
C
100
AcDbDictionary
281
     1
  0
ACDBDICTIONARYWDFLT
  5
E
102
{ACAD_REACTORS
330
C
102
}
330
C
100
AcDbDictionary
281
     1
  3
Normal
350
F
100
AcDbDictionaryWithDefault
340
F
  0
DICTIONARY
  5
E8
102
{ACAD_REACTORS
330
C
102
}
330
C
100
AcDbDictionary
281
     1
  0
DICTIONARY
  5
2A
102
{ACAD_REACTORS
330
C
102
}
330
C
100
AcDbDictionary
281
     1
  3
2dWireframe
350
2F
  3
3D Hidden
350
31
  3
3dWireframe
350
30
  3
Basic
350
32
  3
Brighten
350
36
  3
ColorChange
350
3A
  3
Conceptual
350
34
  3
Dim
350
35
  3
Facepattern
350
39
  3
Flat
350
2B
  3
FlatWithEdges
350
2C
  3
Gouraud
350
2D
  3
GouraudWithEdges
350
2E
  3
Linepattern
350
38
  3
Realistic
350
33
  3
Thicken
350
37
  0
LAYOUT
  5
1E
102
{ACAD_REACTORS
330
1A
102
}
330
1A
100
AcDbPlotSettings
  1

  2
none_device
  4

  6

 40
0.0
 41
0.0
 42
0.0
 43
0.0
 44
0.0
 45
0.0
 46
0.0
 47
0.0
 48
0.0
 49
0.0
140
0.0
141
0.0
142
1.0
143
1.0
 70
   688
 72
     0
 73
     0
 74
     5
  7

 75
    16
 76
     0
 77
     2
 78
   300
147
1.0
148
0.0
149
0.0
100
AcDbLayout
  1
Layout1
 70
     1
 71
     1
 10
0.0
 20
0.0
 11
12.0
 21
9.0
 12
0.0
 22
0.0
 32
0.0
 14
1.000000000000000E+20
 24
1.000000000000000E+20
 34
1.000000000000000E+20
 15
-1.000000000000000E+20
 25
-1.000000000000000E+20
 35
-1.000000000000000E+20
146
0.0
 13
0.0
 23
0.0
 33
0.0
 16
1.0
 26
0.0
 36
0.0
 17
0.0
 27
1.0
 37
0.0
 76
     0
330
1B
  0
LAYOUT
  5
26
102
{ACAD_REACTORS
330
1A
102
}
330
1A
100
AcDbPlotSettings
  1

  2
none_device
  4

  6

 40
0.0
 41
0.0
 42
0.0
 43
0.0
 44
0.0
 45
0.0
 46
0.0
 47
0.0
 48
0.0
 49
0.0
140
0.0
141
0.0
142
1.0
143
1.0
 70
   688
 72
     0
 73
     0
 74
     5
  7

 75
    16
 76
     0
 77
     2
 78
   300
147
1.0
148
0.0
149
0.0
100
AcDbLayout
  1
Layout2
 70
     1
 71
     2
 10
0.0
 20
0.0
 11
0.0
 21
0.0
 12
0.0
 22
0.0
 32
0.0
 14
0.0
 24
0.0
 34
0.0
 15
0.0
 25
0.0
 35
0.0
146
0.0
 13
0.0
 23
0.0
 33
0.0
 16
1.0
 26
0.0
 36
0.0
 17
0.0
 27
1.0
 37
0.0
 76
     0
330
23
  0
LAYOUT
  5
22
102
{ACAD_REACTORS
330
1A
102
}
330
1A
100
AcDbPlotSettings
  1

  2
none_device
  4

  6

 40
0.0
 41
0.0
 42
0.0
 43
0.0
 44
0.0
 45
0.0
 46
0.0
 47
0.0
 48
0.0
 49
0.0
140
0.0
141
0.0
142
1.0
143
1.0
 70
  1712
 72
     0
 73
     0
 74
     0
  7

 75
     0
 76
     0
 77
     2
 78
   300
147
1.0
148
0.0
149
0.0
100
AcDbLayout
  1
Model
 70
     1
 71
     0
 10
0.0
 20
0.0
 11
12.0
 21
9.0
 12
0.0
 22
0.0
 32
0.0
 14
1.000000000000000E+20
 24
1.000000000000000E+20
 34
1.000000000000000E+20
 15
-1.000000000000000E+20
 25
-1.000000000000000E+20
 35
-1.000000000000000E+20
146
0.0
 13
0.0
 23
0.0
 33
0.0
 16
1.0
 26
0.0
 36
0.0
 17
0.0
 27
1.0
 37
0.0
 76
     0
330
1F
331
29
  0
MATERIAL
  5
3D
102
{ACAD_REACTORS
330
3B
102
}
330
3B
100
AcDbMaterial
  1
ByBlock
 72
     1
 94
      127
  0
MATERIAL
  5
3C
102
{ACAD_REACTORS
330
3B
102
}
330
3B
100
AcDbMaterial
  1
ByLayer
 72
     1
 94
      127
  0
MATERIAL
  5
3E
102
{ACAD_REACTORS
330
3B
102
}
330
3B
100
AcDbMaterial
  1
Global
 72
     1
 94
      127
  0
MLINESTYLE
  5
18
102
{ACAD_REACTORS
330
17
102
}
330
17
100
AcDbMlineStyle
  2
Standard
 70
     0
  3

 62
   256
 51
90.0
 52
90.0
 71
     2
 49
0.5
 62
   256
  6
BYLAYER
 49
-0.5
 62
   256
  6
BYLAYER
  0
ACDBPLACEHOLDER
  5
F
102
{ACAD_REACTORS
330
E
102
}
330
E
  0
VISUALSTYLE
  5
2F
102
{ACAD_REACTORS
330
2A
102
}
330
2A
100
AcDbVisualStyle
  2
2dWireframe
 70
     4
177
     2
291
     0
 71
     0
176
     1
 72
     2
176
     1
 73
     0
176
     1
 90
        0
176
     1
 40
-0.6
176
     1
 41
-30.0
176
     1
 62
     5
 63
     7
421
 16777215
176
     1
 74
     1
176
     1
 91
        4
176
     1
 64
     7
176
     1
 65
   257
176
     1
 75
     1
176
     1
175
     1
176
     1
 42
1.0
176
     1
 92
        0
176
     1
 66
   257
176
     1
 43
1.0
176
     1
 76
     1
176
     1
 77
     6
176
     1
 78
     2
176
     1
 67
     7
176
     1
 79
     5
176
     1
170
     0
176
     1
171
     0
176
     1
290
     0
176
     1
 93
        1
176
     1
 44
0.0
176
     1
173
     0
176
     1
  0
VISUALSTYLE
  5
31
102
{ACAD_REACTORS
330
2A
102
}
330
2A
100
AcDbVisualStyle
  2
3D Hidden
 70
     6
177
     2
291
     0
 71
     1
176
     1
 72
     2
176
     1
 73
     2
176
     1
 90
        0
176
     1
 40
-0.6
176
     1
 41
-30.0
176
     1
 62
     5
 63
     7
421
 16777215
176
     1
 74
     2
176
     1
 91
        2
176
     1
 64
     7
176
     1
 65
   257
176
     1
 75
     2
176
     1
175
     1
176
     1
 42
40.0
176
     1
 92
        0
176
     1
 66
   257
176
     1
 43
1.0
176
     1
 76
     1
176
     1
 77
     6
176
     1
 78
     2
176
     1
 67
     7
176
     1
 79
     3
176
     1
170
     0
176
     1
171
     0
176
     1
290
     0
176
     1
 93
        1
176
     1
 44
0.0
176
     1
173
     0
176
     1
  0
VISUALSTYLE
  5
30
102
{ACAD_REACTORS
330
2A
102
}
330
2A
100
AcDbVisualStyle
  2
3dWireframe
 70
     5
177
     2
291
     0
 71
     0
176
     1
 72
     2
176
     1
 73
     0
176
     1
 90
        0
176
     1
 40
-0.6
176
     1
 41
-30.0
176
     1
 62
     5
 63
     7
421
 16777215
176
     1
 74
     1
176
     1
 91
        4
176
     1
 64
     7
176
     1
 65
   257
176
     1
 75
     1
176
     1
175
     1
176
     1
 42
1.0
176
     1
 92
        0
176
     1
 66
   257
176
     1
 43
1.0
176
     1
 76
     1
176
     1
 77
     6
176
     1
 78
     2
176
     1
 67
     7
176
     1
 79
     5
176
     1
170
     0
176
     1
171
     0
176
     1
290
     0
176
     1
 93
        1
176
     1
 44
0.0
176
     1
173
     0
176
     1
  0
VISUALSTYLE
  5
32
102
{ACAD_REACTORS
330
2A
102
}
330
2A
100
AcDbVisualStyle
  2
Basic
 70
     7
177
     2
291
     1
 71
     1
176
     1
 72
     0
176
     1
 73
     1
176
     1
 90
        0
176
     1
 40
-0.6
176
     1
 41
-30.0
176
     1
 62
     5
 63
     7
421
 16777215
176
     1
 74
     0
176
     1
 91
        4
176
     1
 64
     7
176
     1
 65
   257
176
     1
 75
     1
176
     1
175
     1
176
     1
 42
1.0
176
     1
 92
        8
176
     1
 66
     7
176
     1
 43
1.0
176
     1
 76
     1
176
     1
 77
     6
176
     1
 78
     2
176
     1
 67
     7
176
     1
 79
     5
176
     1
170
     0
176
     1
171
     0
176
     1
290
     0
176
     1
 93
        1
176
     1
 44
0.0
176
     1
173
     0
176
     1
  0
VISUALSTYLE
  5
36
102
{ACAD_REACTORS
330
2A
102
}
330
2A
100
AcDbVisualStyle
  2
Brighten
 70
    12
177
     2
291
     1
 71
     2
176
     1
 72
     2
176
     1
 73
     0
176
     1
 90
        0
176
     1
 40
-0.6
176
     1
 41
-30.0
176
     1
 62
     5
 63
     7
421
 16777215
176
     1
 74
     1
176
     1
 91
        4
176
     1
 64
     7
176
     1
 65
   257
176
     1
 75
     1
176
     1
175
     1
176
     1
 42
1.0
176
     1
 92
        8
176
     1
 66
     7
176
     1
 43
1.0
176
     1
 76
     1
176
     1
 77
     6
176
     1
 78
     2
176
     1
 67
     7
176
     1
 79
     5
176
     1
170
     0
176
     1
171
     0
176
     1
290
     0
176
     1
 93
        1
176
     1
 44
50.0
176
     1
173
     0
176
     1
  0
VISUALSTYLE
  5
3A
102
{ACAD_REACTORS
330
2A
102
}
330
2A
100
AcDbVisualStyle
  2
ColorChange
 70
    16
177
     2
291
     1
 71
     2
176
     1
 72
     2
176
     1
 73
     3
176
     1
 90
        0
176
     1
 40
-0.6
176
     1
 41
-30.0
176
     1
 62
     5
 63
     8
421
  8421504
176
     1
 74
     1
176
     1
 91
        4
176
     1
 64
     7
176
     1
 65
   257
176
     1
 75
     1
176
     1
175
     1
176
     1
 42
1.0
176
     1
 92
        8
176
     1
 66
     8
424
  8421504
176
     1
 43
1.0
176
     1
 76
     1
176
     1
 77
     6
176
     1
 78
     2
176
     1
 67
     7
176
     1
 79
     5
176
     1
170
     0
176
     1
171
     0
176
     1
290
     0
176
     1
 93
        1
176
     1
 44
0.0
176
     1
173
     0
176
     1
  0
VISUALSTYLE
  5
34
102
{ACAD_REACTORS
330
2A
102
}
330
2A
100
AcDbVisualStyle
  2
Conceptual
 70
     9
177
     2
291
     0
 71
     3
176
     1
 72
     2
176
     1
 73
     0
176
     1
 90
        0
176
     1
 40
-0.6
176
     1
 41
-30.0
176
     1
 62
     5
 63
     7
421
 16777215
176
     1
 74
     2
176
     1
 91
        2
176
     1
 64
     7
176
     1
 65
   257
176
     1
 75
     1
176
     1
175
     1
176
     1
 42
40.0
176
     1
 92
        8
176
     1
 66
     7
176
     1
 43
1.0
176
     1
 76
     1
176
     1
 77
     6
176
     1
 78
     2
176
     1
 67
     7
176
     1
 79
     3
176
     1
170
     0
176
     1
171
     0
176
     1
290
     0
176
     1
 93
        1
176
     1
 44
0.0
176
     1
173
     0
176
     1
  0
VISUALSTYLE
  5
35
102
{ACAD_REACTORS
330
2A
102
}
330
2A
100
AcDbVisualStyle
  2
Dim
 70
    11
177
     2
291
     1
 71
     2
176
     1
 72
     2
176
     1
 73
     0
176
     1
 90
        0
176
     1
 40
-0.6
176
     1
 41
-30.0
176
     1
 62
     5
 63
     7
421
 16777215
176
     1
 74
     1
176
     1
 91
        4
176
     1
 64
     7
176
     1
 65
   257
176
     1
 75
     1
176
     1
175
     1
176
     1
 42
1.0
176
     1
 92
        8
176
     1
 66
     7
176
     1
 43
1.0
176
     1
 76
     1
176
     1
 77
     6
176
     1
 78
     2
176
     1
 67
     7
176
     1
 79
     5
176
     1
170
     0
176
     1
171
     0
176
     1
290
     0
176
     1
 93
        1
176
     1
 44
-50.0
176
     1
173
     0
176
     1
  0
VISUALSTYLE
  5
39
102
{ACAD_REACTORS
330
2A
102
}
330
2A
100
AcDbVisualStyle
  2
Facepattern
 70
    15
177
     2
291
     1
 71
     2
176
     1
 72
     2
176
     1
 73
     0
176
     1
 90
        0
176
     1
 40
-0.6
176
     1
 41
-30.0
176
     1
 62
     5
 63
     7
421
 16777215
176
     1
 74
     1
176
     1
 91
        4
176
     1
 64
     7
176
     1
 65
   257
176
     1
 75
     1
176
     1
175
     1
176
     1
 42
1.0
176
     1
 92
        8
176
     1
 66
     7
176
     1
 43
1.0
176
     1
 76
     1
176
     1
 77
     6
176
     1
 78
     2
176
     1
 67
     7
176
     1
 79
     5
176
     1
170
     0
176
     1
171
     0
176
     1
290
     0
176
     1
 93
        1
176
     1
 44
0.0
176
     1
173
     0
176
     1
  0
VISUALSTYLE
  5
2B
102
{ACAD_REACTORS
330
2A
102
}
330
2A
100
AcDbVisualStyle
  2
Flat
 70
     0
177
     2
291
     1
 71
     2
176
     1
 72
     1
176
     1
 73
     1
176
     1
 90
        2
176
     1
 40
-0.6
176
     1
 41
30.0
176
     1
 62
     5
 63
     7
421
 16777215
176
     1
 74
     0
176
     1
 91
        4
176
     1
 64
     7
176
     1
 65
   257
176
     1
 75
     1
176
     1
175
     1
176
     1
 42
1.0
176
     1
 92
        8
176
     1
 66
     7
176
     1
 43
1.0
176
     1
 76
     1
176
     1
 77
     6
176
     1
 78
     2
176
     1
 67
     7
176
     1
 79
     5
176
     1
170
     0
176
     1
171
     0
176
     1
290
     0
176
     1
 93
       13
176
     1
 44
0.0
176
     1
173
     0
176
     1
  0
VISUALSTYLE
  5
2C
102
{ACAD_REACTORS
330
2A
102
}
330
2A
100
AcDbVisualStyle
  2
FlatWithEdges
 70
     1
177
     2
291
     1
 71
     2
176
     1
 72
     1
176
     1
 73
     1
176
     1
 90
        2
176
     1
 40
-0.6
176
     1
 41
30.0
176
     1
 62
     5
 63
     7
421
 16777215
176
     1
 74
     1
176
     1
 91
        4
176
     1
 64
     7
176
     1
 65
   257
176
     1
 75
     1
176
     1
175
     1
176
     1
 42
1.0
176
     1
 92
        0
176
     1
 66
   257
176
     1
 43
1.0
176
     1
 76
     1
176
     1
 77
     6
176
     1
 78
     2
176
     1
 67
     7
176
     1
 79
     5
176
     1
170
     0
176
     1
171
     0
176
     1
290
     0
176
     1
 93
       13
176
     1
 44
0.0
176
     1
173
     0
176
     1
  0
VISUALSTYLE
  5
2D
102
{ACAD_REACTORS
330
2A
102
}
330
2A
100
AcDbVisualStyle
  2
Gouraud
 70
     2
177
     2
291
     1
 71
     2
176
     1
 72
     2
176
     1
 73
     1
176
     1
 90
        2
176
     1
 40
-0.6
176
     1
 41
30.0
176
     1
 62
     5
 63
     7
421
 16777215
176
     1
 74
     0
176
     1
 91
        4
176
     1
 64
     7
176
     1
 65
   257
176
     1
 75
     1
176
     1
175
     1
176
     1
 42
1.0
176
     1
 92
        0
176
     1
 66
     7
176
     1
 43
1.0
176
     1
 76
     1
176
     1
 77
     6
176
     1
 78
     2
176
     1
 67
     7
176
     1
 79
     5
176
     1
170
     0
176
     1
171
     0
176
     1
290
     0
176
     1
 93
       13
176
     1
 44
0.0
176
     1
173
     0
176
     1
  0
VISUALSTYLE
  5
2E
102
{ACAD_REACTORS
330
2A
102
}
330
2A
100
AcDbVisualStyle
  2
GouraudWithEdges
 70
     3
177
     2
291
     1
 71
     2
176
     1
 72
     2
176
     1
 73
     1
176
     1
 90
        2
176
     1
 40
-0.6
176
     1
 41
30.0
176
     1
 62
     5
 63
     7
421
 16777215
176
     1
 74
     1
176
     1
 91
        4
176
     1
 64
     7
176
     1
 65
   257
176
     1
 75
     1
176
     1
175
     1
176
     1
 42
1.0
176
     1
 92
        0
176
     1
 66
   257
176
     1
 43
1.0
176
     1
 76
     1
176
     1
 77
     6
176
     1
 78
     2
176
     1
 67
     7
176
     1
 79
     5
176
     1
170
     0
176
     1
171
     0
176
     1
290
     0
176
     1
 93
       13
176
     1
 44
0.0
176
     1
173
     0
176
     1
  0
VISUALSTYLE
  5
38
102
{ACAD_REACTORS
330
2A
102
}
330
2A
100
AcDbVisualStyle
  2
Linepattern
 70
    14
177
     2
291
     1
 71
     2
176
     1
 72
     2
176
     1
 73
     0
176
     1
 90
        0
176
     1
 40
-0.6
176
     1
 41
-30.0
176
     1
 62
     5
 63
     7
421
 16777215
176
     1
 74
     1
176
     1
 91
        4
176
     1
 64
     7
176
     1
 65
   257
176
     1
 75
     7
176
     1
175
     7
176
     1
 42
1.0
176
     1
 92
        8
176
     1
 66
     7
176
     1
 43
1.0
176
     1
 76
     1
176
     1
 77
     6
176
     1
 78
     2
176
     1
 67
     7
176
     1
 79
     5
176
     1
170
     0
176
     1
171
     0
176
     1
290
     0
176
     1
 93
        1
176
     1
 44
0.0
176
     1
173
     0
176
     1
  0
VISUALSTYLE
  5
33
102
{ACAD_REACTORS
330
2A
102
}
330
2A
100
AcDbVisualStyle
  2
Realistic
 70
     8
177
     2
291
     0
 71
     2
176
     1
 72
     2
176
     1
 73
     0
176
     1
 90
        0
176
     1
 40
-0.6
176
     1
 41
-30.0
176
     1
 62
     5
 63
     7
421
 16777215
176
     1
 74
     1
176
     1
 91
        0
176
     1
 64
     7
176
     1
 65
   257
176
     1
 75
     1
176
     1
175
     1
176
     1
 42
1.0
176
     1
 92
        8
176
     1
 66
     8
424
  7895160
176
     1
 43
1.0
176
     1
 76
     1
176
     1
 77
     6
176
     1
 78
     2
176
     1
 67
     7
176
     1
 79
     5
176
     1
170
     0
176
     1
171
     0
176
     1
290
     0
176
     1
 93
       13
176
     1
 44
0.0
176
     1
173
     0
176
     1
  0
VISUALSTYLE
  5
37
102
{ACAD_REACTORS
330
2A
102
}
330
2A
100
AcDbVisualStyle
  2
Thicken
 70
    13
177
     2
291
     1
 71
     2
176
     1
 72
     2
176
     1
 73
     0
176
     1
 90
        0
176
     1
 40
-0.6
176
     1
 41
-30.0
176
     1
 62
     5
 63
     7
421
 16777215
176
     1
 74
     1
176
     1
 91
        4
176
     1
 64
     7
176
     1
 65
   257
176
     1
 75
     1
176
     1
175
     1
176
     1
 42
1.0
176
     1
 92
       12
176
     1
 66
     7
176
     1
 43
1.0
176
     1
 76
     1
176
     1
 77
     6
176
     1
 78
     2
176
     1
 67
     7
176
     1
 79
     5
176
     1
170
     0
176
     1
171
     0
176
     1
290
     0
176
     1
 93
        1
176
     1
 44
0.0
176
     1
173
     0
176
     1
  0
ENDSEC
  0
EOF
