  0
SECTION
  2
HEADER
  9
$ACADVER
  1
AC1024
  9
$ACADMAINTVER
 70
     6
  9
$DWGCODEPAGE
  3
UNDEFINED
  9
$INSBASE
 10
0.0
 20
0.0
 30
0.0
  9
$EXTMIN
 10
1.000000000000000E+20
 20
1.000000000000000E+20
 30
1.000000000000000E+20
  9
$EXTMAX
 10
-1.000000000000000E+20
 20
-1.000000000000000E+20
 30
-1.000000000000000E+20
  9
$LIMMIN
 10
0.0
 20
0.0
  9
$LIMMAX
 10
12.0
 20
9.0
  9
$ORTHOMODE
 70
     0
  9
$REGENMODE
 70
     1
  9
$FILLMODE
 70
     1
  9
$QTEXTMODE
 70
     0
  9
$MIRRTEXT
 70
     1
  9
$LTSCALE
 40
1.0
  9
$ATTMODE
 70
     1
  9
$TEXTSIZE
 40
0.2
  9
$TRACEWID
 40
0.05
  9
$TEXTSTYLE
  7
Standard
  9
$CLAYER
  8
0
  9
$CELTYPE
  6
ByLayer
  9
$CECOLOR
 62
   256
  9
$CELTSCALE
 40
1.0
  9
$DISPSILH
 70
     0
  9
$DIMSCALE
 40
1.0
  9
$DIMASZ
 40
0.18
  9
$DIMEXO
 40
0.0625
  9
$DIMDLI
 40
0.38
  9
$DIMRND
 40
0.0
  9
$DIMDLE
 40
0.0
  9
$DIMEXE
 40
0.18
  9
$DIMTP
 40
0.0
  9
$DIMTM
 40
0.0
  9
$DIMTXT
 40
0.18
  9
$DIMCEN
 40
0.09
  9
$DIMTSZ
 40
0.0
  9
$DIMTOL
 70
     0
  9
$DIMLIM
 70
     0
  9
$DIMTIH
 70
     1
  9
$DIMTOH
 70
     1
  9
$DIMSE1
 70
     0
  9
$DIMSE2
 70
     0
  9
$DIMTAD
 70
     0
  9
$DIMZIN
 70
     0
  9
$DIMBLK
  1

  9
$DIMASO
 70
     1
  9
$DIMSHO
 70
     1
  9
$DIMPOST
  1

  9
$DIMAPOST
  1

  9
$DIMALT
 70
     0
  9
$DIMALTD
 70
     2
  9
$DIMALTF
 40
25.4
  9
$DIMLFAC
 40
1.0
  9
$DIMTOFL
 70
     0
  9
$DIMTVP
 40
0.0
  9
$DIMTIX
 70
     0
  9
$DIMSOXD
 70
     0
  9
$DIMSAH
 70
     0
  9
$DIMBLK1
  1

  9
$DIMBLK2
  1

  9
$DIMSTYLE
  2
Standard
  9
$DIMCLRD
 70
     0
  9
$DIMCLRE
 70
     0
  9
$DIMCLRT
 70
     0
  9
$DIMTFAC
 40
1.0
  9
$DIMGAP
 40
0.09
  9
$DIMJUST
 70
     0
  9
$DIMSD1
 70
     0
  9
$DIMSD2
 70
     0
  9
$DIMTOLJ
 70
     1
  9
$DIMTZIN
 70
     0
  9
$DIMALTZ
 70
     0
  9
$DIMALTTZ
 70
     0
  9
$DIMUPT
 70
     0
  9
$DIMDEC
 70
     4
  9
$DIMTDEC
 70
     4
  9
$DIMALTU
 70
     2
  9
$DIMALTTD
 70
     2
  9
$DIMTXSTY
  7
Standard
  9
$DIMAUNIT
 70
     0
  9
$DIMADEC
 70
     0
  9
$DIMALTRND
 40
0.0
  9
$DIMAZIN
 70
     0
  9
$DIMDSEP
 70
    46
  9
$DIMATFIT
 70
     3
  9
$DIMFRAC
 70
     0
  9
$DIMLDRBLK
  1

  9
$DIMLUNIT
 70
     2
  9
$DIMLWD
 70
    -2
  9
$DIMLWE
 70
    -2
  9
$DIMTMOVE
 70
     0
  9
$DIMFXL
 40
1.0
  9
$DIMFXLON
 70
     0
  9
$DIMJOGANG
 40
0.7853981633974483
  9
$DIMTFILL
 70
     0
  9
$DIMTFILLCLR
 70
     0
  9
$DIMARCSYM
 70
     0
  9
$DIMLTYPE
  6

  9
$DIMLTEX1
  6

  9
$DIMLTEX2
  6

  9
$DIMTXTDIRECTION
 70
     0
  9
$LUNITS
 70
     2
  9
$LUPREC
 70
     4
  9
$SKETCHINC
 40
0.1
  9
$FILLETRAD
 40
0.5
  9
$AUNITS
 70
     0
  9
$AUPREC
 70
     0
  9
$MENU
  1
.
  9
$ELEVATION
 40
0.0
  9
$PELEVATION
 40
0.0
  9
$THICKNESS
 40
0.0
  9
$LIMCHECK
 70
     0
  9
$CHAMFERA
 40
0.5
  9
$CHAMFERB
 40
0.5
  9
$CHAMFERC
 40
1.0
  9
$CHAMFERD
 40
0.0
  9
$SKPOLY
 70
     0
  9
$TDCREATE
 40
2457917.615601852
  9
$TDUCREATE
 40
2457917.240601852
  9
$TDUPDATE
 40
2457917.615601852
  9
$TDUUPDATE
 40
2457917.240601852
  9
$TDINDWG
 40
0.0000000116
  9
$TDUSRTIMER
 40
0.0000000116
  9
$USRTIMER
 70
     1
  9
$ANGBASE
 50
0.0
  9
$ANGDIR
 70
     0
  9
$PDMODE
 70
     0
  9
$PDSIZE
 40
0.0
  9
$PLINEWID
 40
0.0
  9
$SPLFRAME
 70
     0
  9
$SPLINETYPE
 70
     6
  9
$SPLINESEGS
 70
     8
  9
$HANDSEED
  5
E3
  9
$SURFTAB1
 70
     6
  9
$SURFTAB2
 70
     6
  9
$SURFTYPE
 70
     6
  9
$SURFU
 70
     6
  9
$SURFV
 70
     6
  9
$UCSBASE
  2

  9
$UCSNAME
  2

  9
$UCSORG
 10
0.0
 20
0.0
 30
0.0
  9
$UCSXDIR
 10
1.0
 20
0.0
 30
0.0
  9
$UCSYDIR
 10
0.0
 20
1.0
 30
0.0
  9
$UCSORTHOREF
  2

  9
$UCSORTHOVIEW
 70
     0
  9
$UCSORGTOP
 10
0.0
 20
0.0
 30
0.0
  9
$UCSORGBOTTOM
 10
0.0
 20
0.0
 30
0.0
  9
$UCSORGLEFT
 10
0.0
 20
0.0
 30
0.0
  9
$UCSORGRIGHT
 10
0.0
 20
0.0
 30
0.0
  9
$UCSORGFRONT
 10
0.0
 20
0.0
 30
0.0
  9
$UCSORGBACK
 10
0.0
 20
0.0
 30
0.0
  9
$PUCSBASE
  2

  9
$PUCSNAME
  2

  9
$PUCSORG
 10
0.0
 20
0.0
 30
0.0
  9
$PUCSXDIR
 10
1.0
 20
0.0
 30
0.0
  9
$PUCSYDIR
 10
0.0
 20
1.0
 30
0.0
  9
$PUCSORTHOREF
  2

  9
$PUCSORTHOVIEW
 70
     0
  9
$PUCSORGTOP
 10
0.0
 20
0.0
 30
0.0
  9
$PUCSORGBOTTOM
 10
0.0
 20
0.0
 30
0.0
  9
$PUCSORGLEFT
 10
0.0
 20
0.0
 30
0.0
  9
$PUCSORGRIGHT
 10
0.0
 20
0.0
 30
0.0
  9
$PUCSORGFRONT
 10
0.0
 20
0.0
 30
0.0
  9
$PUCSORGBACK
 10
0.0
 20
0.0
 30
0.0
  9
$USERI1
 70
     0
  9
$USERI2
 70
     0
  9
$USERI3
 70
     0
  9
$USERI4
 70
     0
  9
$USERI5
 70
     0
  9
$USERR1
 40
0.0
  9
$USERR2
 40
0.0
  9
$USERR3
 40
0.0
  9
$USERR4
 40
0.0
  9
$USERR5
 40
0.0
  9
$WORLDVIEW
 70
     1
  9
$SHADEDGE
 70
     3
  9
$SHADEDIF
 70
    70
  9
$TILEMODE
 70
     1
  9
$MAXACTVP
 70
    64
  9
$PINSBASE
 10
0.0
 20
0.0
 30
0.0
  9
$PLIMCHECK
 70
     0
  9
$PEXTMIN
 10
1.000000000000000E+20
 20
1.000000000000000E+20
 30
1.000000000000000E+20
  9
$PEXTMAX
 10
-1.000000000000000E+20
 20
-1.000000000000000E+20
 30
-1.000000000000000E+20
  9
$PLIMMIN
 10
0.0
 20
0.0
  9
$PLIMMAX
 10
12.0
 20
9.0
  9
$UNITMODE
 70
     0
  9
$VISRETAIN
 70
     1
  9
$PLINEGEN
 70
     0
  9
$PSLTSCALE
 70
     1
  9
$TREEDEPTH
 70
  3020
  9
$CMLSTYLE
  2
Standard
  9
$CMLJUST
 70
     0
  9
$CMLSCALE
 40
1.0
  9
$PROXYGRAPHICS
 70
     1
  9
$MEASUREMENT
 70
     0
  9
$CELWEIGHT
370
    -1
  9
$ENDCAPS
280
     0
  9
$JOINSTYLE
280
     0
  9
$LWDISPLAY
290
     1
  9
$INSUNITS
 70
     1
  9
$HYPERLINKBASE
  1

  9
$STYLESHEET
  1

  9
$XEDIT
290
     1
  9
$CEPSNTYPE
380
     0
  9
$PSTYLEMODE
290
     1
  9
$FINGERPRINTGUID
  2
{EF1B344D-D71A-CA16-BA66-99587CE08CBF}
  9
$VERSIONGUID
  2
{FAEB1C32-E019-11D5-929B-00C0DF256EC4}
  9
$EXTNAMES
290
     1
  9
$PSVPSCALE
 40
0.0
  9
$OLESTARTUP
290
     0
  9
$SORTENTS
280
   127
  9
$INDEXCTL
280
     0
  9
$HIDETEXT
280
     1
  9
$XCLIPFRAME
280
     2
  9
$HALOGAP
280
     0
  9
$OBSCOLOR
 70
   257
  9
$OBSLTYPE
280
     0
  9
$INTERSECTIONDISPLAY
280
     0
  9
$INTERSECTIONCOLOR
 70
   257
  9
$DIMASSOC
280
     2
  9
$PROJECTNAME
  1

  9
$CAMERADISPLAY
290
     0
  9
$LENSLENGTH
 40
50.0
  9
$CAMERAHEIGHT
 40
0.0
  9
$STEPSPERSEC
 40
2.0
  9
$STEPSIZE
 40
6.0
  9
$3DDWFPREC
 40
2.0
  9
$PSOLWIDTH
 40
0.25
  9
$PSOLHEIGHT
 40
4.0
  9
$LOFTANG1
 40
1.570796326794897
  9
$LOFTANG2
 40
1.570796326794897
  9
$LOFTMAG1
 40
0.0
  9
$LOFTMAG2
 40
0.0
  9
$LOFTPARAM
 70
     7
  9
$LOFTNORMALS
280
     1
  9
$LATITUDE
 40
37.795
  9
$LONGITUDE
 40
-122.394
  9
$NORTHDIRECTION
 40
0.0
  9
$TIMEZONE
 70
 -8000
  9
$LIGHTGLYPHDISPLAY
280
     1
  9
$TILEMODELIGHTSYNCH
280
     1
  9
$CMATERIAL
347
3C
  9
$SOLIDHIST
280
     1
  9
$SHOWHIST
280
     1
  9
$DWFFRAME
280
     2
  9
$DGNFRAME
280
     2
  9
$REALWORLDSCALE
290
     1
  9
$INTERFERECOLOR
 62
   256
  9
$CSHADOW
280
     0
  9
$SHADOWPLANELOCATION
 40
0.0
  0
ENDSEC
  0
SECTION
  2
CLASSES
  0
CLASS
  1
ACDBDICTIONARYWDFLT
  2
AcDbDictionaryWithDefault
  3
ObjectDBX Classes
 90
        0
 91
        4
280
     0
281
     0
  0
CLASS
  1
VISUALSTYLE
  2
AcDbVisualStyle
  3
ObjectDBX Classes
 90
     4095
 91
        4
280
     0
281
     0
  0
CLASS
  1
MATERIAL
  2
AcDbMaterial
  3
ObjectDBX Classes
 90
     1153
 91
        4
280
     0
281
     0
  0
CLASS
  1
SUN
  2
AcDbSun
  3
SCENEOE
 90
     1024
 91
        4
280
     0
281
     0
  0
ENDSEC
  0
SECTION
  2
TABLES
  0
TABLE
  2
VPORT
  5
8
330
0
100
AcDbSymbolTable
 70
     1
  0
VPORT
  5
29
330
8
100
AcDbSymbolTableRecord
100
AcDbViewportTableRecord
  2
*Active
 70
     0
 10
0.0
 20
0.0
 11
1.0
 21
1.0
 12
0.0
 22
0.0
 13
0.0
 23
0.0
 14
0.5
 24
0.5
 15
0.5
 25
0.5
 16
0.0
 26
0.0
 36
1.0
 17
91.00082462281999
 27
-128.4993055234307
 37
0.0
 40
256.9986110468615
 41
0.7081814508812795
 42
50.0
 43
0.0
 44
0.0
 50
0.0
 51
0.0
 71
     0
 72
   100
 73
     1
 74
     3
 75
     0
 76
     0
 77
     0
 78
     0
281
     0
 65
     1
110
0.0
120
0.0
130
0.0
111
1.0
121
0.0
131
0.0
112
0.0
122
1.0
132
0.0
 79
     0
146
0.0
 60
     3
 61
     5
292
     1
282
     1
141
0.0
142
0.0
 63
   250
361
3F
  0
ENDTAB
  0
TABLE
  2
LTYPE
  5
5
330
0
100
AcDbSymbolTable
 70
     1
  0
LTYPE
  5
14
330
5
100
AcDbSymbolTableRecord
100
AcDbLinetypeTableRecord
  2
ByBlock
 70
     0
  3

 72
    65
 73
     0
 40
0.0
  0
LTYPE
  5
15
330
5
100
AcDbSymbolTableRecord
100
AcDbLinetypeTableRecord
  2
ByLayer
 70
     0
  3

 72
    65
 73
     0
 40
0.0
  0
LTYPE
  5
16
330
5
100
AcDbSymbolTableRecord
100
AcDbLinetypeTableRecord
  2
Continuous
 70
     0
  3
Solid line
 72
    65
 73
     0
 40
0.0
  0
ENDTAB
  0
TABLE
  2
LAYER
  5
2
330
0
100
AcDbSymbolTable
 70
     2
  0
LAYER
  5
10
330
2
100
AcDbSymbolTableRecord
100
AcDbLayerTableRecord
  2
0
 70
     0
 62
     7
  6
Continuous
370
    -3
390
F
347
3E
  0
LAYER
  5
40
330
2
100
AcDbSymbolTableRecord
100
AcDbLayerTableRecord
  2
_U+30EC_U+30A4_U+30E4_U+30FC 1
 70
     0
 62
     7
  6
Continuous
370
    -3
390
F
347
3E
  0
ENDTAB
  0
TABLE
  2
STYLE
  5
3
330
0
100
AcDbSymbolTable
 70
     1
  0
STYLE
  5
11
330
3
100
AcDbSymbolTableRecord
100
AcDbTextStyleTableRecord
  2
Standard
 70
     0
 40
0.0
 41
1.0
 50
0.0
 71
     0
 42
0.2
  3
txt
  4

  0
ENDTAB
  0
TABLE
  2
VIEW
  5
6
330
0
100
AcDbSymbolTable
 70
     0
  0
ENDTAB
  0
TABLE
  2
UCS
  5
7
330
0
100
AcDbSymbolTable
 70
     0
  0
ENDTAB
  0
TABLE
  2
APPID
  5
9
330
0
100
AcDbSymbolTable
 70
     1
  0
APPID
  5
12
330
9
100
AcDbSymbolTableRecord
100
AcDbRegAppTableRecord
  2
ACAD
 70
     0
  0
ENDTAB
  0
TABLE
  2
DIMSTYLE
  5
A
330
0
100
AcDbSymbolTable
 70
     1
100
AcDbDimStyleTable
  0
DIMSTYLE
105
27
330
A
100
AcDbSymbolTableRecord
100
AcDbDimStyleTableRecord
  2
Standard
 70
     0
178
     0
340
11
  0
ENDTAB
  0
TABLE
  2
BLOCK_RECORD
  5
1
330
0
100
AcDbSymbolTable
 70
     7
  0
BLOCK_RECORD
  5
1F
330
1
100
AcDbSymbolTableRecord
100
AcDbBlockTableRecord
  2
*Model_Space
340
22
 70
     0
280
     1
281
     0
  0
BLOCK_RECORD
  5
1B
330
1
100
AcDbSymbolTableRecord
100
AcDbBlockTableRecord
  2
*Paper_Space
340
1E
 70
     0
280
     1
281
     0
  0
BLOCK_RECORD
  5
23
330
1
100
AcDbSymbolTableRecord
100
AcDbBlockTableRecord
  2
*Paper_Space0
340
26
 70
     0
280
     1
281
     0
  0
BLOCK_RECORD
  5
51
330
1
100
AcDbSymbolTableRecord
100
AcDbBlockTableRecord
  2
block 2
340
0
102
{BLKREFS
331
52
102
}
 70
     0
280
     1
281
     0
  0
BLOCK_RECORD
  5
80
330
1
100
AcDbSymbolTableRecord
100
AcDbBlockTableRecord
  2
block 3
340
0
102
{BLKREFS
331
81
102
}
 70
     0
280
     1
281
     0
  0
BLOCK_RECORD
  5
8E
330
1
100
AcDbSymbolTableRecord
100
AcDbBlockTableRecord
  2
block 4
340
0
102
{BLKREFS
331
8F
102
}
 70
     0
280
     1
281
     0
  0
BLOCK_RECORD
  5
A0
330
1
100
AcDbSymbolTableRecord
100
AcDbBlockTableRecord
  2
block 5
340
0
102
{BLKREFS
331
A1
102
}
 70
     0
280
     1
281
     0
  0
BLOCK_RECORD
  5
BD
330
1
100
AcDbSymbolTableRecord
100
AcDbBlockTableRecord
  2
block 6
340
0
102
{BLKREFS
331
BE
102
}
 70
     0
280
     1
281
     0
  0
BLOCK_RECORD
  5
CF
330
1
100
AcDbSymbolTableRecord
100
AcDbBlockTableRecord
  2
block 7
340
0
102
{BLKREFS
331
D0
102
}
 70
     0
280
     1
281
     0
  0
ENDTAB
  0
ENDSEC
  0
SECTION
  2
BLOCKS
  0
BLOCK
  5
20
330
1F
100
AcDbEntity
  8
0
100
AcDbBlockBegin
  2
*Model_Space
 70
     0
 10
0.0
 20
0.0
 30
0.0
  3
*Model_Space
  1

  0
ENDBLK
  5
21
330
1F
100
AcDbEntity
  8
0
100
AcDbBlockEnd
  0
BLOCK
  5
1C
330
1B
100
AcDbEntity
 67
     1
  8
0
100
AcDbBlockBegin
  2
*Paper_Space
 70
     0
 10
0.0
 20
0.0
 30
0.0
  3
*Paper_Space
  1

  0
ENDBLK
  5
1D
330
1B
100
AcDbEntity
 67
     1
  8
0
100
AcDbBlockEnd
  0
BLOCK
  5
24
330
23
100
AcDbEntity
  8
0
100
AcDbBlockBegin
  2
*Paper_Space0
 70
     0
 10
0.0
 20
0.0
 30
0.0
  3
*Paper_Space0
  1

  0
ENDBLK
  5
25
330
23
100
AcDbEntity
  8
0
100
AcDbBlockEnd
  0
BLOCK
  5
53
330
51
100
AcDbEntity
  8
0
100
AcDbBlockBegin
  2
block 2
 70
     0
 10
0.0
 20
0.0
 30
0.0
  3
block 2
  1

  0
SPLINE
  5
55
330
51
100
AcDbEntity
  8
_U+30EC_U+30A4_U+30E4_U+30FC 1
370
     0
100
AcDbSpline
210
0.0
220
0.0
230
1.0
 70
    11
 71
     3
 72
    32
 73
    28
 74
     0
 42
0.0000000001
 43
0.0000000001
 12
1.0
 22
0.0
 32
0.0
 13
1.0
 23
0.0
 33
0.0
 40
0.0
 40
0.0
 40
0.0
 40
0.0
 40
1.0
 40
1.0
 40
1.0
 40
2.0
 40
2.0
 40
2.0
 40
3.0
 40
3.0
 40
3.0
 40
4.0
 40
4.0
 40
4.0
 40
5.0
 40
5.0
 40
5.0
 40
6.0
 40
6.0
 40
6.0
 40
7.0
 40
7.0
 40
7.0
 40
8.0
 40
8.0
 40
8.0
 40
9.0
 40
9.0
 40
9.0
 40
9.0
 10
87.60429956577254
 20
-139.3596245311323
 30
0.0
 10
87.05273977858404
 20
-139.3596245311323
 30
0.0
 10
87.04361027554813
 20
-138.8049641580071
 30
0.0
 10
87.04361027554813
 20
-138.5913682379216
 30
0.0
 10
87.04361027554813
 20
-138.3608913499584
 30
0.0
 10
87.0639363389111
 20
-137.7135579082799
 30
0.0
 10
87.6449516924985
 20
-137.7135579082799
 30
0.0
 10
87.83029782960493
 20
-137.7135579082799
 30
0.0
 10
88.0926418508067
 20
-137.783148837082
 30
0.0
 10
88.13329397753266
 20
-138.1152560418601
 30
0.0
 10
88.13329397753266
 20
-138.1152560418601
 30
0.0
 10
87.90505640163485
 20
-138.1152560418601
 30
0.0
 10
87.90505640163485
 20
-138.1152560418601
 30
0.0
 10
87.89368758653353
 20
-138.0584119663534
 30
0.0
 10
87.85975339600381
 20
-137.9102728604877
 30
0.0
 10
87.64271238043308
 20
-137.9102728604877
 30
0.0
 10
87.3307589842437
 20
-137.9102728604877
 30
0.0
 10
87.28769529067809
 20
-138.2382459506835
 30
0.0
 10
87.27425941828561
 20
-138.4432291320559
 30
0.0
 10
87.37365042303506
 20
-138.3653699740892
 30
0.0
 10
87.44599742822531
 20
-138.3061143317429
 30
0.0
 10
87.64047306836767
 20
-138.3061143317429
 30
0.0
 10
87.8327093964446
 20
-138.3061143317429
 30
0.0
 10
88.15585935296104
 20
-138.4136013108827
 30
0.0
 10
88.15585935296104
 20
-138.8201225781422
 30
0.0
 10
88.15585935296104
 20
-139.1394829296248
 30
0.0
 10
87.94346921629538
 20
-139.3596245311323
 30
0.0
 10
87.60429956577254
 20
-139.3596245311323
 30
0.0
  0
SPLINE
  5
56
330
51
100
AcDbEntity
  8
_U+30EC_U+30A4_U+30E4_U+30FC 1
370
     0
100
AcDbSpline
210
0.0
220
0.0
230
1.0
 70
    11
 71
     3
 72
    17
 73
    13
 74
     0
 42
0.0000000001
 43
0.0000000001
 12
1.0
 22
0.0
 32
0.0
 13
1.0
 23
0.0
 33
0.0
 40
0.0
 40
0.0
 40
0.0
 40
0.0
 40
1.0
 40
1.0
 40
1.0
 40
2.0
 40
2.0
 40
2.0
 40
3.0
 40
3.0
 40
3.0
 40
4.0
 40
4.0
 40
4.0
 40
4.0
 10
87.6223863170701
 20
-138.500417717111
 30
0.0
 10
87.34212779934502
 20
-138.500417717111
 30
0.0
 10
87.30130341784482
 20
-138.7119465799053
 30
0.0
 10
87.30130341784482
 20
-138.8283908073068
 30
0.0
 10
87.30130341784482
 20
-139.0040906770545
 30
0.0
 10
87.40310598943395
 20
-139.1666991839583
 30
0.0
 10
87.59982094164171
 20
-139.1666991839583
 30
0.0
 10
87.72866751279005
 20
-139.1666991839583
 30
0.0
 10
87.91625296196192
 20
-139.107443541612
 30
0.0
 10
87.91625296196192
 20
-138.8221896354333
 30
0.0
 10
87.91625296196192
 20
-138.5979139193436
 30
0.0
 10
87.7670803274506
 20
-138.500417717111
 30
0.0
 10
87.6223863170701
 20
-138.500417717111
 30
0.0
  0
HATCH
  5
57
330
51
100
AcDbEntity
  8
_U+30EC_U+30A4_U+30E4_U+30FC 1
 62
     7
420
 16777215
100
AcDbHatch
 10
0.0
 20
0.0
 30
0.0
210
0.0
220
0.0
230
1.0
  2
SOLID
 70
     1
 71
     0
 91
        2
 92
        1
 93
        1
 72
     4
 94
        3
 73
     0
 74
     1
 95
       32
 96
       28
 40
0.0
 40
0.0
 40
0.0
 40
0.0
 40
1.0
 40
1.0
 40
1.0
 40
2.0
 40
2.0
 40
2.0
 40
3.0
 40
3.0
 40
3.0
 40
4.0
 40
4.0
 40
4.0
 40
5.0
 40
5.0
 40
5.0
 40
6.0
 40
6.0
 40
6.0
 40
7.0
 40
7.0
 40
7.0
 40
8.0
 40
8.0
 40
8.0
 40
9.0
 40
9.0
 40
9.0
 40
9.0
 10
87.60429956577254
 20
-139.3596245311323
 10
87.05273977858404
 20
-139.3596245311323
 10
87.04361027554813
 20
-138.8049641580071
 10
87.04361027554813
 20
-138.5913682379216
 10
87.04361027554813
 20
-138.3608913499584
 10
87.0639363389111
 20
-137.7135579082799
 10
87.6449516924985
 20
-137.7135579082799
 10
87.83029782960493
 20
-137.7135579082799
 10
88.0926418508067
 20
-137.783148837082
 10
88.13329397753266
 20
-138.1152560418601
 10
88.13329397753266
 20
-138.1152560418601
 10
87.90505640163485
 20
-138.1152560418601
 10
87.90505640163485
 20
-138.1152560418601
 10
87.89368758653353
 20
-138.0584119663534
 10
87.85975339600381
 20
-137.9102728604877
 10
87.64271238043308
 20
-137.9102728604877
 10
87.3307589842437
 20
-137.9102728604877
 10
87.28769529067809
 20
-138.2382459506835
 10
87.27425941828561
 20
-138.4432291320559
 10
87.37365042303506
 20
-138.3653699740892
 10
87.44599742822531
 20
-138.3061143317429
 10
87.64047306836767
 20
-138.3061143317429
 10
87.8327093964446
 20
-138.3061143317429
 10
88.15585935296104
 20
-138.4136013108827
 10
88.15585935296104
 20
-138.8201225781422
 10
88.15585935296104
 20
-139.1394829296248
 10
87.94346921629538
 20
-139.3596245311323
 10
87.60429956577254
 20
-139.3596245311323
 97
        0
 97
        0
 92
        1
 93
        1
 72
     4
 94
        3
 73
     0
 74
     1
 95
       17
 96
       13
 40
0.0
 40
0.0
 40
0.0
 40
0.0
 40
1.0
 40
1.0
 40
1.0
 40
2.0
 40
2.0
 40
2.0
 40
3.0
 40
3.0
 40
3.0
 40
4.0
 40
4.0
 40
4.0
 40
4.0
 10
87.6223863170701
 20
-138.500417717111
 10
87.34212779934502
 20
-138.500417717111
 10
87.30130341784482
 20
-138.7119465799053
 10
87.30130341784482
 20
-138.8283908073068
 10
87.30130341784482
 20
-139.0040906770545
 10
87.40310598943395
 20
-139.1666991839583
 10
87.59982094164171
 20
-139.1666991839583
 10
87.72866751279005
 20
-139.1666991839583
 10
87.91625296196192
 20
-139.107443541612
 10
87.91625296196192
 20
-138.8221896354333
 10
87.91625296196192
 20
-138.5979139193436
 10
87.7670803274506
 20
-138.500417717111
 10
87.6223863170701
 20
-138.500417717111
 97
        0
 97
        0
 75
     2
 76
     1
 98
        0
  0
ENDBLK
  5
54
330
51
100
AcDbEntity
  8
0
100
AcDbBlockEnd
  0
BLOCK
  5
82
330
80
100
AcDbEntity
  8
0
100
AcDbBlockBegin
  2
block 3
 70
     0
 10
0.0
 20
0.0
 30
0.0
  3
block 3
  1

  0
SPLINE
  5
84
330
80
100
AcDbEntity
  8
_U+30EC_U+30A4_U+30E4_U+30FC 1
370
     0
100
AcDbSpline
210
0.0
220
0.0
230
1.0
 70
    11
 71
     3
 72
    26
 73
    22
 74
     0
 42
0.0000000001
 43
0.0000000001
 12
1.0
 22
0.0
 32
0.0
 13
1.0
 23
0.0
 33
0.0
 40
0.0
 40
0.0
 40
0.0
 40
0.0
 40
1.0
 40
1.0
 40
1.0
 40
2.0
 40
2.0
 40
2.0
 40
3.0
 40
3.0
 40
3.0
 40
4.0
 40
4.0
 40
4.0
 40
5.0
 40
5.0
 40
5.0
 40
6.0
 40
6.0
 40
6.0
 40
7.0
 40
7.0
 40
7.0
 40
7.0
 10
104.8656059850683
 20
-124.1319579767795
 30
0.0
 10
104.8656059850683
 20
-124.1319579767795
 30
0.0
 10
103.7614528820458
 20
-124.1319579767795
 30
0.0
 10
103.7614528820458
 20
-124.1319579767795
 30
0.0
 10
103.7614528820458
 20
-124.1319579767795
 30
0.0
 10
103.7614528820458
 20
-124.4843912449206
 30
0.0
 10
103.7614528820458
 20
-124.4843912449206
 30
0.0
 10
103.7614528820458
 20
-124.4843912449206
 30
0.0
 10
103.61331377618
 20
-124.4843912449206
 30
0.0
 10
103.61331377618
 20
-124.4843912449206
 30
0.0
 10
103.5984998655934
 20
-124.1295464099398
 30
0.0
 10
103.4355468491411
 20
-124.0799370349522
 30
0.0
 10
103.3211696790308
 20
-124.0482421564879
 30
0.0
 10
103.3211696790308
 20
-124.0482421564879
 30
0.0
 10
103.3211696790308
 20
-123.8921793310061
 30
0.0
 10
103.3211696790308
 20
-123.8921793310061
 30
0.0
 10
103.3211696790308
 20
-123.8921793310061
 30
0.0
 10
104.8656059850683
 20
-123.8921793310061
 30
0.0
 10
104.8656059850683
 20
-123.8921793310061
 30
0.0
 10
104.8656059850683
 20
-123.8921793310061
 30
0.0
 10
104.8656059850683
 20
-124.1319579767795
 30
0.0
 10
104.8656059850683
 20
-124.1319579767795
 30
0.0
  0
HATCH
  5
85
330
80
100
AcDbEntity
  8
_U+30EC_U+30A4_U+30E4_U+30FC 1
 62
     7
420
 16777215
100
AcDbHatch
 10
0.0
 20
0.0
 30
0.0
210
0.0
220
0.0
230
1.0
  2
SOLID
 70
     1
 71
     0
 91
        1
 92
        1
 93
        1
 72
     4
 94
        3
 73
     0
 74
     1
 95
       26
 96
       22
 40
0.0
 40
0.0
 40
0.0
 40
0.0
 40
1.0
 40
1.0
 40
1.0
 40
2.0
 40
2.0
 40
2.0
 40
3.0
 40
3.0
 40
3.0
 40
4.0
 40
4.0
 40
4.0
 40
5.0
 40
5.0
 40
5.0
 40
6.0
 40
6.0
 40
6.0
 40
7.0
 40
7.0
 40
7.0
 40
7.0
 10
104.8656059850683
 20
-124.1319579767795
 10
104.8656059850683
 20
-124.1319579767795
 10
103.7614528820458
 20
-124.1319579767795
 10
103.7614528820458
 20
-124.1319579767795
 10
103.7614528820458
 20
-124.1319579767795
 10
103.7614528820458
 20
-124.4843912449206
 10
103.7614528820458
 20
-124.4843912449206
 10
103.7614528820458
 20
-124.4843912449206
 10
103.61331377618
 20
-124.4843912449206
 10
103.61331377618
 20
-124.4843912449206
 10
103.5984998655934
 20
-124.1295464099398
 10
103.4355468491411
 20
-124.0799370349522
 10
103.3211696790308
 20
-124.0482421564879
 10
103.3211696790308
 20
-124.0482421564879
 10
103.3211696790308
 20
-123.8921793310061
 10
103.3211696790308
 20
-123.8921793310061
 10
103.3211696790308
 20
-123.8921793310061
 10
104.8656059850683
 20
-123.8921793310061
 10
104.8656059850683
 20
-123.8921793310061
 10
104.8656059850683
 20
-123.8921793310061
 10
104.8656059850683
 20
-124.1319579767795
 10
104.8656059850683
 20
-124.1319579767795
 97
        0
 97
        0
 75
     2
 76
     1
 98
        0
  0
ENDBLK
  5
83
330
80
100
AcDbEntity
  8
0
100
AcDbBlockEnd
  0
BLOCK
  5
90
330
8E
100
AcDbEntity
  8
0
100
AcDbBlockBegin
  2
block 4
 70
     0
 10
0.0
 20
0.0
 30
0.0
  3
block 4
  1

  0
SPLINE
  5
92
330
8E
100
AcDbEntity
  8
_U+30EC_U+30A4_U+30E4_U+30FC 1
370
     0
100
AcDbSpline
210
0.0
220
0.0
230
1.0
 70
    11
 71
     3
 72
    62
 73
    58
 74
     0
 42
0.0000000001
 43
0.0000000001
 12
1.0
 22
0.0
 32
0.0
 13
1.0
 23
0.0
 33
0.0
 40
0.0
 40
0.0
 40
0.0
 40
0.0
 40
1.0
 40
1.0
 40
1.0
 40
2.0
 40
2.0
 40
2.0
 40
3.0
 40
3.0
 40
3.0
 40
4.0
 40
4.0
 40
4.0
 40
5.0
 40
5.0
 40
5.0
 40
6.0
 40
6.0
 40
6.0
 40
7.0
 40
7.0
 40
7.0
 40
8.0
 40
8.0
 40
8.0
 40
9.0
 40
9.0
 40
9.0
 40
10.0
 40
10.0
 40
10.0
 40
11.0
 40
11.0
 40
11.0
 40
12.0
 40
12.0
 40
12.0
 40
13.0
 40
13.0
 40
13.0
 40
14.0
 40
14.0
 40
14.0
 40
15.0
 40
15.0
 40
15.0
 40
16.0
 40
16.0
 40
16.0
 40
17.0
 40
17.0
 40
17.0
 40
18.0
 40
18.0
 40
18.0
 40
19.0
 40
19.0
 40
19.0
 40
19.0
 10
104.9162488887015
 20
-134.4648328656893
 30
0.0
 10
104.9162488887015
 20
-134.5664631825042
 30
0.0
 10
104.8952338062415
 20
-134.7993516373071
 30
0.0
 10
104.709198650038
 20
-134.9326768325863
 30
0.0
 10
104.5968885372188
 20
-135.011914028747
 30
0.0
 10
104.4976697872436
 20
-135.0163926528778
 30
0.0
 10
104.4129204383065
 20
-135.0208712770087
 30
0.0
 10
104.4129204383065
 20
-135.0208712770087
 30
0.0
 10
104.4129204383065
 20
-134.7859157649146
 30
0.0
 10
104.4129204383065
 20
-134.7859157649146
 30
0.0
 10
104.4869899912394
 20
-134.783504198075
 30
0.0
 10
104.7216009937849
 20
-134.7721353829736
 30
0.0
 10
104.7216009937849
 20
-134.4693114898202
 30
0.0
 10
104.7216009937849
 20
-134.3222059126
 30
0.0
 10
104.6520100649828
 20
-134.1595974056962
 30
0.0
 10
104.4236002343108
 20
-134.1595974056962
 30
0.0
 10
104.3071560069093
 20
-134.1595974056962
 30
0.0
 10
104.2585801605673
 20
-134.2002495324222
 30
0.0
 10
104.226885282103
 20
-134.2340114681776
 30
0.0
 10
104.1528157291701
 20
-134.3132486643384
 30
0.0
 10
104.1400688758747
 20
-134.4376166113559
 30
0.0
 10
104.1400688758747
 20
-134.4965277441536
 30
0.0
 10
104.1400688758747
 20
-134.5168538075166
 30
0.0
 10
104.1421359331659
 20
-134.5550943674029
 30
0.0
 10
104.1462700477482
 20
-134.5847221885761
 30
0.0
 10
104.1462700477482
 20
-134.5847221885761
 30
0.0
 10
103.9516221528315
 20
-134.5847221885761
 30
0.0
 10
103.9516221528315
 20
-134.5847221885761
 30
0.0
 10
103.9581678342535
 20
-134.5440700618501
 30
0.0
 10
103.9602348915447
 20
-134.4985948014448
 30
0.0
 10
103.9602348915447
 20
-134.4920491200228
 30
0.0
 10
103.9602348915447
 20
-134.4217691721237
 30
0.0
 10
103.9388752995361
 20
-134.2092067806838
 30
0.0
 10
103.7021972396995
 20
-134.2092067806838
 30
0.0
 10
103.5244303126606
 20
-134.2092067806838
 30
0.0
 10
103.4693087848966
 20
-134.3494221669335
 30
0.0
 10
103.4693087848966
 20
-134.4668999229805
 30
0.0
 10
103.4693087848966
 20
-134.7497422623195
 30
0.0
 10
103.7021972396995
 20
-134.7586995105812
 30
0.0
 10
103.7738552257927
 20
-134.763178134712
 30
0.0
 10
103.7738552257927
 20
-134.763178134712
 30
0.0
 10
103.7738552257927
 20
-134.9802191502827
 30
0.0
 10
103.7738552257927
 20
-134.9802191502827
 30
0.0
 10
103.6491427692266
 20
-134.9712619020211
 30
0.0
 10
103.2725938326888
 20
-134.9419785903964
 30
0.0
 10
103.2725938326888
 20
-134.453464050588
 30
0.0
 10
103.2725938326888
 20
-134.2136854048146
 30
0.0
 10
103.3997178560945
 20
-133.955992262518
 30
0.0
 10
103.6956515582775
 20
-133.955992262518
 30
0.0
 10
103.8820312240295
 20
-133.955992262518
 30
0.0
 10
103.964369006127
 20
-134.0579670888814
 30
0.0
 10
104.0256917057644
 20
-134.164076029827
 30
0.0
 10
104.0532524696464
 20
-134.0986192156073
 30
0.0
 10
104.1335231944527
 20
-133.9039713206907
 30
0.0
 10
104.4108533810153
 20
-133.9039713206907
 30
0.0
 10
104.7491617576669
 20
-133.9039713206907
 30
0.0
 10
104.9162488887015
 20
-134.1685546539579
 30
0.0
 10
104.9162488887015
 20
-134.4648328656893
 30
0.0
  0
HATCH
  5
93
330
8E
100
AcDbEntity
  8
_U+30EC_U+30A4_U+30E4_U+30FC 1
 62
     7
420
 16777215
100
AcDbHatch
 10
0.0
 20
0.0
 30
0.0
210
0.0
220
0.0
230
1.0
  2
SOLID
 70
     1
 71
     0
 91
        1
 92
        1
 93
        1
 72
     4
 94
        3
 73
     0
 74
     1
 95
       62
 96
       58
 40
0.0
 40
0.0
 40
0.0
 40
0.0
 40
1.0
 40
1.0
 40
1.0
 40
2.0
 40
2.0
 40
2.0
 40
3.0
 40
3.0
 40
3.0
 40
4.0
 40
4.0
 40
4.0
 40
5.0
 40
5.0
 40
5.0
 40
6.0
 40
6.0
 40
6.0
 40
7.0
 40
7.0
 40
7.0
 40
8.0
 40
8.0
 40
8.0
 40
9.0
 40
9.0
 40
9.0
 40
10.0
 40
10.0
 40
10.0
 40
11.0
 40
11.0
 40
11.0
 40
12.0
 40
12.0
 40
12.0
 40
13.0
 40
13.0
 40
13.0
 40
14.0
 40
14.0
 40
14.0
 40
15.0
 40
15.0
 40
15.0
 40
16.0
 40
16.0
 40
16.0
 40
17.0
 40
17.0
 40
17.0
 40
18.0
 40
18.0
 40
18.0
 40
19.0
 40
19.0
 40
19.0
 40
19.0
 10
104.9162488887015
 20
-134.4648328656893
 10
104.9162488887015
 20
-134.5664631825042
 10
104.8952338062415
 20
-134.7993516373071
 10
104.709198650038
 20
-134.9326768325863
 10
104.5968885372188
 20
-135.011914028747
 10
104.4976697872436
 20
-135.0163926528778
 10
104.4129204383065
 20
-135.0208712770087
 10
104.4129204383065
 20
-135.0208712770087
 10
104.4129204383065
 20
-134.7859157649146
 10
104.4129204383065
 20
-134.7859157649146
 10
104.4869899912394
 20
-134.783504198075
 10
104.7216009937849
 20
-134.7721353829736
 10
104.7216009937849
 20
-134.4693114898202
 10
104.7216009937849
 20
-134.3222059126
 10
104.6520100649828
 20
-134.1595974056962
 10
104.4236002343108
 20
-134.1595974056962
 10
104.3071560069093
 20
-134.1595974056962
 10
104.2585801605673
 20
-134.2002495324222
 10
104.226885282103
 20
-134.2340114681776
 10
104.1528157291701
 20
-134.3132486643384
 10
104.1400688758747
 20
-134.4376166113559
 10
104.1400688758747
 20
-134.4965277441536
 10
104.1400688758747
 20
-134.5168538075166
 10
104.1421359331659
 20
-134.5550943674029
 10
104.1462700477482
 20
-134.5847221885761
 10
104.1462700477482
 20
-134.5847221885761
 10
103.9516221528315
 20
-134.5847221885761
 10
103.9516221528315
 20
-134.5847221885761
 10
103.9581678342535
 20
-134.5440700618501
 10
103.9602348915447
 20
-134.4985948014448
 10
103.9602348915447
 20
-134.4920491200228
 10
103.9602348915447
 20
-134.4217691721237
 10
103.9388752995361
 20
-134.2092067806838
 10
103.7021972396995
 20
-134.2092067806838
 10
103.5244303126606
 20
-134.2092067806838
 10
103.4693087848966
 20
-134.3494221669335
 10
103.4693087848966
 20
-134.4668999229805
 10
103.4693087848966
 20
-134.7497422623195
 10
103.7021972396995
 20
-134.7586995105812
 10
103.7738552257927
 20
-134.763178134712
 10
103.7738552257927
 20
-134.763178134712
 10
103.7738552257927
 20
-134.9802191502827
 10
103.7738552257927
 20
-134.9802191502827
 10
103.6491427692266
 20
-134.9712619020211
 10
103.2725938326888
 20
-134.9419785903964
 10
103.2725938326888
 20
-134.453464050588
 10
103.2725938326888
 20
-134.2136854048146
 10
103.3997178560945
 20
-133.955992262518
 10
103.6956515582775
 20
-133.955992262518
 10
103.8820312240295
 20
-133.955992262518
 10
103.964369006127
 20
-134.0579670888814
 10
104.0256917057644
 20
-134.164076029827
 10
104.0532524696464
 20
-134.0986192156073
 10
104.1335231944527
 20
-133.9039713206907
 10
104.4108533810153
 20
-133.9039713206907
 10
104.7491617576669
 20
-133.9039713206907
 10
104.9162488887015
 20
-134.1685546539579
 10
104.9162488887015
 20
-134.4648328656893
 97
        0
 97
        0
 75
     2
 76
     1
 98
        0
  0
ENDBLK
  5
91
330
8E
100
AcDbEntity
  8
0
100
AcDbBlockEnd
  0
BLOCK
  5
A2
330
A0
100
AcDbEntity
  8
0
100
AcDbBlockBegin
  2
block 5
 70
     0
 10
0.0
 20
0.0
 30
0.0
  3
block 5
  1

  0
SPLINE
  5
A4
330
A0
100
AcDbEntity
  8
_U+30EC_U+30A4_U+30E4_U+30FC 1
370
     0
100
AcDbSpline
210
0.0
220
0.0
230
1.0
 70
    11
 71
     3
 72
    26
 73
    22
 74
     0
 42
0.0000000001
 43
0.0000000001
 12
1.0
 22
0.0
 32
0.0
 13
1.0
 23
0.0
 33
0.0
 40
0.0
 40
0.0
 40
0.0
 40
0.0
 40
1.0
 40
1.0
 40
1.0
 40
2.0
 40
2.0
 40
2.0
 40
3.0
 40
3.0
 40
3.0
 40
4.0
 40
4.0
 40
4.0
 40
5.0
 40
5.0
 40
5.0
 40
6.0
 40
6.0
 40
6.0
 40
7.0
 40
7.0
 40
7.0
 40
7.0
 10
78.91904159268344
 20
-139.3086371179506
 30
0.0
 10
78.91904159268344
 20
-139.3086371179506
 30
0.0
 10
78.91904159268344
 20
-138.2041395053795
 30
0.0
 10
78.91904159268344
 20
-138.2041395053795
 30
0.0
 10
78.91904159268344
 20
-138.2041395053795
 30
0.0
 10
78.56626381499386
 20
-138.2041395053795
 30
0.0
 10
78.56626381499386
 20
-138.2041395053795
 30
0.0
 10
78.56626381499386
 20
-138.2041395053795
 30
0.0
 10
78.56626381499386
 20
-138.0563449090623
 30
0.0
 10
78.56626381499386
 20
-138.0563449090623
 30
0.0
 10
78.92128090474885
 20
-138.0415309984757
 30
0.0
 10
78.97106253451071
 20
-137.8785779820234
 30
0.0
 10
79.00275741297501
 20
-137.7645453214616
 30
0.0
 10
79.00275741297501
 20
-137.7645453214616
 30
0.0
 10
79.15864798368257
 20
-137.7645453214616
 30
0.0
 10
79.15864798368257
 20
-137.7645453214616
 30
0.0
 10
79.15864798368257
 20
-137.7645453214616
 30
0.0
 10
79.15864798368257
 20
-139.3086371179506
 30
0.0
 10
79.15864798368257
 20
-139.3086371179506
 30
0.0
 10
79.15864798368257
 20
-139.3086371179506
 30
0.0
 10
78.91904159268344
 20
-139.3086371179506
 30
0.0
 10
78.91904159268344
 20
-139.3086371179506
 30
0.0
  0
HATCH
  5
A5
330
A0
100
AcDbEntity
  8
_U+30EC_U+30A4_U+30E4_U+30FC 1
 62
     7
420
 16777215
100
AcDbHatch
 10
0.0
 20
0.0
 30
0.0
210
0.0
220
0.0
230
1.0
  2
SOLID
 70
     1
 71
     0
 91
        1
 92
        1
 93
        1
 72
     4
 94
        3
 73
     0
 74
     1
 95
       26
 96
       22
 40
0.0
 40
0.0
 40
0.0
 40
0.0
 40
1.0
 40
1.0
 40
1.0
 40
2.0
 40
2.0
 40
2.0
 40
3.0
 40
3.0
 40
3.0
 40
4.0
 40
4.0
 40
4.0
 40
5.0
 40
5.0
 40
5.0
 40
6.0
 40
6.0
 40
6.0
 40
7.0
 40
7.0
 40
7.0
 40
7.0
 10
78.91904159268344
 20
-139.3086371179506
 10
78.91904159268344
 20
-139.3086371179506
 10
78.91904159268344
 20
-138.2041395053795
 10
78.91904159268344
 20
-138.2041395053795
 10
78.91904159268344
 20
-138.2041395053795
 10
78.56626381499386
 20
-138.2041395053795
 10
78.56626381499386
 20
-138.2041395053795
 10
78.56626381499386
 20
-138.2041395053795
 10
78.56626381499386
 20
-138.0563449090623
 10
78.56626381499386
 20
-138.0563449090623
 10
78.92128090474885
 20
-138.0415309984757
 10
78.97106253451071
 20
-137.8785779820234
 10
79.00275741297501
 20
-137.7645453214616
 10
79.00275741297501
 20
-137.7645453214616
 10
79.15864798368257
 20
-137.7645453214616
 10
79.15864798368257
 20
-137.7645453214616
 10
79.15864798368257
 20
-137.7645453214616
 10
79.15864798368257
 20
-139.3086371179506
 10
79.15864798368257
 20
-139.3086371179506
 10
79.15864798368257
 20
-139.3086371179506
 10
78.91904159268344
 20
-139.3086371179506
 10
78.91904159268344
 20
-139.3086371179506
 97
        0
 97
        0
 75
     2
 76
     1
 98
        0
  0
SPLINE
  5
A6
330
A0
100
AcDbEntity
  8
_U+30EC_U+30A4_U+30E4_U+30FC 1
370
     0
100
AcDbSpline
210
0.0
220
0.0
230
1.0
 70
    11
 71
     3
 72
    29
 73
    25
 74
     0
 42
0.0000000001
 43
0.0000000001
 12
1.0
 22
0.0
 32
0.0
 13
1.0
 23
0.0
 33
0.0
 40
0.0
 40
0.0
 40
0.0
 40
0.0
 40
1.0
 40
1.0
 40
1.0
 40
2.0
 40
2.0
 40
2.0
 40
3.0
 40
3.0
 40
3.0
 40
4.0
 40
4.0
 40
4.0
 40
5.0
 40
5.0
 40
5.0
 40
6.0
 40
6.0
 40
6.0
 40
7.0
 40
7.0
 40
7.0
 40
8.0
 40
8.0
 40
8.0
 40
8.0
 10
80.653819424281
 20
-139.1308701909117
 30
0.0
 10
80.53858098029939
 20
-139.3403319964149
 30
0.0
 10
80.35323484319295
 20
-139.3596245311323
 30
0.0
 10
80.22886689617543
 20
-139.3596245311323
 30
0.0
 10
80.05695663146146
 20
-139.3596245311323
 30
0.0
 10
79.90554468488473
 20
-139.3127712325329
 30
0.0
 10
79.8037421132956
 20
-139.1308701909117
 30
0.0
 10
79.69298229344481
 20
-138.9362222959951
 30
0.0
 10
79.67265623008184
 20
-138.6995442361585
 30
0.0
 10
79.67265623008184
 20
-138.5362467101576
 30
0.0
 10
79.67265623008184
 20
-138.3925862284227
 30
0.0
 10
79.6907429813794
 20
-138.1407497484509
 30
0.0
 10
79.8037421132956
 20
-137.941967738952
 30
0.0
 10
79.91915281205146
 20
-137.7390516148708
 30
0.0
 10
80.09089082199117
 20
-137.7156249655711
 30
0.0
 10
80.22886689617543
 20
-137.7156249655711
 30
0.0
 10
80.39836559404972
 20
-137.7156249655711
 30
0.0
 10
80.55218910746612
 20
-137.7600666973308
 30
0.0
 10
80.653819424281
 20
-137.941967738952
 30
0.0
 10
80.76010062000096
 20
-138.1345485765775
 30
0.0
 10
80.78490530749475
 20
-138.3629584072496
 30
0.0
 10
80.78490530749475
 20
-138.5362467101576
 30
0.0
 10
80.78490530749475
 20
-138.7078124653231
 30
0.0
 10
80.76233993206637
 20
-138.9386338628348
 30
0.0
 10
80.653819424281
 20
-139.1308701909117
 30
0.0
  0
SPLINE
  5
A7
330
A0
100
AcDbEntity
  8
_U+30EC_U+30A4_U+30E4_U+30FC 1
370
     0
100
AcDbSpline
210
0.0
220
0.0
230
1.0
 70
    11
 71
     3
 72
    17
 73
    13
 74
     0
 42
0.0000000001
 43
0.0000000001
 12
1.0
 22
0.0
 32
0.0
 13
1.0
 23
0.0
 33
0.0
 40
0.0
 40
0.0
 40
0.0
 40
0.0
 40
1.0
 40
1.0
 40
1.0
 40
2.0
 40
2.0
 40
2.0
 40
3.0
 40
3.0
 40
3.0
 40
4.0
 40
4.0
 40
4.0
 40
4.0
 10
80.22886689617543
 20
-137.9082058031966
 30
0.0
 10
79.96204425084282
 20
-137.9082058031966
 30
0.0
 10
79.91226262108097
 20
-138.1917371616326
 30
0.0
 10
79.91226262108097
 20
-138.5362467101576
 30
0.0
 10
79.91226262108097
 20
-138.8559515711888
 30
0.0
 10
79.9506754357415
 20
-139.1646321266672
 30
0.0
 10
80.22886689617543
 20
-139.1646321266672
 30
0.0
 10
80.49327797466835
 20
-139.1646321266672
 30
0.0
 10
80.54529891649563
 20
-138.8835123350708
 30
0.0
 10
80.54529891649563
 20
-138.5362467101576
 30
0.0
 10
80.54529891649563
 20
-138.2172308682235
 30
0.0
 10
80.50464678976968
 20
-137.9082058031966
 30
0.0
 10
80.22886689617543
 20
-137.9082058031966
 30
0.0
  0
HATCH
  5
A8
330
A0
100
AcDbEntity
  8
_U+30EC_U+30A4_U+30E4_U+30FC 1
 62
     7
420
 16777215
100
AcDbHatch
 10
0.0
 20
0.0
 30
0.0
210
0.0
220
0.0
230
1.0
  2
SOLID
 70
     1
 71
     0
 91
        2
 92
        1
 93
        1
 72
     4
 94
        3
 73
     0
 74
     1
 95
       29
 96
       25
 40
0.0
 40
0.0
 40
0.0
 40
0.0
 40
1.0
 40
1.0
 40
1.0
 40
2.0
 40
2.0
 40
2.0
 40
3.0
 40
3.0
 40
3.0
 40
4.0
 40
4.0
 40
4.0
 40
5.0
 40
5.0
 40
5.0
 40
6.0
 40
6.0
 40
6.0
 40
7.0
 40
7.0
 40
7.0
 40
8.0
 40
8.0
 40
8.0
 40
8.0
 10
80.653819424281
 20
-139.1308701909117
 10
80.53858098029939
 20
-139.3403319964149
 10
80.35323484319295
 20
-139.3596245311323
 10
80.22886689617543
 20
-139.3596245311323
 10
80.05695663146146
 20
-139.3596245311323
 10
79.90554468488473
 20
-139.3127712325329
 10
79.8037421132956
 20
-139.1308701909117
 10
79.69298229344481
 20
-138.9362222959951
 10
79.67265623008184
 20
-138.6995442361585
 10
79.67265623008184
 20
-138.5362467101576
 10
79.67265623008184
 20
-138.3925862284227
 10
79.6907429813794
 20
-138.1407497484509
 10
79.8037421132956
 20
-137.941967738952
 10
79.91915281205146
 20
-137.7390516148708
 10
80.09089082199117
 20
-137.7156249655711
 10
80.22886689617543
 20
-137.7156249655711
 10
80.39836559404972
 20
-137.7156249655711
 10
80.55218910746612
 20
-137.7600666973308
 10
80.653819424281
 20
-137.941967738952
 10
80.76010062000096
 20
-138.1345485765775
 10
80.78490530749475
 20
-138.3629584072496
 10
80.78490530749475
 20
-138.5362467101576
 10
80.78490530749475
 20
-138.7078124653231
 10
80.76233993206637
 20
-138.9386338628348
 10
80.653819424281
 20
-139.1308701909117
 97
        0
 97
        0
 92
        1
 93
        1
 72
     4
 94
        3
 73
     0
 74
     1
 95
       17
 96
       13
 40
0.0
 40
0.0
 40
0.0
 40
0.0
 40
1.0
 40
1.0
 40
1.0
 40
2.0
 40
2.0
 40
2.0
 40
3.0
 40
3.0
 40
3.0
 40
4.0
 40
4.0
 40
4.0
 40
4.0
 10
80.22886689617543
 20
-137.9082058031966
 10
79.96204425084282
 20
-137.9082058031966
 10
79.91226262108097
 20
-138.1917371616326
 10
79.91226262108097
 20
-138.5362467101576
 10
79.91226262108097
 20
-138.8559515711888
 10
79.9506754357415
 20
-139.1646321266672
 10
80.22886689617543
 20
-139.1646321266672
 10
80.49327797466835
 20
-139.1646321266672
 10
80.54529891649563
 20
-138.8835123350708
 10
80.54529891649563
 20
-138.5362467101576
 10
80.54529891649563
 20
-138.2172308682235
 10
80.50464678976968
 20
-137.9082058031966
 10
80.22886689617543
 20
-137.9082058031966
 97
        0
 97
        0
 75
     2
 76
     1
 98
        0
  0
ENDBLK
  5
A3
330
A0
100
AcDbEntity
  8
0
100
AcDbBlockEnd
  0
BLOCK
  5
BF
330
BD
100
AcDbEntity
  8
0
100
AcDbBlockBegin
  2
block 6
 70
     0
 10
0.0
 20
0.0
 30
0.0
  3
block 6
  1

  0
SPLINE
  5
C1
330
BD
100
AcDbEntity
  8
_U+30EC_U+30A4_U+30E4_U+30FC 1
370
     0
100
AcDbSpline
210
0.0
220
0.0
230
1.0
 70
    11
 71
     3
 72
    44
 73
    40
 74
     0
 42
0.0000000001
 43
0.0000000001
 12
1.0
 22
0.0
 32
0.0
 13
1.0
 23
0.0
 33
0.0
 40
0.0
 40
0.0
 40
0.0
 40
0.0
 40
1.0
 40
1.0
 40
1.0
 40
2.0
 40
2.0
 40
2.0
 40
3.0
 40
3.0
 40
3.0
 40
4.0
 40
4.0
 40
4.0
 40
5.0
 40
5.0
 40
5.0
 40
6.0
 40
6.0
 40
6.0
 40
7.0
 40
7.0
 40
7.0
 40
8.0
 40
8.0
 40
8.0
 40
9.0
 40
9.0
 40
9.0
 40
10.0
 40
10.0
 40
10.0
 40
11.0
 40
11.0
 40
11.0
 40
12.0
 40
12.0
 40
12.0
 40
13.0
 40
13.0
 40
13.0
 40
13.0
 10
88.10469968500507
 20
-118.2065659969241
 30
0.0
 10
87.88696965033729
 20
-118.3652126440198
 30
0.0
 10
87.79395207223554
 20
-118.4392821969527
 30
0.0
 10
87.745031716345
 20
-118.5831149334619
 30
0.0
 10
87.745031716345
 20
-118.5831149334619
 30
0.0
 10
88.52362329601146
 20
-118.5831149334619
 30
0.0
 10
88.52362329601146
 20
-118.5831149334619
 30
0.0
 10
88.52362329601146
 20
-118.5831149334619
 30
0.0
 10
88.52362329601146
 20
-118.7882703696085
 30
0.0
 10
88.52362329601146
 20
-118.7882703696085
 30
0.0
 10
88.52362329601146
 20
-118.7882703696085
 30
0.0
 10
87.49560680321291
 20
-118.7882703696085
 30
0.0
 10
87.49560680321291
 20
-118.7882703696085
 30
0.0
 10
87.5273016816772
 20
-118.4306694582396
 30
0.0
 10
87.59275849589696
 20
-118.3524657907244
 30
0.0
 10
87.97792017114789
 20
-118.0541205217017
 30
0.0
 10
88.23389076570194
 20
-117.8553385122028
 30
0.0
 10
88.2993475799217
 20
-117.7876423859177
 30
0.0
 10
88.2993475799217
 20
-117.6501830760562
 30
0.0
 10
88.2993475799217
 20
-117.5316717913636
 30
0.0
 10
88.22734508427997
 20
-117.4005859081499
 30
0.0
 10
88.0306301320722
 20
-117.4005859081499
 30
0.0
 10
87.77052542293585
 20
-117.4005859081499
 30
0.0
 10
87.76225719377125
 20
-117.6310627961131
 30
0.0
 10
87.75777856964042
 20
-117.7475070235145
 30
0.0
 10
87.75777856964042
 20
-117.7475070235145
 30
0.0
 10
87.53350285355066
 20
-117.7475070235145
 30
0.0
 10
87.53350285355066
 20
-117.7475070235145
 30
0.0
 10
87.54211559226378
 20
-117.6205552548831
 30
0.0
 10
87.55279538826805
 20
-117.5084173968382
 30
0.0
 10
87.63306611307438
 20
-117.3899061121456
 30
0.0
 10
87.74296465905384
 20
-117.2291924077587
 30
0.0
 10
87.92934432480587
 20
-117.195258217229
 30
0.0
 10
88.04544404265879
 20
-117.195258217229
 30
0.0
 10
88.3227742292214
 20
-117.195258217229
 30
0.0
 10
88.53016897743343
 20
-117.3793985709156
 30
0.0
 10
88.53016897743343
 20
-117.6522501333474
 30
0.0
 10
88.53016897743343
 20
-117.8806599640194
 30
0.0
 10
88.41372475003199
 20
-117.9802232235431
 30
0.0
 10
88.10469968500507
 20
-118.2065659969241
 30
0.0
  0
HATCH
  5
C2
330
BD
100
AcDbEntity
  8
_U+30EC_U+30A4_U+30E4_U+30FC 1
 62
     7
420
 16777215
100
AcDbHatch
 10
0.0
 20
0.0
 30
0.0
210
0.0
220
0.0
230
1.0
  2
SOLID
 70
     1
 71
     0
 91
        1
 92
        1
 93
        1
 72
     4
 94
        3
 73
     0
 74
     1
 95
       44
 96
       40
 40
0.0
 40
0.0
 40
0.0
 40
0.0
 40
1.0
 40
1.0
 40
1.0
 40
2.0
 40
2.0
 40
2.0
 40
3.0
 40
3.0
 40
3.0
 40
4.0
 40
4.0
 40
4.0
 40
5.0
 40
5.0
 40
5.0
 40
6.0
 40
6.0
 40
6.0
 40
7.0
 40
7.0
 40
7.0
 40
8.0
 40
8.0
 40
8.0
 40
9.0
 40
9.0
 40
9.0
 40
10.0
 40
10.0
 40
10.0
 40
11.0
 40
11.0
 40
11.0
 40
12.0
 40
12.0
 40
12.0
 40
13.0
 40
13.0
 40
13.0
 40
13.0
 10
88.10469968500507
 20
-118.2065659969241
 10
87.88696965033729
 20
-118.3652126440198
 10
87.79395207223554
 20
-118.4392821969527
 10
87.745031716345
 20
-118.5831149334619
 10
87.745031716345
 20
-118.5831149334619
 10
88.52362329601146
 20
-118.5831149334619
 10
88.52362329601146
 20
-118.5831149334619
 10
88.52362329601146
 20
-118.5831149334619
 10
88.52362329601146
 20
-118.7882703696085
 10
88.52362329601146
 20
-118.7882703696085
 10
88.52362329601146
 20
-118.7882703696085
 10
87.49560680321291
 20
-118.7882703696085
 10
87.49560680321291
 20
-118.7882703696085
 10
87.5273016816772
 20
-118.4306694582396
 10
87.59275849589696
 20
-118.3524657907244
 10
87.97792017114789
 20
-118.0541205217017
 10
88.23389076570194
 20
-117.8553385122028
 10
88.2993475799217
 20
-117.7876423859177
 10
88.2993475799217
 20
-117.6501830760562
 10
88.2993475799217
 20
-117.5316717913636
 10
88.22734508427997
 20
-117.4005859081499
 10
88.0306301320722
 20
-117.4005859081499
 10
87.77052542293585
 20
-117.4005859081499
 10
87.76225719377125
 20
-117.6310627961131
 10
87.75777856964042
 20
-117.7475070235145
 10
87.75777856964042
 20
-117.7475070235145
 10
87.53350285355066
 20
-117.7475070235145
 10
87.53350285355066
 20
-117.7475070235145
 10
87.54211559226378
 20
-117.6205552548831
 10
87.55279538826805
 20
-117.5084173968382
 10
87.63306611307438
 20
-117.3899061121456
 10
87.74296465905384
 20
-117.2291924077587
 10
87.92934432480587
 20
-117.195258217229
 10
88.04544404265879
 20
-117.195258217229
 10
88.3227742292214
 20
-117.195258217229
 10
88.53016897743343
 20
-117.3793985709156
 10
88.53016897743343
 20
-117.6522501333474
 10
88.53016897743343
 20
-117.8806599640194
 10
88.41372475003199
 20
-117.9802232235431
 10
88.10469968500507
 20
-118.2065659969241
 97
        0
 97
        0
 75
     2
 76
     1
 98
        0
  0
SPLINE
  5
C3
330
BD
100
AcDbEntity
  8
_U+30EC_U+30A4_U+30E4_U+30FC 1
370
     0
100
AcDbSpline
210
0.0
220
0.0
230
1.0
 70
    11
 71
     3
 72
    29
 73
    25
 74
     0
 42
0.0000000001
 43
0.0000000001
 12
1.0
 22
0.0
 32
0.0
 13
1.0
 23
0.0
 33
0.0
 40
0.0
 40
0.0
 40
0.0
 40
0.0
 40
1.0
 40
1.0
 40
1.0
 40
2.0
 40
2.0
 40
2.0
 40
3.0
 40
3.0
 40
3.0
 40
4.0
 40
4.0
 40
4.0
 40
5.0
 40
5.0
 40
5.0
 40
6.0
 40
6.0
 40
6.0
 40
7.0
 40
7.0
 40
7.0
 40
8.0
 40
8.0
 40
8.0
 40
8.0
 10
89.18852672466468
 20
-118.8390855280159
 30
0.0
 10
88.92187633410634
 20
-118.8390855280159
 30
0.0
 10
88.66831730639196
 20
-118.7014539633802
 30
0.0
 10
88.66831730639196
 20
-118.3524657907244
 30
0.0
 10
88.66831730639196
 20
-118.0964951961703
 30
0.0
 10
88.80991073083572
 20
-118.0012383060032
 30
0.0
 10
88.91567516223289
 20
-117.9399156063657
 30
0.0
 10
88.79096270566684
 20
-117.8806599640194
 30
0.0
 10
88.71482609544283
 20
-117.7664550486834
 30
0.0
 10
88.71482609544283
 20
-117.6057413442965
 30
0.0
 10
88.71482609544283
 20
-117.3306504697993
 30
0.0
 10
88.91360810494174
 20
-117.195258217229
 30
0.0
 10
89.18852672466468
 20
-117.195258217229
 30
0.0
 10
89.47205808310073
 20
-117.195258217229
 30
0.0
 10
89.66257186343506
 20
-117.3390909537382
 30
0.0
 10
89.66257186343506
 20
-117.6057413442965
 30
0.0
 10
89.66257186343506
 20
-117.7664550486834
 30
0.0
 10
89.58402368637135
 20
-117.8806599640194
 30
0.0
 10
89.45931122980531
 20
-117.9399156063657
 30
0.0
 10
89.54819469332476
 20
-117.9907307647732
 30
0.0
 10
89.70701359519478
 20
-118.0859876549403
 30
0.0
 10
89.70701359519478
 20
-118.3483316761421
 30
0.0
 10
89.70701359519478
 20
-118.7226413006145
 30
0.0
 10
89.42761635134102
 20
-118.8390855280159
 30
0.0
 10
89.18852672466468
 20
-118.8390855280159
 30
0.0
  0
SPLINE
  5
C4
330
BD
100
AcDbEntity
  8
_U+30EC_U+30A4_U+30E4_U+30FC 1
370
     0
100
AcDbSpline
210
0.0
220
0.0
230
1.0
 70
    11
 71
     3
 72
    17
 73
    13
 74
     0
 42
0.0000000001
 43
0.0000000001
 12
1.0
 22
0.0
 32
0.0
 13
1.0
 23
0.0
 33
0.0
 40
0.0
 40
0.0
 40
0.0
 40
0.0
 40
1.0
 40
1.0
 40
1.0
 40
2.0
 40
2.0
 40
2.0
 40
3.0
 40
3.0
 40
3.0
 40
4.0
 40
4.0
 40
4.0
 40
4.0
 10
89.18852672466468
 20
-118.0479193498283
 30
0.0
 10
89.04486624292976
 20
-118.0479193498283
 30
0.0
 10
88.8922485129332
 20
-118.1345635012823
 30
0.0
 10
88.8922485129332
 20
-118.3376518801378
 30
0.0
 10
88.8922485129332
 20
-118.5428073162844
 30
0.0
 10
89.0193725363389
 20
-118.6444376330993
 30
0.0
 10
89.18852672466468
 20
-118.6444376330993
 30
0.0
 10
89.37456188086817
 20
-118.6444376330993
 30
0.0
 10
89.48480493639616
 20
-118.5217922338244
 30
0.0
 10
89.48480493639616
 20
-118.3440253067855
 30
0.0
 10
89.48480493639616
 20
-118.1218166479869
 30
0.0
 10
89.32185191994385
 20
-118.0479193498283
 30
0.0
 10
89.18852672466468
 20
-118.0479193498283
 30
0.0
  0
SPLINE
  5
C5
330
BD
100
AcDbEntity
  8
_U+30EC_U+30A4_U+30E4_U+30FC 1
370
     0
100
AcDbSpline
210
0.0
220
0.0
230
1.0
 70
    11
 71
     3
 72
    17
 73
    13
 74
     0
 42
0.0000000001
 43
0.0000000001
 12
1.0
 22
0.0
 32
0.0
 13
1.0
 23
0.0
 33
0.0
 40
0.0
 40
0.0
 40
0.0
 40
0.0
 40
1.0
 40
1.0
 40
1.0
 40
2.0
 40
2.0
 40
2.0
 40
3.0
 40
3.0
 40
3.0
 40
4.0
 40
4.0
 40
4.0
 40
4.0
 10
89.18852672466468
 20
-117.3878390548544
 30
0.0
 10
89.0235066509212
 20
-117.3878390548544
 30
0.0
 10
88.9391018115326
 20
-117.4829236902473
 30
0.0
 10
88.9391018115326
 20
-117.6183159428176
 30
0.0
 10
88.9391018115326
 20
-117.7411335968668
 30
0.0
 10
89.01075979762578
 20
-117.8596448815594
 30
0.0
 10
89.18852672466468
 20
-117.8596448815594
 30
0.0
 10
89.36629365170357
 20
-117.8596448815594
 30
0.0
 10
89.4382961473453
 20
-117.7411335968668
 30
0.0
 10
89.4382961473453
 20
-117.6183159428176
 30
0.0
 10
89.4382961473453
 20
-117.4829236902473
 30
0.0
 10
89.35147974111699
 20
-117.3878390548544
 30
0.0
 10
89.18852672466468
 20
-117.3878390548544
 30
0.0
  0
HATCH
  5
C6
330
BD
100
AcDbEntity
  8
_U+30EC_U+30A4_U+30E4_U+30FC 1
 62
     7
420
 16777215
100
AcDbHatch
 10
0.0
 20
0.0
 30
0.0
210
0.0
220
0.0
230
1.0
  2
SOLID
 70
     1
 71
     0
 91
        3
 92
        1
 93
        1
 72
     4
 94
        3
 73
     0
 74
     1
 95
       29
 96
       25
 40
0.0
 40
0.0
 40
0.0
 40
0.0
 40
1.0
 40
1.0
 40
1.0
 40
2.0
 40
2.0
 40
2.0
 40
3.0
 40
3.0
 40
3.0
 40
4.0
 40
4.0
 40
4.0
 40
5.0
 40
5.0
 40
5.0
 40
6.0
 40
6.0
 40
6.0
 40
7.0
 40
7.0
 40
7.0
 40
8.0
 40
8.0
 40
8.0
 40
8.0
 10
89.18852672466468
 20
-118.8390855280159
 10
88.92187633410634
 20
-118.8390855280159
 10
88.66831730639196
 20
-118.7014539633802
 10
88.66831730639196
 20
-118.3524657907244
 10
88.66831730639196
 20
-118.0964951961703
 10
88.80991073083572
 20
-118.0012383060032
 10
88.91567516223289
 20
-117.9399156063657
 10
88.79096270566684
 20
-117.8806599640194
 10
88.71482609544283
 20
-117.7664550486834
 10
88.71482609544283
 20
-117.6057413442965
 10
88.71482609544283
 20
-117.3306504697993
 10
88.91360810494174
 20
-117.195258217229
 10
89.18852672466468
 20
-117.195258217229
 10
89.47205808310073
 20
-117.195258217229
 10
89.66257186343506
 20
-117.3390909537382
 10
89.66257186343506
 20
-117.6057413442965
 10
89.66257186343506
 20
-117.7664550486834
 10
89.58402368637135
 20
-117.8806599640194
 10
89.45931122980531
 20
-117.9399156063657
 10
89.54819469332476
 20
-117.9907307647732
 10
89.70701359519478
 20
-118.0859876549403
 10
89.70701359519478
 20
-118.3483316761421
 10
89.70701359519478
 20
-118.7226413006145
 10
89.42761635134102
 20
-118.8390855280159
 10
89.18852672466468
 20
-118.8390855280159
 97
        0
 97
        0
 92
        1
 93
        1
 72
     4
 94
        3
 73
     0
 74
     1
 95
       17
 96
       13
 40
0.0
 40
0.0
 40
0.0
 40
0.0
 40
1.0
 40
1.0
 40
1.0
 40
2.0
 40
2.0
 40
2.0
 40
3.0
 40
3.0
 40
3.0
 40
4.0
 40
4.0
 40
4.0
 40
4.0
 10
89.18852672466468
 20
-118.0479193498283
 10
89.04486624292976
 20
-118.0479193498283
 10
88.8922485129332
 20
-118.1345635012823
 10
88.8922485129332
 20
-118.3376518801378
 10
88.8922485129332
 20
-118.5428073162844
 10
89.0193725363389
 20
-118.6444376330993
 10
89.18852672466468
 20
-118.6444376330993
 10
89.37456188086817
 20
-118.6444376330993
 10
89.48480493639616
 20
-118.5217922338244
 10
89.48480493639616
 20
-118.3440253067855
 10
89.48480493639616
 20
-118.1218166479869
 10
89.32185191994385
 20
-118.0479193498283
 10
89.18852672466468
 20
-118.0479193498283
 97
        0
 97
        0
 92
        1
 93
        1
 72
     4
 94
        3
 73
     0
 74
     1
 95
       17
 96
       13
 40
0.0
 40
0.0
 40
0.0
 40
0.0
 40
1.0
 40
1.0
 40
1.0
 40
2.0
 40
2.0
 40
2.0
 40
3.0
 40
3.0
 40
3.0
 40
4.0
 40
4.0
 40
4.0
 40
4.0
 10
89.18852672466468
 20
-117.3878390548544
 10
89.0235066509212
 20
-117.3878390548544
 10
88.9391018115326
 20
-117.4829236902473
 10
88.9391018115326
 20
-117.6183159428176
 10
88.9391018115326
 20
-117.7411335968668
 10
89.01075979762578
 20
-117.8596448815594
 10
89.18852672466468
 20
-117.8596448815594
 10
89.36629365170357
 20
-117.8596448815594
 10
89.4382961473453
 20
-117.7411335968668
 10
89.4382961473453
 20
-117.6183159428176
 10
89.4382961473453
 20
-117.4829236902473
 10
89.35147974111699
 20
-117.3878390548544
 10
89.18852672466468
 20
-117.3878390548544
 97
        0
 97
        0
 75
     2
 76
     1
 98
        0
  0
ENDBLK
  5
C0
330
BD
100
AcDbEntity
  8
0
100
AcDbBlockEnd
  0
BLOCK
  5
D1
330
CF
100
AcDbEntity
  8
0
100
AcDbBlockBegin
  2
block 7
 70
     0
 10
0.0
 20
0.0
 30
0.0
  3
block 7
  1

  0
SPLINE
  5
D3
330
CF
100
AcDbEntity
  8
_U+30EC_U+30A4_U+30E4_U+30FC 1
370
     0
100
AcDbSpline
210
0.0
220
0.0
230
1.0
 70
    11
 71
     3
 72
    29
 73
    25
 74
     0
 42
0.0000000001
 43
0.0000000001
 12
1.0
 22
0.0
 32
0.0
 13
1.0
 23
0.0
 33
0.0
 40
0.0
 40
0.0
 40
0.0
 40
0.0
 40
1.0
 40
1.0
 40
1.0
 40
2.0
 40
2.0
 40
2.0
 40
3.0
 40
3.0
 40
3.0
 40
4.0
 40
4.0
 40
4.0
 40
5.0
 40
5.0
 40
5.0
 40
6.0
 40
6.0
 40
6.0
 40
7.0
 40
7.0
 40
7.0
 40
8.0
 40
8.0
 40
8.0
 40
8.0
 10
104.9162488887015
 20
-129.6182725370399
 30
0.0
 10
104.9162488887015
 20
-129.9028374241215
 30
0.0
 10
104.77878957884
 20
-130.1743109483592
 30
0.0
 10
104.4298014061842
 20
-130.1743109483592
 30
0.0
 10
104.1738308116302
 20
-130.1743109483592
 30
0.0
 10
104.0787461762373
 20
-130.0227267470082
 30
0.0
 10
104.0174234765998
 20
-129.909727615092
 30
0.0
 10
103.9581678342535
 20
-130.0430528103712
 30
0.0
 10
103.8437906641432
 20
-130.1247015733716
 30
0.0
 10
103.6829047049821
 20
-130.1247015733716
 30
0.0
 10
103.4079860852591
 20
-130.1247015733716
 30
0.0
 10
103.2725938326888
 20
-129.9121391819317
 30
0.0
 10
103.2725938326888
 20
-129.6182725370399
 30
0.0
 10
103.2725938326888
 20
-129.3151041343379
 30
0.0
 10
103.4165988239723
 20
-129.1118435007081
 30
0.0
 10
103.6829047049821
 20
-129.1118435007081
 30
0.0
 10
103.8437906641432
 20
-129.1118435007081
 30
0.0
 10
103.9581678342535
 20
-129.1952148114512
 30
0.0
 10
104.0174234765998
 20
-129.3288845162789
 30
0.0
 10
104.068066380233
 20
-129.233799880886
 30
0.0
 10
104.1631510156259
 20
-129.0643011830117
 30
0.0
 10
104.4256672916019
 20
-129.0643011830117
 30
0.0
 10
104.8001491708486
 20
-129.0643011830117
 30
0.0
 10
104.9162488887015
 20
-129.3626464520343
 30
0.0
 10
104.9162488887015
 20
-129.6182725370399
 30
0.0
  0
SPLINE
  5
D4
330
CF
100
AcDbEntity
  8
_U+30EC_U+30A4_U+30E4_U+30FC 1
370
     0
100
AcDbSpline
210
0.0
220
0.0
230
1.0
 70
    11
 71
     3
 72
    17
 73
    13
 74
     0
 42
0.0000000001
 43
0.0000000001
 12
1.0
 22
0.0
 32
0.0
 13
1.0
 23
0.0
 33
0.0
 40
0.0
 40
0.0
 40
0.0
 40
0.0
 40
1.0
 40
1.0
 40
1.0
 40
2.0
 40
2.0
 40
2.0
 40
3.0
 40
3.0
 40
3.0
 40
4.0
 40
4.0
 40
4.0
 40
4.0
 10
103.4651746703143
 20
-129.6182725370399
 30
0.0
 10
103.4651746703143
 20
-129.7946614258847
 30
0.0
 10
103.5602593057072
 20
-129.8849229275982
 30
0.0
 10
103.6956515582775
 20
-129.8849229275982
 30
0.0
 10
103.8182969575524
 20
-129.8849229275982
 30
0.0
 10
103.936808242245
 20
-129.8080972982771
 30
0.0
 10
103.936808242245
 20
-129.6182725370399
 30
0.0
 10
103.936808242245
 20
-129.4281032662541
 30
0.0
 10
103.8182969575524
 20
-129.351277636933
 30
0.0
 10
103.6956515582775
 20
-129.351277636933
 30
0.0
 10
103.5602593057072
 20
-129.351277636933
 30
0.0
 10
103.4651746703143
 20
-129.4439507054862
 30
0.0
 10
103.4651746703143
 20
-129.6182725370399
 30
0.0
  0
SPLINE
  5
D5
330
CF
100
AcDbEntity
  8
_U+30EC_U+30A4_U+30E4_U+30FC 1
370
     0
100
AcDbSpline
210
0.0
220
0.0
230
1.0
 70
    11
 71
     3
 72
    17
 73
    13
 74
     0
 42
0.0000000001
 43
0.0000000001
 12
1.0
 22
0.0
 32
0.0
 13
1.0
 23
0.0
 33
0.0
 40
0.0
 40
0.0
 40
0.0
 40
0.0
 40
1.0
 40
1.0
 40
1.0
 40
2.0
 40
2.0
 40
2.0
 40
3.0
 40
3.0
 40
3.0
 40
4.0
 40
4.0
 40
4.0
 40
4.0
 10
104.1252549652881
 20
-129.6182725370399
 30
0.0
 10
104.1252549652881
 20
-129.771923795682
 30
0.0
 10
104.2120713715164
 20
-129.9345323025858
 30
0.0
 10
104.4149874955976
 20
-129.9345323025858
 30
0.0
 10
104.6203151865185
 20
-129.9345323025858
 30
0.0
 10
104.7216009937849
 20
-129.7991400500155
 30
0.0
 10
104.7216009937849
 20
-129.6182725370399
 30
0.0
 10
104.7216009937849
 20
-129.4191460179924
 30
0.0
 10
104.59895559451
 20
-129.3016682619454
 30
0.0
 10
104.4211886674711
 20
-129.3016682619454
 30
0.0
 10
104.199324518221
 20
-129.3016682619454
 30
0.0
 10
104.1252549652881
 20
-129.4756455839506
 30
0.0
 10
104.1252549652881
 20
-129.6182725370399
 30
0.0
  0
HATCH
  5
D6
330
CF
100
AcDbEntity
  8
_U+30EC_U+30A4_U+30E4_U+30FC 1
 62
     7
420
 16777215
100
AcDbHatch
 10
0.0
 20
0.0
 30
0.0
210
0.0
220
0.0
230
1.0
  2
SOLID
 70
     1
 71
     0
 91
        3
 92
        1
 93
        1
 72
     4
 94
        3
 73
     0
 74
     1
 95
       29
 96
       25
 40
0.0
 40
0.0
 40
0.0
 40
0.0
 40
1.0
 40
1.0
 40
1.0
 40
2.0
 40
2.0
 40
2.0
 40
3.0
 40
3.0
 40
3.0
 40
4.0
 40
4.0
 40
4.0
 40
5.0
 40
5.0
 40
5.0
 40
6.0
 40
6.0
 40
6.0
 40
7.0
 40
7.0
 40
7.0
 40
8.0
 40
8.0
 40
8.0
 40
8.0
 10
104.9162488887015
 20
-129.6182725370399
 10
104.9162488887015
 20
-129.9028374241215
 10
104.77878957884
 20
-130.1743109483592
 10
104.4298014061842
 20
-130.1743109483592
 10
104.1738308116302
 20
-130.1743109483592
 10
104.0787461762373
 20
-130.0227267470082
 10
104.0174234765998
 20
-129.909727615092
 10
103.9581678342535
 20
-130.0430528103712
 10
103.8437906641432
 20
-130.1247015733716
 10
103.6829047049821
 20
-130.1247015733716
 10
103.4079860852591
 20
-130.1247015733716
 10
103.2725938326888
 20
-129.9121391819317
 10
103.2725938326888
 20
-129.6182725370399
 10
103.2725938326888
 20
-129.3151041343379
 10
103.4165988239723
 20
-129.1118435007081
 10
103.6829047049821
 20
-129.1118435007081
 10
103.8437906641432
 20
-129.1118435007081
 10
103.9581678342535
 20
-129.1952148114512
 10
104.0174234765998
 20
-129.3288845162789
 10
104.068066380233
 20
-129.233799880886
 10
104.1631510156259
 20
-129.0643011830117
 10
104.4256672916019
 20
-129.0643011830117
 10
104.8001491708486
 20
-129.0643011830117
 10
104.9162488887015
 20
-129.3626464520343
 10
104.9162488887015
 20
-129.6182725370399
 97
        0
 97
        0
 92
        1
 93
        1
 72
     4
 94
        3
 73
     0
 74
     1
 95
       17
 96
       13
 40
0.0
 40
0.0
 40
0.0
 40
0.0
 40
1.0
 40
1.0
 40
1.0
 40
2.0
 40
2.0
 40
2.0
 40
3.0
 40
3.0
 40
3.0
 40
4.0
 40
4.0
 40
4.0
 40
4.0
 10
103.4651746703143
 20
-129.6182725370399
 10
103.4651746703143
 20
-129.7946614258847
 10
103.5602593057072
 20
-129.8849229275982
 10
103.6956515582775
 20
-129.8849229275982
 10
103.8182969575524
 20
-129.8849229275982
 10
103.936808242245
 20
-129.8080972982771
 10
103.936808242245
 20
-129.6182725370399
 10
103.936808242245
 20
-129.4281032662541
 10
103.8182969575524
 20
-129.351277636933
 10
103.6956515582775
 20
-129.351277636933
 10
103.5602593057072
 20
-129.351277636933
 10
103.4651746703143
 20
-129.4439507054862
 10
103.4651746703143
 20
-129.6182725370399
 97
        0
 97
        0
 92
        1
 93
        1
 72
     4
 94
        3
 73
     0
 74
     1
 95
       17
 96
       13
 40
0.0
 40
0.0
 40
0.0
 40
0.0
 40
1.0
 40
1.0
 40
1.0
 40
2.0
 40
2.0
 40
2.0
 40
3.0
 40
3.0
 40
3.0
 40
4.0
 40
4.0
 40
4.0
 40
4.0
 10
104.1252549652881
 20
-129.6182725370399
 10
104.1252549652881
 20
-129.771923795682
 10
104.2120713715164
 20
-129.9345323025858
 10
104.4149874955976
 20
-129.9345323025858
 10
104.6203151865185
 20
-129.9345323025858
 10
104.7216009937849
 20
-129.7991400500155
 10
104.7216009937849
 20
-129.6182725370399
 10
104.7216009937849
 20
-129.4191460179924
 10
104.59895559451
 20
-129.3016682619454
 10
104.4211886674711
 20
-129.3016682619454
 10
104.199324518221
 20
-129.3016682619454
 10
104.1252549652881
 20
-129.4756455839506
 10
104.1252549652881
 20
-129.6182725370399
 97
        0
 97
        0
 75
     2
 76
     1
 98
        0
  0
POLYLINE
  5
D7
330
CF
100
AcDbEntity
  8
_U+30EC_U+30A4_U+30E4_U+30FC 1
370
     0
100
AcDb2dPolyline
 66
     1
 10
0.0
 20
0.0
 30
0.0
  0
VERTEX
  5
D8
330
D7
100
AcDbEntity
  8
_U+30EC_U+30A4_U+30E4_U+30FC 1
370
     0
100
AcDbVertex
100
AcDb2dVertex
 10
104.8656059850683
 20
-128.8307237091118
 30
0.0
  0
VERTEX
  5
D9
330
D7
100
AcDbEntity
  8
_U+30EC_U+30A4_U+30E4_U+30FC 1
370
     0
100
AcDbVertex
100
AcDb2dVertex
 10
104.6137695050966
 20
-128.8307237091118
 30
0.0
  0
VERTEX
  5
DA
330
D7
100
AcDbEntity
  8
_U+30EC_U+30A4_U+30E4_U+30FC 1
370
     0
100
AcDbVertex
100
AcDb2dVertex
 10
104.6137695050966
 20
-128.5616617517138
 30
0.0
  0
VERTEX
  5
DB
330
D7
100
AcDbEntity
  8
_U+30EC_U+30A4_U+30E4_U+30FC 1
370
     0
100
AcDbVertex
100
AcDb2dVertex
 10
104.8656059850683
 20
-128.5616617517138
 30
0.0
  0
VERTEX
  5
DC
330
D7
100
AcDbEntity
  8
_U+30EC_U+30A4_U+30E4_U+30FC 1
370
     0
100
AcDbVertex
100
AcDb2dVertex
 10
104.8656059850683
 20
-128.8307237091118
 30
0.0
  0
SEQEND
  5
DD
330
D7
100
AcDbEntity
  8
_U+30EC_U+30A4_U+30E4_U+30FC 1
370
     0
  0
HATCH
  5
DE
330
CF
100
AcDbEntity
  8
_U+30EC_U+30A4_U+30E4_U+30FC 1
 62
     7
420
 16777215
100
AcDbHatch
 10
0.0
 20
0.0
 30
0.0
210
0.0
220
0.0
230
1.0
  2
SOLID
 70
     1
 71
     0
 91
        1
 92
        1
 93
        4
 72
     1
 10
104.8656059850683
 20
-128.8307237091118
 11
104.6137695050966
 21
-128.8307237091118
 72
     1
 10
104.6137695050966
 20
-128.8307237091118
 11
104.6137695050966
 21
-128.5616617517138
 72
     1
 10
104.6137695050966
 20
-128.5616617517138
 11
104.8656059850683
 21
-128.5616617517138
 72
     1
 10
104.8656059850683
 20
-128.5616617517138
 11
104.8656059850683
 21
-128.8307237091118
 97
        0
 75
     2
 76
     1
 98
        0
  0
SPLINE
  5
DF
330
CF
100
AcDbEntity
  8
_U+30EC_U+30A4_U+30E4_U+30FC 1
370
     0
100
AcDbSpline
210
0.0
220
0.0
230
1.0
 70
    11
 71
     3
 72
    53
 73
    49
 74
     0
 42
0.0000000001
 43
0.0000000001
 12
1.0
 22
0.0
 32
0.0
 13
1.0
 23
0.0
 33
0.0
 40
0.0
 40
0.0
 40
0.0
 40
0.0
 40
1.0
 40
1.0
 40
1.0
 40
2.0
 40
2.0
 40
2.0
 40
3.0
 40
3.0
 40
3.0
 40
4.0
 40
4.0
 40
4.0
 40
5.0
 40
5.0
 40
5.0
 40
6.0
 40
6.0
 40
6.0
 40
7.0
 40
7.0
 40
7.0
 40
8.0
 40
8.0
 40
8.0
 40
9.0
 40
9.0
 40
9.0
 40
10.0
 40
10.0
 40
10.0
 40
11.0
 40
11.0
 40
11.0
 40
12.0
 40
12.0
 40
12.0
 40
13.0
 40
13.0
 40
13.0
 40
14.0
 40
14.0
 40
14.0
 40
15.0
 40
15.0
 40
15.0
 40
16.0
 40
16.0
 40
16.0
 40
16.0
 10
104.9162488887015
 20
-127.7947834966971
 30
0.0
 10
104.9162488887015
 20
-127.8784993169887
 30
0.0
 10
104.8993679208238
 20
-127.9866753152256
 30
0.0
 10
104.8359781638952
 20
-128.0955403325595
 30
0.0
 10
104.7260796179157
 20
-128.2808864696659
 30
0.0
 10
104.5948214799277
 20
-128.30327959032
 30
0.0
 10
104.4869899912394
 20
-128.323605653683
 30
0.0
 10
104.4869899912394
 20
-128.323605653683
 30
0.0
 10
104.4869899912394
 20
-128.0862385747493
 30
0.0
 10
104.4869899912394
 20
-128.0862385747493
 30
0.0
 10
104.6857720007383
 20
-128.0276719515
 30
0.0
 10
104.7153998219114
 20
-127.8919351893812
 30
0.0
 10
104.7153998219114
 20
-127.7923719298575
 30
0.0
 10
104.7153998219114
 20
-127.6431992953462
 30
0.0
 10
104.6158365623877
 20
-127.4802462788938
 30
0.0
 10
104.3832926171333
 20
-127.4802462788938
 30
0.0
 10
104.1273220225793
 20
-127.4802462788938
 30
0.0
 10
104.0573865842287
 20
-127.6724826069708
 30
0.0
 10
104.0573865842287
 20
-127.8013291781191
 30
0.0
 10
104.0573865842287
 20
-127.8354356234231
 30
0.0
 10
104.0573865842287
 20
-127.9866753152256
 30
0.0
 10
104.1865776649256
 20
-128.0817599506184
 30
0.0
 10
104.1865776649256
 20
-128.0817599506184
 30
0.0
 10
104.1676296397567
 20
-128.2695176545646
 30
0.0
 10
104.1676296397567
 20
-128.2695176545646
 30
0.0
 10
104.1676296397567
 20
-128.2695176545646
 30
0.0
 10
103.3211696790308
 20
-128.1406710834162
 30
0.0
 10
103.3211696790308
 20
-128.1406710834162
 30
0.0
 10
103.3211696790308
 20
-128.1406710834162
 30
0.0
 10
103.3211696790308
 20
-127.3086805237284
 30
0.0
 10
103.3211696790308
 20
-127.3086805237284
 30
0.0
 10
103.3211696790308
 20
-127.3086805237284
 30
0.0
 10
103.5158175739474
 20
-127.3086805237284
 30
0.0
 10
103.5158175739474
 20
-127.3086805237284
 30
0.0
 10
103.5158175739474
 20
-127.3086805237284
 30
0.0
 10
103.5158175739474
 20
-127.9663492518626
 30
0.0
 10
103.5158175739474
 20
-127.9663492518626
 30
0.0
 10
103.5158175739474
 20
-127.9663492518626
 30
0.0
 10
103.9388752995361
 20
-128.0366291997617
 30
0.0
 10
103.9388752995361
 20
-128.0366291997617
 30
0.0
 10
103.9051133637807
 20
-127.9711723855419
 30
0.0
 10
103.8648057466033
 20
-127.8829779411195
 30
0.0
 10
103.8648057466033
 20
-127.7561984272623
 30
0.0
 10
103.8648057466033
 20
-127.4850694125732
 30
0.0
 10
104.0511854123553
 20
-127.2318548944073
 30
0.0
 10
104.3643445919645
 20
-127.2318548944073
 30
0.0
 10
104.681637886156
 20
-127.2318548944073
 30
0.0
 10
104.9162488887015
 20
-127.4712890306322
 30
0.0
 10
104.9162488887015
 20
-127.7947834966971
 30
0.0
  0
HATCH
  5
E0
330
CF
100
AcDbEntity
  8
_U+30EC_U+30A4_U+30E4_U+30FC 1
 62
     7
420
 16777215
100
AcDbHatch
 10
0.0
 20
0.0
 30
0.0
210
0.0
220
0.0
230
1.0
  2
SOLID
 70
     1
 71
     0
 91
        1
 92
        1
 93
        1
 72
     4
 94
        3
 73
     0
 74
     1
 95
       53
 96
       49
 40
0.0
 40
0.0
 40
0.0
 40
0.0
 40
1.0
 40
1.0
 40
1.0
 40
2.0
 40
2.0
 40
2.0
 40
3.0
 40
3.0
 40
3.0
 40
4.0
 40
4.0
 40
4.0
 40
5.0
 40
5.0
 40
5.0
 40
6.0
 40
6.0
 40
6.0
 40
7.0
 40
7.0
 40
7.0
 40
8.0
 40
8.0
 40
8.0
 40
9.0
 40
9.0
 40
9.0
 40
10.0
 40
10.0
 40
10.0
 40
11.0
 40
11.0
 40
11.0
 40
12.0
 40
12.0
 40
12.0
 40
13.0
 40
13.0
 40
13.0
 40
14.0
 40
14.0
 40
14.0
 40
15.0
 40
15.0
 40
15.0
 40
16.0
 40
16.0
 40
16.0
 40
16.0
 10
104.9162488887015
 20
-127.7947834966971
 10
104.9162488887015
 20
-127.8784993169887
 10
104.8993679208238
 20
-127.9866753152256
 10
104.8359781638952
 20
-128.0955403325595
 10
104.7260796179157
 20
-128.2808864696659
 10
104.5948214799277
 20
-128.30327959032
 10
104.4869899912394
 20
-128.323605653683
 10
104.4869899912394
 20
-128.323605653683
 10
104.4869899912394
 20
-128.0862385747493
 10
104.4869899912394
 20
-128.0862385747493
 10
104.6857720007383
 20
-128.0276719515
 10
104.7153998219114
 20
-127.8919351893812
 10
104.7153998219114
 20
-127.7923719298575
 10
104.7153998219114
 20
-127.6431992953462
 10
104.6158365623877
 20
-127.4802462788938
 10
104.3832926171333
 20
-127.4802462788938
 10
104.1273220225793
 20
-127.4802462788938
 10
104.0573865842287
 20
-127.6724826069708
 10
104.0573865842287
 20
-127.8013291781191
 10
104.0573865842287
 20
-127.8354356234231
 10
104.0573865842287
 20
-127.9866753152256
 10
104.1865776649256
 20
-128.0817599506184
 10
104.1865776649256
 20
-128.0817599506184
 10
104.1676296397567
 20
-128.2695176545646
 10
104.1676296397567
 20
-128.2695176545646
 10
104.1676296397567
 20
-128.2695176545646
 10
103.3211696790308
 20
-128.1406710834162
 10
103.3211696790308
 20
-128.1406710834162
 10
103.3211696790308
 20
-128.1406710834162
 10
103.3211696790308
 20
-127.3086805237284
 10
103.3211696790308
 20
-127.3086805237284
 10
103.3211696790308
 20
-127.3086805237284
 10
103.5158175739474
 20
-127.3086805237284
 10
103.5158175739474
 20
-127.3086805237284
 10
103.5158175739474
 20
-127.3086805237284
 10
103.5158175739474
 20
-127.9663492518626
 10
103.5158175739474
 20
-127.9663492518626
 10
103.5158175739474
 20
-127.9663492518626
 10
103.9388752995361
 20
-128.0366291997617
 10
103.9388752995361
 20
-128.0366291997617
 10
103.9051133637807
 20
-127.9711723855419
 10
103.8648057466033
 20
-127.8829779411195
 10
103.8648057466033
 20
-127.7561984272623
 10
103.8648057466033
 20
-127.4850694125732
 10
104.0511854123553
 20
-127.2318548944073
 10
104.3643445919645
 20
-127.2318548944073
 10
104.681637886156
 20
-127.2318548944073
 10
104.9162488887015
 20
-127.4712890306322
 10
104.9162488887015
 20
-127.7947834966971
 97
        0
 97
        0
 75
     2
 76
     1
 98
        0
  0
ENDBLK
  5
D2
330
CF
100
AcDbEntity
  8
0
100
AcDbBlockEnd
  0
ENDSEC
  0
SECTION
  2
ENTITIES
  0
POLYLINE
  5
41
330
1F
100
AcDbEntity
  8
_U+30EC_U+30A4_U+30E4_U+30FC 1
370
     0
100
AcDb2dPolyline
 66
     1
 10
0.0
 20
0.0
 30
0.0
  0
VERTEX
  5
42
330
41
100
AcDbEntity
  8
_U+30EC_U+30A4_U+30E4_U+30FC 1
370
     0
100
AcDbVertex
100
AcDb2dVertex
 10
74.59976281902371
 20
-124.4344235800025
 30
0.0
  0
VERTEX
  5
43
330
41
100
AcDbEntity
  8
_U+30EC_U+30A4_U+30E4_U+30FC 1
370
     0
100
AcDbVertex
100
AcDb2dVertex
 10
84.60016589722551
 20
-124.4344235800025
 30
0.0
  0
VERTEX
  5
44
330
41
100
AcDbEntity
  8
_U+30EC_U+30A4_U+30E4_U+30FC 1
370
     0
100
AcDbVertex
100
AcDb2dVertex
 10
84.60016589722551
 20
-135.9093674660226
 30
0.0
  0
VERTEX
  5
45
330
41
100
AcDbEntity
  8
_U+30EC_U+30A4_U+30E4_U+30FC 1
370
     0
100
AcDbVertex
100
AcDb2dVertex
 10
90.60013963304232
 20
-135.9093674660226
 30
0.0
  0
VERTEX
  5
46
330
41
100
AcDbEntity
  8
_U+30EC_U+30A4_U+30E4_U+30FC 1
370
     0
100
AcDbVertex
100
AcDb2dVertex
 10
90.60013963304232
 20
-133.0382149667406
 30
0.0
  0
VERTEX
  5
47
330
41
100
AcDbEntity
  8
_U+30EC_U+30A4_U+30E4_U+30FC 1
370
     0
100
AcDbVertex
100
AcDb2dVertex
 10
89.60004993633451
 20
-133.0382149667406
 30
0.0
  0
VERTEX
  5
48
330
41
100
AcDbEntity
  8
_U+30EC_U+30A4_U+30E4_U+30FC 1
370
     0
100
AcDbVertex
100
AcDb2dVertex
 10
89.60004993633451
 20
-134.9550682995948
 30
0.0
  0
VERTEX
  5
49
330
41
100
AcDbEntity
  8
_U+30EC_U+30A4_U+30E4_U+30FC 1
370
     0
100
AcDbVertex
100
AcDb2dVertex
 10
85.6002908717102
 20
-134.9550682995948
 30
0.0
  0
VERTEX
  5
4A
330
41
100
AcDbEntity
  8
_U+30EC_U+30A4_U+30E4_U+30FC 1
370
     0
100
AcDbVertex
100
AcDb2dVertex
 10
85.6002908717102
 20
-124.4344235800025
 30
0.0
  0
VERTEX
  5
4B
330
41
100
AcDbEntity
  8
_U+30EC_U+30A4_U+30E4_U+30FC 1
370
     0
100
AcDbVertex
100
AcDb2dVertex
 10
102.5997721965725
 20
-124.4344235800025
 30
0.0
  0
VERTEX
  5
4C
330
41
100
AcDbEntity
  8
_U+30EC_U+30A4_U+30E4_U+30FC 1
370
     0
100
AcDbVertex
100
AcDb2dVertex
 10
102.5997721965725
 20
-123.4346866358081
 30
0.0
  0
VERTEX
  5
4D
330
41
100
AcDbEntity
  8
_U+30EC_U+30A4_U+30E4_U+30FC 1
370
     0
100
AcDbVertex
100
AcDb2dVertex
 10
74.59976281902371
 20
-123.4346866358081
 30
0.0
  0
VERTEX
  5
4E
330
41
100
AcDbEntity
  8
_U+30EC_U+30A4_U+30E4_U+30FC 1
370
     0
100
AcDbVertex
100
AcDb2dVertex
 10
74.59976281902371
 20
-124.4344235800025
 30
0.0
  0
SEQEND
  5
50
330
41
100
AcDbEntity
  8
_U+30EC_U+30A4_U+30E4_U+30FC 1
370
     0
  0
HATCH
  5
4F
330
1F
100
AcDbEntity
  8
_U+30EC_U+30A4_U+30E4_U+30FC 1
 62
   253
420
 11711154
100
AcDbHatch
 10
0.0
 20
0.0
 30
0.0
210
0.0
220
0.0
230
1.0
  2
SOLID
 70
     1
 71
     0
 91
        1
 92
        1
 93
       12
 72
     1
 10
74.59976281902371
 20
-124.4344235800025
 11
84.60016589722551
 21
-124.4344235800025
 72
     1
 10
84.60016589722551
 20
-124.4344235800025
 11
84.60016589722551
 21
-135.9093674660226
 72
     1
 10
84.60016589722551
 20
-135.9093674660226
 11
90.60013963304232
 21
-135.9093674660226
 72
     1
 10
90.60013963304232
 20
-135.9093674660226
 11
90.60013963304232
 21
-133.0382149667406
 72
     1
 10
90.60013963304232
 20
-133.0382149667406
 11
89.60004993633451
 21
-133.0382149667406
 72
     1
 10
89.60004993633451
 20
-133.0382149667406
 11
89.60004993633451
 21
-134.9550682995948
 72
     1
 10
89.60004993633451
 20
-134.9550682995948
 11
85.6002908717102
 21
-134.9550682995948
 72
     1
 10
85.6002908717102
 20
-134.9550682995948
 11
85.6002908717102
 21
-124.4344235800025
 72
     1
 10
85.6002908717102
 20
-124.4344235800025
 11
102.5997721965725
 21
-124.4344235800025
 72
     1
 10
102.5997721965725
 20
-124.4344235800025
 11
102.5997721965725
 21
-123.4346866358081
 72
     1
 10
102.5997721965725
 20
-123.4346866358081
 11
74.59976281902371
 21
-123.4346866358081
 72
     1
 10
74.59976281902371
 20
-123.4346866358081
 11
74.59976281902371
 21
-124.4344235800025
 97
        0
 75
     2
 76
     1
 98
        0
  0
INSERT
  5
52
330
1F
100
AcDbEntity
  8
_U+30EC_U+30A4_U+30E4_U+30FC 1
100
AcDbBlockReference
  2
block 2
 10
0.0
 20
0.0
 30
0.0
  0
POLYLINE
  5
58
330
1F
100
AcDbEntity
  8
_U+30EC_U+30A4_U+30E4_U+30FC 1
 62
     7
420
 16777215
370
    25
100
AcDb2dPolyline
 66
     1
 10
0.0
 20
0.0
 30
0.0
  0
VERTEX
  5
59
330
58
100
AcDbEntity
  8
_U+30EC_U+30A4_U+30E4_U+30FC 1
 62
     7
420
 16777215
370
    25
100
AcDbVertex
100
AcDb2dVertex
 10
84.60016589722551
 20
-124.4344235800025
 30
0.0
  0
VERTEX
  5
5A
330
58
100
AcDbEntity
  8
_U+30EC_U+30A4_U+30E4_U+30FC 1
 62
     7
420
 16777215
370
    25
100
AcDbVertex
100
AcDb2dVertex
 10
74.59976281902371
 20
-124.4344235800025
 30
0.0
  0
VERTEX
  5
5B
330
58
100
AcDbEntity
  8
_U+30EC_U+30A4_U+30E4_U+30FC 1
 62
     7
420
 16777215
370
    25
100
AcDbVertex
100
AcDb2dVertex
 10
74.59976281902371
 20
-124.4344235800025
 30
0.0
  0
VERTEX
  5
5C
330
58
100
AcDbEntity
  8
_U+30EC_U+30A4_U+30E4_U+30FC 1
 62
     7
420
 16777215
370
    25
100
AcDbVertex
100
AcDb2dVertex
 10
74.59976281902371
 20
-123.4346866358081
 30
0.0
  0
VERTEX
  5
5D
330
58
100
AcDbEntity
  8
_U+30EC_U+30A4_U+30E4_U+30FC 1
 62
     7
420
 16777215
370
    25
100
AcDbVertex
100
AcDb2dVertex
 10
102.5997721965725
 20
-123.4346866358081
 30
0.0
  0
VERTEX
  5
5E
330
58
100
AcDbEntity
  8
_U+30EC_U+30A4_U+30E4_U+30FC 1
 62
     7
420
 16777215
370
    25
100
AcDbVertex
100
AcDb2dVertex
 10
102.5997721965725
 20
-124.4344235800025
 30
0.0
  0
VERTEX
  5
5F
330
58
100
AcDbEntity
  8
_U+30EC_U+30A4_U+30E4_U+30FC 1
 62
     7
420
 16777215
370
    25
100
AcDbVertex
100
AcDb2dVertex
 10
102.5997721965725
 20
-124.4344235800025
 30
0.0
  0
VERTEX
  5
60
330
58
100
AcDbEntity
  8
_U+30EC_U+30A4_U+30E4_U+30FC 1
 62
     7
420
 16777215
370
    25
100
AcDbVertex
100
AcDb2dVertex
 10
85.6002908717102
 20
-124.4344235800025
 30
0.0
  0
VERTEX
  5
61
330
58
100
AcDbEntity
  8
_U+30EC_U+30A4_U+30E4_U+30FC 1
 62
     7
420
 16777215
370
    25
100
AcDbVertex
100
AcDb2dVertex
 10
85.6002908717102
 20
-124.4344235800025
 30
0.0
  0
VERTEX
  5
62
330
58
100
AcDbEntity
  8
_U+30EC_U+30A4_U+30E4_U+30FC 1
 62
     7
420
 16777215
370
    25
100
AcDbVertex
100
AcDb2dVertex
 10
85.6002908717102
 20
-134.9550682995948
 30
0.0
  0
VERTEX
  5
63
330
58
100
AcDbEntity
  8
_U+30EC_U+30A4_U+30E4_U+30FC 1
 62
     7
420
 16777215
370
    25
100
AcDbVertex
100
AcDb2dVertex
 10
89.60004993633451
 20
-134.9550682995948
 30
0.0
  0
VERTEX
  5
64
330
58
100
AcDbEntity
  8
_U+30EC_U+30A4_U+30E4_U+30FC 1
 62
     7
420
 16777215
370
    25
100
AcDbVertex
100
AcDb2dVertex
 10
89.60004993633451
 20
-132.9548535778724
 30
0.0
  0
VERTEX
  5
65
330
58
100
AcDbEntity
  8
_U+30EC_U+30A4_U+30E4_U+30FC 1
 62
     7
420
 16777215
370
    25
100
AcDbVertex
100
AcDb2dVertex
 10
90.60013963304232
 20
-132.9548535778724
 30
0.0
  0
VERTEX
  5
66
330
58
100
AcDbEntity
  8
_U+30EC_U+30A4_U+30E4_U+30FC 1
 62
     7
420
 16777215
370
    25
100
AcDbVertex
100
AcDb2dVertex
 10
90.60013963304232
 20
-135.9548405215667
 30
0.0
  0
VERTEX
  5
67
330
58
100
AcDbEntity
  8
_U+30EC_U+30A4_U+30E4_U+30FC 1
 62
     7
420
 16777215
370
    25
100
AcDbVertex
100
AcDb2dVertex
 10
84.60016589722551
 20
-135.9548405215667
 30
0.0
  0
VERTEX
  5
68
330
58
100
AcDbEntity
  8
_U+30EC_U+30A4_U+30E4_U+30FC 1
 62
     7
420
 16777215
370
    25
100
AcDbVertex
100
AcDb2dVertex
 10
84.60016589722551
 20
-124.4344235800025
 30
0.0
  0
VERTEX
  5
69
330
58
100
AcDbEntity
  8
_U+30EC_U+30A4_U+30E4_U+30FC 1
 62
     7
420
 16777215
370
    25
100
AcDbVertex
100
AcDb2dVertex
 10
84.60016589722551
 20
-124.4344235800025
 30
0.0
  0
SEQEND
  5
6A
330
58
100
AcDbEntity
  8
_U+30EC_U+30A4_U+30E4_U+30FC 1
 62
     7
420
 16777215
370
    25
  0
SPLINE
  5
6B
330
1F
100
AcDbEntity
  8
_U+30EC_U+30A4_U+30E4_U+30FC 1
 62
     7
420
 16777215
370
     9
100
AcDbSpline
210
0.0
220
0.0
230
1.0
 70
    11
 71
     3
 72
    17
 73
    13
 74
     0
 42
0.0000000001
 43
0.0000000001
 12
1.0
 22
0.0
 32
0.0
 13
1.0
 23
0.0
 33
0.0
 40
0.0
 40
0.0
 40
0.0
 40
0.0
 40
1.0
 40
1.0
 40
1.0
 40
2.0
 40
2.0
 40
2.0
 40
3.0
 40
3.0
 40
3.0
 40
4.0
 40
4.0
 40
4.0
 40
4.0
 10
74.69966948314155
 20
-119.434221914586
 30
0.0
 10
74.69966948314155
 20
-119.3791180257108
 30
0.0
 10
74.65486670650678
 20
-119.3343152479441
 30
0.0
 10
74.59976281902371
 20
-119.3343152479441
 30
0.0
 10
74.54462365376376
 20
-119.3343152479441
 30
0.0
 10
74.49985615490588
 20
-119.3791180257108
 30
0.0
 10
74.49985615490588
 20
-119.434221914586
 30
0.0
 10
74.49985615490588
 20
-119.4900313590165
 30
0.0
 10
74.54462365376376
 20
-119.5348341367829
 30
0.0
 10
74.59976281902371
 20
-119.5348341367829
 30
0.0
 10
74.65486670650678
 20
-119.5348341367829
 30
0.0
 10
74.69966948314155
 20
-119.4900313590165
 30
0.0
 10
74.69966948314155
 20
-119.434221914586
 30
0.0
  0
SPLINE
  5
6C
330
1F
100
AcDbEntity
  8
_U+30EC_U+30A4_U+30E4_U+30FC 1
 62
     7
420
 16777215
370
     9
100
AcDbSpline
210
0.0
220
0.0
230
1.0
 70
    11
 71
     3
 72
    17
 73
    13
 74
     0
 42
0.0000000001
 43
0.0000000001
 12
1.0
 22
0.0
 32
0.0
 13
1.0
 23
0.0
 33
0.0
 40
0.0
 40
0.0
 40
0.0
 40
0.0
 40
1.0
 40
1.0
 40
1.0
 40
2.0
 40
2.0
 40
2.0
 40
3.0
 40
3.0
 40
3.0
 40
4.0
 40
4.0
 40
4.0
 40
4.0
 10
102.6996762688019
 20
-119.434221914586
 30
0.0
 10
102.6996762688019
 20
-119.3791180257108
 30
0.0
 10
102.6552262699359
 20
-119.3343152479441
 30
0.0
 10
102.5997721965725
 20
-119.3343152479441
 30
0.0
 10
102.5449832171929
 20
-119.3343152479441
 30
0.0
 10
102.4998629405662
 20
-119.3791180257108
 30
0.0
 10
102.4998629405662
 20
-119.434221914586
 30
0.0
 10
102.4998629405662
 20
-119.4900313590165
 30
0.0
 10
102.5449832171929
 20
-119.5348341367829
 30
0.0
 10
102.5997721965725
 20
-119.5348341367829
 30
0.0
 10
102.6552262699359
 20
-119.5348341367829
 30
0.0
 10
102.6996762688019
 20
-119.4900313590165
 30
0.0
 10
102.6996762688019
 20
-119.434221914586
 30
0.0
  0
SPLINE
  5
6D
330
1F
100
AcDbEntity
  8
_U+30EC_U+30A4_U+30E4_U+30FC 1
 62
     7
420
 16777215
370
     9
100
AcDbSpline
210
0.0
220
0.0
230
1.0
 70
    11
 71
     3
 72
    17
 73
    13
 74
     0
 42
0.0000000001
 43
0.0000000001
 12
1.0
 22
0.0
 32
0.0
 13
1.0
 23
0.0
 33
0.0
 40
0.0
 40
0.0
 40
0.0
 40
0.0
 40
1.0
 40
1.0
 40
1.0
 40
2.0
 40
2.0
 40
2.0
 40
3.0
 40
3.0
 40
3.0
 40
4.0
 40
4.0
 40
4.0
 40
4.0
 10
106.7001083066584
 20
-123.4346866358081
 30
0.0
 10
106.7001083066584
 20
-123.379547469155
 30
0.0
 10
106.6549853345602
 20
-123.3347799691662
 30
0.0
 10
106.600198947069
 20
-123.3347799691662
 30
0.0
 10
106.5447422818172
 20
-123.3347799691662
 30
0.0
 10
106.5002922829512
 20
-123.379547469155
 30
0.0
 10
106.5002922829512
 20
-123.4346866358081
 30
0.0
 10
106.5002922829512
 20
-123.489790524683
 30
0.0
 10
106.5447422818172
 20
-123.5345933024497
 30
0.0
 10
106.600198947069
 20
-123.5345933024497
 30
0.0
 10
106.6549853345602
 20
-123.5345933024497
 30
0.0
 10
106.7001083066584
 20
-123.489790524683
 30
0.0
 10
106.7001083066584
 20
-123.4346866358081
 30
0.0
  0
SPLINE
  5
6E
330
1F
100
AcDbEntity
  8
_U+30EC_U+30A4_U+30E4_U+30FC 1
 62
     7
420
 16777215
370
     9
100
AcDbSpline
210
0.0
220
0.0
230
1.0
 70
    11
 71
     3
 72
    17
 73
    13
 74
     0
 42
0.0000000001
 43
0.0000000001
 12
1.0
 22
0.0
 32
0.0
 13
1.0
 23
0.0
 33
0.0
 40
0.0
 40
0.0
 40
0.0
 40
0.0
 40
1.0
 40
1.0
 40
1.0
 40
2.0
 40
2.0
 40
2.0
 40
3.0
 40
3.0
 40
3.0
 40
4.0
 40
4.0
 40
4.0
 40
4.0
 10
106.7001083066584
 20
-124.4344235800025
 30
0.0
 10
106.7001083066584
 20
-124.3793196911273
 30
0.0
 10
106.6549853345602
 20
-124.3345169133609
 30
0.0
 10
106.600198947069
 20
-124.3345169133609
 30
0.0
 10
106.5447422818172
 20
-124.3345169133609
 30
0.0
 10
106.5002922829512
 20
-124.3793196911273
 30
0.0
 10
106.5002922829512
 20
-124.4344235800025
 30
0.0
 10
106.5002922829512
 20
-124.4895627466553
 30
0.0
 10
106.5447422818172
 20
-124.5343302466441
 30
0.0
 10
106.600198947069
 20
-124.5343302466441
 30
0.0
 10
106.6549853345602
 20
-124.5343302466441
 30
0.0
 10
106.7001083066584
 20
-124.4895627466553
 30
0.0
 10
106.7001083066584
 20
-124.4344235800025
 30
0.0
  0
SPLINE
  5
6F
330
1F
100
AcDbEntity
  8
_U+30EC_U+30A4_U+30E4_U+30FC 1
 62
     7
420
 16777215
370
     9
100
AcDbSpline
210
0.0
220
0.0
230
1.0
 70
    11
 71
     3
 72
    17
 73
    13
 74
     0
 42
0.0000000001
 43
0.0000000001
 12
1.0
 22
0.0
 32
0.0
 13
1.0
 23
0.0
 33
0.0
 40
0.0
 40
0.0
 40
0.0
 40
0.0
 40
1.0
 40
1.0
 40
1.0
 40
2.0
 40
2.0
 40
2.0
 40
3.0
 40
3.0
 40
3.0
 40
4.0
 40
4.0
 40
4.0
 40
4.0
 10
106.7001083066584
 20
-132.9548535778724
 30
0.0
 10
106.7001083066584
 20
-132.8997144112193
 30
0.0
 10
106.6549853345602
 20
-132.8549469112307
 30
0.0
 10
106.600198947069
 20
-132.8549469112307
 30
0.0
 10
106.5447422818172
 20
-132.8549469112307
 30
0.0
 10
106.5002922829512
 20
-132.8997144112193
 30
0.0
 10
106.5002922829512
 20
-132.9548535778724
 30
0.0
 10
106.5002922829512
 20
-133.0099574667473
 30
0.0
 10
106.5447422818172
 20
-133.054760244514
 30
0.0
 10
106.600198947069
 20
-133.054760244514
 30
0.0
 10
106.6549853345602
 20
-133.054760244514
 30
0.0
 10
106.7001083066584
 20
-133.0099574667473
 30
0.0
 10
106.7001083066584
 20
-132.9548535778724
 30
0.0
  0
SPLINE
  5
70
330
1F
100
AcDbEntity
  8
_U+30EC_U+30A4_U+30E4_U+30FC 1
 62
     7
420
 16777215
370
     9
100
AcDbSpline
210
0.0
220
0.0
230
1.0
 70
    11
 71
     3
 72
    17
 73
    13
 74
     0
 42
0.0000000001
 43
0.0000000001
 12
1.0
 22
0.0
 32
0.0
 13
1.0
 23
0.0
 33
0.0
 40
0.0
 40
0.0
 40
0.0
 40
0.0
 40
1.0
 40
1.0
 40
1.0
 40
2.0
 40
2.0
 40
2.0
 40
3.0
 40
3.0
 40
3.0
 40
4.0
 40
4.0
 40
4.0
 40
4.0
 10
106.7001083066584
 20
-135.9548405215667
 30
0.0
 10
106.7001083066584
 20
-135.8997013549143
 30
0.0
 10
106.6549853345602
 20
-135.8549338549251
 30
0.0
 10
106.600198947069
 20
-135.8549338549251
 30
0.0
 10
106.5447422818172
 20
-135.8549338549251
 30
0.0
 10
106.5002922829512
 20
-135.8997013549143
 30
0.0
 10
106.5002922829512
 20
-135.9548405215667
 30
0.0
 10
106.5002922829512
 20
-136.0099444104423
 30
0.0
 10
106.5447422818172
 20
-136.0547471882084
 30
0.0
 10
106.600198947069
 20
-136.0547471882084
 30
0.0
 10
106.6549853345602
 20
-136.0547471882084
 30
0.0
 10
106.7001083066584
 20
-136.0099444104423
 30
0.0
 10
106.7001083066584
 20
-135.9548405215667
 30
0.0
  0
SPLINE
  5
71
330
1F
100
AcDbEntity
  8
_U+30EC_U+30A4_U+30E4_U+30FC 1
 62
     7
420
 16777215
370
     9
100
AcDbSpline
210
0.0
220
0.0
230
1.0
 70
    11
 71
     3
 72
    17
 73
    13
 74
     0
 42
0.0000000001
 43
0.0000000001
 12
1.0
 22
0.0
 32
0.0
 13
1.0
 23
0.0
 33
0.0
 40
0.0
 40
0.0
 40
0.0
 40
0.0
 40
1.0
 40
1.0
 40
1.0
 40
2.0
 40
2.0
 40
2.0
 40
3.0
 40
3.0
 40
3.0
 40
4.0
 40
4.0
 40
4.0
 40
4.0
 10
84.70007256134335
 20
-139.9545996872336
 30
0.0
 10
84.70007256134335
 20
-139.8994605205805
 30
0.0
 10
84.65530506248547
 20
-139.854693020592
 30
0.0
 10
84.60016589722551
 20
-139.854693020592
 30
0.0
 10
84.54506200974244
 20
-139.854693020592
 30
0.0
 10
84.50025923310767
 20
-139.8994605205805
 30
0.0
 10
84.50025923310767
 20
-139.9545996872336
 30
0.0
 10
84.50025923310767
 20
-140.0097035761085
 30
0.0
 10
84.54506200974244
 20
-140.0545063538752
 30
0.0
 10
84.60016589722551
 20
-140.0545063538752
 30
0.0
 10
84.65530506248547
 20
-140.0545063538752
 30
0.0
 10
84.70007256134335
 20
-140.0097035761085
 30
0.0
 10
84.70007256134335
 20
-139.9545996872336
 30
0.0
  0
SPLINE
  5
72
330
1F
100
AcDbEntity
  8
_U+30EC_U+30A4_U+30E4_U+30FC 1
 62
     7
420
 16777215
370
     9
100
AcDbSpline
210
0.0
220
0.0
230
1.0
 70
    11
 71
     3
 72
    17
 73
    13
 74
     0
 42
0.0000000001
 43
0.0000000001
 12
1.0
 22
0.0
 32
0.0
 13
1.0
 23
0.0
 33
0.0
 40
0.0
 40
0.0
 40
0.0
 40
0.0
 40
1.0
 40
1.0
 40
1.0
 40
2.0
 40
2.0
 40
2.0
 40
3.0
 40
3.0
 40
3.0
 40
4.0
 40
4.0
 40
4.0
 40
4.0
 10
90.70004629716016
 20
-139.9545996872336
 30
0.0
 10
90.70004629716016
 20
-139.8994605205805
 30
0.0
 10
90.65527879830226
 20
-139.854693020592
 30
0.0
 10
90.60013963304232
 20
-139.854693020592
 30
0.0
 10
90.54503574555925
 20
-139.854693020592
 30
0.0
 10
90.50023296892448
 20
-139.8994605205805
 30
0.0
 10
90.50023296892448
 20
-139.9545996872336
 30
0.0
 10
90.50023296892448
 20
-140.0097035761085
 30
0.0
 10
90.54503574555925
 20
-140.0545063538752
 30
0.0
 10
90.60013963304232
 20
-140.0545063538752
 30
0.0
 10
90.65527879830226
 20
-140.0545063538752
 30
0.0
 10
90.70004629716016
 20
-140.0097035761085
 30
0.0
 10
90.70004629716016
 20
-139.9545996872336
 30
0.0
  0
SPLINE
  5
73
330
1F
100
AcDbEntity
  8
_U+30EC_U+30A4_U+30E4_U+30FC 1
 62
     7
420
 16777215
370
     9
100
AcDbSpline
210
0.0
220
0.0
230
1.0
 70
    11
 71
     3
 72
    17
 73
    13
 74
     0
 42
0.0000000001
 43
0.0000000001
 12
1.0
 22
0.0
 32
0.0
 13
1.0
 23
0.0
 33
0.0
 40
0.0
 40
0.0
 40
0.0
 40
0.0
 40
1.0
 40
1.0
 40
1.0
 40
2.0
 40
2.0
 40
2.0
 40
3.0
 40
3.0
 40
3.0
 40
4.0
 40
4.0
 40
4.0
 40
4.0
 10
74.69966948314155
 20
-139.9545996872336
 30
0.0
 10
74.69966948314155
 20
-139.8994605205805
 30
0.0
 10
74.65486670650678
 20
-139.854693020592
 30
0.0
 10
74.59976281902371
 20
-139.854693020592
 30
0.0
 10
74.54462365376376
 20
-139.854693020592
 30
0.0
 10
74.49985615490588
 20
-139.8994605205805
 30
0.0
 10
74.49985615490588
 20
-139.9545996872336
 30
0.0
 10
74.49985615490588
 20
-140.0097035761085
 30
0.0
 10
74.54462365376376
 20
-140.0545063538752
 30
0.0
 10
74.59976281902371
 20
-140.0545063538752
 30
0.0
 10
74.65486670650678
 20
-140.0545063538752
 30
0.0
 10
74.69966948314155
 20
-140.0097035761085
 30
0.0
 10
74.69966948314155
 20
-139.9545996872336
 30
0.0
  0
POLYLINE
  5
74
330
1F
100
AcDbEntity
  8
_U+30EC_U+30A4_U+30E4_U+30FC 1
 62
     7
420
 16777215
370
     9
100
AcDb2dPolyline
 66
     1
 10
0.0
 20
0.0
 30
0.0
  0
VERTEX
  5
75
330
74
100
AcDbEntity
  8
_U+30EC_U+30A4_U+30E4_U+30FC 1
 62
     7
420
 16777215
370
     9
100
AcDbVertex
100
AcDb2dVertex
 10
106.600198947069
 20
-119.6643741367507
 30
0.0
  0
VERTEX
  5
76
330
74
100
AcDbEntity
  8
_U+30EC_U+30A4_U+30E4_U+30FC 1
 62
     7
420
 16777215
370
     9
100
AcDbVertex
100
AcDb2dVertex
 10
106.600198947069
 20
-124.4344235800025
 30
0.0
  0
SEQEND
  5
77
330
74
100
AcDbEntity
  8
_U+30EC_U+30A4_U+30E4_U+30FC 1
 62
     7
420
 16777215
370
     9
  0
POLYLINE
  5
78
330
1F
100
AcDbEntity
  8
_U+30EC_U+30A4_U+30E4_U+30FC 1
 62
     7
420
 16777215
370
     9
100
AcDb2dPolyline
 66
     1
 10
0.0
 20
0.0
 30
0.0
  0
VERTEX
  5
79
330
78
100
AcDbEntity
  8
_U+30EC_U+30A4_U+30E4_U+30FC 1
 62
     7
420
 16777215
370
     9
100
AcDbVertex
100
AcDb2dVertex
 10
105.139840095437
 20
-123.4346866358081
 30
0.0
  0
VERTEX
  5
7A
330
78
100
AcDbEntity
  8
_U+30EC_U+30A4_U+30E4_U+30FC 1
 62
     7
420
 16777215
370
     9
100
AcDbVertex
100
AcDb2dVertex
 10
107.6003239215537
 20
-123.4346866358081
 30
0.0
  0
SEQEND
  5
7B
330
78
100
AcDbEntity
  8
_U+30EC_U+30A4_U+30E4_U+30FC 1
 62
     7
420
 16777215
370
     9
  0
POLYLINE
  5
7C
330
1F
100
AcDbEntity
  8
_U+30EC_U+30A4_U+30E4_U+30FC 1
 62
     7
420
 16777215
370
     9
100
AcDb2dPolyline
 66
     1
 10
0.0
 20
0.0
 30
0.0
  0
VERTEX
  5
7D
330
7C
100
AcDbEntity
  8
_U+30EC_U+30A4_U+30E4_U+30FC 1
 62
     7
420
 16777215
370
     9
100
AcDbVertex
100
AcDb2dVertex
 10
105.139840095437
 20
-124.4344235800025
 30
0.0
  0
VERTEX
  5
7E
330
7C
100
AcDbEntity
  8
_U+30EC_U+30A4_U+30E4_U+30FC 1
 62
     7
420
 16777215
370
     9
100
AcDbVertex
100
AcDb2dVertex
 10
107.6003239215537
 20
-124.4344235800025
 30
0.0
  0
SEQEND
  5
7F
330
7C
100
AcDbEntity
  8
_U+30EC_U+30A4_U+30E4_U+30FC 1
 62
     7
420
 16777215
370
     9
  0
INSERT
  5
81
330
1F
100
AcDbEntity
  8
_U+30EC_U+30A4_U+30E4_U+30FC 1
100
AcDbBlockReference
  2
block 3
 10
0.0
 20
0.0
 30
0.0
  0
POLYLINE
  5
86
330
1F
100
AcDbEntity
  8
_U+30EC_U+30A4_U+30E4_U+30FC 1
 62
     7
420
 16777215
370
     9
100
AcDb2dPolyline
 66
     1
 10
0.0
 20
0.0
 30
0.0
  0
VERTEX
  5
87
330
86
100
AcDbEntity
  8
_U+30EC_U+30A4_U+30E4_U+30FC 1
 62
     7
420
 16777215
370
     9
100
AcDbVertex
100
AcDb2dVertex
 10
106.600198947069
 20
-135.9548405215667
 30
0.0
  0
VERTEX
  5
88
330
86
100
AcDbEntity
  8
_U+30EC_U+30A4_U+30E4_U+30FC 1
 62
     7
420
 16777215
370
     9
100
AcDbVertex
100
AcDb2dVertex
 10
106.600198947069
 20
-132.9548535778724
 30
0.0
  0
SEQEND
  5
89
330
86
100
AcDbEntity
  8
_U+30EC_U+30A4_U+30E4_U+30FC 1
 62
     7
420
 16777215
370
     9
  0
POLYLINE
  5
8A
330
1F
100
AcDbEntity
  8
_U+30EC_U+30A4_U+30E4_U+30FC 1
 62
     7
420
 16777215
370
     9
100
AcDb2dPolyline
 66
     1
 10
0.0
 20
0.0
 30
0.0
  0
VERTEX
  5
8B
330
8A
100
AcDbEntity
  8
_U+30EC_U+30A4_U+30E4_U+30FC 1
 62
     7
420
 16777215
370
     9
100
AcDbVertex
100
AcDb2dVertex
 10
92.14043792707936
 20
-135.9548405215667
 30
0.0
  0
VERTEX
  5
8C
330
8A
100
AcDbEntity
  8
_U+30EC_U+30A4_U+30E4_U+30FC 1
 62
     7
420
 16777215
370
     9
100
AcDbVertex
100
AcDb2dVertex
 10
107.6003239215537
 20
-135.9548405215667
 30
0.0
  0
SEQEND
  5
8D
330
8A
100
AcDbEntity
  8
_U+30EC_U+30A4_U+30E4_U+30FC 1
 62
     7
420
 16777215
370
     9
  0
INSERT
  5
8F
330
1F
100
AcDbEntity
  8
_U+30EC_U+30A4_U+30E4_U+30FC 1
100
AcDbBlockReference
  2
block 4
 10
0.0
 20
0.0
 30
0.0
  0
POLYLINE
  5
94
330
1F
100
AcDbEntity
  8
_U+30EC_U+30A4_U+30E4_U+30FC 1
 62
     7
420
 16777215
370
     9
100
AcDb2dPolyline
 66
     1
 10
0.0
 20
0.0
 30
0.0
  0
VERTEX
  5
95
330
94
100
AcDbEntity
  8
_U+30EC_U+30A4_U+30E4_U+30FC 1
 62
     7
420
 16777215
370
     9
100
AcDbVertex
100
AcDb2dVertex
 10
74.59976281902371
 20
-139.9545996872336
 30
0.0
  0
VERTEX
  5
96
330
94
100
AcDbEntity
  8
_U+30EC_U+30A4_U+30E4_U+30FC 1
 62
     7
420
 16777215
370
     9
100
AcDbVertex
100
AcDb2dVertex
 10
84.60016589722551
 20
-139.9545996872336
 30
0.0
  0
SEQEND
  5
97
330
94
100
AcDbEntity
  8
_U+30EC_U+30A4_U+30E4_U+30FC 1
 62
     7
420
 16777215
370
     9
  0
POLYLINE
  5
98
330
1F
100
AcDbEntity
  8
_U+30EC_U+30A4_U+30E4_U+30FC 1
 62
     7
420
 16777215
370
     9
100
AcDb2dPolyline
 66
     1
 10
0.0
 20
0.0
 30
0.0
  0
VERTEX
  5
99
330
98
100
AcDbEntity
  8
_U+30EC_U+30A4_U+30E4_U+30FC 1
 62
     7
420
 16777215
370
     9
100
AcDbVertex
100
AcDb2dVertex
 10
74.59976281902371
 20
-126.9548796904834
 30
0.0
  0
VERTEX
  5
9A
330
98
100
AcDbEntity
  8
_U+30EC_U+30A4_U+30E4_U+30FC 1
 62
     7
420
 16777215
370
     9
100
AcDbVertex
100
AcDb2dVertex
 10
74.59976281902371
 20
-140.9550421869835
 30
0.0
  0
SEQEND
  5
9B
330
98
100
AcDbEntity
  8
_U+30EC_U+30A4_U+30E4_U+30FC 1
 62
     7
420
 16777215
370
     9
  0
POLYLINE
  5
9C
330
1F
100
AcDbEntity
  8
_U+30EC_U+30A4_U+30E4_U+30FC 1
 62
     7
420
 16777215
370
     9
100
AcDb2dPolyline
 66
     1
 10
0.0
 20
0.0
 30
0.0
  0
VERTEX
  5
9D
330
9C
100
AcDbEntity
  8
_U+30EC_U+30A4_U+30E4_U+30FC 1
 62
     7
420
 16777215
370
     9
100
AcDbVertex
100
AcDb2dVertex
 10
84.60016589722551
 20
-138.4945582987099
 30
0.0
  0
VERTEX
  5
9E
330
9C
100
AcDbEntity
  8
_U+30EC_U+30A4_U+30E4_U+30FC 1
 62
     7
420
 16777215
370
     9
100
AcDbVertex
100
AcDb2dVertex
 10
84.60016589722551
 20
-140.9550421869835
 30
0.0
  0
SEQEND
  5
9F
330
9C
100
AcDbEntity
  8
_U+30EC_U+30A4_U+30E4_U+30FC 1
 62
     7
420
 16777215
370
     9
  0
INSERT
  5
A1
330
1F
100
AcDbEntity
  8
_U+30EC_U+30A4_U+30E4_U+30FC 1
100
AcDbBlockReference
  2
block 5
 10
0.0
 20
0.0
 30
0.0
  0
POLYLINE
  5
A9
330
1F
100
AcDbEntity
  8
_U+30EC_U+30A4_U+30E4_U+30FC 1
 62
     7
420
 16777215
370
     9
100
AcDb2dPolyline
 66
     1
 10
0.0
 20
0.0
 30
0.0
  0
VERTEX
  5
AA
330
A9
100
AcDbEntity
  8
_U+30EC_U+30A4_U+30E4_U+30FC 1
 62
     7
420
 16777215
370
     9
100
AcDbVertex
100
AcDb2dVertex
 10
84.60016589722551
 20
-139.9545996872336
 30
0.0
  0
VERTEX
  5
AB
330
A9
100
AcDbEntity
  8
_U+30EC_U+30A4_U+30E4_U+30FC 1
 62
     7
420
 16777215
370
     9
100
AcDbVertex
100
AcDb2dVertex
 10
90.60013963304232
 20
-139.9545996872336
 30
0.0
  0
SEQEND
  5
AC
330
A9
100
AcDbEntity
  8
_U+30EC_U+30A4_U+30E4_U+30FC 1
 62
     7
420
 16777215
370
     9
  0
POLYLINE
  5
AD
330
1F
100
AcDbEntity
  8
_U+30EC_U+30A4_U+30E4_U+30FC 1
 62
     7
420
 16777215
370
     9
100
AcDb2dPolyline
 66
     1
 10
0.0
 20
0.0
 30
0.0
  0
VERTEX
  5
AE
330
AD
100
AcDbEntity
  8
_U+30EC_U+30A4_U+30E4_U+30FC 1
 62
     7
420
 16777215
370
     9
100
AcDbVertex
100
AcDb2dVertex
 10
90.60013963304232
 20
-138.4945582987099
 30
0.0
  0
VERTEX
  5
AF
330
AD
100
AcDbEntity
  8
_U+30EC_U+30A4_U+30E4_U+30FC 1
 62
     7
420
 16777215
370
     9
100
AcDbVertex
100
AcDb2dVertex
 10
90.60013963304232
 20
-140.9550421869835
 30
0.0
  0
SEQEND
  5
B0
330
AD
100
AcDbEntity
  8
_U+30EC_U+30A4_U+30E4_U+30FC 1
 62
     7
420
 16777215
370
     9
  0
POLYLINE
  5
B1
330
1F
100
AcDbEntity
  8
_U+30EC_U+30A4_U+30E4_U+30FC 1
 62
     7
420
 16777215
370
     9
100
AcDb2dPolyline
 66
     1
 10
0.0
 20
0.0
 30
0.0
  0
VERTEX
  5
B2
330
B1
100
AcDbEntity
  8
_U+30EC_U+30A4_U+30E4_U+30FC 1
 62
     7
420
 16777215
370
     9
100
AcDbVertex
100
AcDb2dVertex
 10
74.59976281902371
 20
-119.434221914586
 30
0.0
  0
VERTEX
  5
B3
330
B1
100
AcDbEntity
  8
_U+30EC_U+30A4_U+30E4_U+30FC 1
 62
     7
420
 16777215
370
     9
100
AcDbVertex
100
AcDb2dVertex
 10
102.5997721965725
 20
-119.434221914586
 30
0.0
  0
SEQEND
  5
B4
330
B1
100
AcDbEntity
  8
_U+30EC_U+30A4_U+30E4_U+30FC 1
 62
     7
420
 16777215
370
     9
  0
POLYLINE
  5
B5
330
1F
100
AcDbEntity
  8
_U+30EC_U+30A4_U+30E4_U+30FC 1
 62
     7
420
 16777215
370
     9
100
AcDb2dPolyline
 66
     1
 10
0.0
 20
0.0
 30
0.0
  0
VERTEX
  5
B6
330
B5
100
AcDbEntity
  8
_U+30EC_U+30A4_U+30E4_U+30FC 1
 62
     7
420
 16777215
370
     9
100
AcDbVertex
100
AcDb2dVertex
 10
74.59976281902371
 20
-120.8942633031097
 30
0.0
  0
VERTEX
  5
B7
330
B5
100
AcDbEntity
  8
_U+30EC_U+30A4_U+30E4_U+30FC 1
 62
     7
420
 16777215
370
     9
100
AcDbVertex
100
AcDb2dVertex
 10
74.59976281902371
 20
-118.4344496926135
 30
0.0
  0
SEQEND
  5
B8
330
B5
100
AcDbEntity
  8
_U+30EC_U+30A4_U+30E4_U+30FC 1
 62
     7
420
 16777215
370
     9
  0
POLYLINE
  5
B9
330
1F
100
AcDbEntity
  8
_U+30EC_U+30A4_U+30E4_U+30FC 1
 62
     7
420
 16777215
370
     9
100
AcDb2dPolyline
 66
     1
 10
0.0
 20
0.0
 30
0.0
  0
VERTEX
  5
BA
330
B9
100
AcDbEntity
  8
_U+30EC_U+30A4_U+30E4_U+30FC 1
 62
     7
420
 16777215
370
     9
100
AcDbVertex
100
AcDb2dVertex
 10
102.5997721965725
 20
-120.8942633031097
 30
0.0
  0
VERTEX
  5
BB
330
B9
100
AcDbEntity
  8
_U+30EC_U+30A4_U+30E4_U+30FC 1
 62
     7
420
 16777215
370
     9
100
AcDbVertex
100
AcDb2dVertex
 10
102.5997721965725
 20
-118.4344496926135
 30
0.0
  0
SEQEND
  5
BC
330
B9
100
AcDbEntity
  8
_U+30EC_U+30A4_U+30E4_U+30FC 1
 62
     7
420
 16777215
370
     9
  0
INSERT
  5
BE
330
1F
100
AcDbEntity
  8
_U+30EC_U+30A4_U+30E4_U+30FC 1
100
AcDbBlockReference
  2
block 6
 10
0.0
 20
0.0
 30
0.0
  0
POLYLINE
  5
C7
330
1F
100
AcDbEntity
  8
_U+30EC_U+30A4_U+30E4_U+30FC 1
 62
     7
420
 16777215
370
     9
100
AcDb2dPolyline
 66
     1
 10
0.0
 20
0.0
 30
0.0
  0
VERTEX
  5
C8
330
C7
100
AcDbEntity
  8
_U+30EC_U+30A4_U+30E4_U+30FC 1
 62
     7
420
 16777215
370
     9
100
AcDbVertex
100
AcDb2dVertex
 10
106.600198947069
 20
-124.4344235800025
 30
0.0
  0
VERTEX
  5
C9
330
C7
100
AcDbEntity
  8
_U+30EC_U+30A4_U+30E4_U+30FC 1
 62
     7
420
 16777215
370
     9
100
AcDbVertex
100
AcDb2dVertex
 10
106.600198947069
 20
-132.9548535778724
 30
0.0
  0
SEQEND
  5
CA
330
C7
100
AcDbEntity
  8
_U+30EC_U+30A4_U+30E4_U+30FC 1
 62
     7
420
 16777215
370
     9
  0
POLYLINE
  5
CB
330
1F
100
AcDbEntity
  8
_U+30EC_U+30A4_U+30E4_U+30FC 1
 62
     7
420
 16777215
370
     9
100
AcDb2dPolyline
 66
     1
 10
0.0
 20
0.0
 30
0.0
  0
VERTEX
  5
CC
330
CB
100
AcDbEntity
  8
_U+30EC_U+30A4_U+30E4_U+30FC 1
 62
     7
420
 16777215
370
     9
100
AcDbVertex
100
AcDb2dVertex
 10
92.14043792707936
 20
-132.9548535778724
 30
0.0
  0
VERTEX
  5
CD
330
CB
100
AcDbEntity
  8
_U+30EC_U+30A4_U+30E4_U+30FC 1
 62
     7
420
 16777215
370
     9
100
AcDbVertex
100
AcDb2dVertex
 10
107.6003239215537
 20
-132.9548535778724
 30
0.0
  0
SEQEND
  5
CE
330
CB
100
AcDbEntity
  8
_U+30EC_U+30A4_U+30E4_U+30FC 1
 62
     7
420
 16777215
370
     9
  0
INSERT
  5
D0
330
1F
100
AcDbEntity
  8
_U+30EC_U+30A4_U+30E4_U+30FC 1
100
AcDbBlockReference
  2
block 7
 10
0.0
 20
0.0
 30
0.0
  0
ENDSEC
  0
SECTION
  2
OBJECTS
  0
DICTIONARY
  5
C
330
0
100
AcDbDictionary
281
     1
  3
ACAD_GROUP
350
D
  3
ACAD_LAYOUT
350
1A
  3
ACAD_MATERIAL
350
3B
  3
ACAD_MLEADERSTYLE
350
E2
  3
ACAD_MLINESTYLE
350
17
  3
ACAD_PLOTSETTINGS
350
19
  3
ACAD_PLOTSTYLENAME
350
E
  3
ACAD_TABLESTYLE
350
E1
  3
ACAD_VISUALSTYLE
350
2A
  0
SUN
  5
3F
330
29
100
AcDbSun
 90
        1
290
     0
 63
     7
421
 16777215
 40
1.0
291
     1
 91
  2455826
 92
 54000000
292
     0
 70
     2
 71
   256
280
     1
  0
DICTIONARY
  5
D
102
{ACAD_REACTORS
330
C
102
}
330
C
100
AcDbDictionary
281
     1
  0
DICTIONARY
  5
1A
102
{ACAD_REACTORS
330
C
102
}
330
C
100
AcDbDictionary
281
     1
  3
Layout1
350
1E
  3
Layout2
350
26
  3
Model
350
22
  0
DICTIONARY
  5
3B
102
{ACAD_REACTORS
330
C
102
}
330
C
100
AcDbDictionary
281
     1
  3
ByBlock
350
3D
  3
ByLayer
350
3C
  3
Global
350
3E
  0
DICTIONARY
  5
E2
102
{ACAD_REACTORS
330
C
102
}
330
C
100
AcDbDictionary
281
     1
  0
DICTIONARY
  5
17
102
{ACAD_REACTORS
330
C
102
}
330
C
100
AcDbDictionary
281
     1
  3
Standard
350
18
  0
DICTIONARY
  5
19
102
{ACAD_REACTORS
330
C
102
}
330
C
100
AcDbDictionary
281
     1
  0
ACDBDICTIONARYWDFLT
  5
E
102
{ACAD_REACTORS
330
C
102
}
330
C
100
AcDbDictionary
281
     1
  3
Normal
350
F
100
AcDbDictionaryWithDefault
340
F
  0
DICTIONARY
  5
E1
102
{ACAD_REACTORS
330
C
102
}
330
C
100
AcDbDictionary
281
     1
  0
DICTIONARY
  5
2A
102
{ACAD_REACTORS
330
C
102
}
330
C
100
AcDbDictionary
281
     1
  3
2dWireframe
350
2F
  3
3D Hidden
350
31
  3
3dWireframe
350
30
  3
Basic
350
32
  3
Brighten
350
36
  3
ColorChange
350
3A
  3
Conceptual
350
34
  3
Dim
350
35
  3
Facepattern
350
39
  3
Flat
350
2B
  3
FlatWithEdges
350
2C
  3
Gouraud
350
2D
  3
GouraudWithEdges
350
2E
  3
Linepattern
350
38
  3
Realistic
350
33
  3
Thicken
350
37
  0
LAYOUT
  5
1E
102
{ACAD_REACTORS
330
1A
102
}
330
1A
100
AcDbPlotSettings
  1

  2
none_device
  4

  6

 40
0.0
 41
0.0
 42
0.0
 43
0.0
 44
0.0
 45
0.0
 46
0.0
 47
0.0
 48
0.0
 49
0.0
140
0.0
141
0.0
142
1.0
143
1.0
 70
   688
 72
     0
 73
     0
 74
     5
  7

 75
    16
 76
     0
 77
     2
 78
   300
147
1.0
148
0.0
149
0.0
100
AcDbLayout
  1
Layout1
 70
     1
 71
     1
 10
0.0
 20
0.0
 11
12.0
 21
9.0
 12
0.0
 22
0.0
 32
0.0
 14
1.000000000000000E+20
 24
1.000000000000000E+20
 34
1.000000000000000E+20
 15
-1.000000000000000E+20
 25
-1.000000000000000E+20
 35
-1.000000000000000E+20
146
0.0
 13
0.0
 23
0.0
 33
0.0
 16
1.0
 26
0.0
 36
0.0
 17
0.0
 27
1.0
 37
0.0
 76
     0
330
1B
  0
LAYOUT
  5
26
102
{ACAD_REACTORS
330
1A
102
}
330
1A
100
AcDbPlotSettings
  1

  2
none_device
  4

  6

 40
0.0
 41
0.0
 42
0.0
 43
0.0
 44
0.0
 45
0.0
 46
0.0
 47
0.0
 48
0.0
 49
0.0
140
0.0
141
0.0
142
1.0
143
1.0
 70
   688
 72
     0
 73
     0
 74
     5
  7

 75
    16
 76
     0
 77
     2
 78
   300
147
1.0
148
0.0
149
0.0
100
AcDbLayout
  1
Layout2
 70
     1
 71
     2
 10
0.0
 20
0.0
 11
0.0
 21
0.0
 12
0.0
 22
0.0
 32
0.0
 14
0.0
 24
0.0
 34
0.0
 15
0.0
 25
0.0
 35
0.0
146
0.0
 13
0.0
 23
0.0
 33
0.0
 16
1.0
 26
0.0
 36
0.0
 17
0.0
 27
1.0
 37
0.0
 76
     0
330
23
  0
LAYOUT
  5
22
102
{ACAD_REACTORS
330
1A
102
}
330
1A
100
AcDbPlotSettings
  1

  2
none_device
  4

  6

 40
0.0
 41
0.0
 42
0.0
 43
0.0
 44
0.0
 45
0.0
 46
0.0
 47
0.0
 48
0.0
 49
0.0
140
0.0
141
0.0
142
1.0
143
1.0
 70
  1712
 72
     0
 73
     0
 74
     0
  7

 75
     0
 76
     0
 77
     2
 78
   300
147
1.0
148
0.0
149
0.0
100
AcDbLayout
  1
Model
 70
     1
 71
     0
 10
0.0
 20
0.0
 11
12.0
 21
9.0
 12
0.0
 22
0.0
 32
0.0
 14
1.000000000000000E+20
 24
1.000000000000000E+20
 34
1.000000000000000E+20
 15
-1.000000000000000E+20
 25
-1.000000000000000E+20
 35
-1.000000000000000E+20
146
0.0
 13
0.0
 23
0.0
 33
0.0
 16
1.0
 26
0.0
 36
0.0
 17
0.0
 27
1.0
 37
0.0
 76
     0
330
1F
331
29
  0
MATERIAL
  5
3D
102
{ACAD_REACTORS
330
3B
102
}
330
3B
100
AcDbMaterial
  1
ByBlock
 72
     1
 94
      127
  0
MATERIAL
  5
3C
102
{ACAD_REACTORS
330
3B
102
}
330
3B
100
AcDbMaterial
  1
ByLayer
 72
     1
 94
      127
  0
MATERIAL
  5
3E
102
{ACAD_REACTORS
330
3B
102
}
330
3B
100
AcDbMaterial
  1
Global
 72
     1
 94
      127
  0
MLINESTYLE
  5
18
102
{ACAD_REACTORS
330
17
102
}
330
17
100
AcDbMlineStyle
  2
Standard
 70
     0
  3

 62
   256
 51
90.0
 52
90.0
 71
     2
 49
0.5
 62
   256
  6
BYLAYER
 49
-0.5
 62
   256
  6
BYLAYER
  0
ACDBPLACEHOLDER
  5
F
102
{ACAD_REACTORS
330
E
102
}
330
E
  0
VISUALSTYLE
  5
2F
102
{ACAD_REACTORS
330
2A
102
}
330
2A
100
AcDbVisualStyle
  2
2dWireframe
 70
     4
177
     2
291
     0
 71
     0
176
     1
 72
     2
176
     1
 73
     0
176
     1
 90
        0
176
     1
 40
-0.6
176
     1
 41
-30.0
176
     1
 62
     5
 63
     7
421
 16777215
176
     1
 74
     1
176
     1
 91
        4
176
     1
 64
     7
176
     1
 65
   257
176
     1
 75
     1
176
     1
175
     1
176
     1
 42
1.0
176
     1
 92
        0
176
     1
 66
   257
176
     1
 43
1.0
176
     1
 76
     1
176
     1
 77
     6
176
     1
 78
     2
176
     1
 67
     7
176
     1
 79
     5
176
     1
170
     0
176
     1
171
     0
176
     1
290
     0
176
     1
 93
        1
176
     1
 44
0.0
176
     1
173
     0
176
     1
  0
VISUALSTYLE
  5
31
102
{ACAD_REACTORS
330
2A
102
}
330
2A
100
AcDbVisualStyle
  2
3D Hidden
 70
     6
177
     2
291
     0
 71
     1
176
     1
 72
     2
176
     1
 73
     2
176
     1
 90
        0
176
     1
 40
-0.6
176
     1
 41
-30.0
176
     1
 62
     5
 63
     7
421
 16777215
176
     1
 74
     2
176
     1
 91
        2
176
     1
 64
     7
176
     1
 65
   257
176
     1
 75
     2
176
     1
175
     1
176
     1
 42
40.0
176
     1
 92
        0
176
     1
 66
   257
176
     1
 43
1.0
176
     1
 76
     1
176
     1
 77
     6
176
     1
 78
     2
176
     1
 67
     7
176
     1
 79
     3
176
     1
170
     0
176
     1
171
     0
176
     1
290
     0
176
     1
 93
        1
176
     1
 44
0.0
176
     1
173
     0
176
     1
  0
VISUALSTYLE
  5
30
102
{ACAD_REACTORS
330
2A
102
}
330
2A
100
AcDbVisualStyle
  2
3dWireframe
 70
     5
177
     2
291
     0
 71
     0
176
     1
 72
     2
176
     1
 73
     0
176
     1
 90
        0
176
     1
 40
-0.6
176
     1
 41
-30.0
176
     1
 62
     5
 63
     7
421
 16777215
176
     1
 74
     1
176
     1
 91
        4
176
     1
 64
     7
176
     1
 65
   257
176
     1
 75
     1
176
     1
175
     1
176
     1
 42
1.0
176
     1
 92
        0
176
     1
 66
   257
176
     1
 43
1.0
176
     1
 76
     1
176
     1
 77
     6
176
     1
 78
     2
176
     1
 67
     7
176
     1
 79
     5
176
     1
170
     0
176
     1
171
     0
176
     1
290
     0
176
     1
 93
        1
176
     1
 44
0.0
176
     1
173
     0
176
     1
  0
VISUALSTYLE
  5
32
102
{ACAD_REACTORS
330
2A
102
}
330
2A
100
AcDbVisualStyle
  2
Basic
 70
     7
177
     2
291
     1
 71
     1
176
     1
 72
     0
176
     1
 73
     1
176
     1
 90
        0
176
     1
 40
-0.6
176
     1
 41
-30.0
176
     1
 62
     5
 63
     7
421
 16777215
176
     1
 74
     0
176
     1
 91
        4
176
     1
 64
     7
176
     1
 65
   257
176
     1
 75
     1
176
     1
175
     1
176
     1
 42
1.0
176
     1
 92
        8
176
     1
 66
     7
176
     1
 43
1.0
176
     1
 76
     1
176
     1
 77
     6
176
     1
 78
     2
176
     1
 67
     7
176
     1
 79
     5
176
     1
170
     0
176
     1
171
     0
176
     1
290
     0
176
     1
 93
        1
176
     1
 44
0.0
176
     1
173
     0
176
     1
  0
VISUALSTYLE
  5
36
102
{ACAD_REACTORS
330
2A
102
}
330
2A
100
AcDbVisualStyle
  2
Brighten
 70
    12
177
     2
291
     1
 71
     2
176
     1
 72
     2
176
     1
 73
     0
176
     1
 90
        0
176
     1
 40
-0.6
176
     1
 41
-30.0
176
     1
 62
     5
 63
     7
421
 16777215
176
     1
 74
     1
176
     1
 91
        4
176
     1
 64
     7
176
     1
 65
   257
176
     1
 75
     1
176
     1
175
     1
176
     1
 42
1.0
176
     1
 92
        8
176
     1
 66
     7
176
     1
 43
1.0
176
     1
 76
     1
176
     1
 77
     6
176
     1
 78
     2
176
     1
 67
     7
176
     1
 79
     5
176
     1
170
     0
176
     1
171
     0
176
     1
290
     0
176
     1
 93
        1
176
     1
 44
50.0
176
     1
173
     0
176
     1
  0
VISUALSTYLE
  5
3A
102
{ACAD_REACTORS
330
2A
102
}
330
2A
100
AcDbVisualStyle
  2
ColorChange
 70
    16
177
     2
291
     1
 71
     2
176
     1
 72
     2
176
     1
 73
     3
176
     1
 90
        0
176
     1
 40
-0.6
176
     1
 41
-30.0
176
     1
 62
     5
 63
     8
421
  8421504
176
     1
 74
     1
176
     1
 91
        4
176
     1
 64
     7
176
     1
 65
   257
176
     1
 75
     1
176
     1
175
     1
176
     1
 42
1.0
176
     1
 92
        8
176
     1
 66
     8
424
  8421504
176
     1
 43
1.0
176
     1
 76
     1
176
     1
 77
     6
176
     1
 78
     2
176
     1
 67
     7
176
     1
 79
     5
176
     1
170
     0
176
     1
171
     0
176
     1
290
     0
176
     1
 93
        1
176
     1
 44
0.0
176
     1
173
     0
176
     1
  0
VISUALSTYLE
  5
34
102
{ACAD_REACTORS
330
2A
102
}
330
2A
100
AcDbVisualStyle
  2
Conceptual
 70
     9
177
     2
291
     0
 71
     3
176
     1
 72
     2
176
     1
 73
     0
176
     1
 90
        0
176
     1
 40
-0.6
176
     1
 41
-30.0
176
     1
 62
     5
 63
     7
421
 16777215
176
     1
 74
     2
176
     1
 91
        2
176
     1
 64
     7
176
     1
 65
   257
176
     1
 75
     1
176
     1
175
     1
176
     1
 42
40.0
176
     1
 92
        8
176
     1
 66
     7
176
     1
 43
1.0
176
     1
 76
     1
176
     1
 77
     6
176
     1
 78
     2
176
     1
 67
     7
176
     1
 79
     3
176
     1
170
     0
176
     1
171
     0
176
     1
290
     0
176
     1
 93
        1
176
     1
 44
0.0
176
     1
173
     0
176
     1
  0
VISUALSTYLE
  5
35
102
{ACAD_REACTORS
330
2A
102
}
330
2A
100
AcDbVisualStyle
  2
Dim
 70
    11
177
     2
291
     1
 71
     2
176
     1
 72
     2
176
     1
 73
     0
176
     1
 90
        0
176
     1
 40
-0.6
176
     1
 41
-30.0
176
     1
 62
     5
 63
     7
421
 16777215
176
     1
 74
     1
176
     1
 91
        4
176
     1
 64
     7
176
     1
 65
   257
176
     1
 75
     1
176
     1
175
     1
176
     1
 42
1.0
176
     1
 92
        8
176
     1
 66
     7
176
     1
 43
1.0
176
     1
 76
     1
176
     1
 77
     6
176
     1
 78
     2
176
     1
 67
     7
176
     1
 79
     5
176
     1
170
     0
176
     1
171
     0
176
     1
290
     0
176
     1
 93
        1
176
     1
 44
-50.0
176
     1
173
     0
176
     1
  0
VISUALSTYLE
  5
39
102
{ACAD_REACTORS
330
2A
102
}
330
2A
100
AcDbVisualStyle
  2
Facepattern
 70
    15
177
     2
291
     1
 71
     2
176
     1
 72
     2
176
     1
 73
     0
176
     1
 90
        0
176
     1
 40
-0.6
176
     1
 41
-30.0
176
     1
 62
     5
 63
     7
421
 16777215
176
     1
 74
     1
176
     1
 91
        4
176
     1
 64
     7
176
     1
 65
   257
176
     1
 75
     1
176
     1
175
     1
176
     1
 42
1.0
176
     1
 92
        8
176
     1
 66
     7
176
     1
 43
1.0
176
     1
 76
     1
176
     1
 77
     6
176
     1
 78
     2
176
     1
 67
     7
176
     1
 79
     5
176
     1
170
     0
176
     1
171
     0
176
     1
290
     0
176
     1
 93
        1
176
     1
 44
0.0
176
     1
173
     0
176
     1
  0
VISUALSTYLE
  5
2B
102
{ACAD_REACTORS
330
2A
102
}
330
2A
100
AcDbVisualStyle
  2
Flat
 70
     0
177
     2
291
     1
 71
     2
176
     1
 72
     1
176
     1
 73
     1
176
     1
 90
        2
176
     1
 40
-0.6
176
     1
 41
30.0
176
     1
 62
     5
 63
     7
421
 16777215
176
     1
 74
     0
176
     1
 91
        4
176
     1
 64
     7
176
     1
 65
   257
176
     1
 75
     1
176
     1
175
     1
176
     1
 42
1.0
176
     1
 92
        8
176
     1
 66
     7
176
     1
 43
1.0
176
     1
 76
     1
176
     1
 77
     6
176
     1
 78
     2
176
     1
 67
     7
176
     1
 79
     5
176
     1
170
     0
176
     1
171
     0
176
     1
290
     0
176
     1
 93
       13
176
     1
 44
0.0
176
     1
173
     0
176
     1
  0
VISUALSTYLE
  5
2C
102
{ACAD_REACTORS
330
2A
102
}
330
2A
100
AcDbVisualStyle
  2
FlatWithEdges
 70
     1
177
     2
291
     1
 71
     2
176
     1
 72
     1
176
     1
 73
     1
176
     1
 90
        2
176
     1
 40
-0.6
176
     1
 41
30.0
176
     1
 62
     5
 63
     7
421
 16777215
176
     1
 74
     1
176
     1
 91
        4
176
     1
 64
     7
176
     1
 65
   257
176
     1
 75
     1
176
     1
175
     1
176
     1
 42
1.0
176
     1
 92
        0
176
     1
 66
   257
176
     1
 43
1.0
176
     1
 76
     1
176
     1
 77
     6
176
     1
 78
     2
176
     1
 67
     7
176
     1
 79
     5
176
     1
170
     0
176
     1
171
     0
176
     1
290
     0
176
     1
 93
       13
176
     1
 44
0.0
176
     1
173
     0
176
     1
  0
VISUALSTYLE
  5
2D
102
{ACAD_REACTORS
330
2A
102
}
330
2A
100
AcDbVisualStyle
  2
Gouraud
 70
     2
177
     2
291
     1
 71
     2
176
     1
 72
     2
176
     1
 73
     1
176
     1
 90
        2
176
     1
 40
-0.6
176
     1
 41
30.0
176
     1
 62
     5
 63
     7
421
 16777215
176
     1
 74
     0
176
     1
 91
        4
176
     1
 64
     7
176
     1
 65
   257
176
     1
 75
     1
176
     1
175
     1
176
     1
 42
1.0
176
     1
 92
        0
176
     1
 66
     7
176
     1
 43
1.0
176
     1
 76
     1
176
     1
 77
     6
176
     1
 78
     2
176
     1
 67
     7
176
     1
 79
     5
176
     1
170
     0
176
     1
171
     0
176
     1
290
     0
176
     1
 93
       13
176
     1
 44
0.0
176
     1
173
     0
176
     1
  0
VISUALSTYLE
  5
2E
102
{ACAD_REACTORS
330
2A
102
}
330
2A
100
AcDbVisualStyle
  2
GouraudWithEdges
 70
     3
177
     2
291
     1
 71
     2
176
     1
 72
     2
176
     1
 73
     1
176
     1
 90
        2
176
     1
 40
-0.6
176
     1
 41
30.0
176
     1
 62
     5
 63
     7
421
 16777215
176
     1
 74
     1
176
     1
 91
        4
176
     1
 64
     7
176
     1
 65
   257
176
     1
 75
     1
176
     1
175
     1
176
     1
 42
1.0
176
     1
 92
        0
176
     1
 66
   257
176
     1
 43
1.0
176
     1
 76
     1
176
     1
 77
     6
176
     1
 78
     2
176
     1
 67
     7
176
     1
 79
     5
176
     1
170
     0
176
     1
171
     0
176
     1
290
     0
176
     1
 93
       13
176
     1
 44
0.0
176
     1
173
     0
176
     1
  0
VISUALSTYLE
  5
38
102
{ACAD_REACTORS
330
2A
102
}
330
2A
100
AcDbVisualStyle
  2
Linepattern
 70
    14
177
     2
291
     1
 71
     2
176
     1
 72
     2
176
     1
 73
     0
176
     1
 90
        0
176
     1
 40
-0.6
176
     1
 41
-30.0
176
     1
 62
     5
 63
     7
421
 16777215
176
     1
 74
     1
176
     1
 91
        4
176
     1
 64
     7
176
     1
 65
   257
176
     1
 75
     7
176
     1
175
     7
176
     1
 42
1.0
176
     1
 92
        8
176
     1
 66
     7
176
     1
 43
1.0
176
     1
 76
     1
176
     1
 77
     6
176
     1
 78
     2
176
     1
 67
     7
176
     1
 79
     5
176
     1
170
     0
176
     1
171
     0
176
     1
290
     0
176
     1
 93
        1
176
     1
 44
0.0
176
     1
173
     0
176
     1
  0
VISUALSTYLE
  5
33
102
{ACAD_REACTORS
330
2A
102
}
330
2A
100
AcDbVisualStyle
  2
Realistic
 70
     8
177
     2
291
     0
 71
     2
176
     1
 72
     2
176
     1
 73
     0
176
     1
 90
        0
176
     1
 40
-0.6
176
     1
 41
-30.0
176
     1
 62
     5
 63
     7
421
 16777215
176
     1
 74
     1
176
     1
 91
        0
176
     1
 64
     7
176
     1
 65
   257
176
     1
 75
     1
176
     1
175
     1
176
     1
 42
1.0
176
     1
 92
        8
176
     1
 66
     8
424
  7895160
176
     1
 43
1.0
176
     1
 76
     1
176
     1
 77
     6
176
     1
 78
     2
176
     1
 67
     7
176
     1
 79
     5
176
     1
170
     0
176
     1
171
     0
176
     1
290
     0
176
     1
 93
       13
176
     1
 44
0.0
176
     1
173
     0
176
     1
  0
VISUALSTYLE
  5
37
102
{ACAD_REACTORS
330
2A
102
}
330
2A
100
AcDbVisualStyle
  2
Thicken
 70
    13
177
     2
291
     1
 71
     2
176
     1
 72
     2
176
     1
 73
     0
176
     1
 90
        0
176
     1
 40
-0.6
176
     1
 41
-30.0
176
     1
 62
     5
 63
     7
421
 16777215
176
     1
 74
     1
176
     1
 91
        4
176
     1
 64
     7
176
     1
 65
   257
176
     1
 75
     1
176
     1
175
     1
176
     1
 42
1.0
176
     1
 92
       12
176
     1
 66
     7
176
     1
 43
1.0
176
     1
 76
     1
176
     1
 77
     6
176
     1
 78
     2
176
     1
 67
     7
176
     1
 79
     5
176
     1
170
     0
176
     1
171
     0
176
     1
290
     0
176
     1
 93
        1
176
     1
 44
0.0
176
     1
173
     0
176
     1
  0
ENDSEC
  0
EOF
