  0
SECTION
  2
HEADER
  9
$ACADVER
  1
AC1024
  9
$ACADMAINTVER
 70
     6
  9
$DWGCODEPAGE
  3
UNDEFINED
  9
$INSBASE
 10
0.0
 20
0.0
 30
0.0
  9
$EXTMIN
 10
1.000000000000000E+20
 20
1.000000000000000E+20
 30
1.000000000000000E+20
  9
$EXTMAX
 10
-1.000000000000000E+20
 20
-1.000000000000000E+20
 30
-1.000000000000000E+20
  9
$LIMMIN
 10
0.0
 20
0.0
  9
$LIMMAX
 10
12.0
 20
9.0
  9
$ORTHOMODE
 70
     0
  9
$REGENMODE
 70
     1
  9
$FILLMODE
 70
     1
  9
$QTEXTMODE
 70
     0
  9
$MIRRTEXT
 70
     1
  9
$LTSCALE
 40
1.0
  9
$ATTMODE
 70
     1
  9
$TEXTSIZE
 40
0.2
  9
$TRACEWID
 40
0.05
  9
$TEXTSTYLE
  7
Standard
  9
$CLAYER
  8
0
  9
$CELTYPE
  6
ByLayer
  9
$CECOLOR
 62
   256
  9
$CELTSCALE
 40
1.0
  9
$DISPSILH
 70
     0
  9
$DIMSCALE
 40
1.0
  9
$DIMASZ
 40
0.18
  9
$DIMEXO
 40
0.0625
  9
$DIMDLI
 40
0.38
  9
$DIMRND
 40
0.0
  9
$DIMDLE
 40
0.0
  9
$DIMEXE
 40
0.18
  9
$DIMTP
 40
0.0
  9
$DIMTM
 40
0.0
  9
$DIMTXT
 40
0.18
  9
$DIMCEN
 40
0.09
  9
$DIMTSZ
 40
0.0
  9
$DIMTOL
 70
     0
  9
$DIMLIM
 70
     0
  9
$DIMTIH
 70
     1
  9
$DIMTOH
 70
     1
  9
$DIMSE1
 70
     0
  9
$DIMSE2
 70
     0
  9
$DIMTAD
 70
     0
  9
$DIMZIN
 70
     0
  9
$DIMBLK
  1

  9
$DIMASO
 70
     1
  9
$DIMSHO
 70
     1
  9
$DIMPOST
  1

  9
$DIMAPOST
  1

  9
$DIMALT
 70
     0
  9
$DIMALTD
 70
     2
  9
$DIMALTF
 40
25.4
  9
$DIMLFAC
 40
1.0
  9
$DIMTOFL
 70
     0
  9
$DIMTVP
 40
0.0
  9
$DIMTIX
 70
     0
  9
$DIMSOXD
 70
     0
  9
$DIMSAH
 70
     0
  9
$DIMBLK1
  1

  9
$DIMBLK2
  1

  9
$DIMSTYLE
  2
Standard
  9
$DIMCLRD
 70
     0
  9
$DIMCLRE
 70
     0
  9
$DIMCLRT
 70
     0
  9
$DIMTFAC
 40
1.0
  9
$DIMGAP
 40
0.09
  9
$DIMJUST
 70
     0
  9
$DIMSD1
 70
     0
  9
$DIMSD2
 70
     0
  9
$DIMTOLJ
 70
     1
  9
$DIMTZIN
 70
     0
  9
$DIMALTZ
 70
     0
  9
$DIMALTTZ
 70
     0
  9
$DIMUPT
 70
     0
  9
$DIMDEC
 70
     4
  9
$DIMTDEC
 70
     4
  9
$DIMALTU
 70
     2
  9
$DIMALTTD
 70
     2
  9
$DIMTXSTY
  7
Standard
  9
$DIMAUNIT
 70
     0
  9
$DIMADEC
 70
     0
  9
$DIMALTRND
 40
0.0
  9
$DIMAZIN
 70
     0
  9
$DIMDSEP
 70
    46
  9
$DIMATFIT
 70
     3
  9
$DIMFRAC
 70
     0
  9
$DIMLDRBLK
  1

  9
$DIMLUNIT
 70
     2
  9
$DIMLWD
 70
    -2
  9
$DIMLWE
 70
    -2
  9
$DIMTMOVE
 70
     0
  9
$DIMFXL
 40
1.0
  9
$DIMFXLON
 70
     0
  9
$DIMJOGANG
 40
0.7853981633974483
  9
$DIMTFILL
 70
     0
  9
$DIMTFILLCLR
 70
     0
  9
$DIMARCSYM
 70
     0
  9
$DIMLTYPE
  6

  9
$DIMLTEX1
  6

  9
$DIMLTEX2
  6

  9
$DIMTXTDIRECTION
 70
     0
  9
$LUNITS
 70
     2
  9
$LUPREC
 70
     4
  9
$SKETCHINC
 40
0.1
  9
$FILLETRAD
 40
0.5
  9
$AUNITS
 70
     0
  9
$AUPREC
 70
     0
  9
$MENU
  1
.
  9
$ELEVATION
 40
0.0
  9
$PELEVATION
 40
0.0
  9
$THICKNESS
 40
0.0
  9
$LIMCHECK
 70
     0
  9
$CHAMFERA
 40
0.5
  9
$CHAMFERB
 40
0.5
  9
$CHAMFERC
 40
1.0
  9
$CHAMFERD
 40
0.0
  9
$SKPOLY
 70
     0
  9
$TDCREATE
 40
2457917.615578692
  9
$TDUCREATE
 40
2457917.240578704
  9
$TDUPDATE
 40
2457917.615578692
  9
$TDUUPDATE
 40
2457917.240578704
  9
$TDINDWG
 40
0.0000000116
  9
$TDUSRTIMER
 40
0.0000000116
  9
$USRTIMER
 70
     1
  9
$ANGBASE
 50
0.0
  9
$ANGDIR
 70
     0
  9
$PDMODE
 70
     0
  9
$PDSIZE
 40
0.0
  9
$PLINEWID
 40
0.0
  9
$SPLFRAME
 70
     0
  9
$SPLINETYPE
 70
     6
  9
$SPLINESEGS
 70
     8
  9
$HANDSEED
  5
105
  9
$SURFTAB1
 70
     6
  9
$SURFTAB2
 70
     6
  9
$SURFTYPE
 70
     6
  9
$SURFU
 70
     6
  9
$SURFV
 70
     6
  9
$UCSBASE
  2

  9
$UCSNAME
  2

  9
$UCSORG
 10
0.0
 20
0.0
 30
0.0
  9
$UCSXDIR
 10
1.0
 20
0.0
 30
0.0
  9
$UCSYDIR
 10
0.0
 20
1.0
 30
0.0
  9
$UCSORTHOREF
  2

  9
$UCSORTHOVIEW
 70
     0
  9
$UCSORGTOP
 10
0.0
 20
0.0
 30
0.0
  9
$UCSORGBOTTOM
 10
0.0
 20
0.0
 30
0.0
  9
$UCSORGLEFT
 10
0.0
 20
0.0
 30
0.0
  9
$UCSORGRIGHT
 10
0.0
 20
0.0
 30
0.0
  9
$UCSORGFRONT
 10
0.0
 20
0.0
 30
0.0
  9
$UCSORGBACK
 10
0.0
 20
0.0
 30
0.0
  9
$PUCSBASE
  2

  9
$PUCSNAME
  2

  9
$PUCSORG
 10
0.0
 20
0.0
 30
0.0
  9
$PUCSXDIR
 10
1.0
 20
0.0
 30
0.0
  9
$PUCSYDIR
 10
0.0
 20
1.0
 30
0.0
  9
$PUCSORTHOREF
  2

  9
$PUCSORTHOVIEW
 70
     0
  9
$PUCSORGTOP
 10
0.0
 20
0.0
 30
0.0
  9
$PUCSORGBOTTOM
 10
0.0
 20
0.0
 30
0.0
  9
$PUCSORGLEFT
 10
0.0
 20
0.0
 30
0.0
  9
$PUCSORGRIGHT
 10
0.0
 20
0.0
 30
0.0
  9
$PUCSORGFRONT
 10
0.0
 20
0.0
 30
0.0
  9
$PUCSORGBACK
 10
0.0
 20
0.0
 30
0.0
  9
$USERI1
 70
     0
  9
$USERI2
 70
     0
  9
$USERI3
 70
     0
  9
$USERI4
 70
     0
  9
$USERI5
 70
     0
  9
$USERR1
 40
0.0
  9
$USERR2
 40
0.0
  9
$USERR3
 40
0.0
  9
$USERR4
 40
0.0
  9
$USERR5
 40
0.0
  9
$WORLDVIEW
 70
     1
  9
$SHADEDGE
 70
     3
  9
$SHADEDIF
 70
    70
  9
$TILEMODE
 70
     1
  9
$MAXACTVP
 70
    64
  9
$PINSBASE
 10
0.0
 20
0.0
 30
0.0
  9
$PLIMCHECK
 70
     0
  9
$PEXTMIN
 10
1.000000000000000E+20
 20
1.000000000000000E+20
 30
1.000000000000000E+20
  9
$PEXTMAX
 10
-1.000000000000000E+20
 20
-1.000000000000000E+20
 30
-1.000000000000000E+20
  9
$PLIMMIN
 10
0.0
 20
0.0
  9
$PLIMMAX
 10
12.0
 20
9.0
  9
$UNITMODE
 70
     0
  9
$VISRETAIN
 70
     1
  9
$PLINEGEN
 70
     0
  9
$PSLTSCALE
 70
     1
  9
$TREEDEPTH
 70
  3020
  9
$CMLSTYLE
  2
Standard
  9
$CMLJUST
 70
     0
  9
$CMLSCALE
 40
1.0
  9
$PROXYGRAPHICS
 70
     1
  9
$MEASUREMENT
 70
     0
  9
$CELWEIGHT
370
    -1
  9
$ENDCAPS
280
     0
  9
$JOINSTYLE
280
     0
  9
$LWDISPLAY
290
     1
  9
$INSUNITS
 70
     1
  9
$HYPERLINKBASE
  1

  9
$STYLESHEET
  1

  9
$XEDIT
290
     1
  9
$CEPSNTYPE
380
     0
  9
$PSTYLEMODE
290
     1
  9
$FINGERPRINTGUID
  2
{520040B1-0E33-4F95-546A-94E06AB0649C}
  9
$VERSIONGUID
  2
{FAEB1C32-E019-11D5-929B-00C0DF256EC4}
  9
$EXTNAMES
290
     1
  9
$PSVPSCALE
 40
0.0
  9
$OLESTARTUP
290
     0
  9
$SORTENTS
280
   127
  9
$INDEXCTL
280
     0
  9
$HIDETEXT
280
     1
  9
$XCLIPFRAME
280
     2
  9
$HALOGAP
280
     0
  9
$OBSCOLOR
 70
   257
  9
$OBSLTYPE
280
     0
  9
$INTERSECTIONDISPLAY
280
     0
  9
$INTERSECTIONCOLOR
 70
   257
  9
$DIMASSOC
280
     2
  9
$PROJECTNAME
  1

  9
$CAMERADISPLAY
290
     0
  9
$LENSLENGTH
 40
50.0
  9
$CAMERAHEIGHT
 40
0.0
  9
$STEPSPERSEC
 40
2.0
  9
$STEPSIZE
 40
6.0
  9
$3DDWFPREC
 40
2.0
  9
$PSOLWIDTH
 40
0.25
  9
$PSOLHEIGHT
 40
4.0
  9
$LOFTANG1
 40
1.570796326794897
  9
$LOFTANG2
 40
1.570796326794897
  9
$LOFTMAG1
 40
0.0
  9
$LOFTMAG2
 40
0.0
  9
$LOFTPARAM
 70
     7
  9
$LOFTNORMALS
280
     1
  9
$LATITUDE
 40
37.795
  9
$LONGITUDE
 40
-122.394
  9
$NORTHDIRECTION
 40
0.0
  9
$TIMEZONE
 70
 -8000
  9
$LIGHTGLYPHDISPLAY
280
     1
  9
$TILEMODELIGHTSYNCH
280
     1
  9
$CMATERIAL
347
3C
  9
$SOLIDHIST
280
     1
  9
$SHOWHIST
280
     1
  9
$DWFFRAME
280
     2
  9
$DGNFRAME
280
     2
  9
$REALWORLDSCALE
290
     1
  9
$INTERFERECOLOR
 62
   256
  9
$CSHADOW
280
     0
  9
$SHADOWPLANELOCATION
 40
0.0
  0
ENDSEC
  0
SECTION
  2
CLASSES
  0
CLASS
  1
ACDBDICTIONARYWDFLT
  2
AcDbDictionaryWithDefault
  3
ObjectDBX Classes
 90
        0
 91
        4
280
     0
281
     0
  0
CLASS
  1
VISUALSTYLE
  2
AcDbVisualStyle
  3
ObjectDBX Classes
 90
     4095
 91
        4
280
     0
281
     0
  0
CLASS
  1
MATERIAL
  2
AcDbMaterial
  3
ObjectDBX Classes
 90
     1153
 91
        4
280
     0
281
     0
  0
CLASS
  1
SUN
  2
AcDbSun
  3
SCENEOE
 90
     1024
 91
        4
280
     0
281
     0
  0
ENDSEC
  0
SECTION
  2
TABLES
  0
TABLE
  2
VPORT
  5
8
330
0
100
AcDbSymbolTable
 70
     1
  0
VPORT
  5
29
330
8
100
AcDbSymbolTableRecord
100
AcDbViewportTableRecord
  2
*Active
 70
     0
 10
0.0
 20
0.0
 11
1.0
 21
1.0
 12
0.0
 22
0.0
 13
0.0
 23
0.0
 14
0.5
 24
0.5
 15
0.5
 25
0.5
 16
0.0
 26
0.0
 36
1.0
 17
91.00082462281999
 27
-128.4993055234307
 37
0.0
 40
256.9986110468615
 41
0.7081814508812795
 42
50.0
 43
0.0
 44
0.0
 50
0.0
 51
0.0
 71
     0
 72
   100
 73
     1
 74
     3
 75
     0
 76
     0
 77
     0
 78
     0
281
     0
 65
     1
110
0.0
120
0.0
130
0.0
111
1.0
121
0.0
131
0.0
112
0.0
122
1.0
132
0.0
 79
     0
146
0.0
 60
     3
 61
     5
292
     1
282
     1
141
0.0
142
0.0
 63
   250
361
3F
  0
ENDTAB
  0
TABLE
  2
LTYPE
  5
5
330
0
100
AcDbSymbolTable
 70
     1
  0
LTYPE
  5
14
330
5
100
AcDbSymbolTableRecord
100
AcDbLinetypeTableRecord
  2
ByBlock
 70
     0
  3

 72
    65
 73
     0
 40
0.0
  0
LTYPE
  5
15
330
5
100
AcDbSymbolTableRecord
100
AcDbLinetypeTableRecord
  2
ByLayer
 70
     0
  3

 72
    65
 73
     0
 40
0.0
  0
LTYPE
  5
16
330
5
100
AcDbSymbolTableRecord
100
AcDbLinetypeTableRecord
  2
Continuous
 70
     0
  3
Solid line
 72
    65
 73
     0
 40
0.0
  0
ENDTAB
  0
TABLE
  2
LAYER
  5
2
330
0
100
AcDbSymbolTable
 70
     2
  0
LAYER
  5
10
330
2
100
AcDbSymbolTableRecord
100
AcDbLayerTableRecord
  2
0
 70
     0
 62
     7
  6
Continuous
370
    -3
390
F
347
3E
  0
LAYER
  5
40
330
2
100
AcDbSymbolTableRecord
100
AcDbLayerTableRecord
  2
_U+30EC_U+30A4_U+30E4_U+30FC 1
 70
     0
 62
     7
  6
Continuous
370
    -3
390
F
347
3E
  0
ENDTAB
  0
TABLE
  2
STYLE
  5
3
330
0
100
AcDbSymbolTable
 70
     1
  0
STYLE
  5
11
330
3
100
AcDbSymbolTableRecord
100
AcDbTextStyleTableRecord
  2
Standard
 70
     0
 40
0.0
 41
1.0
 50
0.0
 71
     0
 42
0.2
  3
txt
  4

  0
ENDTAB
  0
TABLE
  2
VIEW
  5
6
330
0
100
AcDbSymbolTable
 70
     0
  0
ENDTAB
  0
TABLE
  2
UCS
  5
7
330
0
100
AcDbSymbolTable
 70
     0
  0
ENDTAB
  0
TABLE
  2
APPID
  5
9
330
0
100
AcDbSymbolTable
 70
     1
  0
APPID
  5
12
330
9
100
AcDbSymbolTableRecord
100
AcDbRegAppTableRecord
  2
ACAD
 70
     0
  0
ENDTAB
  0
TABLE
  2
DIMSTYLE
  5
A
330
0
100
AcDbSymbolTable
 70
     1
100
AcDbDimStyleTable
  0
DIMSTYLE
105
27
330
A
100
AcDbSymbolTableRecord
100
AcDbDimStyleTableRecord
  2
Standard
 70
     0
178
     0
340
11
  0
ENDTAB
  0
TABLE
  2
BLOCK_RECORD
  5
1
330
0
100
AcDbSymbolTable
 70
    15
  0
BLOCK_RECORD
  5
1F
330
1
100
AcDbSymbolTableRecord
100
AcDbBlockTableRecord
  2
*Model_Space
340
22
 70
     0
280
     1
281
     0
  0
BLOCK_RECORD
  5
1B
330
1
100
AcDbSymbolTableRecord
100
AcDbBlockTableRecord
  2
*Paper_Space
340
1E
 70
     0
280
     1
281
     0
  0
BLOCK_RECORD
  5
23
330
1
100
AcDbSymbolTableRecord
100
AcDbBlockTableRecord
  2
*Paper_Space0
340
26
 70
     0
280
     1
281
     0
  0
BLOCK_RECORD
  5
41
330
1
100
AcDbSymbolTableRecord
100
AcDbBlockTableRecord
  2
block 2
340
0
102
{BLKREFS
331
42
102
}
 70
     0
280
     1
281
     0
  0
BLOCK_RECORD
  5
55
330
1
100
AcDbSymbolTableRecord
100
AcDbBlockTableRecord
  2
block 3
340
0
102
{BLKREFS
331
56
102
}
 70
     0
280
     1
281
     0
  0
BLOCK_RECORD
  5
71
330
1
100
AcDbSymbolTableRecord
100
AcDbBlockTableRecord
  2
block 4
340
0
102
{BLKREFS
331
72
102
}
 70
     0
280
     1
281
     0
  0
BLOCK_RECORD
  5
85
330
1
100
AcDbSymbolTableRecord
100
AcDbBlockTableRecord
  2
block 5
340
0
102
{BLKREFS
331
86
102
}
 70
     0
280
     1
281
     0
  0
BLOCK_RECORD
  5
8B
330
1
100
AcDbSymbolTableRecord
100
AcDbBlockTableRecord
  2
block 6
340
0
102
{BLKREFS
331
8C
102
}
 70
     0
280
     1
281
     0
  0
BLOCK_RECORD
  5
97
330
1
100
AcDbSymbolTableRecord
100
AcDbBlockTableRecord
  2
block 7
340
0
102
{BLKREFS
331
98
102
}
 70
     0
280
     1
281
     0
  0
BLOCK_RECORD
  5
9D
330
1
100
AcDbSymbolTableRecord
100
AcDbBlockTableRecord
  2
block 8
340
0
102
{BLKREFS
331
9E
102
}
 70
     0
280
     1
281
     0
  0
BLOCK_RECORD
  5
AD
330
1
100
AcDbSymbolTableRecord
100
AcDbBlockTableRecord
  2
block 9
340
0
102
{BLKREFS
331
AE
102
}
 70
     0
280
     1
281
     0
  0
BLOCK_RECORD
  5
B5
330
1
100
AcDbSymbolTableRecord
100
AcDbBlockTableRecord
  2
block 10
340
0
102
{BLKREFS
331
B6
102
}
 70
     0
280
     1
281
     0
  0
BLOCK_RECORD
  5
C1
330
1
100
AcDbSymbolTableRecord
100
AcDbBlockTableRecord
  2
block 11
340
0
102
{BLKREFS
331
C2
102
}
 70
     0
280
     1
281
     0
  0
BLOCK_RECORD
  5
C7
330
1
100
AcDbSymbolTableRecord
100
AcDbBlockTableRecord
  2
block 12
340
0
102
{BLKREFS
331
C8
102
}
 70
     0
280
     1
281
     0
  0
BLOCK_RECORD
  5
D7
330
1
100
AcDbSymbolTableRecord
100
AcDbBlockTableRecord
  2
block 13
340
0
102
{BLKREFS
331
D8
102
}
 70
     0
280
     1
281
     0
  0
BLOCK_RECORD
  5
E1
330
1
100
AcDbSymbolTableRecord
100
AcDbBlockTableRecord
  2
block 14
340
0
102
{BLKREFS
331
E2
102
}
 70
     0
280
     1
281
     0
  0
BLOCK_RECORD
  5
F1
330
1
100
AcDbSymbolTableRecord
100
AcDbBlockTableRecord
  2
block 15
340
0
102
{BLKREFS
331
F2
102
}
 70
     0
280
     1
281
     0
  0
ENDTAB
  0
ENDSEC
  0
SECTION
  2
BLOCKS
  0
BLOCK
  5
20
330
1F
100
AcDbEntity
  8
0
100
AcDbBlockBegin
  2
*Model_Space
 70
     0
 10
0.0
 20
0.0
 30
0.0
  3
*Model_Space
  1

  0
ENDBLK
  5
21
330
1F
100
AcDbEntity
  8
0
100
AcDbBlockEnd
  0
BLOCK
  5
1C
330
1B
100
AcDbEntity
 67
     1
  8
0
100
AcDbBlockBegin
  2
*Paper_Space
 70
     0
 10
0.0
 20
0.0
 30
0.0
  3
*Paper_Space
  1

  0
ENDBLK
  5
1D
330
1B
100
AcDbEntity
 67
     1
  8
0
100
AcDbBlockEnd
  0
BLOCK
  5
24
330
23
100
AcDbEntity
  8
0
100
AcDbBlockBegin
  2
*Paper_Space0
 70
     0
 10
0.0
 20
0.0
 30
0.0
  3
*Paper_Space0
  1

  0
ENDBLK
  5
25
330
23
100
AcDbEntity
  8
0
100
AcDbBlockEnd
  0
BLOCK
  5
43
330
41
100
AcDbEntity
  8
0
100
AcDbBlockBegin
  2
block 2
 70
     0
 10
0.0
 20
0.0
 30
0.0
  3
block 2
  1

  0
POLYLINE
  5
45
330
41
100
AcDbEntity
  8
_U+30EC_U+30A4_U+30E4_U+30FC 1
370
     0
100
AcDb2dPolyline
 66
     1
 10
0.0
 20
0.0
 30
0.0
  0
VERTEX
  5
46
330
45
100
AcDbEntity
  8
_U+30EC_U+30A4_U+30E4_U+30FC 1
370
     0
100
AcDbVertex
100
AcDb2dVertex
 10
74.53051254301266
 20
-124.6692324688328
 30
0.0
  0
VERTEX
  5
47
330
45
100
AcDbEntity
  8
_U+30EC_U+30A4_U+30E4_U+30FC 1
370
     0
100
AcDbVertex
100
AcDb2dVertex
 10
82.53070095002197
 20
-124.6692324688328
 30
0.0
  0
VERTEX
  5
48
330
45
100
AcDbEntity
  8
_U+30EC_U+30A4_U+30E4_U+30FC 1
370
     0
100
AcDbVertex
100
AcDb2dVertex
 10
82.53070095002197
 20
-136.1694705215134
 30
0.0
  0
VERTEX
  5
49
330
45
100
AcDbEntity
  8
_U+30EC_U+30A4_U+30E4_U+30FC 1
370
     0
100
AcDbVertex
100
AcDb2dVertex
 10
87.53023221136218
 20
-136.1694705215134
 30
0.0
  0
VERTEX
  5
4A
330
45
100
AcDbEntity
  8
_U+30EC_U+30A4_U+30E4_U+30FC 1
370
     0
100
AcDbVertex
100
AcDb2dVertex
 10
87.53023221136218
 20
-133.1694835778191
 30
0.0
  0
VERTEX
  5
4B
330
45
100
AcDbEntity
  8
_U+30EC_U+30A4_U+30E4_U+30FC 1
370
     0
100
AcDbVertex
100
AcDb2dVertex
 10
86.53046001464627
 20
-133.1694835778191
 30
0.0
  0
VERTEX
  5
4C
330
45
100
AcDbEntity
  8
_U+30EC_U+30A4_U+30E4_U+30FC 1
370
     0
100
AcDbVertex
100
AcDb2dVertex
 10
86.53046001464627
 20
-135.1696982995409
 30
0.0
  0
VERTEX
  5
4D
330
45
100
AcDbEntity
  8
_U+30EC_U+30A4_U+30E4_U+30FC 1
370
     0
100
AcDbVertex
100
AcDb2dVertex
 10
83.43056648262004
 20
-135.1696982995409
 30
0.0
  0
VERTEX
  5
4E
330
45
100
AcDbEntity
  8
_U+30EC_U+30A4_U+30E4_U+30FC 1
370
     0
100
AcDbVertex
100
AcDb2dVertex
 10
83.43056648262004
 20
-124.6692324688328
 30
0.0
  0
VERTEX
  5
4F
330
45
100
AcDbEntity
  8
_U+30EC_U+30A4_U+30E4_U+30FC 1
370
     0
100
AcDbVertex
100
AcDb2dVertex
 10
102.5301665509042
 20
-124.6692324688328
 30
0.0
  0
VERTEX
  5
50
330
45
100
AcDbEntity
  8
_U+30EC_U+30A4_U+30E4_U+30FC 1
370
     0
100
AcDbVertex
100
AcDb2dVertex
 10
102.5301665509042
 20
-123.6694602468606
 30
0.0
  0
VERTEX
  5
51
330
45
100
AcDbEntity
  8
_U+30EC_U+30A4_U+30E4_U+30FC 1
370
     0
100
AcDbVertex
100
AcDb2dVertex
 10
74.53051254301266
 20
-123.6694602468606
 30
0.0
  0
VERTEX
  5
52
330
45
100
AcDbEntity
  8
_U+30EC_U+30A4_U+30E4_U+30FC 1
370
     0
100
AcDbVertex
100
AcDb2dVertex
 10
74.53051254301266
 20
-124.6692324688328
 30
0.0
  0
SEQEND
  5
54
330
45
100
AcDbEntity
  8
_U+30EC_U+30A4_U+30E4_U+30FC 1
370
     0
  0
HATCH
  5
53
330
41
100
AcDbEntity
  8
_U+30EC_U+30A4_U+30E4_U+30FC 1
 62
   253
420
 11711154
100
AcDbHatch
 10
0.0
 20
0.0
 30
0.0
210
0.0
220
0.0
230
1.0
  2
SOLID
 70
     1
 71
     0
 91
        1
 92
        1
 93
       12
 72
     1
 10
74.53051254301266
 20
-124.6692324688328
 11
82.53070095002197
 21
-124.6692324688328
 72
     1
 10
82.53070095002197
 20
-124.6692324688328
 11
82.53070095002197
 21
-136.1694705215134
 72
     1
 10
82.53070095002197
 20
-136.1694705215134
 11
87.53023221136218
 21
-136.1694705215134
 72
     1
 10
87.53023221136218
 20
-136.1694705215134
 11
87.53023221136218
 21
-133.1694835778191
 72
     1
 10
87.53023221136218
 20
-133.1694835778191
 11
86.53046001464627
 21
-133.1694835778191
 72
     1
 10
86.53046001464627
 20
-133.1694835778191
 11
86.53046001464627
 21
-135.1696982995409
 72
     1
 10
86.53046001464627
 20
-135.1696982995409
 11
83.43056648262004
 21
-135.1696982995409
 72
     1
 10
83.43056648262004
 20
-135.1696982995409
 11
83.43056648262004
 21
-124.6692324688328
 72
     1
 10
83.43056648262004
 20
-124.6692324688328
 11
102.5301665509042
 21
-124.6692324688328
 72
     1
 10
102.5301665509042
 20
-124.6692324688328
 11
102.5301665509042
 21
-123.6694602468606
 72
     1
 10
102.5301665509042
 20
-123.6694602468606
 11
74.53051254301266
 21
-123.6694602468606
 72
     1
 10
74.53051254301266
 20
-123.6694602468606
 11
74.53051254301266
 21
-124.6692324688328
 97
        0
 75
     2
 76
     1
 98
        0
  0
INSERT
  5
56
330
41
100
AcDbEntity
  8
_U+30EC_U+30A4_U+30E4_U+30FC 1
100
AcDbBlockReference
  2
block 3
 10
0.0
 20
0.0
 30
0.0
  0
ENDBLK
  5
44
330
41
100
AcDbEntity
  8
0
100
AcDbBlockEnd
  0
BLOCK
  5
57
330
55
100
AcDbEntity
  8
0
100
AcDbBlockBegin
  2
block 3
 70
     0
 10
0.0
 20
0.0
 30
0.0
  3
block 3
  1

  0
POLYLINE
  5
59
330
55
100
AcDbEntity
  8
_U+30EC_U+30A4_U+30E4_U+30FC 1
 62
     7
420
 16777215
370
    25
100
AcDb2dPolyline
 66
     1
 10
0.0
 20
0.0
 30
0.0
  0
VERTEX
  5
5A
330
59
100
AcDbEntity
  8
_U+30EC_U+30A4_U+30E4_U+30FC 1
 62
     7
420
 16777215
370
    25
100
AcDbVertex
100
AcDb2dVertex
 10
87.68009442252456
 20
-133.1694835778191
 30
0.0
  0
VERTEX
  5
5B
330
59
100
AcDbEntity
  8
_U+30EC_U+30A4_U+30E4_U+30FC 1
 62
     7
420
 16777215
370
    25
100
AcDbVertex
100
AcDb2dVertex
 10
87.68009442252456
 20
-136.1694705215134
 30
0.0
  0
VERTEX
  5
5C
330
59
100
AcDbEntity
  8
_U+30EC_U+30A4_U+30E4_U+30FC 1
 62
     7
420
 16777215
370
    25
100
AcDbVertex
100
AcDb2dVertex
 10
82.68056094619871
 20
-136.1694705215134
 30
0.0
  0
VERTEX
  5
5D
330
59
100
AcDbEntity
  8
_U+30EC_U+30A4_U+30E4_U+30FC 1
 62
     7
420
 16777215
370
    25
100
AcDbVertex
100
AcDb2dVertex
 10
82.68056094619871
 20
-124.6692324688328
 30
0.0
  0
VERTEX
  5
5E
330
59
100
AcDbEntity
  8
_U+30EC_U+30A4_U+30E4_U+30FC 1
 62
     7
420
 16777215
370
    25
100
AcDbVertex
100
AcDb2dVertex
 10
74.6803725391894
 20
-124.6692324688328
 30
0.0
  0
VERTEX
  5
5F
330
59
100
AcDbEntity
  8
_U+30EC_U+30A4_U+30E4_U+30FC 1
 62
     7
420
 16777215
370
    25
100
AcDbVertex
100
AcDb2dVertex
 10
74.6803725391894
 20
-123.6694602468606
 30
0.0
  0
VERTEX
  5
60
330
59
100
AcDbEntity
  8
_U+30EC_U+30A4_U+30E4_U+30FC 1
 62
     7
420
 16777215
370
    25
100
AcDbVertex
100
AcDb2dVertex
 10
102.680026547081
 20
-123.6694602468606
 30
0.0
  0
VERTEX
  5
61
330
59
100
AcDbEntity
  8
_U+30EC_U+30A4_U+30E4_U+30FC 1
 62
     7
420
 16777215
370
    25
100
AcDbVertex
100
AcDb2dVertex
 10
102.680026547081
 20
-124.6692324688328
 30
0.0
  0
VERTEX
  5
62
330
59
100
AcDbEntity
  8
_U+30EC_U+30A4_U+30E4_U+30FC 1
 62
     7
420
 16777215
370
    25
100
AcDbVertex
100
AcDb2dVertex
 10
83.58042647879678
 20
-124.6692324688328
 30
0.0
  0
VERTEX
  5
63
330
59
100
AcDbEntity
  8
_U+30EC_U+30A4_U+30E4_U+30FC 1
 62
     7
420
 16777215
370
    25
100
AcDbVertex
100
AcDb2dVertex
 10
83.58042647879678
 20
-135.1696982995409
 30
0.0
  0
VERTEX
  5
64
330
59
100
AcDbEntity
  8
_U+30EC_U+30A4_U+30E4_U+30FC 1
 62
     7
420
 16777215
370
    25
100
AcDbVertex
100
AcDb2dVertex
 10
86.68032220055201
 20
-135.1696982995409
 30
0.0
  0
VERTEX
  5
65
330
59
100
AcDbEntity
  8
_U+30EC_U+30A4_U+30E4_U+30FC 1
 62
     7
420
 16777215
370
    25
100
AcDbVertex
100
AcDb2dVertex
 10
86.68032220055201
 20
-133.1694835778191
 30
0.0
  0
VERTEX
  5
66
330
59
100
AcDbEntity
  8
_U+30EC_U+30A4_U+30E4_U+30FC 1
 62
     7
420
 16777215
370
    25
100
AcDbVertex
100
AcDb2dVertex
 10
87.68009442252456
 20
-133.1694835778191
 30
0.0
  0
SEQEND
  5
67
330
59
100
AcDbEntity
  8
_U+30EC_U+30A4_U+30E4_U+30FC 1
 62
     7
420
 16777215
370
    25
  0
SPLINE
  5
68
330
55
100
AcDbEntity
  8
_U+30EC_U+30A4_U+30E4_U+30FC 1
 62
     7
420
 16777215
370
     9
100
AcDbSpline
210
0.0
220
0.0
230
1.0
 70
    11
 71
     3
 72
    17
 73
    13
 74
     0
 42
0.0000000001
 43
0.0000000001
 12
1.0
 22
0.0
 32
0.0
 13
1.0
 23
0.0
 33
0.0
 40
0.0
 40
0.0
 40
0.0
 40
0.0
 40
1.0
 40
1.0
 40
1.0
 40
2.0
 40
2.0
 40
2.0
 40
3.0
 40
3.0
 40
3.0
 40
4.0
 40
4.0
 40
4.0
 40
4.0
 10
74.78027920330724
 20
-119.6693483034159
 30
0.0
 10
74.78027920330724
 20
-119.614244414541
 30
0.0
 10
74.73547642667249
 20
-119.5694416367743
 30
0.0
 10
74.6803725391894
 20
-119.5694416367743
 30
0.0
 10
74.62523337392946
 20
-119.5694416367743
 30
0.0
 10
74.58046587507158
 20
-119.614244414541
 30
0.0
 10
74.58046587507158
 20
-119.6693483034159
 30
0.0
 10
74.58046587507158
 20
-119.7246638589579
 30
0.0
 10
74.62523337392946
 20
-119.7694313589464
 30
0.0
 10
74.6803725391894
 20
-119.7694313589464
 30
0.0
 10
74.73547642667249
 20
-119.7694313589464
 30
0.0
 10
74.78027920330724
 20
-119.7246638589579
 30
0.0
 10
74.78027920330724
 20
-119.6693483034159
 30
0.0
  0
SPLINE
  5
69
330
55
100
AcDbEntity
  8
_U+30EC_U+30A4_U+30E4_U+30FC 1
 62
     7
420
 16777215
370
     9
100
AcDbSpline
210
0.0
220
0.0
230
1.0
 70
    11
 71
     3
 72
    17
 73
    13
 74
     0
 42
0.0000000001
 43
0.0000000001
 12
1.0
 22
0.0
 32
0.0
 13
1.0
 23
0.0
 33
0.0
 40
0.0
 40
0.0
 40
0.0
 40
0.0
 40
1.0
 40
1.0
 40
1.0
 40
2.0
 40
2.0
 40
2.0
 40
3.0
 40
3.0
 40
3.0
 40
4.0
 40
4.0
 40
4.0
 40
4.0
 10
102.7806387667363
 20
-119.6693483034159
 30
0.0
 10
102.7806387667363
 20
-119.614244414541
 30
0.0
 10
102.7358359901016
 20
-119.5694416367743
 30
0.0
 10
102.680026547081
 20
-119.5694416367743
 30
0.0
 10
102.6249226595979
 20
-119.5694416367743
 30
0.0
 10
102.5801198829631
 20
-119.614244414541
 30
0.0
 10
102.5801198829631
 20
-119.6693483034159
 30
0.0
 10
102.5801198829631
 20
-119.7246638589579
 30
0.0
 10
102.6249226595979
 20
-119.7694313589464
 30
0.0
 10
102.680026547081
 20
-119.7694313589464
 30
0.0
 10
102.7358359901016
 20
-119.7694313589464
 30
0.0
 10
102.7806387667363
 20
-119.7246638589579
 30
0.0
 10
102.7806387667363
 20
-119.6693483034159
 30
0.0
  0
SPLINE
  5
6A
330
55
100
AcDbEntity
  8
_U+30EC_U+30A4_U+30E4_U+30FC 1
 62
     7
420
 16777215
370
     9
100
AcDbSpline
210
0.0
220
0.0
230
1.0
 70
    11
 71
     3
 72
    17
 73
    13
 74
     0
 42
0.0000000001
 43
0.0000000001
 12
1.0
 22
0.0
 32
0.0
 13
1.0
 23
0.0
 33
0.0
 40
0.0
 40
0.0
 40
0.0
 40
0.0
 40
1.0
 40
1.0
 40
1.0
 40
2.0
 40
2.0
 40
2.0
 40
3.0
 40
3.0
 40
3.0
 40
4.0
 40
4.0
 40
4.0
 40
4.0
 10
106.7803978313606
 20
-123.6694602468606
 30
0.0
 10
106.7803978313606
 20
-123.6143210802075
 30
0.0
 10
106.7355950547259
 20
-123.5695535802186
 30
0.0
 10
106.6804911672428
 20
-123.5695535802186
 30
0.0
 10
106.6253520019829
 20
-123.5695535802186
 30
0.0
 10
106.580584503125
 20
-123.6143210802075
 30
0.0
 10
106.580584503125
 20
-123.6694602468606
 30
0.0
 10
106.580584503125
 20
-123.7245641357355
 30
0.0
 10
106.6253520019829
 20
-123.7693669135022
 30
0.0
 10
106.6804911672428
 20
-123.7693669135022
 30
0.0
 10
106.7355950547259
 20
-123.7693669135022
 30
0.0
 10
106.7803978313606
 20
-123.7245641357355
 30
0.0
 10
106.7803978313606
 20
-123.6694602468606
 30
0.0
  0
SPLINE
  5
6B
330
55
100
AcDbEntity
  8
_U+30EC_U+30A4_U+30E4_U+30FC 1
 62
     7
420
 16777215
370
     9
100
AcDbSpline
210
0.0
220
0.0
230
1.0
 70
    11
 71
     3
 72
    17
 73
    13
 74
     0
 42
0.0000000001
 43
0.0000000001
 12
1.0
 22
0.0
 32
0.0
 13
1.0
 23
0.0
 33
0.0
 40
0.0
 40
0.0
 40
0.0
 40
0.0
 40
1.0
 40
1.0
 40
1.0
 40
2.0
 40
2.0
 40
2.0
 40
3.0
 40
3.0
 40
3.0
 40
4.0
 40
4.0
 40
4.0
 40
4.0
 10
106.7803978313606
 20
-124.6692324688328
 30
0.0
 10
106.7803978313606
 20
-124.6140933021797
 30
0.0
 10
106.7355950547259
 20
-124.5693258021911
 30
0.0
 10
106.6804911672428
 20
-124.5693258021911
 30
0.0
 10
106.6253520019829
 20
-124.5693258021911
 30
0.0
 10
106.580584503125
 20
-124.6140933021797
 30
0.0
 10
106.580584503125
 20
-124.6692324688328
 30
0.0
 10
106.580584503125
 20
-124.7246891354855
 30
0.0
 10
106.6253520019829
 20
-124.7694566354743
 30
0.0
 10
106.6804911672428
 20
-124.7694566354743
 30
0.0
 10
106.7355950547259
 20
-124.7694566354743
 30
0.0
 10
106.7803978313606
 20
-124.7246891354855
 30
0.0
 10
106.7803978313606
 20
-124.6692324688328
 30
0.0
  0
SPLINE
  5
6C
330
55
100
AcDbEntity
  8
_U+30EC_U+30A4_U+30E4_U+30FC 1
 62
     7
420
 16777215
370
     9
100
AcDbSpline
210
0.0
220
0.0
230
1.0
 70
    11
 71
     3
 72
    17
 73
    13
 74
     0
 42
0.0000000001
 43
0.0000000001
 12
1.0
 22
0.0
 32
0.0
 13
1.0
 23
0.0
 33
0.0
 40
0.0
 40
0.0
 40
0.0
 40
0.0
 40
1.0
 40
1.0
 40
1.0
 40
2.0
 40
2.0
 40
2.0
 40
3.0
 40
3.0
 40
3.0
 40
4.0
 40
4.0
 40
4.0
 40
4.0
 10
106.7803978313606
 20
-133.1694835778191
 30
0.0
 10
106.7803978313606
 20
-133.114344411166
 30
0.0
 10
106.7355950547259
 20
-133.0695769111768
 30
0.0
 10
106.6804911672428
 20
-133.0695769111768
 30
0.0
 10
106.6253520019829
 20
-133.0695769111768
 30
0.0
 10
106.580584503125
 20
-133.114344411166
 30
0.0
 10
106.580584503125
 20
-133.1694835778191
 30
0.0
 10
106.580584503125
 20
-133.224587466694
 30
0.0
 10
106.6253520019829
 20
-133.2693902444607
 30
0.0
 10
106.6804911672428
 20
-133.2693902444607
 30
0.0
 10
106.7355950547259
 20
-133.2693902444607
 30
0.0
 10
106.7803978313606
 20
-133.224587466694
 30
0.0
 10
106.7803978313606
 20
-133.1694835778191
 30
0.0
  0
SPLINE
  5
6D
330
55
100
AcDbEntity
  8
_U+30EC_U+30A4_U+30E4_U+30FC 1
 62
     7
420
 16777215
370
     9
100
AcDbSpline
210
0.0
220
0.0
230
1.0
 70
    11
 71
     3
 72
    17
 73
    13
 74
     0
 42
0.0000000001
 43
0.0000000001
 12
1.0
 22
0.0
 32
0.0
 13
1.0
 23
0.0
 33
0.0
 40
0.0
 40
0.0
 40
0.0
 40
0.0
 40
1.0
 40
1.0
 40
1.0
 40
2.0
 40
2.0
 40
2.0
 40
3.0
 40
3.0
 40
3.0
 40
4.0
 40
4.0
 40
4.0
 40
4.0
 10
106.7803978313606
 20
-136.1694705215134
 30
0.0
 10
106.7803978313606
 20
-136.1143313548603
 30
0.0
 10
106.7355950547259
 20
-136.0695638548718
 30
0.0
 10
106.6804911672428
 20
-136.0695638548718
 30
0.0
 10
106.6253520019829
 20
-136.0695638548718
 30
0.0
 10
106.580584503125
 20
-136.1143313548603
 30
0.0
 10
106.580584503125
 20
-136.1694705215134
 30
0.0
 10
106.580584503125
 20
-136.2245744103883
 30
0.0
 10
106.6253520019829
 20
-136.269377188155
 30
0.0
 10
106.6804911672428
 20
-136.269377188155
 30
0.0
 10
106.7355950547259
 20
-136.269377188155
 30
0.0
 10
106.7803978313606
 20
-136.2245744103883
 30
0.0
 10
106.7803978313606
 20
-136.1694705215134
 30
0.0
  0
SPLINE
  5
6E
330
55
100
AcDbEntity
  8
_U+30EC_U+30A4_U+30E4_U+30FC 1
 62
     7
420
 16777215
370
     9
100
AcDbSpline
210
0.0
220
0.0
230
1.0
 70
    11
 71
     3
 72
    17
 73
    13
 74
     0
 42
0.0000000001
 43
0.0000000001
 12
1.0
 22
0.0
 32
0.0
 13
1.0
 23
0.0
 33
0.0
 40
0.0
 40
0.0
 40
0.0
 40
0.0
 40
1.0
 40
1.0
 40
1.0
 40
2.0
 40
2.0
 40
2.0
 40
3.0
 40
3.0
 40
3.0
 40
4.0
 40
4.0
 40
4.0
 40
4.0
 10
82.78046761031655
 20
-140.1692296871796
 30
0.0
 10
82.78046761031655
 20
-140.1140905205272
 30
0.0
 10
82.73570011145867
 20
-140.069323020538
 30
0.0
 10
82.68056094619871
 20
-140.069323020538
 30
0.0
 10
82.62545705871564
 20
-140.069323020538
 30
0.0
 10
82.58065428208087
 20
-140.1140905205272
 30
0.0
 10
82.58065428208087
 20
-140.1692296871796
 30
0.0
 10
82.58065428208087
 20
-140.2250391316107
 30
0.0
 10
82.62545705871564
 20
-140.2691363538219
 30
0.0
 10
82.68056094619871
 20
-140.2691363538219
 30
0.0
 10
82.73570011145867
 20
-140.2691363538219
 30
0.0
 10
82.78046761031655
 20
-140.2250391316107
 30
0.0
 10
82.78046761031655
 20
-140.1692296871796
 30
0.0
  0
SPLINE
  5
6F
330
55
100
AcDbEntity
  8
_U+30EC_U+30A4_U+30E4_U+30FC 1
 62
     7
420
 16777215
370
     9
100
AcDbSpline
210
0.0
220
0.0
230
1.0
 70
    11
 71
     3
 72
    17
 73
    13
 74
     0
 42
0.0000000001
 43
0.0000000001
 12
1.0
 22
0.0
 32
0.0
 13
1.0
 23
0.0
 33
0.0
 40
0.0
 40
0.0
 40
0.0
 40
0.0
 40
1.0
 40
1.0
 40
1.0
 40
2.0
 40
2.0
 40
2.0
 40
3.0
 40
3.0
 40
3.0
 40
4.0
 40
4.0
 40
4.0
 40
4.0
 10
87.77999887165677
 20
-140.1692296871796
 30
0.0
 10
87.77999887165677
 20
-140.1140905205272
 30
0.0
 10
87.735196095022
 20
-140.069323020538
 30
0.0
 10
87.68009442252456
 20
-140.069323020538
 30
0.0
 10
87.62495304227899
 20
-140.069323020538
 30
0.0
 10
87.5801855434211
 20
-140.1140905205272
 30
0.0
 10
87.5801855434211
 20
-140.1692296871796
 30
0.0
 10
87.5801855434211
 20
-140.2250391316107
 30
0.0
 10
87.62495304227899
 20
-140.2691363538219
 30
0.0
 10
87.68009442252456
 20
-140.2691363538219
 30
0.0
 10
87.735196095022
 20
-140.2691363538219
 30
0.0
 10
87.77999887165677
 20
-140.2250391316107
 30
0.0
 10
87.77999887165677
 20
-140.1692296871796
 30
0.0
  0
SPLINE
  5
70
330
55
100
AcDbEntity
  8
_U+30EC_U+30A4_U+30E4_U+30FC 1
 62
     7
420
 16777215
370
     9
100
AcDbSpline
210
0.0
220
0.0
230
1.0
 70
    11
 71
     3
 72
    17
 73
    13
 74
     0
 42
0.0000000001
 43
0.0000000001
 12
1.0
 22
0.0
 32
0.0
 13
1.0
 23
0.0
 33
0.0
 40
0.0
 40
0.0
 40
0.0
 40
0.0
 40
1.0
 40
1.0
 40
1.0
 40
2.0
 40
2.0
 40
2.0
 40
3.0
 40
3.0
 40
3.0
 40
4.0
 40
4.0
 40
4.0
 40
4.0
 10
74.78027920330724
 20
-140.1692296871796
 30
0.0
 10
74.78027920330724
 20
-140.1140905205272
 30
0.0
 10
74.73547642667249
 20
-140.069323020538
 30
0.0
 10
74.6803725391894
 20
-140.069323020538
 30
0.0
 10
74.62523337392946
 20
-140.069323020538
 30
0.0
 10
74.58046587507158
 20
-140.1140905205272
 30
0.0
 10
74.58046587507158
 20
-140.1692296871796
 30
0.0
 10
74.58046587507158
 20
-140.2250391316107
 30
0.0
 10
74.62523337392946
 20
-140.2691363538219
 30
0.0
 10
74.6803725391894
 20
-140.2691363538219
 30
0.0
 10
74.73547642667249
 20
-140.2691363538219
 30
0.0
 10
74.78027920330724
 20
-140.2250391316107
 30
0.0
 10
74.78027920330724
 20
-140.1692296871796
 30
0.0
  0
INSERT
  5
72
330
55
100
AcDbEntity
  8
_U+30EC_U+30A4_U+30E4_U+30FC 1
100
AcDbBlockReference
  2
block 4
 10
0.0
 20
0.0
 30
0.0
  0
INSERT
  5
8C
330
55
100
AcDbEntity
  8
_U+30EC_U+30A4_U+30E4_U+30FC 1
100
AcDbBlockReference
  2
block 6
 10
0.0
 20
0.0
 30
0.0
  0
INSERT
  5
9E
330
55
100
AcDbEntity
  8
_U+30EC_U+30A4_U+30E4_U+30FC 1
100
AcDbBlockReference
  2
block 8
 10
0.0
 20
0.0
 30
0.0
  0
INSERT
  5
B6
330
55
100
AcDbEntity
  8
_U+30EC_U+30A4_U+30E4_U+30FC 1
100
AcDbBlockReference
  2
block 10
 10
0.0
 20
0.0
 30
0.0
  0
INSERT
  5
C8
330
55
100
AcDbEntity
  8
_U+30EC_U+30A4_U+30E4_U+30FC 1
100
AcDbBlockReference
  2
block 12
 10
0.0
 20
0.0
 30
0.0
  0
INSERT
  5
E2
330
55
100
AcDbEntity
  8
_U+30EC_U+30A4_U+30E4_U+30FC 1
100
AcDbBlockReference
  2
block 14
 10
0.0
 20
0.0
 30
0.0
  0
ENDBLK
  5
58
330
55
100
AcDbEntity
  8
0
100
AcDbBlockEnd
  0
BLOCK
  5
73
330
71
100
AcDbEntity
  8
0
100
AcDbBlockBegin
  2
block 4
 70
     0
 10
0.0
 20
0.0
 30
0.0
  3
block 4
  1

  0
POLYLINE
  5
75
330
71
100
AcDbEntity
  8
_U+30EC_U+30A4_U+30E4_U+30FC 1
 62
     7
420
 16777215
370
     9
100
AcDb2dPolyline
 66
     1
 10
0.0
 20
0.0
 30
0.0
  0
VERTEX
  5
76
330
75
100
AcDbEntity
  8
_U+30EC_U+30A4_U+30E4_U+30FC 1
 62
     7
420
 16777215
370
     9
100
AcDbVertex
100
AcDb2dVertex
 10
106.6804911672428
 20
-123.6694602468606
 30
0.0
  0
VERTEX
  5
77
330
75
100
AcDbEntity
  8
_U+30EC_U+30A4_U+30E4_U+30FC 1
 62
     7
420
 16777215
370
     9
100
AcDbVertex
100
AcDb2dVertex
 10
106.6804911672428
 20
-119.8991477478031
 30
0.0
  0
SEQEND
  5
78
330
75
100
AcDbEntity
  8
_U+30EC_U+30A4_U+30E4_U+30FC 1
 62
     7
420
 16777215
370
     9
  0
POLYLINE
  5
79
330
71
100
AcDbEntity
  8
_U+30EC_U+30A4_U+30E4_U+30FC 1
 62
     7
420
 16777215
370
     9
100
AcDb2dPolyline
 66
     1
 10
0.0
 20
0.0
 30
0.0
  0
VERTEX
  5
7A
330
79
100
AcDbEntity
  8
_U+30EC_U+30A4_U+30E4_U+30FC 1
 62
     7
420
 16777215
370
     9
100
AcDbVertex
100
AcDb2dVertex
 10
106.6804911672428
 20
-123.6694602468606
 30
0.0
  0
VERTEX
  5
7B
330
79
100
AcDbEntity
  8
_U+30EC_U+30A4_U+30E4_U+30FC 1
 62
     7
420
 16777215
370
     9
100
AcDbVertex
100
AcDb2dVertex
 10
106.6804911672428
 20
-124.6692324688328
 30
0.0
  0
SEQEND
  5
7C
330
79
100
AcDbEntity
  8
_U+30EC_U+30A4_U+30E4_U+30FC 1
 62
     7
420
 16777215
370
     9
  0
POLYLINE
  5
7D
330
71
100
AcDbEntity
  8
_U+30EC_U+30A4_U+30E4_U+30FC 1
 62
     7
420
 16777215
370
     9
100
AcDb2dPolyline
 66
     1
 10
0.0
 20
0.0
 30
0.0
  0
VERTEX
  5
7E
330
7D
100
AcDbEntity
  8
_U+30EC_U+30A4_U+30E4_U+30FC 1
 62
     7
420
 16777215
370
     9
100
AcDbVertex
100
AcDb2dVertex
 10
105.2204498156027
 20
-123.6694602468606
 30
0.0
  0
VERTEX
  5
7F
330
7D
100
AcDbEntity
  8
_U+30EC_U+30A4_U+30E4_U+30FC 1
 62
     7
420
 16777215
370
     9
100
AcDbVertex
100
AcDb2dVertex
 10
107.6802633639587
 20
-123.6694602468606
 30
0.0
  0
SEQEND
  5
80
330
7D
100
AcDbEntity
  8
_U+30EC_U+30A4_U+30E4_U+30FC 1
 62
     7
420
 16777215
370
     9
  0
POLYLINE
  5
81
330
71
100
AcDbEntity
  8
_U+30EC_U+30A4_U+30E4_U+30FC 1
 62
     7
420
 16777215
370
     9
100
AcDb2dPolyline
 66
     1
 10
0.0
 20
0.0
 30
0.0
  0
VERTEX
  5
82
330
81
100
AcDbEntity
  8
_U+30EC_U+30A4_U+30E4_U+30FC 1
 62
     7
420
 16777215
370
     9
100
AcDbVertex
100
AcDb2dVertex
 10
105.2204498156027
 20
-124.6692324688328
 30
0.0
  0
VERTEX
  5
83
330
81
100
AcDbEntity
  8
_U+30EC_U+30A4_U+30E4_U+30FC 1
 62
     7
420
 16777215
370
     9
100
AcDbVertex
100
AcDb2dVertex
 10
107.6802633639587
 20
-124.6692324688328
 30
0.0
  0
SEQEND
  5
84
330
81
100
AcDbEntity
  8
_U+30EC_U+30A4_U+30E4_U+30FC 1
 62
     7
420
 16777215
370
     9
  0
INSERT
  5
86
330
71
100
AcDbEntity
  8
_U+30EC_U+30A4_U+30E4_U+30FC 1
100
AcDbBlockReference
  2
block 5
 10
0.0
 20
0.0
 30
0.0
  0
ENDBLK
  5
74
330
71
100
AcDbEntity
  8
0
100
AcDbBlockEnd
  0
BLOCK
  5
87
330
85
100
AcDbEntity
  8
0
100
AcDbBlockBegin
  2
block 5
 70
     0
 10
0.0
 20
0.0
 30
0.0
  3
block 5
  1

  0
SPLINE
  5
89
330
85
100
AcDbEntity
  8
_U+30EC_U+30A4_U+30E4_U+30FC 1
370
     0
100
AcDbSpline
210
0.0
220
0.0
230
1.0
 70
    11
 71
     3
 72
    26
 73
    22
 74
     0
 42
0.0000000001
 43
0.0000000001
 12
1.0
 22
0.0
 32
0.0
 13
1.0
 23
0.0
 33
0.0
 40
0.0
 40
0.0
 40
0.0
 40
0.0
 40
1.0
 40
1.0
 40
1.0
 40
2.0
 40
2.0
 40
2.0
 40
3.0
 40
3.0
 40
3.0
 40
4.0
 40
4.0
 40
4.0
 40
5.0
 40
5.0
 40
5.0
 40
6.0
 40
6.0
 40
6.0
 40
7.0
 40
7.0
 40
7.0
 40
7.0
 10
104.9658582636891
 20
-124.2463351468898
 30
0.0
 10
104.9658582636891
 20
-124.2463351468898
 30
0.0
 10
103.8617051606665
 20
-124.2463351468898
 30
0.0
 10
103.8617051606665
 20
-124.2463351468898
 30
0.0
 10
103.8617051606665
 20
-124.2463351468898
 30
0.0
 10
103.8617051606665
 20
-124.5763752943767
 30
0.0
 10
103.8617051606665
 20
-124.5763752943767
 30
0.0
 10
103.8617051606665
 20
-124.5763752943767
 30
0.0
 10
103.7135660548008
 20
-124.5763752943767
 30
0.0
 10
103.7135660548008
 20
-124.5763752943767
 30
0.0
 10
103.6987521442142
 20
-124.2442680895987
 30
0.0
 10
103.5357991277619
 20
-124.1977593005478
 30
0.0
 10
103.4214219576516
 20
-124.1681314793746
 30
0.0
 10
103.4214219576516
 20
-124.1681314793746
 30
0.0
 10
103.4214219576516
 20
-124.0220594308
 30
0.0
 10
103.4214219576516
 20
-124.0220594308
 30
0.0
 10
103.4214219576516
 20
-124.0220594308
 30
0.0
 10
104.9658582636891
 20
-124.0220594308
 30
0.0
 10
104.9658582636891
 20
-124.0220594308
 30
0.0
 10
104.9658582636891
 20
-124.0220594308
 30
0.0
 10
104.9658582636891
 20
-124.2463351468898
 30
0.0
 10
104.9658582636891
 20
-124.2463351468898
 30
0.0
  0
HATCH
  5
8A
330
85
100
AcDbEntity
  8
_U+30EC_U+30A4_U+30E4_U+30FC 1
 62
     7
420
 16777215
100
AcDbHatch
 10
0.0
 20
0.0
 30
0.0
210
0.0
220
0.0
230
1.0
  2
SOLID
 70
     1
 71
     0
 91
        1
 92
        1
 93
        1
 72
     4
 94
        3
 73
     0
 74
     1
 95
       26
 96
       22
 40
0.0
 40
0.0
 40
0.0
 40
0.0
 40
1.0
 40
1.0
 40
1.0
 40
2.0
 40
2.0
 40
2.0
 40
3.0
 40
3.0
 40
3.0
 40
4.0
 40
4.0
 40
4.0
 40
5.0
 40
5.0
 40
5.0
 40
6.0
 40
6.0
 40
6.0
 40
7.0
 40
7.0
 40
7.0
 40
7.0
 10
104.9658582636891
 20
-124.2463351468898
 10
104.9658582636891
 20
-124.2463351468898
 10
103.8617051606665
 20
-124.2463351468898
 10
103.8617051606665
 20
-124.2463351468898
 10
103.8617051606665
 20
-124.2463351468898
 10
103.8617051606665
 20
-124.5763752943767
 10
103.8617051606665
 20
-124.5763752943767
 10
103.8617051606665
 20
-124.5763752943767
 10
103.7135660548008
 20
-124.5763752943767
 10
103.7135660548008
 20
-124.5763752943767
 10
103.6987521442142
 20
-124.2442680895987
 10
103.5357991277619
 20
-124.1977593005478
 10
103.4214219576516
 20
-124.1681314793746
 10
103.4214219576516
 20
-124.1681314793746
 10
103.4214219576516
 20
-124.0220594308
 10
103.4214219576516
 20
-124.0220594308
 10
103.4214219576516
 20
-124.0220594308
 10
104.9658582636891
 20
-124.0220594308
 10
104.9658582636891
 20
-124.0220594308
 10
104.9658582636891
 20
-124.0220594308
 10
104.9658582636891
 20
-124.2463351468898
 10
104.9658582636891
 20
-124.2463351468898
 97
        0
 97
        0
 75
     2
 76
     1
 98
        0
  0
ENDBLK
  5
88
330
85
100
AcDbEntity
  8
0
100
AcDbBlockEnd
  0
BLOCK
  5
8D
330
8B
100
AcDbEntity
  8
0
100
AcDbBlockBegin
  2
block 6
 70
     0
 10
0.0
 20
0.0
 30
0.0
  3
block 6
  1

  0
POLYLINE
  5
8F
330
8B
100
AcDbEntity
  8
_U+30EC_U+30A4_U+30E4_U+30FC 1
 62
     7
420
 16777215
370
     9
100
AcDb2dPolyline
 66
     1
 10
0.0
 20
0.0
 30
0.0
  0
VERTEX
  5
90
330
8F
100
AcDbEntity
  8
_U+30EC_U+30A4_U+30E4_U+30FC 1
 62
     7
420
 16777215
370
     9
100
AcDbVertex
100
AcDb2dVertex
 10
106.6804911672428
 20
-136.1694705215134
 30
0.0
  0
VERTEX
  5
91
330
8F
100
AcDbEntity
  8
_U+30EC_U+30A4_U+30E4_U+30FC 1
 62
     7
420
 16777215
370
     9
100
AcDbVertex
100
AcDb2dVertex
 10
106.6804911672428
 20
-133.1694835778191
 30
0.0
  0
SEQEND
  5
92
330
8F
100
AcDbEntity
  8
_U+30EC_U+30A4_U+30E4_U+30FC 1
 62
     7
420
 16777215
370
     9
  0
POLYLINE
  5
93
330
8B
100
AcDbEntity
  8
_U+30EC_U+30A4_U+30E4_U+30FC 1
 62
     7
420
 16777215
370
     9
100
AcDb2dPolyline
 66
     1
 10
0.0
 20
0.0
 30
0.0
  0
VERTEX
  5
94
330
93
100
AcDbEntity
  8
_U+30EC_U+30A4_U+30E4_U+30FC 1
 62
     7
420
 16777215
370
     9
100
AcDbVertex
100
AcDb2dVertex
 10
90.22051547606067
 20
-136.1694705215134
 30
0.0
  0
VERTEX
  5
95
330
93
100
AcDbEntity
  8
_U+30EC_U+30A4_U+30E4_U+30FC 1
 62
     7
420
 16777215
370
     9
100
AcDbVertex
100
AcDb2dVertex
 10
107.6802633639587
 20
-136.1694705215134
 30
0.0
  0
SEQEND
  5
96
330
93
100
AcDbEntity
  8
_U+30EC_U+30A4_U+30E4_U+30FC 1
 62
     7
420
 16777215
370
     9
  0
INSERT
  5
98
330
8B
100
AcDbEntity
  8
_U+30EC_U+30A4_U+30E4_U+30FC 1
100
AcDbBlockReference
  2
block 7
 10
0.0
 20
0.0
 30
0.0
  0
ENDBLK
  5
8E
330
8B
100
AcDbEntity
  8
0
100
AcDbBlockEnd
  0
BLOCK
  5
99
330
97
100
AcDbEntity
  8
0
100
AcDbBlockBegin
  2
block 7
 70
     0
 10
0.0
 20
0.0
 30
0.0
  3
block 7
  1

  0
SPLINE
  5
9B
330
97
100
AcDbEntity
  8
_U+30EC_U+30A4_U+30E4_U+30FC 1
370
     0
100
AcDbSpline
210
0.0
220
0.0
230
1.0
 70
    11
 71
     3
 72
    62
 73
    58
 74
     0
 42
0.0000000001
 43
0.0000000001
 12
1.0
 22
0.0
 32
0.0
 13
1.0
 23
0.0
 33
0.0
 40
0.0
 40
0.0
 40
0.0
 40
0.0
 40
1.0
 40
1.0
 40
1.0
 40
2.0
 40
2.0
 40
2.0
 40
3.0
 40
3.0
 40
3.0
 40
4.0
 40
4.0
 40
4.0
 40
5.0
 40
5.0
 40
5.0
 40
6.0
 40
6.0
 40
6.0
 40
7.0
 40
7.0
 40
7.0
 40
8.0
 40
8.0
 40
8.0
 40
9.0
 40
9.0
 40
9.0
 40
10.0
 40
10.0
 40
10.0
 40
11.0
 40
11.0
 40
11.0
 40
12.0
 40
12.0
 40
12.0
 40
13.0
 40
13.0
 40
13.0
 40
14.0
 40
14.0
 40
14.0
 40
15.0
 40
15.0
 40
15.0
 40
16.0
 40
16.0
 40
16.0
 40
17.0
 40
17.0
 40
17.0
 40
18.0
 40
18.0
 40
18.0
 40
19.0
 40
19.0
 40
19.0
 40
19.0
 10
105.0165011673223
 20
-134.6777397666778
 30
0.0
 10
105.0165011673223
 20
-134.7731689116192
 30
0.0
 10
104.9954860848623
 20
-134.990898946287
 30
0.0
 10
104.8094509286587
 20
-135.1159559124016
 30
0.0
 10
104.6971408158396
 20
-135.1896809557859
 30
0.0
 10
104.5979220658644
 20
-135.1941595799167
 30
0.0
 10
104.5131727169273
 20
-135.1982936944991
 30
0.0
 10
104.5131727169273
 20
-135.1982936944991
 30
0.0
 10
104.5131727169273
 20
-134.9781520929916
 30
0.0
 10
104.5131727169273
 20
-134.9781520929916
 30
0.0
 10
104.5872422698601
 20
-134.9760850357004
 30
0.0
 10
104.8218532724056
 20
-134.9657497492447
 30
0.0
 10
104.8218532724056
 20
-134.6822183908086
 30
0.0
 10
104.8218532724056
 20
-134.5447590809472
 30
0.0
 10
104.7522623436036
 20
-134.3921413509506
 30
0.0
 10
104.5238525129315
 20
-134.3921413509506
 30
0.0
 10
104.4074082855301
 20
-134.3921413509506
 30
0.0
 10
104.3588324391881
 20
-134.4303819108368
 30
0.0
 10
104.3271375607238
 20
-134.4620767893012
 30
0.0
 10
104.2530680077909
 20
-134.536146342234
 30
0.0
 10
104.2403211544955
 20
-134.6525905696355
 30
0.0
 10
104.2403211544955
 20
-134.7073675878509
 30
0.0
 10
104.2403211544955
 20
-134.7266601225683
 30
0.0
 10
104.2423882117866
 20
-134.7624891156149
 30
0.0
 10
104.2465223263689
 20
-134.7900498794969
 30
0.0
 10
104.2465223263689
 20
-134.7900498794969
 30
0.0
 10
104.0518744314523
 20
-134.7900498794969
 30
0.0
 10
104.0518744314523
 20
-134.7900498794969
 30
0.0
 10
104.0584201128743
 20
-134.7518093196107
 30
0.0
 10
104.0604871701654
 20
-134.7097791546906
 30
0.0
 10
104.0604871701654
 20
-134.7032334732687
 30
0.0
 10
104.0604871701654
 20
-134.6377766590489
 30
0.0
 10
104.0391275781569
 20
-134.43899464955
 30
0.0
 10
103.8024495183202
 20
-134.43899464955
 30
0.0
 10
103.6246825912813
 20
-134.43899464955
 30
0.0
 10
103.5695610635173
 20
-134.5699082779895
 30
0.0
 10
103.5695610635173
 20
-134.6801513335175
 30
0.0
 10
103.5695610635173
 20
-134.9443901572361
 30
0.0
 10
103.8024495183202
 20
-134.9530028959493
 30
0.0
 10
103.8741075044134
 20
-134.9571370105316
 30
0.0
 10
103.8741075044134
 20
-134.9571370105316
 30
0.0
 10
103.8741075044134
 20
-135.1603976441613
 30
0.0
 10
103.8741075044134
 20
-135.1603976441613
 30
0.0
 10
103.7493950478474
 20
-135.1517849054482
 30
0.0
 10
103.3728461113096
 20
-135.1242241415662
 30
0.0
 10
103.3728461113096
 20
-134.667404480222
 30
0.0
 10
103.3728461113096
 20
-134.4431287641323
 30
0.0
 10
103.4999701347153
 20
-134.2019720801648
 30
0.0
 10
103.7959038368982
 20
-134.2019720801648
 30
0.0
 10
103.9822835026503
 20
-134.2019720801648
 30
0.0
 10
104.0646212847477
 20
-134.2970567155577
 30
0.0
 10
104.1259439843852
 20
-134.3966199750814
 30
0.0
 10
104.1535047482672
 20
-134.335297275444
 30
0.0
 10
104.2337754730735
 20
-134.1533962338228
 30
0.0
 10
104.5111056596361
 20
-134.1533962338228
 30
0.0
 10
104.8494140362877
 20
-134.1533962338228
 30
0.0
 10
105.0165011673223
 20
-134.4007540896637
 30
0.0
 10
105.0165011673223
 20
-134.6777397666778
 30
0.0
  0
HATCH
  5
9C
330
97
100
AcDbEntity
  8
_U+30EC_U+30A4_U+30E4_U+30FC 1
 62
     7
420
 16777215
100
AcDbHatch
 10
0.0
 20
0.0
 30
0.0
210
0.0
220
0.0
230
1.0
  2
SOLID
 70
     1
 71
     0
 91
        1
 92
        1
 93
        1
 72
     4
 94
        3
 73
     0
 74
     1
 95
       62
 96
       58
 40
0.0
 40
0.0
 40
0.0
 40
0.0
 40
1.0
 40
1.0
 40
1.0
 40
2.0
 40
2.0
 40
2.0
 40
3.0
 40
3.0
 40
3.0
 40
4.0
 40
4.0
 40
4.0
 40
5.0
 40
5.0
 40
5.0
 40
6.0
 40
6.0
 40
6.0
 40
7.0
 40
7.0
 40
7.0
 40
8.0
 40
8.0
 40
8.0
 40
9.0
 40
9.0
 40
9.0
 40
10.0
 40
10.0
 40
10.0
 40
11.0
 40
11.0
 40
11.0
 40
12.0
 40
12.0
 40
12.0
 40
13.0
 40
13.0
 40
13.0
 40
14.0
 40
14.0
 40
14.0
 40
15.0
 40
15.0
 40
15.0
 40
16.0
 40
16.0
 40
16.0
 40
17.0
 40
17.0
 40
17.0
 40
18.0
 40
18.0
 40
18.0
 40
19.0
 40
19.0
 40
19.0
 40
19.0
 10
105.0165011673223
 20
-134.6777397666778
 10
105.0165011673223
 20
-134.7731689116192
 10
104.9954860848623
 20
-134.990898946287
 10
104.8094509286587
 20
-135.1159559124016
 10
104.6971408158396
 20
-135.1896809557859
 10
104.5979220658644
 20
-135.1941595799167
 10
104.5131727169273
 20
-135.1982936944991
 10
104.5131727169273
 20
-135.1982936944991
 10
104.5131727169273
 20
-134.9781520929916
 10
104.5131727169273
 20
-134.9781520929916
 10
104.5872422698601
 20
-134.9760850357004
 10
104.8218532724056
 20
-134.9657497492447
 10
104.8218532724056
 20
-134.6822183908086
 10
104.8218532724056
 20
-134.5447590809472
 10
104.7522623436036
 20
-134.3921413509506
 10
104.5238525129315
 20
-134.3921413509506
 10
104.4074082855301
 20
-134.3921413509506
 10
104.3588324391881
 20
-134.4303819108368
 10
104.3271375607238
 20
-134.4620767893012
 10
104.2530680077909
 20
-134.536146342234
 10
104.2403211544955
 20
-134.6525905696355
 10
104.2403211544955
 20
-134.7073675878509
 10
104.2403211544955
 20
-134.7266601225683
 10
104.2423882117866
 20
-134.7624891156149
 10
104.2465223263689
 20
-134.7900498794969
 10
104.2465223263689
 20
-134.7900498794969
 10
104.0518744314523
 20
-134.7900498794969
 10
104.0518744314523
 20
-134.7900498794969
 10
104.0584201128743
 20
-134.7518093196107
 10
104.0604871701654
 20
-134.7097791546906
 10
104.0604871701654
 20
-134.7032334732687
 10
104.0604871701654
 20
-134.6377766590489
 10
104.0391275781569
 20
-134.43899464955
 10
103.8024495183202
 20
-134.43899464955
 10
103.6246825912813
 20
-134.43899464955
 10
103.5695610635173
 20
-134.5699082779895
 10
103.5695610635173
 20
-134.6801513335175
 10
103.5695610635173
 20
-134.9443901572361
 10
103.8024495183202
 20
-134.9530028959493
 10
103.8741075044134
 20
-134.9571370105316
 10
103.8741075044134
 20
-134.9571370105316
 10
103.8741075044134
 20
-135.1603976441613
 10
103.8741075044134
 20
-135.1603976441613
 10
103.7493950478474
 20
-135.1517849054482
 10
103.3728461113096
 20
-135.1242241415662
 10
103.3728461113096
 20
-134.667404480222
 10
103.3728461113096
 20
-134.4431287641323
 10
103.4999701347153
 20
-134.2019720801648
 10
103.7959038368982
 20
-134.2019720801648
 10
103.9822835026503
 20
-134.2019720801648
 10
104.0646212847477
 20
-134.2970567155577
 10
104.1259439843852
 20
-134.3966199750814
 10
104.1535047482672
 20
-134.335297275444
 10
104.2337754730735
 20
-134.1533962338228
 10
104.5111056596361
 20
-134.1533962338228
 10
104.8494140362877
 20
-134.1533962338228
 10
105.0165011673223
 20
-134.4007540896637
 10
105.0165011673223
 20
-134.6777397666778
 97
        0
 97
        0
 75
     2
 76
     1
 98
        0
  0
ENDBLK
  5
9A
330
97
100
AcDbEntity
  8
0
100
AcDbBlockEnd
  0
BLOCK
  5
9F
330
9D
100
AcDbEntity
  8
0
100
AcDbBlockBegin
  2
block 8
 70
     0
 10
0.0
 20
0.0
 30
0.0
  3
block 8
  1

  0
POLYLINE
  5
A1
330
9D
100
AcDbEntity
  8
_U+30EC_U+30A4_U+30E4_U+30FC 1
 62
     7
420
 16777215
370
     9
100
AcDb2dPolyline
 66
     1
 10
0.0
 20
0.0
 30
0.0
  0
VERTEX
  5
A2
330
A1
100
AcDbEntity
  8
_U+30EC_U+30A4_U+30E4_U+30FC 1
 62
     7
420
 16777215
370
     9
100
AcDbVertex
100
AcDb2dVertex
 10
74.6803725391894
 20
-140.1692296871796
 30
0.0
  0
VERTEX
  5
A3
330
A1
100
AcDbEntity
  8
_U+30EC_U+30A4_U+30E4_U+30FC 1
 62
     7
420
 16777215
370
     9
100
AcDbVertex
100
AcDb2dVertex
 10
82.68056094619871
 20
-140.1692296871796
 30
0.0
  0
SEQEND
  5
A4
330
A1
100
AcDbEntity
  8
_U+30EC_U+30A4_U+30E4_U+30FC 1
 62
     7
420
 16777215
370
     9
  0
POLYLINE
  5
A5
330
9D
100
AcDbEntity
  8
_U+30EC_U+30A4_U+30E4_U+30FC 1
 62
     7
420
 16777215
370
     9
100
AcDb2dPolyline
 66
     1
 10
0.0
 20
0.0
 30
0.0
  0
VERTEX
  5
A6
330
A5
100
AcDbEntity
  8
_U+30EC_U+30A4_U+30E4_U+30FC 1
 62
     7
420
 16777215
370
     9
100
AcDbVertex
100
AcDb2dVertex
 10
74.6803725391894
 20
-127.209620523753
 30
0.0
  0
VERTEX
  5
A7
330
A5
100
AcDbEntity
  8
_U+30EC_U+30A4_U+30E4_U+30FC 1
 62
     7
420
 16777215
370
     9
100
AcDbVertex
100
AcDb2dVertex
 10
74.6803725391894
 20
-141.1696721869295
 30
0.0
  0
SEQEND
  5
A8
330
A5
100
AcDbEntity
  8
_U+30EC_U+30A4_U+30E4_U+30FC 1
 62
     7
420
 16777215
370
     9
  0
POLYLINE
  5
A9
330
9D
100
AcDbEntity
  8
_U+30EC_U+30A4_U+30E4_U+30FC 1
 62
     7
420
 16777215
370
     9
100
AcDb2dPolyline
 66
     1
 10
0.0
 20
0.0
 30
0.0
  0
VERTEX
  5
AA
330
A9
100
AcDbEntity
  8
_U+30EC_U+30A4_U+30E4_U+30FC 1
 62
     7
420
 16777215
370
     9
100
AcDbVertex
100
AcDb2dVertex
 10
82.68056094619871
 20
-138.7091882986559
 30
0.0
  0
VERTEX
  5
AB
330
A9
100
AcDbEntity
  8
_U+30EC_U+30A4_U+30E4_U+30FC 1
 62
     7
420
 16777215
370
     9
100
AcDbVertex
100
AcDb2dVertex
 10
82.68056094619871
 20
-141.1696721869295
 30
0.0
  0
SEQEND
  5
AC
330
A9
100
AcDbEntity
  8
_U+30EC_U+30A4_U+30E4_U+30FC 1
 62
     7
420
 16777215
370
     9
  0
INSERT
  5
AE
330
9D
100
AcDbEntity
  8
_U+30EC_U+30A4_U+30E4_U+30FC 1
100
AcDbBlockReference
  2
block 9
 10
0.0
 20
0.0
 30
0.0
  0
ENDBLK
  5
A0
330
9D
100
AcDbEntity
  8
0
100
AcDbBlockEnd
  0
BLOCK
  5
AF
330
AD
100
AcDbEntity
  8
0
100
AcDbBlockBegin
  2
block 9
 70
     0
 10
0.0
 20
0.0
 30
0.0
  3
block 9
  1

  0
SPLINE
  5
B1
330
AD
100
AcDbEntity
  8
_U+30EC_U+30A4_U+30E4_U+30FC 1
370
     0
100
AcDbSpline
210
0.0
220
0.0
230
1.0
 70
    11
 71
     3
 72
    29
 73
    25
 74
     0
 42
0.0000000001
 43
0.0000000001
 12
1.0
 22
0.0
 32
0.0
 13
1.0
 23
0.0
 33
0.0
 40
0.0
 40
0.0
 40
0.0
 40
0.0
 40
1.0
 40
1.0
 40
1.0
 40
2.0
 40
2.0
 40
2.0
 40
3.0
 40
3.0
 40
3.0
 40
4.0
 40
4.0
 40
4.0
 40
5.0
 40
5.0
 40
5.0
 40
6.0
 40
6.0
 40
6.0
 40
7.0
 40
7.0
 40
7.0
 40
8.0
 40
8.0
 40
8.0
 40
8.0
 10
78.68012422078137
 20
-139.5739094703149
 30
0.0
 10
78.41364608499728
 20
-139.5739094703149
 30
0.0
 10
78.15974254773437
 20
-139.4364501604534
 30
0.0
 10
78.15974254773437
 20
-139.0874619877976
 30
0.0
 10
78.15974254773437
 20
-138.8314913932435
 30
0.0
 10
78.30150822695241
 20
-138.7364067578506
 30
0.0
 10
78.40727265834957
 20
-138.6750840582132
 30
0.0
 10
78.28238794700927
 20
-138.6158284158669
 30
0.0
 10
78.20625133678524
 20
-138.5014512457566
 30
0.0
 10
78.20625133678524
 20
-138.3405652865954
 30
0.0
 10
78.20625133678524
 20
-138.0656466668725
 30
0.0
 10
78.40520560105843
 20
-137.9302544143022
 30
0.0
 10
78.68012422078137
 20
-137.9302544143022
 30
0.0
 10
78.96365557921742
 20
-137.9302544143022
 30
0.0
 10
79.15399710477747
 20
-138.0742594055856
 30
0.0
 10
79.15399710477747
 20
-138.3405652865954
 30
0.0
 10
79.15399710477747
 20
-138.5014512457566
 30
0.0
 10
79.0757934372623
 20
-138.6158284158669
 30
0.0
 10
78.950908725922
 20
-138.6750840582132
 30
0.0
 10
79.03979218944144
 20
-138.7257269618464
 30
0.0
 10
79.19843883653719
 20
-138.8208115972392
 30
0.0
 10
79.19843883653719
 20
-139.0833278732153
 30
0.0
 10
79.19843883653719
 20
-139.4578097524619
 30
0.0
 10
78.9192138474577
 20
-139.5739094703149
 30
0.0
 10
78.68012422078137
 20
-139.5739094703149
 30
0.0
  0
SPLINE
  5
B2
330
AD
100
AcDbEntity
  8
_U+30EC_U+30A4_U+30E4_U+30FC 1
370
     0
100
AcDbSpline
210
0.0
220
0.0
230
1.0
 70
    11
 71
     3
 72
    17
 73
    13
 74
     0
 42
0.0000000001
 43
0.0000000001
 12
1.0
 22
0.0
 32
0.0
 13
1.0
 23
0.0
 33
0.0
 40
0.0
 40
0.0
 40
0.0
 40
0.0
 40
1.0
 40
1.0
 40
1.0
 40
2.0
 40
2.0
 40
2.0
 40
3.0
 40
3.0
 40
3.0
 40
4.0
 40
4.0
 40
4.0
 40
4.0
 10
78.68012422078137
 20
-138.7829155469015
 30
0.0
 10
78.53629148427218
 20
-138.7829155469015
 30
0.0
 10
78.38401826382413
 20
-138.8697319531298
 30
0.0
 10
78.38401826382413
 20
-139.072648077211
 30
0.0
 10
78.38401826382413
 20
-139.2779757681319
 30
0.0
 10
78.51097003245559
 20
-139.3792615753983
 30
0.0
 10
78.68012422078137
 20
-139.3792615753983
 30
0.0
 10
78.86633163175911
 20
-139.3792615753983
 30
0.0
 10
78.97640243251284
 20
-139.2566161761233
 30
0.0
 10
78.97640243251284
 20
-139.0788492490845
 30
0.0
 10
78.97640243251284
 20
-138.8569850998344
 30
0.0
 10
78.81344941606054
 20
-138.7829155469015
 30
0.0
 10
78.68012422078137
 20
-138.7829155469015
 30
0.0
  0
SPLINE
  5
B3
330
AD
100
AcDbEntity
  8
_U+30EC_U+30A4_U+30E4_U+30FC 1
370
     0
100
AcDbSpline
210
0.0
220
0.0
230
1.0
 70
    11
 71
     3
 72
    17
 73
    13
 74
     0
 42
0.0000000001
 43
0.0000000001
 12
1.0
 22
0.0
 32
0.0
 13
1.0
 23
0.0
 33
0.0
 40
0.0
 40
0.0
 40
0.0
 40
0.0
 40
1.0
 40
1.0
 40
1.0
 40
2.0
 40
2.0
 40
2.0
 40
3.0
 40
3.0
 40
3.0
 40
4.0
 40
4.0
 40
4.0
 40
4.0
 10
78.68012422078137
 20
-138.1228352519276
 30
0.0
 10
78.51510414703789
 20
-138.1228352519276
 30
0.0
 10
78.43052705287501
 20
-138.2179198873205
 30
0.0
 10
78.43052705287501
 20
-138.3533121398908
 30
0.0
 10
78.43052705287501
 20
-138.4759575391657
 30
0.0
 10
78.50252954851673
 20
-138.5944688238583
 30
0.0
 10
78.68012422078137
 20
-138.5944688238583
 30
0.0
 10
78.85789114782025
 20
-138.5944688238583
 30
0.0
 10
78.92972138868771
 20
-138.4759575391657
 30
0.0
 10
78.92972138868771
 20
-138.3533121398908
 30
0.0
 10
78.92972138868771
 20
-138.2179198873205
 30
0.0
 10
78.84307723723367
 20
-138.1228352519276
 30
0.0
 10
78.68012422078137
 20
-138.1228352519276
 30
0.0
  0
HATCH
  5
B4
330
AD
100
AcDbEntity
  8
_U+30EC_U+30A4_U+30E4_U+30FC 1
 62
     7
420
 16777215
100
AcDbHatch
 10
0.0
 20
0.0
 30
0.0
210
0.0
220
0.0
230
1.0
  2
SOLID
 70
     1
 71
     0
 91
        3
 92
        1
 93
        1
 72
     4
 94
        3
 73
     0
 74
     1
 95
       29
 96
       25
 40
0.0
 40
0.0
 40
0.0
 40
0.0
 40
1.0
 40
1.0
 40
1.0
 40
2.0
 40
2.0
 40
2.0
 40
3.0
 40
3.0
 40
3.0
 40
4.0
 40
4.0
 40
4.0
 40
5.0
 40
5.0
 40
5.0
 40
6.0
 40
6.0
 40
6.0
 40
7.0
 40
7.0
 40
7.0
 40
8.0
 40
8.0
 40
8.0
 40
8.0
 10
78.68012422078137
 20
-139.5739094703149
 10
78.41364608499728
 20
-139.5739094703149
 10
78.15974254773437
 20
-139.4364501604534
 10
78.15974254773437
 20
-139.0874619877976
 10
78.15974254773437
 20
-138.8314913932435
 10
78.30150822695241
 20
-138.7364067578506
 10
78.40727265834957
 20
-138.6750840582132
 10
78.28238794700927
 20
-138.6158284158669
 10
78.20625133678524
 20
-138.5014512457566
 10
78.20625133678524
 20
-138.3405652865954
 10
78.20625133678524
 20
-138.0656466668725
 10
78.40520560105843
 20
-137.9302544143022
 10
78.68012422078137
 20
-137.9302544143022
 10
78.96365557921742
 20
-137.9302544143022
 10
79.15399710477747
 20
-138.0742594055856
 10
79.15399710477747
 20
-138.3405652865954
 10
79.15399710477747
 20
-138.5014512457566
 10
79.0757934372623
 20
-138.6158284158669
 10
78.950908725922
 20
-138.6750840582132
 10
79.03979218944144
 20
-138.7257269618464
 10
79.19843883653719
 20
-138.8208115972392
 10
79.19843883653719
 20
-139.0833278732153
 10
79.19843883653719
 20
-139.4578097524619
 10
78.9192138474577
 20
-139.5739094703149
 10
78.68012422078137
 20
-139.5739094703149
 97
        0
 97
        0
 92
        1
 93
        1
 72
     4
 94
        3
 73
     0
 74
     1
 95
       17
 96
       13
 40
0.0
 40
0.0
 40
0.0
 40
0.0
 40
1.0
 40
1.0
 40
1.0
 40
2.0
 40
2.0
 40
2.0
 40
3.0
 40
3.0
 40
3.0
 40
4.0
 40
4.0
 40
4.0
 40
4.0
 10
78.68012422078137
 20
-138.7829155469015
 10
78.53629148427218
 20
-138.7829155469015
 10
78.38401826382413
 20
-138.8697319531298
 10
78.38401826382413
 20
-139.072648077211
 10
78.38401826382413
 20
-139.2779757681319
 10
78.51097003245559
 20
-139.3792615753983
 10
78.68012422078137
 20
-139.3792615753983
 10
78.86633163175911
 20
-139.3792615753983
 10
78.97640243251284
 20
-139.2566161761233
 10
78.97640243251284
 20
-139.0788492490845
 10
78.97640243251284
 20
-138.8569850998344
 10
78.81344941606054
 20
-138.7829155469015
 10
78.68012422078137
 20
-138.7829155469015
 97
        0
 97
        0
 92
        1
 93
        1
 72
     4
 94
        3
 73
     0
 74
     1
 95
       17
 96
       13
 40
0.0
 40
0.0
 40
0.0
 40
0.0
 40
1.0
 40
1.0
 40
1.0
 40
2.0
 40
2.0
 40
2.0
 40
3.0
 40
3.0
 40
3.0
 40
4.0
 40
4.0
 40
4.0
 40
4.0
 10
78.68012422078137
 20
-138.1228352519276
 10
78.51510414703789
 20
-138.1228352519276
 10
78.43052705287501
 20
-138.2179198873205
 10
78.43052705287501
 20
-138.3533121398908
 10
78.43052705287501
 20
-138.4759575391657
 10
78.50252954851673
 20
-138.5944688238583
 10
78.68012422078137
 20
-138.5944688238583
 10
78.85789114782025
 20
-138.5944688238583
 10
78.92972138868771
 20
-138.4759575391657
 10
78.92972138868771
 20
-138.3533121398908
 10
78.92972138868771
 20
-138.2179198873205
 10
78.84307723723367
 20
-138.1228352519276
 10
78.68012422078137
 20
-138.1228352519276
 97
        0
 97
        0
 75
     2
 76
     1
 98
        0
  0
ENDBLK
  5
B0
330
AD
100
AcDbEntity
  8
0
100
AcDbBlockEnd
  0
BLOCK
  5
B7
330
B5
100
AcDbEntity
  8
0
100
AcDbBlockBegin
  2
block 10
 70
     0
 10
0.0
 20
0.0
 30
0.0
  3
block 10
  1

  0
POLYLINE
  5
B9
330
B5
100
AcDbEntity
  8
_U+30EC_U+30A4_U+30E4_U+30FC 1
 62
     7
420
 16777215
370
     9
100
AcDb2dPolyline
 66
     1
 10
0.0
 20
0.0
 30
0.0
  0
VERTEX
  5
BA
330
B9
100
AcDbEntity
  8
_U+30EC_U+30A4_U+30E4_U+30FC 1
 62
     7
420
 16777215
370
     9
100
AcDbVertex
100
AcDb2dVertex
 10
82.68056094619871
 20
-140.1692296871796
 30
0.0
  0
VERTEX
  5
BB
330
B9
100
AcDbEntity
  8
_U+30EC_U+30A4_U+30E4_U+30FC 1
 62
     7
420
 16777215
370
     9
100
AcDbVertex
100
AcDb2dVertex
 10
87.68009442252456
 20
-140.1692296871796
 30
0.0
  0
SEQEND
  5
BC
330
B9
100
AcDbEntity
  8
_U+30EC_U+30A4_U+30E4_U+30FC 1
 62
     7
420
 16777215
370
     9
  0
POLYLINE
  5
BD
330
B5
100
AcDbEntity
  8
_U+30EC_U+30A4_U+30E4_U+30FC 1
 62
     7
420
 16777215
370
     9
100
AcDb2dPolyline
 66
     1
 10
0.0
 20
0.0
 30
0.0
  0
VERTEX
  5
BE
330
BD
100
AcDbEntity
  8
_U+30EC_U+30A4_U+30E4_U+30FC 1
 62
     7
420
 16777215
370
     9
100
AcDbVertex
100
AcDb2dVertex
 10
87.68009442252456
 20
-138.7091882986559
 30
0.0
  0
VERTEX
  5
BF
330
BD
100
AcDbEntity
  8
_U+30EC_U+30A4_U+30E4_U+30FC 1
 62
     7
420
 16777215
370
     9
100
AcDbVertex
100
AcDb2dVertex
 10
87.68009442252456
 20
-141.1696721869295
 30
0.0
  0
SEQEND
  5
C0
330
BD
100
AcDbEntity
  8
_U+30EC_U+30A4_U+30E4_U+30FC 1
 62
     7
420
 16777215
370
     9
  0
INSERT
  5
C2
330
B5
100
AcDbEntity
  8
_U+30EC_U+30A4_U+30E4_U+30FC 1
100
AcDbBlockReference
  2
block 11
 10
0.0
 20
0.0
 30
0.0
  0
ENDBLK
  5
B8
330
B5
100
AcDbEntity
  8
0
100
AcDbBlockEnd
  0
BLOCK
  5
C3
330
C1
100
AcDbEntity
  8
0
100
AcDbBlockBegin
  2
block 11
 70
     0
 10
0.0
 20
0.0
 30
0.0
  3
block 11
  1

  0
SPLINE
  5
C5
330
C1
100
AcDbEntity
  8
_U+30EC_U+30A4_U+30E4_U+30FC 1
370
     0
100
AcDbSpline
210
0.0
220
0.0
230
1.0
 70
    11
 71
     3
 72
    53
 73
    49
 74
     0
 42
0.0000000001
 43
0.0000000001
 12
1.0
 22
0.0
 32
0.0
 13
1.0
 23
0.0
 33
0.0
 40
0.0
 40
0.0
 40
0.0
 40
0.0
 40
1.0
 40
1.0
 40
1.0
 40
2.0
 40
2.0
 40
2.0
 40
3.0
 40
3.0
 40
3.0
 40
4.0
 40
4.0
 40
4.0
 40
5.0
 40
5.0
 40
5.0
 40
6.0
 40
6.0
 40
6.0
 40
7.0
 40
7.0
 40
7.0
 40
8.0
 40
8.0
 40
8.0
 40
9.0
 40
9.0
 40
9.0
 40
10.0
 40
10.0
 40
10.0
 40
11.0
 40
11.0
 40
11.0
 40
12.0
 40
12.0
 40
12.0
 40
13.0
 40
13.0
 40
13.0
 40
14.0
 40
14.0
 40
14.0
 40
15.0
 40
15.0
 40
15.0
 40
16.0
 40
16.0
 40
16.0
 40
16.0
 10
85.16103784763335
 20
-139.5739094703149
 30
0.0
 10
85.08266192534393
 20
-139.5739094703149
 30
0.0
 10
84.98120386330332
 20
-139.5570285024371
 30
0.0
 10
84.87957354648844
 20
-139.4936387455085
 30
0.0
 10
84.70611298880611
 20
-139.3837401995291
 30
0.0
 10
84.68492565157183
 20
-139.2524820615411
 30
0.0
 10
84.66597762640295
 20
-139.1446505728527
 30
0.0
 10
84.66597762640295
 20
-139.1446505728527
 30
0.0
 10
84.8880140304273
 20
-139.1446505728527
 30
0.0
 10
84.8880140304273
 20
-139.1446505728527
 30
0.0
 10
84.9431355581913
 20
-139.3434325823517
 30
0.0
 10
85.07008732682276
 20
-139.3730604035248
 30
0.0
 10
85.16310490492451
 20
-139.3730604035248
 30
0.0
 10
85.30263127207712
 20
-139.3730604035248
 30
0.0
 10
85.45507674729943
 20
-139.2734971440011
 30
0.0
 10
85.45507674729943
 20
-139.0409531987467
 30
0.0
 10
85.45507674729943
 20
-138.7849826041927
 30
0.0
 10
85.27524276296938
 20
-138.7150471658421
 30
0.0
 10
85.15466442098564
 20
-138.7150471658421
 30
0.0
 10
85.12296954252135
 20
-138.7150471658421
 30
0.0
 10
84.98120386330332
 20
-138.7150471658421
 30
0.0
 10
84.89232039978387
 20
-138.8442382465389
 30
0.0
 10
84.89232039978387
 20
-138.8442382465389
 30
0.0
 10
84.7167927848104
 20
-138.8252902213701
 30
0.0
 10
84.7167927848104
 20
-138.8252902213701
 30
0.0
 10
84.7167927848104
 20
-138.8252902213701
 30
0.0
 10
84.83737112679414
 20
-137.9788302606442
 30
0.0
 10
84.83737112679414
 20
-137.9788302606442
 30
0.0
 10
84.83737112679414
 20
-137.9788302606442
 30
0.0
 10
85.61579045168634
 20
-137.9788302606442
 30
0.0
 10
85.61579045168634
 20
-137.9788302606442
 30
0.0
 10
85.61579045168634
 20
-137.9788302606442
 30
0.0
 10
85.61579045168634
 20
-138.1734781555608
 30
0.0
 10
85.61579045168634
 20
-138.1734781555608
 30
0.0
 10
85.61579045168634
 20
-138.1734781555608
 30
0.0
 10
85.00015188847219
 20
-138.1734781555608
 30
0.0
 10
85.00015188847219
 20
-138.1734781555608
 30
0.0
 10
85.00015188847219
 20
-138.1734781555608
 30
0.0
 10
84.93469507425245
 20
-138.5965358811495
 30
0.0
 10
84.93469507425245
 20
-138.5965358811495
 30
0.0
 10
84.99601777388989
 20
-138.562773945394
 30
0.0
 10
85.07852781076163
 20
-138.5224663282166
 30
0.0
 10
85.19686684067996
 20
-138.5224663282166
 30
0.0
 10
85.45077037794287
 20
-138.5224663282166
 30
0.0
 10
85.68779294732805
 20
-138.7088459939686
 30
0.0
 10
85.68779294732805
 20
-139.0220051735778
 30
0.0
 10
85.68779294732805
 20
-139.3392984677693
 30
0.0
 10
85.46351723123828
 20
-139.5739094703149
 30
0.0
 10
85.16103784763335
 20
-139.5739094703149
 30
0.0
  0
HATCH
  5
C6
330
C1
100
AcDbEntity
  8
_U+30EC_U+30A4_U+30E4_U+30FC 1
 62
     7
420
 16777215
100
AcDbHatch
 10
0.0
 20
0.0
 30
0.0
210
0.0
220
0.0
230
1.0
  2
SOLID
 70
     1
 71
     0
 91
        1
 92
        1
 93
        1
 72
     4
 94
        3
 73
     0
 74
     1
 95
       53
 96
       49
 40
0.0
 40
0.0
 40
0.0
 40
0.0
 40
1.0
 40
1.0
 40
1.0
 40
2.0
 40
2.0
 40
2.0
 40
3.0
 40
3.0
 40
3.0
 40
4.0
 40
4.0
 40
4.0
 40
5.0
 40
5.0
 40
5.0
 40
6.0
 40
6.0
 40
6.0
 40
7.0
 40
7.0
 40
7.0
 40
8.0
 40
8.0
 40
8.0
 40
9.0
 40
9.0
 40
9.0
 40
10.0
 40
10.0
 40
10.0
 40
11.0
 40
11.0
 40
11.0
 40
12.0
 40
12.0
 40
12.0
 40
13.0
 40
13.0
 40
13.0
 40
14.0
 40
14.0
 40
14.0
 40
15.0
 40
15.0
 40
15.0
 40
16.0
 40
16.0
 40
16.0
 40
16.0
 10
85.16103784763335
 20
-139.5739094703149
 10
85.08266192534393
 20
-139.5739094703149
 10
84.98120386330332
 20
-139.5570285024371
 10
84.87957354648844
 20
-139.4936387455085
 10
84.70611298880611
 20
-139.3837401995291
 10
84.68492565157183
 20
-139.2524820615411
 10
84.66597762640295
 20
-139.1446505728527
 10
84.66597762640295
 20
-139.1446505728527
 10
84.8880140304273
 20
-139.1446505728527
 10
84.8880140304273
 20
-139.1446505728527
 10
84.9431355581913
 20
-139.3434325823517
 10
85.07008732682276
 20
-139.3730604035248
 10
85.16310490492451
 20
-139.3730604035248
 10
85.30263127207712
 20
-139.3730604035248
 10
85.45507674729943
 20
-139.2734971440011
 10
85.45507674729943
 20
-139.0409531987467
 10
85.45507674729943
 20
-138.7849826041927
 10
85.27524276296938
 20
-138.7150471658421
 10
85.15466442098564
 20
-138.7150471658421
 10
85.12296954252135
 20
-138.7150471658421
 10
84.98120386330332
 20
-138.7150471658421
 10
84.89232039978387
 20
-138.8442382465389
 10
84.89232039978387
 20
-138.8442382465389
 10
84.7167927848104
 20
-138.8252902213701
 10
84.7167927848104
 20
-138.8252902213701
 10
84.7167927848104
 20
-138.8252902213701
 10
84.83737112679414
 20
-137.9788302606442
 10
84.83737112679414
 20
-137.9788302606442
 10
84.83737112679414
 20
-137.9788302606442
 10
85.61579045168634
 20
-137.9788302606442
 10
85.61579045168634
 20
-137.9788302606442
 10
85.61579045168634
 20
-137.9788302606442
 10
85.61579045168634
 20
-138.1734781555608
 10
85.61579045168634
 20
-138.1734781555608
 10
85.61579045168634
 20
-138.1734781555608
 10
85.00015188847219
 20
-138.1734781555608
 10
85.00015188847219
 20
-138.1734781555608
 10
85.00015188847219
 20
-138.1734781555608
 10
84.93469507425245
 20
-138.5965358811495
 10
84.93469507425245
 20
-138.5965358811495
 10
84.99601777388989
 20
-138.562773945394
 10
85.07852781076163
 20
-138.5224663282166
 10
85.19686684067996
 20
-138.5224663282166
 10
85.45077037794287
 20
-138.5224663282166
 10
85.68779294732805
 20
-138.7088459939686
 10
85.68779294732805
 20
-139.0220051735778
 10
85.68779294732805
 20
-139.3392984677693
 10
85.46351723123828
 20
-139.5739094703149
 10
85.16103784763335
 20
-139.5739094703149
 97
        0
 97
        0
 75
     2
 76
     1
 98
        0
  0
ENDBLK
  5
C4
330
C1
100
AcDbEntity
  8
0
100
AcDbBlockEnd
  0
BLOCK
  5
C9
330
C7
100
AcDbEntity
  8
0
100
AcDbBlockBegin
  2
block 12
 70
     0
 10
0.0
 20
0.0
 30
0.0
  3
block 12
  1

  0
POLYLINE
  5
CB
330
C7
100
AcDbEntity
  8
_U+30EC_U+30A4_U+30E4_U+30FC 1
 62
     7
420
 16777215
370
     9
100
AcDb2dPolyline
 66
     1
 10
0.0
 20
0.0
 30
0.0
  0
VERTEX
  5
CC
330
CB
100
AcDbEntity
  8
_U+30EC_U+30A4_U+30E4_U+30FC 1
 62
     7
420
 16777215
370
     9
100
AcDbVertex
100
AcDb2dVertex
 10
74.6803725391894
 20
-119.6693483034159
 30
0.0
  0
VERTEX
  5
CD
330
CB
100
AcDbEntity
  8
_U+30EC_U+30A4_U+30E4_U+30FC 1
 62
     7
420
 16777215
370
     9
100
AcDbVertex
100
AcDb2dVertex
 10
102.680026547081
 20
-119.6693483034159
 30
0.0
  0
SEQEND
  5
CE
330
CB
100
AcDbEntity
  8
_U+30EC_U+30A4_U+30E4_U+30FC 1
 62
     7
420
 16777215
370
     9
  0
POLYLINE
  5
CF
330
C7
100
AcDbEntity
  8
_U+30EC_U+30A4_U+30E4_U+30FC 1
 62
     7
420
 16777215
370
     9
100
AcDb2dPolyline
 66
     1
 10
0.0
 20
0.0
 30
0.0
  0
VERTEX
  5
D0
330
CF
100
AcDbEntity
  8
_U+30EC_U+30A4_U+30E4_U+30FC 1
 62
     7
420
 16777215
370
     9
100
AcDbVertex
100
AcDb2dVertex
 10
74.6803725391894
 20
-121.1293896919399
 30
0.0
  0
VERTEX
  5
D1
330
CF
100
AcDbEntity
  8
_U+30EC_U+30A4_U+30E4_U+30FC 1
 62
     7
420
 16777215
370
     9
100
AcDbVertex
100
AcDb2dVertex
 10
74.6803725391894
 20
-118.6693996925548
 30
0.0
  0
SEQEND
  5
D2
330
CF
100
AcDbEntity
  8
_U+30EC_U+30A4_U+30E4_U+30FC 1
 62
     7
420
 16777215
370
     9
  0
POLYLINE
  5
D3
330
C7
100
AcDbEntity
  8
_U+30EC_U+30A4_U+30E4_U+30FC 1
 62
     7
420
 16777215
370
     9
100
AcDb2dPolyline
 66
     1
 10
0.0
 20
0.0
 30
0.0
  0
VERTEX
  5
D4
330
D3
100
AcDbEntity
  8
_U+30EC_U+30A4_U+30E4_U+30FC 1
 62
     7
420
 16777215
370
     9
100
AcDbVertex
100
AcDb2dVertex
 10
102.680026547081
 20
-121.1293896919399
 30
0.0
  0
VERTEX
  5
D5
330
D3
100
AcDbEntity
  8
_U+30EC_U+30A4_U+30E4_U+30FC 1
 62
     7
420
 16777215
370
     9
100
AcDbVertex
100
AcDb2dVertex
 10
102.680026547081
 20
-118.6693996925548
 30
0.0
  0
SEQEND
  5
D6
330
D3
100
AcDbEntity
  8
_U+30EC_U+30A4_U+30E4_U+30FC 1
 62
     7
420
 16777215
370
     9
  0
INSERT
  5
D8
330
C7
100
AcDbEntity
  8
_U+30EC_U+30A4_U+30E4_U+30FC 1
100
AcDbBlockReference
  2
block 13
 10
0.0
 20
0.0
 30
0.0
  0
ENDBLK
  5
CA
330
C7
100
AcDbEntity
  8
0
100
AcDbBlockEnd
  0
BLOCK
  5
D9
330
D7
100
AcDbEntity
  8
0
100
AcDbBlockBegin
  2
block 13
 70
     0
 10
0.0
 20
0.0
 30
0.0
  3
block 13
  1

  0
SPLINE
  5
DB
330
D7
100
AcDbEntity
  8
_U+30EC_U+30A4_U+30E4_U+30FC 1
370
     0
100
AcDbSpline
210
0.0
220
0.0
230
1.0
 70
    11
 71
     3
 72
    44
 73
    40
 74
     0
 42
0.0000000001
 43
0.0000000001
 12
1.0
 22
0.0
 32
0.0
 13
1.0
 23
0.0
 33
0.0
 40
0.0
 40
0.0
 40
0.0
 40
0.0
 40
1.0
 40
1.0
 40
1.0
 40
2.0
 40
2.0
 40
2.0
 40
3.0
 40
3.0
 40
3.0
 40
4.0
 40
4.0
 40
4.0
 40
5.0
 40
5.0
 40
5.0
 40
6.0
 40
6.0
 40
6.0
 40
7.0
 40
7.0
 40
7.0
 40
8.0
 40
8.0
 40
8.0
 40
9.0
 40
9.0
 40
9.0
 40
10.0
 40
10.0
 40
10.0
 40
11.0
 40
11.0
 40
11.0
 40
12.0
 40
12.0
 40
12.0
 40
13.0
 40
13.0
 40
13.0
 40
13.0
 10
88.18462590026287
 20
-118.4418660185666
 30
0.0
 10
87.96689586559509
 20
-118.6005126656624
 30
0.0
 10
87.87387828749334
 20
-118.6745822185952
 30
0.0
 10
87.8249579316028
 20
-118.8184149551044
 30
0.0
 10
87.8249579316028
 20
-118.8184149551044
 30
0.0
 10
88.60354951126925
 20
-118.8184149551044
 30
0.0
 10
88.60354951126925
 20
-118.8184149551044
 30
0.0
 10
88.60354951126925
 20
-118.8184149551044
 30
0.0
 10
88.60354951126925
 20
-119.0235703912511
 30
0.0
 10
88.60354951126925
 20
-119.0235703912511
 30
0.0
 10
88.60354951126925
 20
-119.0235703912511
 30
0.0
 10
87.57553301847071
 20
-119.0235703912511
 30
0.0
 10
87.57553301847071
 20
-119.0235703912511
 30
0.0
 10
87.607227896935
 20
-118.6659694798821
 30
0.0
 10
87.67268471115474
 20
-118.587765812367
 30
0.0
 10
88.05784638640569
 20
-118.2894205433443
 30
0.0
 10
88.31381698095974
 20
-118.0906385338454
 30
0.0
 10
88.37927379517949
 20
-118.0229424075602
 30
0.0
 10
88.37927379517949
 20
-117.8854830976988
 30
0.0
 10
88.37927379517949
 20
-117.7669718130062
 30
0.0
 10
88.30727129953777
 20
-117.6358859297924
 30
0.0
 10
88.11055634733
 20
-117.6358859297924
 30
0.0
 10
87.85045163819365
 20
-117.6358859297924
 30
0.0
 10
87.84218340902905
 20
-117.8663628177556
 30
0.0
 10
87.83770478489822
 20
-117.9828070451571
 30
0.0
 10
87.83770478489822
 20
-117.9828070451571
 30
0.0
 10
87.61342906880846
 20
-117.9828070451571
 30
0.0
 10
87.61342906880846
 20
-117.9828070451571
 30
0.0
 10
87.62204180752158
 20
-117.8558552765256
 30
0.0
 10
87.63272160352585
 20
-117.7437174184807
 30
0.0
 10
87.71299232833218
 20
-117.6252061337882
 30
0.0
 10
87.82289087431164
 20
-117.4644924294012
 30
0.0
 10
88.00927054006365
 20
-117.4305582388715
 30
0.0
 10
88.12537025791657
 20
-117.4305582388715
 30
0.0
 10
88.4027004444792
 20
-117.4305582388715
 30
0.0
 10
88.61009519269123
 20
-117.6146985925581
 30
0.0
 10
88.61009519269123
 20
-117.8875501549899
 30
0.0
 10
88.61009519269123
 20
-118.115959985662
 30
0.0
 10
88.49365096528979
 20
-118.2155232451857
 30
0.0
 10
88.18462590026287
 20
-118.4418660185666
 30
0.0
  0
HATCH
  5
DC
330
D7
100
AcDbEntity
  8
_U+30EC_U+30A4_U+30E4_U+30FC 1
 62
     7
420
 16777215
100
AcDbHatch
 10
0.0
 20
0.0
 30
0.0
210
0.0
220
0.0
230
1.0
  2
SOLID
 70
     1
 71
     0
 91
        1
 92
        1
 93
        1
 72
     4
 94
        3
 73
     0
 74
     1
 95
       44
 96
       40
 40
0.0
 40
0.0
 40
0.0
 40
0.0
 40
1.0
 40
1.0
 40
1.0
 40
2.0
 40
2.0
 40
2.0
 40
3.0
 40
3.0
 40
3.0
 40
4.0
 40
4.0
 40
4.0
 40
5.0
 40
5.0
 40
5.0
 40
6.0
 40
6.0
 40
6.0
 40
7.0
 40
7.0
 40
7.0
 40
8.0
 40
8.0
 40
8.0
 40
9.0
 40
9.0
 40
9.0
 40
10.0
 40
10.0
 40
10.0
 40
11.0
 40
11.0
 40
11.0
 40
12.0
 40
12.0
 40
12.0
 40
13.0
 40
13.0
 40
13.0
 40
13.0
 10
88.18462590026287
 20
-118.4418660185666
 10
87.96689586559509
 20
-118.6005126656624
 10
87.87387828749334
 20
-118.6745822185952
 10
87.8249579316028
 20
-118.8184149551044
 10
87.8249579316028
 20
-118.8184149551044
 10
88.60354951126925
 20
-118.8184149551044
 10
88.60354951126925
 20
-118.8184149551044
 10
88.60354951126925
 20
-118.8184149551044
 10
88.60354951126925
 20
-119.0235703912511
 10
88.60354951126925
 20
-119.0235703912511
 10
88.60354951126925
 20
-119.0235703912511
 10
87.57553301847071
 20
-119.0235703912511
 10
87.57553301847071
 20
-119.0235703912511
 10
87.607227896935
 20
-118.6659694798821
 10
87.67268471115474
 20
-118.587765812367
 10
88.05784638640569
 20
-118.2894205433443
 10
88.31381698095974
 20
-118.0906385338454
 10
88.37927379517949
 20
-118.0229424075602
 10
88.37927379517949
 20
-117.8854830976988
 10
88.37927379517949
 20
-117.7669718130062
 10
88.30727129953777
 20
-117.6358859297924
 10
88.11055634733
 20
-117.6358859297924
 10
87.85045163819365
 20
-117.6358859297924
 10
87.84218340902905
 20
-117.8663628177556
 10
87.83770478489822
 20
-117.9828070451571
 10
87.83770478489822
 20
-117.9828070451571
 10
87.61342906880846
 20
-117.9828070451571
 10
87.61342906880846
 20
-117.9828070451571
 10
87.62204180752158
 20
-117.8558552765256
 10
87.63272160352585
 20
-117.7437174184807
 10
87.71299232833218
 20
-117.6252061337882
 10
87.82289087431164
 20
-117.4644924294012
 10
88.00927054006365
 20
-117.4305582388715
 10
88.12537025791657
 20
-117.4305582388715
 10
88.4027004444792
 20
-117.4305582388715
 10
88.61009519269123
 20
-117.6146985925581
 10
88.61009519269123
 20
-117.8875501549899
 10
88.61009519269123
 20
-118.115959985662
 10
88.49365096528979
 20
-118.2155232451857
 10
88.18462590026287
 20
-118.4418660185666
 97
        0
 97
        0
 75
     2
 76
     1
 98
        0
  0
SPLINE
  5
DD
330
D7
100
AcDbEntity
  8
_U+30EC_U+30A4_U+30E4_U+30FC 1
370
     0
100
AcDbSpline
210
0.0
220
0.0
230
1.0
 70
    11
 71
     3
 72
    29
 73
    25
 74
     0
 42
0.0000000001
 43
0.0000000001
 12
1.0
 22
0.0
 32
0.0
 13
1.0
 23
0.0
 33
0.0
 40
0.0
 40
0.0
 40
0.0
 40
0.0
 40
1.0
 40
1.0
 40
1.0
 40
2.0
 40
2.0
 40
2.0
 40
3.0
 40
3.0
 40
3.0
 40
4.0
 40
4.0
 40
4.0
 40
5.0
 40
5.0
 40
5.0
 40
6.0
 40
6.0
 40
6.0
 40
7.0
 40
7.0
 40
7.0
 40
8.0
 40
8.0
 40
8.0
 40
8.0
 10
89.26845293992247
 20
-119.0743855496585
 30
0.0
 10
89.00180254936414
 20
-119.0743855496585
 30
0.0
 10
88.74824352164975
 20
-118.9367539850228
 30
0.0
 10
88.74824352164975
 20
-118.587765812367
 30
0.0
 10
88.74824352164975
 20
-118.3317952178129
 30
0.0
 10
88.88983694609351
 20
-118.2365383276457
 30
0.0
 10
88.99560137749069
 20
-118.1752156280083
 30
0.0
 10
88.87088892092464
 20
-118.115959985662
 30
0.0
 10
88.79475231070062
 20
-118.001755070326
 30
0.0
 10
88.79475231070062
 20
-117.841041365939
 30
0.0
 10
88.79475231070062
 20
-117.5659504914419
 30
0.0
 10
88.99353432019954
 20
-117.4305582388715
 30
0.0
 10
89.26845293992247
 20
-117.4305582388715
 30
0.0
 10
89.55198429835853
 20
-117.4305582388715
 30
0.0
 10
89.74249807869285
 20
-117.5743909753807
 30
0.0
 10
89.74249807869285
 20
-117.841041365939
 30
0.0
 10
89.74249807869285
 20
-118.001755070326
 30
0.0
 10
89.66394990162915
 20
-118.115959985662
 30
0.0
 10
89.53923744506311
 20
-118.1752156280083
 30
0.0
 10
89.62812090858256
 20
-118.2260307864157
 30
0.0
 10
89.78693981045258
 20
-118.3212876765829
 30
0.0
 10
89.78693981045258
 20
-118.5836316977847
 30
0.0
 10
89.78693981045258
 20
-118.957941322257
 30
0.0
 10
89.50754256659881
 20
-119.0743855496585
 30
0.0
 10
89.26845293992247
 20
-119.0743855496585
 30
0.0
  0
SPLINE
  5
DE
330
D7
100
AcDbEntity
  8
_U+30EC_U+30A4_U+30E4_U+30FC 1
370
     0
100
AcDbSpline
210
0.0
220
0.0
230
1.0
 70
    11
 71
     3
 72
    17
 73
    13
 74
     0
 42
0.0000000001
 43
0.0000000001
 12
1.0
 22
0.0
 32
0.0
 13
1.0
 23
0.0
 33
0.0
 40
0.0
 40
0.0
 40
0.0
 40
0.0
 40
1.0
 40
1.0
 40
1.0
 40
2.0
 40
2.0
 40
2.0
 40
3.0
 40
3.0
 40
3.0
 40
4.0
 40
4.0
 40
4.0
 40
4.0
 10
89.26845293992247
 20
-118.2832193714709
 30
0.0
 10
89.12479245818756
 20
-118.2832193714709
 30
0.0
 10
88.97217472819099
 20
-118.3698635229249
 30
0.0
 10
88.97217472819099
 20
-118.5729519017804
 30
0.0
 10
88.97217472819099
 20
-118.778107337927
 30
0.0
 10
89.0992987515967
 20
-118.8797376547419
 30
0.0
 10
89.26845293992247
 20
-118.8797376547419
 30
0.0
 10
89.45448809612597
 20
-118.8797376547419
 30
0.0
 10
89.56473115165396
 20
-118.757092255467
 30
0.0
 10
89.56473115165396
 20
-118.5793253284281
 30
0.0
 10
89.56473115165396
 20
-118.3571166696295
 30
0.0
 10
89.40177813520164
 20
-118.2832193714709
 30
0.0
 10
89.26845293992247
 20
-118.2832193714709
 30
0.0
  0
SPLINE
  5
DF
330
D7
100
AcDbEntity
  8
_U+30EC_U+30A4_U+30E4_U+30FC 1
370
     0
100
AcDbSpline
210
0.0
220
0.0
230
1.0
 70
    11
 71
     3
 72
    17
 73
    13
 74
     0
 42
0.0000000001
 43
0.0000000001
 12
1.0
 22
0.0
 32
0.0
 13
1.0
 23
0.0
 33
0.0
 40
0.0
 40
0.0
 40
0.0
 40
0.0
 40
1.0
 40
1.0
 40
1.0
 40
2.0
 40
2.0
 40
2.0
 40
3.0
 40
3.0
 40
3.0
 40
4.0
 40
4.0
 40
4.0
 40
4.0
 10
89.26845293992247
 20
-117.623139076497
 30
0.0
 10
89.103432866179
 20
-117.623139076497
 30
0.0
 10
89.01902802679038
 20
-117.7182237118899
 30
0.0
 10
89.01902802679038
 20
-117.8536159644602
 30
0.0
 10
89.01902802679038
 20
-117.9764336185094
 30
0.0
 10
89.09068601288358
 20
-118.094944903202
 30
0.0
 10
89.26845293992247
 20
-118.094944903202
 30
0.0
 10
89.44621986696137
 20
-118.094944903202
 30
0.0
 10
89.51822236260308
 20
-117.9764336185094
 30
0.0
 10
89.51822236260308
 20
-117.8536159644602
 30
0.0
 10
89.51822236260308
 20
-117.7182237118899
 30
0.0
 10
89.43140595637479
 20
-117.623139076497
 30
0.0
 10
89.26845293992247
 20
-117.623139076497
 30
0.0
  0
HATCH
  5
E0
330
D7
100
AcDbEntity
  8
_U+30EC_U+30A4_U+30E4_U+30FC 1
 62
     7
420
 16777215
100
AcDbHatch
 10
0.0
 20
0.0
 30
0.0
210
0.0
220
0.0
230
1.0
  2
SOLID
 70
     1
 71
     0
 91
        3
 92
        1
 93
        1
 72
     4
 94
        3
 73
     0
 74
     1
 95
       29
 96
       25
 40
0.0
 40
0.0
 40
0.0
 40
0.0
 40
1.0
 40
1.0
 40
1.0
 40
2.0
 40
2.0
 40
2.0
 40
3.0
 40
3.0
 40
3.0
 40
4.0
 40
4.0
 40
4.0
 40
5.0
 40
5.0
 40
5.0
 40
6.0
 40
6.0
 40
6.0
 40
7.0
 40
7.0
 40
7.0
 40
8.0
 40
8.0
 40
8.0
 40
8.0
 10
89.26845293992247
 20
-119.0743855496585
 10
89.00180254936414
 20
-119.0743855496585
 10
88.74824352164975
 20
-118.9367539850228
 10
88.74824352164975
 20
-118.587765812367
 10
88.74824352164975
 20
-118.3317952178129
 10
88.88983694609351
 20
-118.2365383276457
 10
88.99560137749069
 20
-118.1752156280083
 10
88.87088892092464
 20
-118.115959985662
 10
88.79475231070062
 20
-118.001755070326
 10
88.79475231070062
 20
-117.841041365939
 10
88.79475231070062
 20
-117.5659504914419
 10
88.99353432019954
 20
-117.4305582388715
 10
89.26845293992247
 20
-117.4305582388715
 10
89.55198429835853
 20
-117.4305582388715
 10
89.74249807869285
 20
-117.5743909753807
 10
89.74249807869285
 20
-117.841041365939
 10
89.74249807869285
 20
-118.001755070326
 10
89.66394990162915
 20
-118.115959985662
 10
89.53923744506311
 20
-118.1752156280083
 10
89.62812090858256
 20
-118.2260307864157
 10
89.78693981045258
 20
-118.3212876765829
 10
89.78693981045258
 20
-118.5836316977847
 10
89.78693981045258
 20
-118.957941322257
 10
89.50754256659881
 20
-119.0743855496585
 10
89.26845293992247
 20
-119.0743855496585
 97
        0
 97
        0
 92
        1
 93
        1
 72
     4
 94
        3
 73
     0
 74
     1
 95
       17
 96
       13
 40
0.0
 40
0.0
 40
0.0
 40
0.0
 40
1.0
 40
1.0
 40
1.0
 40
2.0
 40
2.0
 40
2.0
 40
3.0
 40
3.0
 40
3.0
 40
4.0
 40
4.0
 40
4.0
 40
4.0
 10
89.26845293992247
 20
-118.2832193714709
 10
89.12479245818756
 20
-118.2832193714709
 10
88.97217472819099
 20
-118.3698635229249
 10
88.97217472819099
 20
-118.5729519017804
 10
88.97217472819099
 20
-118.778107337927
 10
89.0992987515967
 20
-118.8797376547419
 10
89.26845293992247
 20
-118.8797376547419
 10
89.45448809612597
 20
-118.8797376547419
 10
89.56473115165396
 20
-118.757092255467
 10
89.56473115165396
 20
-118.5793253284281
 10
89.56473115165396
 20
-118.3571166696295
 10
89.40177813520164
 20
-118.2832193714709
 10
89.26845293992247
 20
-118.2832193714709
 97
        0
 97
        0
 92
        1
 93
        1
 72
     4
 94
        3
 73
     0
 74
     1
 95
       17
 96
       13
 40
0.0
 40
0.0
 40
0.0
 40
0.0
 40
1.0
 40
1.0
 40
1.0
 40
2.0
 40
2.0
 40
2.0
 40
3.0
 40
3.0
 40
3.0
 40
4.0
 40
4.0
 40
4.0
 40
4.0
 10
89.26845293992247
 20
-117.623139076497
 10
89.103432866179
 20
-117.623139076497
 10
89.01902802679038
 20
-117.7182237118899
 10
89.01902802679038
 20
-117.8536159644602
 10
89.01902802679038
 20
-117.9764336185094
 10
89.09068601288358
 20
-118.094944903202
 10
89.26845293992247
 20
-118.094944903202
 10
89.44621986696137
 20
-118.094944903202
 10
89.51822236260308
 20
-117.9764336185094
 10
89.51822236260308
 20
-117.8536159644602
 10
89.51822236260308
 20
-117.7182237118899
 10
89.43140595637479
 20
-117.623139076497
 10
89.26845293992247
 20
-117.623139076497
 97
        0
 97
        0
 75
     2
 76
     1
 98
        0
  0
ENDBLK
  5
DA
330
D7
100
AcDbEntity
  8
0
100
AcDbBlockEnd
  0
BLOCK
  5
E3
330
E1
100
AcDbEntity
  8
0
100
AcDbBlockBegin
  2
block 14
 70
     0
 10
0.0
 20
0.0
 30
0.0
  3
block 14
  1

  0
POLYLINE
  5
E5
330
E1
100
AcDbEntity
  8
_U+30EC_U+30A4_U+30E4_U+30FC 1
 62
     7
420
 16777215
370
     9
100
AcDb2dPolyline
 66
     1
 10
0.0
 20
0.0
 30
0.0
  0
VERTEX
  5
E6
330
E5
100
AcDbEntity
  8
_U+30EC_U+30A4_U+30E4_U+30FC 1
 62
     7
420
 16777215
370
     9
100
AcDbVertex
100
AcDb2dVertex
 10
106.6804911672428
 20
-133.1694835778191
 30
0.0
  0
VERTEX
  5
E7
330
E5
100
AcDbEntity
  8
_U+30EC_U+30A4_U+30E4_U+30FC 1
 62
     7
420
 16777215
370
     9
100
AcDbVertex
100
AcDb2dVertex
 10
106.6804911672428
 20
-124.6692324688328
 30
0.0
  0
SEQEND
  5
E8
330
E5
100
AcDbEntity
  8
_U+30EC_U+30A4_U+30E4_U+30FC 1
 62
     7
420
 16777215
370
     9
  0
POLYLINE
  5
E9
330
E1
100
AcDbEntity
  8
_U+30EC_U+30A4_U+30E4_U+30FC 1
 62
     7
420
 16777215
370
     9
100
AcDb2dPolyline
 66
     1
 10
0.0
 20
0.0
 30
0.0
  0
VERTEX
  5
EA
330
E9
100
AcDbEntity
  8
_U+30EC_U+30A4_U+30E4_U+30FC 1
 62
     7
420
 16777215
370
     9
100
AcDbVertex
100
AcDb2dVertex
 10
90.22051547606067
 20
-133.1694835778191
 30
0.0
  0
VERTEX
  5
EB
330
E9
100
AcDbEntity
  8
_U+30EC_U+30A4_U+30E4_U+30FC 1
 62
     7
420
 16777215
370
     9
100
AcDbVertex
100
AcDb2dVertex
 10
107.6802633639587
 20
-133.1694835778191
 30
0.0
  0
SEQEND
  5
EC
330
E9
100
AcDbEntity
  8
_U+30EC_U+30A4_U+30E4_U+30FC 1
 62
     7
420
 16777215
370
     9
  0
POLYLINE
  5
ED
330
E1
100
AcDbEntity
  8
_U+30EC_U+30A4_U+30E4_U+30FC 1
 62
     7
420
 16777215
370
     9
100
AcDb2dPolyline
 66
     1
 10
0.0
 20
0.0
 30
0.0
  0
VERTEX
  5
EE
330
ED
100
AcDbEntity
  8
_U+30EC_U+30A4_U+30E4_U+30FC 1
 62
     7
420
 16777215
370
     9
100
AcDbVertex
100
AcDb2dVertex
 10
105.2204498156027
 20
-124.6692324688328
 30
0.0
  0
VERTEX
  5
EF
330
ED
100
AcDbEntity
  8
_U+30EC_U+30A4_U+30E4_U+30FC 1
 62
     7
420
 16777215
370
     9
100
AcDbVertex
100
AcDb2dVertex
 10
107.6802633639587
 20
-124.6692324688328
 30
0.0
  0
SEQEND
  5
F0
330
ED
100
AcDbEntity
  8
_U+30EC_U+30A4_U+30E4_U+30FC 1
 62
     7
420
 16777215
370
     9
  0
INSERT
  5
F2
330
E1
100
AcDbEntity
  8
_U+30EC_U+30A4_U+30E4_U+30FC 1
100
AcDbBlockReference
  2
block 15
 10
0.0
 20
0.0
 30
0.0
  0
ENDBLK
  5
E4
330
E1
100
AcDbEntity
  8
0
100
AcDbBlockEnd
  0
BLOCK
  5
F3
330
F1
100
AcDbEntity
  8
0
100
AcDbBlockBegin
  2
block 15
 70
     0
 10
0.0
 20
0.0
 30
0.0
  3
block 15
  1

  0
SPLINE
  5
F5
330
F1
100
AcDbEntity
  8
_U+30EC_U+30A4_U+30E4_U+30FC 1
370
     0
100
AcDbSpline
210
0.0
220
0.0
230
1.0
 70
    11
 71
     3
 72
    29
 73
    25
 74
     0
 42
0.0000000001
 43
0.0000000001
 12
1.0
 22
0.0
 32
0.0
 13
1.0
 23
0.0
 33
0.0
 40
0.0
 40
0.0
 40
0.0
 40
0.0
 40
1.0
 40
1.0
 40
1.0
 40
2.0
 40
2.0
 40
2.0
 40
3.0
 40
3.0
 40
3.0
 40
4.0
 40
4.0
 40
4.0
 40
5.0
 40
5.0
 40
5.0
 40
6.0
 40
6.0
 40
6.0
 40
7.0
 40
7.0
 40
7.0
 40
8.0
 40
8.0
 40
8.0
 40
8.0
 10
105.0165011673223
 20
-129.7826035916863
 30
0.0
 10
105.0165011673223
 20
-130.0492539822446
 30
0.0
 10
104.8790418574608
 20
-130.3031575195076
 30
0.0
 10
104.530053684805
 20
-130.3031575195076
 30
0.0
 10
104.2740830902509
 20
-130.3031575195076
 30
0.0
 10
104.178998454858
 20
-130.1612195855153
 30
0.0
 10
104.1176757552206
 20
-130.0554551541181
 30
0.0
 10
104.0584201128743
 20
-130.1801676106841
 30
0.0
 10
103.944042942764
 20
-130.2563042209082
 30
0.0
 10
103.7831569836028
 20
-130.2563042209082
 30
0.0
 10
103.5082383638799
 20
-130.2563042209082
 30
0.0
 10
103.3728461113096
 20
-130.0575222114092
 30
0.0
 10
103.3728461113096
 20
-129.7826035916863
 30
0.0
 10
103.3728461113096
 20
-129.4990722332502
 30
0.0
 10
103.516851102593
 20
-129.3085584529159
 30
0.0
 10
103.7831569836028
 20
-129.3085584529159
 30
0.0
 10
103.944042942764
 20
-129.3085584529159
 30
0.0
 10
104.0584201128743
 20
-129.3871066299796
 30
0.0
 10
104.1176757552206
 20
-129.5118190865457
 30
0.0
 10
104.1683186588538
 20
-129.4229356230262
 30
0.0
 10
104.2634032942467
 20
-129.2641167211562
 30
0.0
 10
104.5259195702227
 20
-129.2641167211562
 30
0.0
 10
104.9004014494693
 20
-129.2641167211562
 30
0.0
 10
105.0165011673223
 20
-129.54351396501
 30
0.0
 10
105.0165011673223
 20
-129.7826035916863
 30
0.0
  0
SPLINE
  5
F6
330
F1
100
AcDbEntity
  8
_U+30EC_U+30A4_U+30E4_U+30FC 1
370
     0
100
AcDbSpline
210
0.0
220
0.0
230
1.0
 70
    11
 71
     3
 72
    17
 73
    13
 74
     0
 42
0.0000000001
 43
0.0000000001
 12
1.0
 22
0.0
 32
0.0
 13
1.0
 23
0.0
 33
0.0
 40
0.0
 40
0.0
 40
0.0
 40
0.0
 40
1.0
 40
1.0
 40
1.0
 40
2.0
 40
2.0
 40
2.0
 40
3.0
 40
3.0
 40
3.0
 40
4.0
 40
4.0
 40
4.0
 40
4.0
 10
103.565426948935
 20
-129.7826035916863
 30
0.0
 10
103.565426948935
 20
-129.9476236654298
 30
0.0
 10
103.6605115843279
 20
-130.0323730143669
 30
0.0
 10
103.7959038368982
 20
-130.0323730143669
 30
0.0
 10
103.9185492361731
 20
-130.0323730143669
 30
0.0
 10
104.0370605208657
 20
-129.9603705187252
 30
0.0
 10
104.0370605208657
 20
-129.7826035916863
 30
0.0
 10
104.0370605208657
 20
-129.6048366646474
 30
0.0
 10
103.9185492361731
 20
-129.5328341690057
 30
0.0
 10
103.7959038368982
 20
-129.5328341690057
 30
0.0
 10
103.6605115843279
 20
-129.5328341690057
 30
0.0
 10
103.565426948935
 20
-129.619650575234
 30
0.0
 10
103.565426948935
 20
-129.7826035916863
 30
0.0
  0
SPLINE
  5
F7
330
F1
100
AcDbEntity
  8
_U+30EC_U+30A4_U+30E4_U+30FC 1
370
     0
100
AcDbSpline
210
0.0
220
0.0
230
1.0
 70
    11
 71
     3
 72
    17
 73
    13
 74
     0
 42
0.0000000001
 43
0.0000000001
 12
1.0
 22
0.0
 32
0.0
 13
1.0
 23
0.0
 33
0.0
 40
0.0
 40
0.0
 40
0.0
 40
0.0
 40
1.0
 40
1.0
 40
1.0
 40
2.0
 40
2.0
 40
2.0
 40
3.0
 40
3.0
 40
3.0
 40
4.0
 40
4.0
 40
4.0
 40
4.0
 10
104.2255072439089
 20
-129.7826035916863
 30
0.0
 10
104.2255072439089
 20
-129.9262640734212
 30
0.0
 10
104.3123236501372
 20
-130.0788818034178
 30
0.0
 10
104.5152397742184
 20
-130.0788818034178
 30
0.0
 10
104.7205674651393
 20
-130.0788818034178
 30
0.0
 10
104.8218532724056
 20
-129.9517577800121
 30
0.0
 10
104.8218532724056
 20
-129.7826035916863
 30
0.0
 10
104.8218532724056
 20
-129.5965684354828
 30
0.0
 10
104.6992078731308
 20
-129.4863253799548
 30
0.0
 10
104.5214409460919
 20
-129.4863253799548
 30
0.0
 10
104.2995767968418
 20
-129.4863253799548
 30
0.0
 10
104.2255072439089
 20
-129.6492783964071
 30
0.0
 10
104.2255072439089
 20
-129.7826035916863
 30
0.0
  0
HATCH
  5
F8
330
F1
100
AcDbEntity
  8
_U+30EC_U+30A4_U+30E4_U+30FC 1
 62
     7
420
 16777215
100
AcDbHatch
 10
0.0
 20
0.0
 30
0.0
210
0.0
220
0.0
230
1.0
  2
SOLID
 70
     1
 71
     0
 91
        3
 92
        1
 93
        1
 72
     4
 94
        3
 73
     0
 74
     1
 95
       29
 96
       25
 40
0.0
 40
0.0
 40
0.0
 40
0.0
 40
1.0
 40
1.0
 40
1.0
 40
2.0
 40
2.0
 40
2.0
 40
3.0
 40
3.0
 40
3.0
 40
4.0
 40
4.0
 40
4.0
 40
5.0
 40
5.0
 40
5.0
 40
6.0
 40
6.0
 40
6.0
 40
7.0
 40
7.0
 40
7.0
 40
8.0
 40
8.0
 40
8.0
 40
8.0
 10
105.0165011673223
 20
-129.7826035916863
 10
105.0165011673223
 20
-130.0492539822446
 10
104.8790418574608
 20
-130.3031575195076
 10
104.530053684805
 20
-130.3031575195076
 10
104.2740830902509
 20
-130.3031575195076
 10
104.178998454858
 20
-130.1612195855153
 10
104.1176757552206
 20
-130.0554551541181
 10
104.0584201128743
 20
-130.1801676106841
 10
103.944042942764
 20
-130.2563042209082
 10
103.7831569836028
 20
-130.2563042209082
 10
103.5082383638799
 20
-130.2563042209082
 10
103.3728461113096
 20
-130.0575222114092
 10
103.3728461113096
 20
-129.7826035916863
 10
103.3728461113096
 20
-129.4990722332502
 10
103.516851102593
 20
-129.3085584529159
 10
103.7831569836028
 20
-129.3085584529159
 10
103.944042942764
 20
-129.3085584529159
 10
104.0584201128743
 20
-129.3871066299796
 10
104.1176757552206
 20
-129.5118190865457
 10
104.1683186588538
 20
-129.4229356230262
 10
104.2634032942467
 20
-129.2641167211562
 10
104.5259195702227
 20
-129.2641167211562
 10
104.9004014494693
 20
-129.2641167211562
 10
105.0165011673223
 20
-129.54351396501
 10
105.0165011673223
 20
-129.7826035916863
 97
        0
 97
        0
 92
        1
 93
        1
 72
     4
 94
        3
 73
     0
 74
     1
 95
       17
 96
       13
 40
0.0
 40
0.0
 40
0.0
 40
0.0
 40
1.0
 40
1.0
 40
1.0
 40
2.0
 40
2.0
 40
2.0
 40
3.0
 40
3.0
 40
3.0
 40
4.0
 40
4.0
 40
4.0
 40
4.0
 10
103.565426948935
 20
-129.7826035916863
 10
103.565426948935
 20
-129.9476236654298
 10
103.6605115843279
 20
-130.0323730143669
 10
103.7959038368982
 20
-130.0323730143669
 10
103.9185492361731
 20
-130.0323730143669
 10
104.0370605208657
 20
-129.9603705187252
 10
104.0370605208657
 20
-129.7826035916863
 10
104.0370605208657
 20
-129.6048366646474
 10
103.9185492361731
 20
-129.5328341690057
 10
103.7959038368982
 20
-129.5328341690057
 10
103.6605115843279
 20
-129.5328341690057
 10
103.565426948935
 20
-129.619650575234
 10
103.565426948935
 20
-129.7826035916863
 97
        0
 97
        0
 92
        1
 93
        1
 72
     4
 94
        3
 73
     0
 74
     1
 95
       17
 96
       13
 40
0.0
 40
0.0
 40
0.0
 40
0.0
 40
1.0
 40
1.0
 40
1.0
 40
2.0
 40
2.0
 40
2.0
 40
3.0
 40
3.0
 40
3.0
 40
4.0
 40
4.0
 40
4.0
 40
4.0
 10
104.2255072439089
 20
-129.7826035916863
 10
104.2255072439089
 20
-129.9262640734212
 10
104.3123236501372
 20
-130.0788818034178
 10
104.5152397742184
 20
-130.0788818034178
 10
104.7205674651393
 20
-130.0788818034178
 10
104.8218532724056
 20
-129.9517577800121
 10
104.8218532724056
 20
-129.7826035916863
 10
104.8218532724056
 20
-129.5965684354828
 10
104.6992078731308
 20
-129.4863253799548
 10
104.5214409460919
 20
-129.4863253799548
 10
104.2995767968418
 20
-129.4863253799548
 10
104.2255072439089
 20
-129.6492783964071
 10
104.2255072439089
 20
-129.7826035916863
 97
        0
 97
        0
 75
     2
 76
     1
 98
        0
  0
POLYLINE
  5
F9
330
F1
100
AcDbEntity
  8
_U+30EC_U+30A4_U+30E4_U+30FC 1
370
     0
100
AcDb2dPolyline
 66
     1
 10
0.0
 20
0.0
 30
0.0
  0
VERTEX
  5
FA
330
F9
100
AcDbEntity
  8
_U+30EC_U+30A4_U+30E4_U+30FC 1
370
     0
100
AcDbVertex
100
AcDb2dVertex
 10
104.9658582636891
 20
-129.0456976673914
 30
0.0
  0
VERTEX
  5
FB
330
F9
100
AcDbEntity
  8
_U+30EC_U+30A4_U+30E4_U+30FC 1
370
     0
100
AcDbVertex
100
AcDb2dVertex
 10
104.7140217837173
 20
-129.0456976673914
 30
0.0
  0
VERTEX
  5
FC
330
F9
100
AcDbEntity
  8
_U+30EC_U+30A4_U+30E4_U+30FC 1
370
     0
100
AcDbVertex
100
AcDb2dVertex
 10
104.7140217837173
 20
-128.7938611874196
 30
0.0
  0
VERTEX
  5
FD
330
F9
100
AcDbEntity
  8
_U+30EC_U+30A4_U+30E4_U+30FC 1
370
     0
100
AcDbVertex
100
AcDb2dVertex
 10
104.9658582636891
 20
-128.7938611874196
 30
0.0
  0
VERTEX
  5
FE
330
F9
100
AcDbEntity
  8
_U+30EC_U+30A4_U+30E4_U+30FC 1
370
     0
100
AcDbVertex
100
AcDb2dVertex
 10
104.9658582636891
 20
-129.0456976673914
 30
0.0
  0
SEQEND
  5
FF
330
F9
100
AcDbEntity
  8
_U+30EC_U+30A4_U+30E4_U+30FC 1
370
     0
  0
HATCH
  5
100
330
F1
100
AcDbEntity
  8
_U+30EC_U+30A4_U+30E4_U+30FC 1
 62
     7
420
 16777215
100
AcDbHatch
 10
0.0
 20
0.0
 30
0.0
210
0.0
220
0.0
230
1.0
  2
SOLID
 70
     1
 71
     0
 91
        1
 92
        1
 93
        4
 72
     1
 10
104.9658582636891
 20
-129.0456976673914
 11
104.7140217837173
 21
-129.0456976673914
 72
     1
 10
104.7140217837173
 20
-129.0456976673914
 11
104.7140217837173
 21
-128.7938611874196
 72
     1
 10
104.7140217837173
 20
-128.7938611874196
 11
104.9658582636891
 21
-128.7938611874196
 72
     1
 10
104.9658582636891
 20
-128.7938611874196
 11
104.9658582636891
 21
-129.0456976673914
 97
        0
 75
     2
 76
     1
 98
        0
  0
SPLINE
  5
101
330
F1
100
AcDbEntity
  8
_U+30EC_U+30A4_U+30E4_U+30FC 1
370
     0
100
AcDbSpline
210
0.0
220
0.0
230
1.0
 70
    11
 71
     3
 72
    53
 73
    49
 74
     0
 42
0.0000000001
 43
0.0000000001
 12
1.0
 22
0.0
 32
0.0
 13
1.0
 23
0.0
 33
0.0
 40
0.0
 40
0.0
 40
0.0
 40
0.0
 40
1.0
 40
1.0
 40
1.0
 40
2.0
 40
2.0
 40
2.0
 40
3.0
 40
3.0
 40
3.0
 40
4.0
 40
4.0
 40
4.0
 40
5.0
 40
5.0
 40
5.0
 40
6.0
 40
6.0
 40
6.0
 40
7.0
 40
7.0
 40
7.0
 40
8.0
 40
8.0
 40
8.0
 40
9.0
 40
9.0
 40
9.0
 40
10.0
 40
10.0
 40
10.0
 40
11.0
 40
11.0
 40
11.0
 40
12.0
 40
12.0
 40
12.0
 40
13.0
 40
13.0
 40
13.0
 40
14.0
 40
14.0
 40
14.0
 40
15.0
 40
15.0
 40
15.0
 40
16.0
 40
16.0
 40
16.0
 40
16.0
 10
105.0165011673223
 20
-128.0765923073906
 30
0.0
 10
105.0165011673223
 20
-128.1547959749057
 30
0.0
 10
104.9996201994445
 20
-128.2564262917206
 30
0.0
 10
104.9362304425159
 20
-128.3580566085355
 30
0.0
 10
104.8263318965365
 20
-128.5313449114436
 30
0.0
 10
104.6950737585485
 20
-128.5527045034521
 30
0.0
 10
104.5872422698601
 20
-128.571652528621
 30
0.0
 10
104.5872422698601
 20
-128.571652528621
 30
0.0
 10
104.5872422698601
 20
-128.3494438698224
 30
0.0
 10
104.5872422698601
 20
-128.3494438698224
 30
0.0
 10
104.7860242793591
 20
-128.2946668516069
 30
0.0
 10
104.8156521005322
 20
-128.1675428282012
 30
0.0
 10
104.8156521005322
 20
-128.0745252500994
 30
0.0
 10
104.8156521005322
 20
-127.9349988829468
 30
0.0
 10
104.7160888410085
 20
-127.7827256624988
 30
0.0
 10
104.4835448957541
 20
-127.7827256624988
 30
0.0
 10
104.2275743012001
 20
-127.7827256624988
 30
0.0
 10
104.1576388628495
 20
-127.9625596468288
 30
0.0
 10
104.1576388628495
 20
-128.0831379888126
 30
0.0
 10
104.1576388628495
 20
-128.1148328672768
 30
0.0
 10
104.1576388628495
 20
-128.2564262917206
 30
0.0
 10
104.2868299435464
 20
-128.3453097552401
 30
0.0
 10
104.2868299435464
 20
-128.3453097552401
 30
0.0
 10
104.2678819183775
 20
-128.5210096249878
 30
0.0
 10
104.2678819183775
 20
-128.5210096249878
 30
0.0
 10
104.2678819183775
 20
-128.5210096249878
 30
0.0
 10
103.4214219576516
 20
-128.4004312830041
 30
0.0
 10
103.4214219576516
 20
-128.4004312830041
 30
0.0
 10
103.4214219576516
 20
-128.4004312830041
 30
0.0
 10
103.4214219576516
 20
-127.6218397033376
 30
0.0
 10
103.4214219576516
 20
-127.6218397033376
 30
0.0
 10
103.4214219576516
 20
-127.6218397033376
 30
0.0
 10
103.6160698525682
 20
-127.6218397033376
 30
0.0
 10
103.6160698525682
 20
-127.6218397033376
 30
0.0
 10
103.6160698525682
 20
-127.6218397033376
 30
0.0
 10
103.6160698525682
 20
-128.2374782665518
 30
0.0
 10
103.6160698525682
 20
-128.2374782665518
 30
0.0
 10
103.6160698525682
 20
-128.2374782665518
 30
0.0
 10
104.0391275781569
 20
-128.3029350807715
 30
0.0
 10
104.0391275781569
 20
-128.3029350807715
 30
0.0
 10
104.0053656424014
 20
-128.241612381134
 30
0.0
 10
103.965058025224
 20
-128.1592745990366
 30
0.0
 10
103.965058025224
 20
-128.040763314344
 30
0.0
 10
103.965058025224
 20
-127.7868597770811
 30
0.0
 10
104.151437690976
 20
-127.5498372076959
 30
0.0
 10
104.4645968705852
 20
-127.5498372076959
 30
0.0
 10
104.7818901647768
 20
-127.5498372076959
 30
0.0
 10
105.0165011673223
 20
-127.7741129237857
 30
0.0
 10
105.0165011673223
 20
-128.0765923073906
 30
0.0
  0
HATCH
  5
102
330
F1
100
AcDbEntity
  8
_U+30EC_U+30A4_U+30E4_U+30FC 1
 62
     7
420
 16777215
100
AcDbHatch
 10
0.0
 20
0.0
 30
0.0
210
0.0
220
0.0
230
1.0
  2
SOLID
 70
     1
 71
     0
 91
        1
 92
        1
 93
        1
 72
     4
 94
        3
 73
     0
 74
     1
 95
       53
 96
       49
 40
0.0
 40
0.0
 40
0.0
 40
0.0
 40
1.0
 40
1.0
 40
1.0
 40
2.0
 40
2.0
 40
2.0
 40
3.0
 40
3.0
 40
3.0
 40
4.0
 40
4.0
 40
4.0
 40
5.0
 40
5.0
 40
5.0
 40
6.0
 40
6.0
 40
6.0
 40
7.0
 40
7.0
 40
7.0
 40
8.0
 40
8.0
 40
8.0
 40
9.0
 40
9.0
 40
9.0
 40
10.0
 40
10.0
 40
10.0
 40
11.0
 40
11.0
 40
11.0
 40
12.0
 40
12.0
 40
12.0
 40
13.0
 40
13.0
 40
13.0
 40
14.0
 40
14.0
 40
14.0
 40
15.0
 40
15.0
 40
15.0
 40
16.0
 40
16.0
 40
16.0
 40
16.0
 10
105.0165011673223
 20
-128.0765923073906
 10
105.0165011673223
 20
-128.1547959749057
 10
104.9996201994445
 20
-128.2564262917206
 10
104.9362304425159
 20
-128.3580566085355
 10
104.8263318965365
 20
-128.5313449114436
 10
104.6950737585485
 20
-128.5527045034521
 10
104.5872422698601
 20
-128.571652528621
 10
104.5872422698601
 20
-128.571652528621
 10
104.5872422698601
 20
-128.3494438698224
 10
104.5872422698601
 20
-128.3494438698224
 10
104.7860242793591
 20
-128.2946668516069
 10
104.8156521005322
 20
-128.1675428282012
 10
104.8156521005322
 20
-128.0745252500994
 10
104.8156521005322
 20
-127.9349988829468
 10
104.7160888410085
 20
-127.7827256624988
 10
104.4835448957541
 20
-127.7827256624988
 10
104.2275743012001
 20
-127.7827256624988
 10
104.1576388628495
 20
-127.9625596468288
 10
104.1576388628495
 20
-128.0831379888126
 10
104.1576388628495
 20
-128.1148328672768
 10
104.1576388628495
 20
-128.2564262917206
 10
104.2868299435464
 20
-128.3453097552401
 10
104.2868299435464
 20
-128.3453097552401
 10
104.2678819183775
 20
-128.5210096249878
 10
104.2678819183775
 20
-128.5210096249878
 10
104.2678819183775
 20
-128.5210096249878
 10
103.4214219576516
 20
-128.4004312830041
 10
103.4214219576516
 20
-128.4004312830041
 10
103.4214219576516
 20
-128.4004312830041
 10
103.4214219576516
 20
-127.6218397033376
 10
103.4214219576516
 20
-127.6218397033376
 10
103.4214219576516
 20
-127.6218397033376
 10
103.6160698525682
 20
-127.6218397033376
 10
103.6160698525682
 20
-127.6218397033376
 10
103.6160698525682
 20
-127.6218397033376
 10
103.6160698525682
 20
-128.2374782665518
 10
103.6160698525682
 20
-128.2374782665518
 10
103.6160698525682
 20
-128.2374782665518
 10
104.0391275781569
 20
-128.3029350807715
 10
104.0391275781569
 20
-128.3029350807715
 10
104.0053656424014
 20
-128.241612381134
 10
103.965058025224
 20
-128.1592745990366
 10
103.965058025224
 20
-128.040763314344
 10
103.965058025224
 20
-127.7868597770811
 10
104.151437690976
 20
-127.5498372076959
 10
104.4645968705852
 20
-127.5498372076959
 10
104.7818901647768
 20
-127.5498372076959
 10
105.0165011673223
 20
-127.7741129237857
 10
105.0165011673223
 20
-128.0765923073906
 97
        0
 97
        0
 75
     2
 76
     1
 98
        0
  0
ENDBLK
  5
F4
330
F1
100
AcDbEntity
  8
0
100
AcDbBlockEnd
  0
ENDSEC
  0
SECTION
  2
ENTITIES
  0
INSERT
  5
42
330
1F
100
AcDbEntity
  8
_U+30EC_U+30A4_U+30E4_U+30FC 1
100
AcDbBlockReference
  2
block 2
 10
0.0
 20
0.0
 30
0.0
  0
ENDSEC
  0
SECTION
  2
OBJECTS
  0
DICTIONARY
  5
C
330
0
100
AcDbDictionary
281
     1
  3
ACAD_GROUP
350
D
  3
ACAD_LAYOUT
350
1A
  3
ACAD_MATERIAL
350
3B
  3
ACAD_MLEADERSTYLE
350
104
  3
ACAD_MLINESTYLE
350
17
  3
ACAD_PLOTSETTINGS
350
19
  3
ACAD_PLOTSTYLENAME
350
E
  3
ACAD_TABLESTYLE
350
103
  3
ACAD_VISUALSTYLE
350
2A
  0
SUN
  5
3F
330
29
100
AcDbSun
 90
        1
290
     0
 63
     7
421
 16777215
 40
1.0
291
     1
 91
  2455826
 92
 54000000
292
     0
 70
     2
 71
   256
280
     1
  0
DICTIONARY
  5
D
102
{ACAD_REACTORS
330
C
102
}
330
C
100
AcDbDictionary
281
     1
  0
DICTIONARY
  5
1A
102
{ACAD_REACTORS
330
C
102
}
330
C
100
AcDbDictionary
281
     1
  3
Layout1
350
1E
  3
Layout2
350
26
  3
Model
350
22
  0
DICTIONARY
  5
3B
102
{ACAD_REACTORS
330
C
102
}
330
C
100
AcDbDictionary
281
     1
  3
ByBlock
350
3D
  3
ByLayer
350
3C
  3
Global
350
3E
  0
DICTIONARY
  5
104
102
{ACAD_REACTORS
330
C
102
}
330
C
100
AcDbDictionary
281
     1
  0
DICTIONARY
  5
17
102
{ACAD_REACTORS
330
C
102
}
330
C
100
AcDbDictionary
281
     1
  3
Standard
350
18
  0
DICTIONARY
  5
19
102
{ACAD_REACTORS
330
C
102
}
330
C
100
AcDbDictionary
281
     1
  0
ACDBDICTIONARYWDFLT
  5
E
102
{ACAD_REACTORS
330
C
102
}
330
C
100
AcDbDictionary
281
     1
  3
Normal
350
F
100
AcDbDictionaryWithDefault
340
F
  0
DICTIONARY
  5
103
102
{ACAD_REACTORS
330
C
102
}
330
C
100
AcDbDictionary
281
     1
  0
DICTIONARY
  5
2A
102
{ACAD_REACTORS
330
C
102
}
330
C
100
AcDbDictionary
281
     1
  3
2dWireframe
350
2F
  3
3D Hidden
350
31
  3
3dWireframe
350
30
  3
Basic
350
32
  3
Brighten
350
36
  3
ColorChange
350
3A
  3
Conceptual
350
34
  3
Dim
350
35
  3
Facepattern
350
39
  3
Flat
350
2B
  3
FlatWithEdges
350
2C
  3
Gouraud
350
2D
  3
GouraudWithEdges
350
2E
  3
Linepattern
350
38
  3
Realistic
350
33
  3
Thicken
350
37
  0
LAYOUT
  5
1E
102
{ACAD_REACTORS
330
1A
102
}
330
1A
100
AcDbPlotSettings
  1

  2
none_device
  4

  6

 40
0.0
 41
0.0
 42
0.0
 43
0.0
 44
0.0
 45
0.0
 46
0.0
 47
0.0
 48
0.0
 49
0.0
140
0.0
141
0.0
142
1.0
143
1.0
 70
   688
 72
     0
 73
     0
 74
     5
  7

 75
    16
 76
     0
 77
     2
 78
   300
147
1.0
148
0.0
149
0.0
100
AcDbLayout
  1
Layout1
 70
     1
 71
     1
 10
0.0
 20
0.0
 11
12.0
 21
9.0
 12
0.0
 22
0.0
 32
0.0
 14
1.000000000000000E+20
 24
1.000000000000000E+20
 34
1.000000000000000E+20
 15
-1.000000000000000E+20
 25
-1.000000000000000E+20
 35
-1.000000000000000E+20
146
0.0
 13
0.0
 23
0.0
 33
0.0
 16
1.0
 26
0.0
 36
0.0
 17
0.0
 27
1.0
 37
0.0
 76
     0
330
1B
  0
LAYOUT
  5
26
102
{ACAD_REACTORS
330
1A
102
}
330
1A
100
AcDbPlotSettings
  1

  2
none_device
  4

  6

 40
0.0
 41
0.0
 42
0.0
 43
0.0
 44
0.0
 45
0.0
 46
0.0
 47
0.0
 48
0.0
 49
0.0
140
0.0
141
0.0
142
1.0
143
1.0
 70
   688
 72
     0
 73
     0
 74
     5
  7

 75
    16
 76
     0
 77
     2
 78
   300
147
1.0
148
0.0
149
0.0
100
AcDbLayout
  1
Layout2
 70
     1
 71
     2
 10
0.0
 20
0.0
 11
0.0
 21
0.0
 12
0.0
 22
0.0
 32
0.0
 14
0.0
 24
0.0
 34
0.0
 15
0.0
 25
0.0
 35
0.0
146
0.0
 13
0.0
 23
0.0
 33
0.0
 16
1.0
 26
0.0
 36
0.0
 17
0.0
 27
1.0
 37
0.0
 76
     0
330
23
  0
LAYOUT
  5
22
102
{ACAD_REACTORS
330
1A
102
}
330
1A
100
AcDbPlotSettings
  1

  2
none_device
  4

  6

 40
0.0
 41
0.0
 42
0.0
 43
0.0
 44
0.0
 45
0.0
 46
0.0
 47
0.0
 48
0.0
 49
0.0
140
0.0
141
0.0
142
1.0
143
1.0
 70
  1712
 72
     0
 73
     0
 74
     0
  7

 75
     0
 76
     0
 77
     2
 78
   300
147
1.0
148
0.0
149
0.0
100
AcDbLayout
  1
Model
 70
     1
 71
     0
 10
0.0
 20
0.0
 11
12.0
 21
9.0
 12
0.0
 22
0.0
 32
0.0
 14
1.000000000000000E+20
 24
1.000000000000000E+20
 34
1.000000000000000E+20
 15
-1.000000000000000E+20
 25
-1.000000000000000E+20
 35
-1.000000000000000E+20
146
0.0
 13
0.0
 23
0.0
 33
0.0
 16
1.0
 26
0.0
 36
0.0
 17
0.0
 27
1.0
 37
0.0
 76
     0
330
1F
331
29
  0
MATERIAL
  5
3D
102
{ACAD_REACTORS
330
3B
102
}
330
3B
100
AcDbMaterial
  1
ByBlock
 72
     1
 94
      127
  0
MATERIAL
  5
3C
102
{ACAD_REACTORS
330
3B
102
}
330
3B
100
AcDbMaterial
  1
ByLayer
 72
     1
 94
      127
  0
MATERIAL
  5
3E
102
{ACAD_REACTORS
330
3B
102
}
330
3B
100
AcDbMaterial
  1
Global
 72
     1
 94
      127
  0
MLINESTYLE
  5
18
102
{ACAD_REACTORS
330
17
102
}
330
17
100
AcDbMlineStyle
  2
Standard
 70
     0
  3

 62
   256
 51
90.0
 52
90.0
 71
     2
 49
0.5
 62
   256
  6
BYLAYER
 49
-0.5
 62
   256
  6
BYLAYER
  0
ACDBPLACEHOLDER
  5
F
102
{ACAD_REACTORS
330
E
102
}
330
E
  0
VISUALSTYLE
  5
2F
102
{ACAD_REACTORS
330
2A
102
}
330
2A
100
AcDbVisualStyle
  2
2dWireframe
 70
     4
177
     2
291
     0
 71
     0
176
     1
 72
     2
176
     1
 73
     0
176
     1
 90
        0
176
     1
 40
-0.6
176
     1
 41
-30.0
176
     1
 62
     5
 63
     7
421
 16777215
176
     1
 74
     1
176
     1
 91
        4
176
     1
 64
     7
176
     1
 65
   257
176
     1
 75
     1
176
     1
175
     1
176
     1
 42
1.0
176
     1
 92
        0
176
     1
 66
   257
176
     1
 43
1.0
176
     1
 76
     1
176
     1
 77
     6
176
     1
 78
     2
176
     1
 67
     7
176
     1
 79
     5
176
     1
170
     0
176
     1
171
     0
176
     1
290
     0
176
     1
 93
        1
176
     1
 44
0.0
176
     1
173
     0
176
     1
  0
VISUALSTYLE
  5
31
102
{ACAD_REACTORS
330
2A
102
}
330
2A
100
AcDbVisualStyle
  2
3D Hidden
 70
     6
177
     2
291
     0
 71
     1
176
     1
 72
     2
176
     1
 73
     2
176
     1
 90
        0
176
     1
 40
-0.6
176
     1
 41
-30.0
176
     1
 62
     5
 63
     7
421
 16777215
176
     1
 74
     2
176
     1
 91
        2
176
     1
 64
     7
176
     1
 65
   257
176
     1
 75
     2
176
     1
175
     1
176
     1
 42
40.0
176
     1
 92
        0
176
     1
 66
   257
176
     1
 43
1.0
176
     1
 76
     1
176
     1
 77
     6
176
     1
 78
     2
176
     1
 67
     7
176
     1
 79
     3
176
     1
170
     0
176
     1
171
     0
176
     1
290
     0
176
     1
 93
        1
176
     1
 44
0.0
176
     1
173
     0
176
     1
  0
VISUALSTYLE
  5
30
102
{ACAD_REACTORS
330
2A
102
}
330
2A
100
AcDbVisualStyle
  2
3dWireframe
 70
     5
177
     2
291
     0
 71
     0
176
     1
 72
     2
176
     1
 73
     0
176
     1
 90
        0
176
     1
 40
-0.6
176
     1
 41
-30.0
176
     1
 62
     5
 63
     7
421
 16777215
176
     1
 74
     1
176
     1
 91
        4
176
     1
 64
     7
176
     1
 65
   257
176
     1
 75
     1
176
     1
175
     1
176
     1
 42
1.0
176
     1
 92
        0
176
     1
 66
   257
176
     1
 43
1.0
176
     1
 76
     1
176
     1
 77
     6
176
     1
 78
     2
176
     1
 67
     7
176
     1
 79
     5
176
     1
170
     0
176
     1
171
     0
176
     1
290
     0
176
     1
 93
        1
176
     1
 44
0.0
176
     1
173
     0
176
     1
  0
VISUALSTYLE
  5
32
102
{ACAD_REACTORS
330
2A
102
}
330
2A
100
AcDbVisualStyle
  2
Basic
 70
     7
177
     2
291
     1
 71
     1
176
     1
 72
     0
176
     1
 73
     1
176
     1
 90
        0
176
     1
 40
-0.6
176
     1
 41
-30.0
176
     1
 62
     5
 63
     7
421
 16777215
176
     1
 74
     0
176
     1
 91
        4
176
     1
 64
     7
176
     1
 65
   257
176
     1
 75
     1
176
     1
175
     1
176
     1
 42
1.0
176
     1
 92
        8
176
     1
 66
     7
176
     1
 43
1.0
176
     1
 76
     1
176
     1
 77
     6
176
     1
 78
     2
176
     1
 67
     7
176
     1
 79
     5
176
     1
170
     0
176
     1
171
     0
176
     1
290
     0
176
     1
 93
        1
176
     1
 44
0.0
176
     1
173
     0
176
     1
  0
VISUALSTYLE
  5
36
102
{ACAD_REACTORS
330
2A
102
}
330
2A
100
AcDbVisualStyle
  2
Brighten
 70
    12
177
     2
291
     1
 71
     2
176
     1
 72
     2
176
     1
 73
     0
176
     1
 90
        0
176
     1
 40
-0.6
176
     1
 41
-30.0
176
     1
 62
     5
 63
     7
421
 16777215
176
     1
 74
     1
176
     1
 91
        4
176
     1
 64
     7
176
     1
 65
   257
176
     1
 75
     1
176
     1
175
     1
176
     1
 42
1.0
176
     1
 92
        8
176
     1
 66
     7
176
     1
 43
1.0
176
     1
 76
     1
176
     1
 77
     6
176
     1
 78
     2
176
     1
 67
     7
176
     1
 79
     5
176
     1
170
     0
176
     1
171
     0
176
     1
290
     0
176
     1
 93
        1
176
     1
 44
50.0
176
     1
173
     0
176
     1
  0
VISUALSTYLE
  5
3A
102
{ACAD_REACTORS
330
2A
102
}
330
2A
100
AcDbVisualStyle
  2
ColorChange
 70
    16
177
     2
291
     1
 71
     2
176
     1
 72
     2
176
     1
 73
     3
176
     1
 90
        0
176
     1
 40
-0.6
176
     1
 41
-30.0
176
     1
 62
     5
 63
     8
421
  8421504
176
     1
 74
     1
176
     1
 91
        4
176
     1
 64
     7
176
     1
 65
   257
176
     1
 75
     1
176
     1
175
     1
176
     1
 42
1.0
176
     1
 92
        8
176
     1
 66
     8
424
  8421504
176
     1
 43
1.0
176
     1
 76
     1
176
     1
 77
     6
176
     1
 78
     2
176
     1
 67
     7
176
     1
 79
     5
176
     1
170
     0
176
     1
171
     0
176
     1
290
     0
176
     1
 93
        1
176
     1
 44
0.0
176
     1
173
     0
176
     1
  0
VISUALSTYLE
  5
34
102
{ACAD_REACTORS
330
2A
102
}
330
2A
100
AcDbVisualStyle
  2
Conceptual
 70
     9
177
     2
291
     0
 71
     3
176
     1
 72
     2
176
     1
 73
     0
176
     1
 90
        0
176
     1
 40
-0.6
176
     1
 41
-30.0
176
     1
 62
     5
 63
     7
421
 16777215
176
     1
 74
     2
176
     1
 91
        2
176
     1
 64
     7
176
     1
 65
   257
176
     1
 75
     1
176
     1
175
     1
176
     1
 42
40.0
176
     1
 92
        8
176
     1
 66
     7
176
     1
 43
1.0
176
     1
 76
     1
176
     1
 77
     6
176
     1
 78
     2
176
     1
 67
     7
176
     1
 79
     3
176
     1
170
     0
176
     1
171
     0
176
     1
290
     0
176
     1
 93
        1
176
     1
 44
0.0
176
     1
173
     0
176
     1
  0
VISUALSTYLE
  5
35
102
{ACAD_REACTORS
330
2A
102
}
330
2A
100
AcDbVisualStyle
  2
Dim
 70
    11
177
     2
291
     1
 71
     2
176
     1
 72
     2
176
     1
 73
     0
176
     1
 90
        0
176
     1
 40
-0.6
176
     1
 41
-30.0
176
     1
 62
     5
 63
     7
421
 16777215
176
     1
 74
     1
176
     1
 91
        4
176
     1
 64
     7
176
     1
 65
   257
176
     1
 75
     1
176
     1
175
     1
176
     1
 42
1.0
176
     1
 92
        8
176
     1
 66
     7
176
     1
 43
1.0
176
     1
 76
     1
176
     1
 77
     6
176
     1
 78
     2
176
     1
 67
     7
176
     1
 79
     5
176
     1
170
     0
176
     1
171
     0
176
     1
290
     0
176
     1
 93
        1
176
     1
 44
-50.0
176
     1
173
     0
176
     1
  0
VISUALSTYLE
  5
39
102
{ACAD_REACTORS
330
2A
102
}
330
2A
100
AcDbVisualStyle
  2
Facepattern
 70
    15
177
     2
291
     1
 71
     2
176
     1
 72
     2
176
     1
 73
     0
176
     1
 90
        0
176
     1
 40
-0.6
176
     1
 41
-30.0
176
     1
 62
     5
 63
     7
421
 16777215
176
     1
 74
     1
176
     1
 91
        4
176
     1
 64
     7
176
     1
 65
   257
176
     1
 75
     1
176
     1
175
     1
176
     1
 42
1.0
176
     1
 92
        8
176
     1
 66
     7
176
     1
 43
1.0
176
     1
 76
     1
176
     1
 77
     6
176
     1
 78
     2
176
     1
 67
     7
176
     1
 79
     5
176
     1
170
     0
176
     1
171
     0
176
     1
290
     0
176
     1
 93
        1
176
     1
 44
0.0
176
     1
173
     0
176
     1
  0
VISUALSTYLE
  5
2B
102
{ACAD_REACTORS
330
2A
102
}
330
2A
100
AcDbVisualStyle
  2
Flat
 70
     0
177
     2
291
     1
 71
     2
176
     1
 72
     1
176
     1
 73
     1
176
     1
 90
        2
176
     1
 40
-0.6
176
     1
 41
30.0
176
     1
 62
     5
 63
     7
421
 16777215
176
     1
 74
     0
176
     1
 91
        4
176
     1
 64
     7
176
     1
 65
   257
176
     1
 75
     1
176
     1
175
     1
176
     1
 42
1.0
176
     1
 92
        8
176
     1
 66
     7
176
     1
 43
1.0
176
     1
 76
     1
176
     1
 77
     6
176
     1
 78
     2
176
     1
 67
     7
176
     1
 79
     5
176
     1
170
     0
176
     1
171
     0
176
     1
290
     0
176
     1
 93
       13
176
     1
 44
0.0
176
     1
173
     0
176
     1
  0
VISUALSTYLE
  5
2C
102
{ACAD_REACTORS
330
2A
102
}
330
2A
100
AcDbVisualStyle
  2
FlatWithEdges
 70
     1
177
     2
291
     1
 71
     2
176
     1
 72
     1
176
     1
 73
     1
176
     1
 90
        2
176
     1
 40
-0.6
176
     1
 41
30.0
176
     1
 62
     5
 63
     7
421
 16777215
176
     1
 74
     1
176
     1
 91
        4
176
     1
 64
     7
176
     1
 65
   257
176
     1
 75
     1
176
     1
175
     1
176
     1
 42
1.0
176
     1
 92
        0
176
     1
 66
   257
176
     1
 43
1.0
176
     1
 76
     1
176
     1
 77
     6
176
     1
 78
     2
176
     1
 67
     7
176
     1
 79
     5
176
     1
170
     0
176
     1
171
     0
176
     1
290
     0
176
     1
 93
       13
176
     1
 44
0.0
176
     1
173
     0
176
     1
  0
VISUALSTYLE
  5
2D
102
{ACAD_REACTORS
330
2A
102
}
330
2A
100
AcDbVisualStyle
  2
Gouraud
 70
     2
177
     2
291
     1
 71
     2
176
     1
 72
     2
176
     1
 73
     1
176
     1
 90
        2
176
     1
 40
-0.6
176
     1
 41
30.0
176
     1
 62
     5
 63
     7
421
 16777215
176
     1
 74
     0
176
     1
 91
        4
176
     1
 64
     7
176
     1
 65
   257
176
     1
 75
     1
176
     1
175
     1
176
     1
 42
1.0
176
     1
 92
        0
176
     1
 66
     7
176
     1
 43
1.0
176
     1
 76
     1
176
     1
 77
     6
176
     1
 78
     2
176
     1
 67
     7
176
     1
 79
     5
176
     1
170
     0
176
     1
171
     0
176
     1
290
     0
176
     1
 93
       13
176
     1
 44
0.0
176
     1
173
     0
176
     1
  0
VISUALSTYLE
  5
2E
102
{ACAD_REACTORS
330
2A
102
}
330
2A
100
AcDbVisualStyle
  2
GouraudWithEdges
 70
     3
177
     2
291
     1
 71
     2
176
     1
 72
     2
176
     1
 73
     1
176
     1
 90
        2
176
     1
 40
-0.6
176
     1
 41
30.0
176
     1
 62
     5
 63
     7
421
 16777215
176
     1
 74
     1
176
     1
 91
        4
176
     1
 64
     7
176
     1
 65
   257
176
     1
 75
     1
176
     1
175
     1
176
     1
 42
1.0
176
     1
 92
        0
176
     1
 66
   257
176
     1
 43
1.0
176
     1
 76
     1
176
     1
 77
     6
176
     1
 78
     2
176
     1
 67
     7
176
     1
 79
     5
176
     1
170
     0
176
     1
171
     0
176
     1
290
     0
176
     1
 93
       13
176
     1
 44
0.0
176
     1
173
     0
176
     1
  0
VISUALSTYLE
  5
38
102
{ACAD_REACTORS
330
2A
102
}
330
2A
100
AcDbVisualStyle
  2
Linepattern
 70
    14
177
     2
291
     1
 71
     2
176
     1
 72
     2
176
     1
 73
     0
176
     1
 90
        0
176
     1
 40
-0.6
176
     1
 41
-30.0
176
     1
 62
     5
 63
     7
421
 16777215
176
     1
 74
     1
176
     1
 91
        4
176
     1
 64
     7
176
     1
 65
   257
176
     1
 75
     7
176
     1
175
     7
176
     1
 42
1.0
176
     1
 92
        8
176
     1
 66
     7
176
     1
 43
1.0
176
     1
 76
     1
176
     1
 77
     6
176
     1
 78
     2
176
     1
 67
     7
176
     1
 79
     5
176
     1
170
     0
176
     1
171
     0
176
     1
290
     0
176
     1
 93
        1
176
     1
 44
0.0
176
     1
173
     0
176
     1
  0
VISUALSTYLE
  5
33
102
{ACAD_REACTORS
330
2A
102
}
330
2A
100
AcDbVisualStyle
  2
Realistic
 70
     8
177
     2
291
     0
 71
     2
176
     1
 72
     2
176
     1
 73
     0
176
     1
 90
        0
176
     1
 40
-0.6
176
     1
 41
-30.0
176
     1
 62
     5
 63
     7
421
 16777215
176
     1
 74
     1
176
     1
 91
        0
176
     1
 64
     7
176
     1
 65
   257
176
     1
 75
     1
176
     1
175
     1
176
     1
 42
1.0
176
     1
 92
        8
176
     1
 66
     8
424
  7895160
176
     1
 43
1.0
176
     1
 76
     1
176
     1
 77
     6
176
     1
 78
     2
176
     1
 67
     7
176
     1
 79
     5
176
     1
170
     0
176
     1
171
     0
176
     1
290
     0
176
     1
 93
       13
176
     1
 44
0.0
176
     1
173
     0
176
     1
  0
VISUALSTYLE
  5
37
102
{ACAD_REACTORS
330
2A
102
}
330
2A
100
AcDbVisualStyle
  2
Thicken
 70
    13
177
     2
291
     1
 71
     2
176
     1
 72
     2
176
     1
 73
     0
176
     1
 90
        0
176
     1
 40
-0.6
176
     1
 41
-30.0
176
     1
 62
     5
 63
     7
421
 16777215
176
     1
 74
     1
176
     1
 91
        4
176
     1
 64
     7
176
     1
 65
   257
176
     1
 75
     1
176
     1
175
     1
176
     1
 42
1.0
176
     1
 92
       12
176
     1
 66
     7
176
     1
 43
1.0
176
     1
 76
     1
176
     1
 77
     6
176
     1
 78
     2
176
     1
 67
     7
176
     1
 79
     5
176
     1
170
     0
176
     1
171
     0
176
     1
290
     0
176
     1
 93
        1
176
     1
 44
0.0
176
     1
173
     0
176
     1
  0
ENDSEC
  0
EOF
