  0
SECTION
  2
HEADER
  9
$ACADVER
  1
AC1024
  9
$ACADMAINTVER
 70
     6
  9
$DWGCODEPAGE
  3
UNDEFINED
  9
$INSBASE
 10
0.0
 20
0.0
 30
0.0
  9
$EXTMIN
 10
1.000000000000000E+20
 20
1.000000000000000E+20
 30
1.000000000000000E+20
  9
$EXTMAX
 10
-1.000000000000000E+20
 20
-1.000000000000000E+20
 30
-1.000000000000000E+20
  9
$LIMMIN
 10
0.0
 20
0.0
  9
$LIMMAX
 10
12.0
 20
9.0
  9
$ORTHOMODE
 70
     0
  9
$REGENMODE
 70
     1
  9
$FILLMODE
 70
     1
  9
$QTEXTMODE
 70
     0
  9
$MIRRTEXT
 70
     1
  9
$LTSCALE
 40
1.0
  9
$ATTMODE
 70
     1
  9
$TEXTSIZE
 40
0.2
  9
$TRACEWID
 40
0.05
  9
$TEXTSTYLE
  7
Standard
  9
$CLAYER
  8
0
  9
$CELTYPE
  6
ByLayer
  9
$CECOLOR
 62
   256
  9
$CELTSCALE
 40
1.0
  9
$DISPSILH
 70
     0
  9
$DIMSCALE
 40
1.0
  9
$DIMASZ
 40
0.18
  9
$DIMEXO
 40
0.0625
  9
$DIMDLI
 40
0.38
  9
$DIMRND
 40
0.0
  9
$DIMDLE
 40
0.0
  9
$DIMEXE
 40
0.18
  9
$DIMTP
 40
0.0
  9
$DIMTM
 40
0.0
  9
$DIMTXT
 40
0.18
  9
$DIMCEN
 40
0.09
  9
$DIMTSZ
 40
0.0
  9
$DIMTOL
 70
     0
  9
$DIMLIM
 70
     0
  9
$DIMTIH
 70
     1
  9
$DIMTOH
 70
     1
  9
$DIMSE1
 70
     0
  9
$DIMSE2
 70
     0
  9
$DIMTAD
 70
     0
  9
$DIMZIN
 70
     0
  9
$DIMBLK
  1

  9
$DIMASO
 70
     1
  9
$DIMSHO
 70
     1
  9
$DIMPOST
  1

  9
$DIMAPOST
  1

  9
$DIMALT
 70
     0
  9
$DIMALTD
 70
     2
  9
$DIMALTF
 40
25.4
  9
$DIMLFAC
 40
1.0
  9
$DIMTOFL
 70
     0
  9
$DIMTVP
 40
0.0
  9
$DIMTIX
 70
     0
  9
$DIMSOXD
 70
     0
  9
$DIMSAH
 70
     0
  9
$DIMBLK1
  1

  9
$DIMBLK2
  1

  9
$DIMSTYLE
  2
Standard
  9
$DIMCLRD
 70
     0
  9
$DIMCLRE
 70
     0
  9
$DIMCLRT
 70
     0
  9
$DIMTFAC
 40
1.0
  9
$DIMGAP
 40
0.09
  9
$DIMJUST
 70
     0
  9
$DIMSD1
 70
     0
  9
$DIMSD2
 70
     0
  9
$DIMTOLJ
 70
     1
  9
$DIMTZIN
 70
     0
  9
$DIMALTZ
 70
     0
  9
$DIMALTTZ
 70
     0
  9
$DIMUPT
 70
     0
  9
$DIMDEC
 70
     4
  9
$DIMTDEC
 70
     4
  9
$DIMALTU
 70
     2
  9
$DIMALTTD
 70
     2
  9
$DIMTXSTY
  7
Standard
  9
$DIMAUNIT
 70
     0
  9
$DIMADEC
 70
     0
  9
$DIMALTRND
 40
0.0
  9
$DIMAZIN
 70
     0
  9
$DIMDSEP
 70
    46
  9
$DIMATFIT
 70
     3
  9
$DIMFRAC
 70
     0
  9
$DIMLDRBLK
  1

  9
$DIMLUNIT
 70
     2
  9
$DIMLWD
 70
    -2
  9
$DIMLWE
 70
    -2
  9
$DIMTMOVE
 70
     0
  9
$DIMFXL
 40
1.0
  9
$DIMFXLON
 70
     0
  9
$DIMJOGANG
 40
0.7853981633974483
  9
$DIMTFILL
 70
     0
  9
$DIMTFILLCLR
 70
     0
  9
$DIMARCSYM
 70
     0
  9
$DIMLTYPE
  6

  9
$DIMLTEX1
  6

  9
$DIMLTEX2
  6

  9
$DIMTXTDIRECTION
 70
     0
  9
$LUNITS
 70
     2
  9
$LUPREC
 70
     4
  9
$SKETCHINC
 40
0.1
  9
$FILLETRAD
 40
0.5
  9
$AUNITS
 70
     0
  9
$AUPREC
 70
     0
  9
$MENU
  1
.
  9
$ELEVATION
 40
0.0
  9
$PELEVATION
 40
0.0
  9
$THICKNESS
 40
0.0
  9
$LIMCHECK
 70
     0
  9
$CHAMFERA
 40
0.5
  9
$CHAMFERB
 40
0.5
  9
$CHAMFERC
 40
1.0
  9
$CHAMFERD
 40
0.0
  9
$SKPOLY
 70
     0
  9
$TDCREATE
 40
2457917.615567118
  9
$TDUCREATE
 40
2457917.24056713
  9
$TDUPDATE
 40
2457917.615567118
  9
$TDUUPDATE
 40
2457917.24056713
  9
$TDINDWG
 40
0.0000000116
  9
$TDUSRTIMER
 40
0.0000000116
  9
$USRTIMER
 70
     1
  9
$ANGBASE
 50
0.0
  9
$ANGDIR
 70
     0
  9
$PDMODE
 70
     0
  9
$PDSIZE
 40
0.0
  9
$PLINEWID
 40
0.0
  9
$SPLFRAME
 70
     0
  9
$SPLINETYPE
 70
     6
  9
$SPLINESEGS
 70
     8
  9
$HANDSEED
  5
E5
  9
$SURFTAB1
 70
     6
  9
$SURFTAB2
 70
     6
  9
$SURFTYPE
 70
     6
  9
$SURFU
 70
     6
  9
$SURFV
 70
     6
  9
$UCSBASE
  2

  9
$UCSNAME
  2

  9
$UCSORG
 10
0.0
 20
0.0
 30
0.0
  9
$UCSXDIR
 10
1.0
 20
0.0
 30
0.0
  9
$UCSYDIR
 10
0.0
 20
1.0
 30
0.0
  9
$UCSORTHOREF
  2

  9
$UCSORTHOVIEW
 70
     0
  9
$UCSORGTOP
 10
0.0
 20
0.0
 30
0.0
  9
$UCSORGBOTTOM
 10
0.0
 20
0.0
 30
0.0
  9
$UCSORGLEFT
 10
0.0
 20
0.0
 30
0.0
  9
$UCSORGRIGHT
 10
0.0
 20
0.0
 30
0.0
  9
$UCSORGFRONT
 10
0.0
 20
0.0
 30
0.0
  9
$UCSORGBACK
 10
0.0
 20
0.0
 30
0.0
  9
$PUCSBASE
  2

  9
$PUCSNAME
  2

  9
$PUCSORG
 10
0.0
 20
0.0
 30
0.0
  9
$PUCSXDIR
 10
1.0
 20
0.0
 30
0.0
  9
$PUCSYDIR
 10
0.0
 20
1.0
 30
0.0
  9
$PUCSORTHOREF
  2

  9
$PUCSORTHOVIEW
 70
     0
  9
$PUCSORGTOP
 10
0.0
 20
0.0
 30
0.0
  9
$PUCSORGBOTTOM
 10
0.0
 20
0.0
 30
0.0
  9
$PUCSORGLEFT
 10
0.0
 20
0.0
 30
0.0
  9
$PUCSORGRIGHT
 10
0.0
 20
0.0
 30
0.0
  9
$PUCSORGFRONT
 10
0.0
 20
0.0
 30
0.0
  9
$PUCSORGBACK
 10
0.0
 20
0.0
 30
0.0
  9
$USERI1
 70
     0
  9
$USERI2
 70
     0
  9
$USERI3
 70
     0
  9
$USERI4
 70
     0
  9
$USERI5
 70
     0
  9
$USERR1
 40
0.0
  9
$USERR2
 40
0.0
  9
$USERR3
 40
0.0
  9
$USERR4
 40
0.0
  9
$USERR5
 40
0.0
  9
$WORLDVIEW
 70
     1
  9
$SHADEDGE
 70
     3
  9
$SHADEDIF
 70
    70
  9
$TILEMODE
 70
     1
  9
$MAXACTVP
 70
    64
  9
$PINSBASE
 10
0.0
 20
0.0
 30
0.0
  9
$PLIMCHECK
 70
     0
  9
$PEXTMIN
 10
1.000000000000000E+20
 20
1.000000000000000E+20
 30
1.000000000000000E+20
  9
$PEXTMAX
 10
-1.000000000000000E+20
 20
-1.000000000000000E+20
 30
-1.000000000000000E+20
  9
$PLIMMIN
 10
0.0
 20
0.0
  9
$PLIMMAX
 10
12.0
 20
9.0
  9
$UNITMODE
 70
     0
  9
$VISRETAIN
 70
     1
  9
$PLINEGEN
 70
     0
  9
$PSLTSCALE
 70
     1
  9
$TREEDEPTH
 70
  3020
  9
$CMLSTYLE
  2
Standard
  9
$CMLJUST
 70
     0
  9
$CMLSCALE
 40
1.0
  9
$PROXYGRAPHICS
 70
     1
  9
$MEASUREMENT
 70
     0
  9
$CELWEIGHT
370
    -1
  9
$ENDCAPS
280
     0
  9
$JOINSTYLE
280
     0
  9
$LWDISPLAY
290
     1
  9
$INSUNITS
 70
     1
  9
$HYPERLINKBASE
  1

  9
$STYLESHEET
  1

  9
$XEDIT
290
     1
  9
$CEPSNTYPE
380
     0
  9
$PSTYLEMODE
290
     1
  9
$FINGERPRINTGUID
  2
{9A6A77A7-CF81-354A-4634-4ECF8FA3EA73}
  9
$VERSIONGUID
  2
{FAEB1C32-E019-11D5-929B-00C0DF256EC4}
  9
$EXTNAMES
290
     1
  9
$PSVPSCALE
 40
0.0
  9
$OLESTARTUP
290
     0
  9
$SORTENTS
280
   127
  9
$INDEXCTL
280
     0
  9
$HIDETEXT
280
     1
  9
$XCLIPFRAME
280
     2
  9
$HALOGAP
280
     0
  9
$OBSCOLOR
 70
   257
  9
$OBSLTYPE
280
     0
  9
$INTERSECTIONDISPLAY
280
     0
  9
$INTERSECTIONCOLOR
 70
   257
  9
$DIMASSOC
280
     2
  9
$PROJECTNAME
  1

  9
$CAMERADISPLAY
290
     0
  9
$LENSLENGTH
 40
50.0
  9
$CAMERAHEIGHT
 40
0.0
  9
$STEPSPERSEC
 40
2.0
  9
$STEPSIZE
 40
6.0
  9
$3DDWFPREC
 40
2.0
  9
$PSOLWIDTH
 40
0.25
  9
$PSOLHEIGHT
 40
4.0
  9
$LOFTANG1
 40
1.570796326794897
  9
$LOFTANG2
 40
1.570796326794897
  9
$LOFTMAG1
 40
0.0
  9
$LOFTMAG2
 40
0.0
  9
$LOFTPARAM
 70
     7
  9
$LOFTNORMALS
280
     1
  9
$LATITUDE
 40
37.795
  9
$LONGITUDE
 40
-122.394
  9
$NORTHDIRECTION
 40
0.0
  9
$TIMEZONE
 70
 -8000
  9
$LIGHTGLYPHDISPLAY
280
     1
  9
$TILEMODELIGHTSYNCH
280
     1
  9
$CMATERIAL
347
3C
  9
$SOLIDHIST
280
     1
  9
$SHOWHIST
280
     1
  9
$DWFFRAME
280
     2
  9
$DGNFRAME
280
     2
  9
$REALWORLDSCALE
290
     1
  9
$INTERFERECOLOR
 62
   256
  9
$CSHADOW
280
     0
  9
$SHADOWPLANELOCATION
 40
0.0
  0
ENDSEC
  0
SECTION
  2
CLASSES
  0
CLASS
  1
ACDBDICTIONARYWDFLT
  2
AcDbDictionaryWithDefault
  3
ObjectDBX Classes
 90
        0
 91
        4
280
     0
281
     0
  0
CLASS
  1
VISUALSTYLE
  2
AcDbVisualStyle
  3
ObjectDBX Classes
 90
     4095
 91
        4
280
     0
281
     0
  0
CLASS
  1
MATERIAL
  2
AcDbMaterial
  3
ObjectDBX Classes
 90
     1153
 91
        4
280
     0
281
     0
  0
CLASS
  1
SUN
  2
AcDbSun
  3
SCENEOE
 90
     1024
 91
        4
280
     0
281
     0
  0
ENDSEC
  0
SECTION
  2
TABLES
  0
TABLE
  2
VPORT
  5
8
330
0
100
AcDbSymbolTable
 70
     1
  0
VPORT
  5
29
330
8
100
AcDbSymbolTableRecord
100
AcDbViewportTableRecord
  2
*Active
 70
     0
 10
0.0
 20
0.0
 11
1.0
 21
1.0
 12
0.0
 22
0.0
 13
0.0
 23
0.0
 14
0.5
 24
0.5
 15
0.5
 25
0.5
 16
0.0
 26
0.0
 36
1.0
 17
91.00082462281999
 27
-128.4993055234307
 37
0.0
 40
256.9986110468615
 41
0.7081814508812795
 42
50.0
 43
0.0
 44
0.0
 50
0.0
 51
0.0
 71
     0
 72
   100
 73
     1
 74
     3
 75
     0
 76
     0
 77
     0
 78
     0
281
     0
 65
     1
110
0.0
120
0.0
130
0.0
111
1.0
121
0.0
131
0.0
112
0.0
122
1.0
132
0.0
 79
     0
146
0.0
 60
     3
 61
     5
292
     1
282
     1
141
0.0
142
0.0
 63
   250
361
3F
  0
ENDTAB
  0
TABLE
  2
LTYPE
  5
5
330
0
100
AcDbSymbolTable
 70
     1
  0
LTYPE
  5
14
330
5
100
AcDbSymbolTableRecord
100
AcDbLinetypeTableRecord
  2
ByBlock
 70
     0
  3

 72
    65
 73
     0
 40
0.0
  0
LTYPE
  5
15
330
5
100
AcDbSymbolTableRecord
100
AcDbLinetypeTableRecord
  2
ByLayer
 70
     0
  3

 72
    65
 73
     0
 40
0.0
  0
LTYPE
  5
16
330
5
100
AcDbSymbolTableRecord
100
AcDbLinetypeTableRecord
  2
Continuous
 70
     0
  3
Solid line
 72
    65
 73
     0
 40
0.0
  0
ENDTAB
  0
TABLE
  2
LAYER
  5
2
330
0
100
AcDbSymbolTable
 70
     2
  0
LAYER
  5
10
330
2
100
AcDbSymbolTableRecord
100
AcDbLayerTableRecord
  2
0
 70
     0
 62
     7
  6
Continuous
370
    -3
390
F
347
3E
  0
LAYER
  5
40
330
2
100
AcDbSymbolTableRecord
100
AcDbLayerTableRecord
  2
_U+30EC_U+30A4_U+30E4_U+30FC 1
 70
     0
 62
     7
  6
Continuous
370
    -3
390
F
347
3E
  0
ENDTAB
  0
TABLE
  2
STYLE
  5
3
330
0
100
AcDbSymbolTable
 70
     1
  0
STYLE
  5
11
330
3
100
AcDbSymbolTableRecord
100
AcDbTextStyleTableRecord
  2
Standard
 70
     0
 40
0.0
 41
1.0
 50
0.0
 71
     0
 42
0.2
  3
txt
  4

  0
ENDTAB
  0
TABLE
  2
VIEW
  5
6
330
0
100
AcDbSymbolTable
 70
     0
  0
ENDTAB
  0
TABLE
  2
UCS
  5
7
330
0
100
AcDbSymbolTable
 70
     0
  0
ENDTAB
  0
TABLE
  2
APPID
  5
9
330
0
100
AcDbSymbolTable
 70
     1
  0
APPID
  5
12
330
9
100
AcDbSymbolTableRecord
100
AcDbRegAppTableRecord
  2
ACAD
 70
     0
  0
ENDTAB
  0
TABLE
  2
DIMSTYLE
  5
A
330
0
100
AcDbSymbolTable
 70
     1
100
AcDbDimStyleTable
  0
DIMSTYLE
105
27
330
A
100
AcDbSymbolTableRecord
100
AcDbDimStyleTableRecord
  2
Standard
 70
     0
178
     0
340
11
  0
ENDTAB
  0
TABLE
  2
BLOCK_RECORD
  5
1
330
0
100
AcDbSymbolTable
 70
     7
  0
BLOCK_RECORD
  5
1F
330
1
100
AcDbSymbolTableRecord
100
AcDbBlockTableRecord
  2
*Model_Space
340
22
 70
     0
280
     1
281
     0
  0
BLOCK_RECORD
  5
1B
330
1
100
AcDbSymbolTableRecord
100
AcDbBlockTableRecord
  2
*Paper_Space
340
1E
 70
     0
280
     1
281
     0
  0
BLOCK_RECORD
  5
23
330
1
100
AcDbSymbolTableRecord
100
AcDbBlockTableRecord
  2
*Paper_Space0
340
26
 70
     0
280
     1
281
     0
  0
BLOCK_RECORD
  5
79
330
1
100
AcDbSymbolTableRecord
100
AcDbBlockTableRecord
  2
block 2
340
0
102
{BLKREFS
331
7A
102
}
 70
     0
280
     1
281
     0
  0
BLOCK_RECORD
  5
87
330
1
100
AcDbSymbolTableRecord
100
AcDbBlockTableRecord
  2
block 3
340
0
102
{BLKREFS
331
88
102
}
 70
     0
280
     1
281
     0
  0
BLOCK_RECORD
  5
99
330
1
100
AcDbSymbolTableRecord
100
AcDbBlockTableRecord
  2
block 4
340
0
102
{BLKREFS
331
9A
102
}
 70
     0
280
     1
281
     0
  0
BLOCK_RECORD
  5
AA
330
1
100
AcDbSymbolTableRecord
100
AcDbBlockTableRecord
  2
block 5
340
0
102
{BLKREFS
331
AB
102
}
 70
     0
280
     1
281
     0
  0
BLOCK_RECORD
  5
BC
330
1
100
AcDbSymbolTableRecord
100
AcDbBlockTableRecord
  2
block 6
340
0
102
{BLKREFS
331
BD
102
}
 70
     0
280
     1
281
     0
  0
BLOCK_RECORD
  5
D1
330
1
100
AcDbSymbolTableRecord
100
AcDbBlockTableRecord
  2
block 7
340
0
102
{BLKREFS
331
D2
102
}
 70
     0
280
     1
281
     0
  0
ENDTAB
  0
ENDSEC
  0
SECTION
  2
BLOCKS
  0
BLOCK
  5
20
330
1F
100
AcDbEntity
  8
0
100
AcDbBlockBegin
  2
*Model_Space
 70
     0
 10
0.0
 20
0.0
 30
0.0
  3
*Model_Space
  1

  0
ENDBLK
  5
21
330
1F
100
AcDbEntity
  8
0
100
AcDbBlockEnd
  0
BLOCK
  5
1C
330
1B
100
AcDbEntity
 67
     1
  8
0
100
AcDbBlockBegin
  2
*Paper_Space
 70
     0
 10
0.0
 20
0.0
 30
0.0
  3
*Paper_Space
  1

  0
ENDBLK
  5
1D
330
1B
100
AcDbEntity
 67
     1
  8
0
100
AcDbBlockEnd
  0
BLOCK
  5
24
330
23
100
AcDbEntity
  8
0
100
AcDbBlockBegin
  2
*Paper_Space0
 70
     0
 10
0.0
 20
0.0
 30
0.0
  3
*Paper_Space0
  1

  0
ENDBLK
  5
25
330
23
100
AcDbEntity
  8
0
100
AcDbBlockEnd
  0
BLOCK
  5
7B
330
79
100
AcDbEntity
  8
0
100
AcDbBlockBegin
  2
block 2
 70
     0
 10
0.0
 20
0.0
 30
0.0
  3
block 2
  1

  0
SPLINE
  5
7D
330
79
100
AcDbEntity
  8
_U+30EC_U+30A4_U+30E4_U+30FC 1
370
     0
100
AcDbSpline
210
0.0
220
0.0
230
1.0
 70
    11
 71
     3
 72
    26
 73
    22
 74
     0
 42
0.0000000001
 43
0.0000000001
 12
1.0
 22
0.0
 32
0.0
 13
1.0
 23
0.0
 33
0.0
 40
0.0
 40
0.0
 40
0.0
 40
0.0
 40
1.0
 40
1.0
 40
1.0
 40
2.0
 40
2.0
 40
2.0
 40
3.0
 40
3.0
 40
3.0
 40
4.0
 40
4.0
 40
4.0
 40
5.0
 40
5.0
 40
5.0
 40
6.0
 40
6.0
 40
6.0
 40
7.0
 40
7.0
 40
7.0
 40
7.0
 10
105.8574489752718
 20
-124.0127576729899
 30
0.0
 10
105.8574489752718
 20
-124.0127576729899
 30
0.0
 10
104.7532958722492
 20
-124.0127576729899
 30
0.0
 10
104.7532958722492
 20
-124.0127576729899
 30
0.0
 10
104.7532958722492
 20
-124.0127576729899
 30
0.0
 10
104.7532958722492
 20
-124.3427978204768
 30
0.0
 10
104.7532958722492
 20
-124.3427978204768
 30
0.0
 10
104.7532958722492
 20
-124.3427978204768
 30
0.0
 10
104.6051567663834
 20
-124.3427978204768
 30
0.0
 10
104.6051567663834
 20
-124.3427978204768
 30
0.0
 10
104.5903428557969
 20
-124.0106906156987
 30
0.0
 10
104.4273898393445
 20
-123.9641818266478
 30
0.0
 10
104.3130126692343
 20
-123.9345540054747
 30
0.0
 10
104.3130126692343
 20
-123.9345540054747
 30
0.0
 10
104.3130126692343
 20
-123.7884819569001
 30
0.0
 10
104.3130126692343
 20
-123.7884819569001
 30
0.0
 10
104.3130126692343
 20
-123.7884819569001
 30
0.0
 10
105.8574489752718
 20
-123.7884819569001
 30
0.0
 10
105.8574489752718
 20
-123.7884819569001
 30
0.0
 10
105.8574489752718
 20
-123.7884819569001
 30
0.0
 10
105.8574489752718
 20
-124.0127576729899
 30
0.0
 10
105.8574489752718
 20
-124.0127576729899
 30
0.0
  0
HATCH
  5
7E
330
79
100
AcDbEntity
  8
_U+30EC_U+30A4_U+30E4_U+30FC 1
 62
     7
420
 16777215
100
AcDbHatch
 10
0.0
 20
0.0
 30
0.0
210
0.0
220
0.0
230
1.0
  2
SOLID
 70
     1
 71
     0
 91
        1
 92
        1
 93
        1
 72
     4
 94
        3
 73
     0
 74
     1
 95
       26
 96
       22
 40
0.0
 40
0.0
 40
0.0
 40
0.0
 40
1.0
 40
1.0
 40
1.0
 40
2.0
 40
2.0
 40
2.0
 40
3.0
 40
3.0
 40
3.0
 40
4.0
 40
4.0
 40
4.0
 40
5.0
 40
5.0
 40
5.0
 40
6.0
 40
6.0
 40
6.0
 40
7.0
 40
7.0
 40
7.0
 40
7.0
 10
105.8574489752718
 20
-124.0127576729899
 10
105.8574489752718
 20
-124.0127576729899
 10
104.7532958722492
 20
-124.0127576729899
 10
104.7532958722492
 20
-124.0127576729899
 10
104.7532958722492
 20
-124.0127576729899
 10
104.7532958722492
 20
-124.3427978204768
 10
104.7532958722492
 20
-124.3427978204768
 10
104.7532958722492
 20
-124.3427978204768
 10
104.6051567663834
 20
-124.3427978204768
 10
104.6051567663834
 20
-124.3427978204768
 10
104.5903428557969
 20
-124.0106906156987
 10
104.4273898393445
 20
-123.9641818266478
 10
104.3130126692343
 20
-123.9345540054747
 10
104.3130126692343
 20
-123.9345540054747
 10
104.3130126692343
 20
-123.7884819569001
 10
104.3130126692343
 20
-123.7884819569001
 10
104.3130126692343
 20
-123.7884819569001
 10
105.8574489752718
 20
-123.7884819569001
 10
105.8574489752718
 20
-123.7884819569001
 10
105.8574489752718
 20
-123.7884819569001
 10
105.8574489752718
 20
-124.0127576729899
 10
105.8574489752718
 20
-124.0127576729899
 97
        0
 97
        0
 75
     2
 76
     1
 98
        0
  0
ENDBLK
  5
7C
330
79
100
AcDbEntity
  8
0
100
AcDbBlockEnd
  0
BLOCK
  5
89
330
87
100
AcDbEntity
  8
0
100
AcDbBlockBegin
  2
block 3
 70
     0
 10
0.0
 20
0.0
 30
0.0
  3
block 3
  1

  0
SPLINE
  5
8B
330
87
100
AcDbEntity
  8
_U+30EC_U+30A4_U+30E4_U+30FC 1
370
     0
100
AcDbSpline
210
0.0
220
0.0
230
1.0
 70
    11
 71
     3
 72
    62
 73
    58
 74
     0
 42
0.0000000001
 43
0.0000000001
 12
1.0
 22
0.0
 32
0.0
 13
1.0
 23
0.0
 33
0.0
 40
0.0
 40
0.0
 40
0.0
 40
0.0
 40
1.0
 40
1.0
 40
1.0
 40
2.0
 40
2.0
 40
2.0
 40
3.0
 40
3.0
 40
3.0
 40
4.0
 40
4.0
 40
4.0
 40
5.0
 40
5.0
 40
5.0
 40
6.0
 40
6.0
 40
6.0
 40
7.0
 40
7.0
 40
7.0
 40
8.0
 40
8.0
 40
8.0
 40
9.0
 40
9.0
 40
9.0
 40
10.0
 40
10.0
 40
10.0
 40
11.0
 40
11.0
 40
11.0
 40
12.0
 40
12.0
 40
12.0
 40
13.0
 40
13.0
 40
13.0
 40
14.0
 40
14.0
 40
14.0
 40
15.0
 40
15.0
 40
15.0
 40
16.0
 40
16.0
 40
16.0
 40
17.0
 40
17.0
 40
17.0
 40
18.0
 40
18.0
 40
18.0
 40
19.0
 40
19.0
 40
19.0
 40
19.0
 10
105.9080918789049
 20
-134.4448513118749
 30
0.0
 10
105.9080918789049
 20
-134.5402804568163
 30
0.0
 10
105.8870767964449
 20
-134.7580104914841
 30
0.0
 10
105.7010416402414
 20
-134.8830674575987
 30
0.0
 10
105.5887315274223
 20
-134.956792500983
 30
0.0
 10
105.4895127774471
 20
-134.9612711251139
 30
0.0
 10
105.4047634285099
 20
-134.9654052396962
 30
0.0
 10
105.4047634285099
 20
-134.9654052396962
 30
0.0
 10
105.4047634285099
 20
-134.7452636381887
 30
0.0
 10
105.4047634285099
 20
-134.7452636381887
 30
0.0
 10
105.4788329814428
 20
-134.7431965808975
 30
0.0
 10
105.7134439839883
 20
-134.7328612944418
 30
0.0
 10
105.7134439839883
 20
-134.4493299360057
 30
0.0
 10
105.7134439839883
 20
-134.3118706261443
 30
0.0
 10
105.6438530551863
 20
-134.1592528961477
 30
0.0
 10
105.4154432245142
 20
-134.1592528961477
 30
0.0
 10
105.2989989971128
 20
-134.1592528961477
 30
0.0
 10
105.2504231507707
 20
-134.197493456034
 30
0.0
 10
105.2187282723064
 20
-134.2291883344983
 30
0.0
 10
105.1446587193736
 20
-134.3032578874311
 30
0.0
 10
105.1319118660781
 20
-134.4197021148326
 30
0.0
 10
105.1319118660781
 20
-134.474479133048
 30
0.0
 10
105.1319118660781
 20
-134.4937716677655
 30
0.0
 10
105.1339789233693
 20
-134.529600660812
 30
0.0
 10
105.1381130379516
 20
-134.557161424694
 30
0.0
 10
105.1381130379516
 20
-134.557161424694
 30
0.0
 10
104.943465143035
 20
-134.557161424694
 30
0.0
 10
104.943465143035
 20
-134.557161424694
 30
0.0
 10
104.950010824457
 20
-134.5189208648078
 30
0.0
 10
104.9520778817481
 20
-134.4768906998877
 30
0.0
 10
104.9520778817481
 20
-134.4703450184658
 30
0.0
 10
104.9520778817481
 20
-134.404888204246
 30
0.0
 10
104.9307182897395
 20
-134.2061061947471
 30
0.0
 10
104.6940402299029
 20
-134.2061061947471
 30
0.0
 10
104.516273302864
 20
-134.2061061947471
 30
0.0
 10
104.4611517751
 20
-134.3370198231866
 30
0.0
 10
104.4611517751
 20
-134.4472628787146
 30
0.0
 10
104.4611517751
 20
-134.7115017024333
 30
0.0
 10
104.6940402299029
 20
-134.7201144411464
 30
0.0
 10
104.7656982159961
 20
-134.7242485557287
 30
0.0
 10
104.7656982159961
 20
-134.7242485557287
 30
0.0
 10
104.7656982159961
 20
-134.9275091893584
 30
0.0
 10
104.7656982159961
 20
-134.9275091893584
 30
0.0
 10
104.64098575943
 20
-134.9188964506453
 30
0.0
 10
104.2644368228922
 20
-134.8913356867633
 30
0.0
 10
104.2644368228922
 20
-134.4345160254192
 30
0.0
 10
104.2644368228922
 20
-134.2102403093294
 30
0.0
 10
104.3915608462979
 20
-133.9690836253619
 30
0.0
 10
104.6874945484809
 20
-133.9690836253619
 30
0.0
 10
104.8738742142329
 20
-133.9690836253619
 30
0.0
 10
104.9562119963304
 20
-134.0641682607548
 30
0.0
 10
105.0175346959678
 20
-134.1637315202785
 30
0.0
 10
105.0450954598498
 20
-134.1024088206411
 30
0.0
 10
105.1253661846562
 20
-133.9205077790199
 30
0.0
 10
105.4026963712188
 20
-133.9205077790199
 30
0.0
 10
105.7410047478703
 20
-133.9205077790199
 30
0.0
 10
105.9080918789049
 20
-134.1678656348608
 30
0.0
 10
105.9080918789049
 20
-134.4448513118749
 30
0.0
  0
HATCH
  5
8C
330
87
100
AcDbEntity
  8
_U+30EC_U+30A4_U+30E4_U+30FC 1
 62
     7
420
 16777215
100
AcDbHatch
 10
0.0
 20
0.0
 30
0.0
210
0.0
220
0.0
230
1.0
  2
SOLID
 70
     1
 71
     0
 91
        1
 92
        1
 93
        1
 72
     4
 94
        3
 73
     0
 74
     1
 95
       62
 96
       58
 40
0.0
 40
0.0
 40
0.0
 40
0.0
 40
1.0
 40
1.0
 40
1.0
 40
2.0
 40
2.0
 40
2.0
 40
3.0
 40
3.0
 40
3.0
 40
4.0
 40
4.0
 40
4.0
 40
5.0
 40
5.0
 40
5.0
 40
6.0
 40
6.0
 40
6.0
 40
7.0
 40
7.0
 40
7.0
 40
8.0
 40
8.0
 40
8.0
 40
9.0
 40
9.0
 40
9.0
 40
10.0
 40
10.0
 40
10.0
 40
11.0
 40
11.0
 40
11.0
 40
12.0
 40
12.0
 40
12.0
 40
13.0
 40
13.0
 40
13.0
 40
14.0
 40
14.0
 40
14.0
 40
15.0
 40
15.0
 40
15.0
 40
16.0
 40
16.0
 40
16.0
 40
17.0
 40
17.0
 40
17.0
 40
18.0
 40
18.0
 40
18.0
 40
19.0
 40
19.0
 40
19.0
 40
19.0
 10
105.9080918789049
 20
-134.4448513118749
 10
105.9080918789049
 20
-134.5402804568163
 10
105.8870767964449
 20
-134.7580104914841
 10
105.7010416402414
 20
-134.8830674575987
 10
105.5887315274223
 20
-134.956792500983
 10
105.4895127774471
 20
-134.9612711251139
 10
105.4047634285099
 20
-134.9654052396962
 10
105.4047634285099
 20
-134.9654052396962
 10
105.4047634285099
 20
-134.7452636381887
 10
105.4047634285099
 20
-134.7452636381887
 10
105.4788329814428
 20
-134.7431965808975
 10
105.7134439839883
 20
-134.7328612944418
 10
105.7134439839883
 20
-134.4493299360057
 10
105.7134439839883
 20
-134.3118706261443
 10
105.6438530551863
 20
-134.1592528961477
 10
105.4154432245142
 20
-134.1592528961477
 10
105.2989989971128
 20
-134.1592528961477
 10
105.2504231507707
 20
-134.197493456034
 10
105.2187282723064
 20
-134.2291883344983
 10
105.1446587193736
 20
-134.3032578874311
 10
105.1319118660781
 20
-134.4197021148326
 10
105.1319118660781
 20
-134.474479133048
 10
105.1319118660781
 20
-134.4937716677655
 10
105.1339789233693
 20
-134.529600660812
 10
105.1381130379516
 20
-134.557161424694
 10
105.1381130379516
 20
-134.557161424694
 10
104.943465143035
 20
-134.557161424694
 10
104.943465143035
 20
-134.557161424694
 10
104.950010824457
 20
-134.5189208648078
 10
104.9520778817481
 20
-134.4768906998877
 10
104.9520778817481
 20
-134.4703450184658
 10
104.9520778817481
 20
-134.404888204246
 10
104.9307182897395
 20
-134.2061061947471
 10
104.6940402299029
 20
-134.2061061947471
 10
104.516273302864
 20
-134.2061061947471
 10
104.4611517751
 20
-134.3370198231866
 10
104.4611517751
 20
-134.4472628787146
 10
104.4611517751
 20
-134.7115017024333
 10
104.6940402299029
 20
-134.7201144411464
 10
104.7656982159961
 20
-134.7242485557287
 10
104.7656982159961
 20
-134.7242485557287
 10
104.7656982159961
 20
-134.9275091893584
 10
104.7656982159961
 20
-134.9275091893584
 10
104.64098575943
 20
-134.9188964506453
 10
104.2644368228922
 20
-134.8913356867633
 10
104.2644368228922
 20
-134.4345160254192
 10
104.2644368228922
 20
-134.2102403093294
 10
104.3915608462979
 20
-133.9690836253619
 10
104.6874945484809
 20
-133.9690836253619
 10
104.8738742142329
 20
-133.9690836253619
 10
104.9562119963304
 20
-134.0641682607548
 10
105.0175346959678
 20
-134.1637315202785
 10
105.0450954598498
 20
-134.1024088206411
 10
105.1253661846562
 20
-133.9205077790199
 10
105.4026963712188
 20
-133.9205077790199
 10
105.7410047478703
 20
-133.9205077790199
 10
105.9080918789049
 20
-134.1678656348608
 10
105.9080918789049
 20
-134.4448513118749
 97
        0
 97
        0
 75
     2
 76
     1
 98
        0
  0
ENDBLK
  5
8A
330
87
100
AcDbEntity
  8
0
100
AcDbBlockEnd
  0
BLOCK
  5
9B
330
99
100
AcDbEntity
  8
0
100
AcDbBlockBegin
  2
block 4
 70
     0
 10
0.0
 20
0.0
 30
0.0
  3
block 4
  1

  0
SPLINE
  5
9D
330
99
100
AcDbEntity
  8
_U+30EC_U+30A4_U+30E4_U+30FC 1
370
     0
100
AcDbSpline
210
0.0
220
0.0
230
1.0
 70
    11
 71
     3
 72
    26
 73
    22
 74
     0
 42
0.0000000001
 43
0.0000000001
 12
1.0
 22
0.0
 32
0.0
 13
1.0
 23
0.0
 33
0.0
 40
0.0
 40
0.0
 40
0.0
 40
0.0
 40
1.0
 40
1.0
 40
1.0
 40
2.0
 40
2.0
 40
2.0
 40
3.0
 40
3.0
 40
3.0
 40
4.0
 40
4.0
 40
4.0
 40
5.0
 40
5.0
 40
5.0
 40
6.0
 40
6.0
 40
6.0
 40
7.0
 40
7.0
 40
7.0
 40
7.0
 10
77.9354668316446
 20
-139.2900336023303
 30
0.0
 10
77.9354668316446
 20
-139.2900336023303
 30
0.0
 10
77.9354668316446
 20
-138.1858804993077
 30
0.0
 10
77.9354668316446
 20
-138.1858804993077
 30
0.0
 10
77.9354668316446
 20
-138.1858804993077
 30
0.0
 10
77.60542668415768
 20
-138.1858804993077
 30
0.0
 10
77.60542668415768
 20
-138.1858804993077
 30
0.0
 10
77.60542668415768
 20
-138.1858804993077
 30
0.0
 10
77.60542668415768
 20
-138.037741393442
 30
0.0
 10
77.60542668415768
 20
-138.037741393442
 30
0.0
 10
77.93753388893576
 20
-138.0229274828554
 30
0.0
 10
77.98404267798664
 20
-137.8599744664031
 30
0.0
 10
78.01367049915979
 20
-137.7455972962928
 30
0.0
 10
78.01367049915979
 20
-137.7455972962928
 30
0.0
 10
78.15974254773437
 20
-137.7455972962928
 30
0.0
 10
78.15974254773437
 20
-137.7455972962928
 30
0.0
 10
78.15974254773437
 20
-137.7455972962928
 30
0.0
 10
78.15974254773437
 20
-139.2900336023303
 30
0.0
 10
78.15974254773437
 20
-139.2900336023303
 30
0.0
 10
78.15974254773437
 20
-139.2900336023303
 30
0.0
 10
77.9354668316446
 20
-139.2900336023303
 30
0.0
 10
77.9354668316446
 20
-139.2900336023303
 30
0.0
  0
HATCH
  5
9E
330
99
100
AcDbEntity
  8
_U+30EC_U+30A4_U+30E4_U+30FC 1
 62
     7
420
 16777215
100
AcDbHatch
 10
0.0
 20
0.0
 30
0.0
210
0.0
220
0.0
230
1.0
  2
SOLID
 70
     1
 71
     0
 91
        1
 92
        1
 93
        1
 72
     4
 94
        3
 73
     0
 74
     1
 95
       26
 96
       22
 40
0.0
 40
0.0
 40
0.0
 40
0.0
 40
1.0
 40
1.0
 40
1.0
 40
2.0
 40
2.0
 40
2.0
 40
3.0
 40
3.0
 40
3.0
 40
4.0
 40
4.0
 40
4.0
 40
5.0
 40
5.0
 40
5.0
 40
6.0
 40
6.0
 40
6.0
 40
7.0
 40
7.0
 40
7.0
 40
7.0
 10
77.9354668316446
 20
-139.2900336023303
 10
77.9354668316446
 20
-139.2900336023303
 10
77.9354668316446
 20
-138.1858804993077
 10
77.9354668316446
 20
-138.1858804993077
 10
77.9354668316446
 20
-138.1858804993077
 10
77.60542668415768
 20
-138.1858804993077
 10
77.60542668415768
 20
-138.1858804993077
 10
77.60542668415768
 20
-138.1858804993077
 10
77.60542668415768
 20
-138.037741393442
 10
77.60542668415768
 20
-138.037741393442
 10
77.93753388893576
 20
-138.0229274828554
 10
77.98404267798664
 20
-137.8599744664031
 10
78.01367049915979
 20
-137.7455972962928
 10
78.01367049915979
 20
-137.7455972962928
 10
78.15974254773437
 20
-137.7455972962928
 10
78.15974254773437
 20
-137.7455972962928
 10
78.15974254773437
 20
-137.7455972962928
 10
78.15974254773437
 20
-139.2900336023303
 10
78.15974254773437
 20
-139.2900336023303
 10
78.15974254773437
 20
-139.2900336023303
 10
77.9354668316446
 20
-139.2900336023303
 10
77.9354668316446
 20
-139.2900336023303
 97
        0
 97
        0
 75
     2
 76
     1
 98
        0
  0
SPLINE
  5
9F
330
99
100
AcDbEntity
  8
_U+30EC_U+30A4_U+30E4_U+30FC 1
370
     0
100
AcDbSpline
210
0.0
220
0.0
230
1.0
 70
    11
 71
     3
 72
    29
 73
    25
 74
     0
 42
0.0000000001
 43
0.0000000001
 12
1.0
 22
0.0
 32
0.0
 13
1.0
 23
0.0
 33
0.0
 40
0.0
 40
0.0
 40
0.0
 40
0.0
 40
1.0
 40
1.0
 40
1.0
 40
2.0
 40
2.0
 40
2.0
 40
3.0
 40
3.0
 40
3.0
 40
4.0
 40
4.0
 40
4.0
 40
5.0
 40
5.0
 40
5.0
 40
6.0
 40
6.0
 40
6.0
 40
7.0
 40
7.0
 40
7.0
 40
8.0
 40
8.0
 40
8.0
 40
8.0
 10
79.55862356952007
 20
-139.1122666752914
 30
0.0
 10
79.45079208083175
 20
-139.3217284807946
 30
0.0
 10
79.27733152314941
 20
-139.3406765059634
 30
0.0
 10
79.16088729574798
 20
-139.3406765059634
 30
0.0
 10
79.00017359136108
 20
-139.3406765059634
 30
0.0
 10
78.85840791214304
 20
-139.2941677169126
 30
0.0
 10
78.76315102197589
 20
-139.1122666752914
 30
0.0
 10
78.65962590264412
 20
-138.9176187803748
 30
0.0
 10
78.64050562270099
 20
-138.6809407205381
 30
0.0
 10
78.64050562270099
 20
-138.5179877040858
 30
0.0
 10
78.64050562270099
 20
-138.3739827128023
 30
0.0
 10
78.65738659057871
 20
-138.1221462328306
 30
0.0
 10
78.76315102197589
 20
-137.9233642233317
 30
0.0
 10
78.87115476543846
 20
-137.7204480992505
 30
0.0
 10
79.03186846982537
 20
-137.6970214499507
 30
0.0
 10
79.16088729574798
 20
-137.6970214499507
 30
0.0
 10
79.31953394284373
 20
-137.6970214499507
 30
0.0
 10
79.46336667935292
 20
-137.7414631817105
 30
0.0
 10
79.55862356952007
 20
-137.9233642233317
 30
0.0
 10
79.65801457426953
 20
-138.1159450609571
 30
0.0
 10
79.68126896879497
 20
-138.3443548916292
 30
0.0
 10
79.68126896879497
 20
-138.5179877040858
 30
0.0
 10
79.68126896879497
 20
-138.6892089497027
 30
0.0
 10
79.66025388633494
 20
-138.9196858376659
 30
0.0
 10
79.55862356952007
 20
-139.1122666752914
 30
0.0
  0
SPLINE
  5
A0
330
99
100
AcDbEntity
  8
_U+30EC_U+30A4_U+30E4_U+30FC 1
370
     0
100
AcDbSpline
210
0.0
220
0.0
230
1.0
 70
    11
 71
     3
 72
    17
 73
    13
 74
     0
 42
0.0000000001
 43
0.0000000001
 12
1.0
 22
0.0
 32
0.0
 13
1.0
 23
0.0
 33
0.0
 40
0.0
 40
0.0
 40
0.0
 40
0.0
 40
1.0
 40
1.0
 40
1.0
 40
2.0
 40
2.0
 40
2.0
 40
3.0
 40
3.0
 40
3.0
 40
4.0
 40
4.0
 40
4.0
 40
4.0
 10
79.16088729574798
 20
-137.8896022875762
 30
0.0
 10
78.91129012784162
 20
-137.8896022875762
 30
0.0
 10
78.86478133879075
 20
-138.1731336460123
 30
0.0
 10
78.86478133879075
 20
-138.5179877040858
 30
0.0
 10
78.86478133879075
 20
-138.8373480555684
 30
0.0
 10
78.90078258661161
 20
-139.1460286110468
 30
0.0
 10
79.16088729574798
 20
-139.1460286110468
 30
0.0
 10
79.40841740636317
 20
-139.1460286110468
 30
0.0
 10
79.45716550747946
 20
-138.8649088194504
 30
0.0
 10
79.45716550747946
 20
-138.5179877040858
 30
0.0
 10
79.45716550747946
 20
-138.1982828430546
 30
0.0
 10
79.41892494759318
 20
-137.8896022875762
 30
0.0
 10
79.16088729574798
 20
-137.8896022875762
 30
0.0
  0
HATCH
  5
A1
330
99
100
AcDbEntity
  8
_U+30EC_U+30A4_U+30E4_U+30FC 1
 62
     7
420
 16777215
100
AcDbHatch
 10
0.0
 20
0.0
 30
0.0
210
0.0
220
0.0
230
1.0
  2
SOLID
 70
     1
 71
     0
 91
        2
 92
        1
 93
        1
 72
     4
 94
        3
 73
     0
 74
     1
 95
       29
 96
       25
 40
0.0
 40
0.0
 40
0.0
 40
0.0
 40
1.0
 40
1.0
 40
1.0
 40
2.0
 40
2.0
 40
2.0
 40
3.0
 40
3.0
 40
3.0
 40
4.0
 40
4.0
 40
4.0
 40
5.0
 40
5.0
 40
5.0
 40
6.0
 40
6.0
 40
6.0
 40
7.0
 40
7.0
 40
7.0
 40
8.0
 40
8.0
 40
8.0
 40
8.0
 10
79.55862356952007
 20
-139.1122666752914
 10
79.45079208083175
 20
-139.3217284807946
 10
79.27733152314941
 20
-139.3406765059634
 10
79.16088729574798
 20
-139.3406765059634
 10
79.00017359136108
 20
-139.3406765059634
 10
78.85840791214304
 20
-139.2941677169126
 10
78.76315102197589
 20
-139.1122666752914
 10
78.65962590264412
 20
-138.9176187803748
 10
78.64050562270099
 20
-138.6809407205381
 10
78.64050562270099
 20
-138.5179877040858
 10
78.64050562270099
 20
-138.3739827128023
 10
78.65738659057871
 20
-138.1221462328306
 10
78.76315102197589
 20
-137.9233642233317
 10
78.87115476543846
 20
-137.7204480992505
 10
79.03186846982537
 20
-137.6970214499507
 10
79.16088729574798
 20
-137.6970214499507
 10
79.31953394284373
 20
-137.6970214499507
 10
79.46336667935292
 20
-137.7414631817105
 10
79.55862356952007
 20
-137.9233642233317
 10
79.65801457426953
 20
-138.1159450609571
 10
79.68126896879497
 20
-138.3443548916292
 10
79.68126896879497
 20
-138.5179877040858
 10
79.68126896879497
 20
-138.6892089497027
 10
79.66025388633494
 20
-138.9196858376659
 10
79.55862356952007
 20
-139.1122666752914
 97
        0
 97
        0
 92
        1
 93
        1
 72
     4
 94
        3
 73
     0
 74
     1
 95
       17
 96
       13
 40
0.0
 40
0.0
 40
0.0
 40
0.0
 40
1.0
 40
1.0
 40
1.0
 40
2.0
 40
2.0
 40
2.0
 40
3.0
 40
3.0
 40
3.0
 40
4.0
 40
4.0
 40
4.0
 40
4.0
 10
79.16088729574798
 20
-137.8896022875762
 10
78.91129012784162
 20
-137.8896022875762
 10
78.86478133879075
 20
-138.1731336460123
 10
78.86478133879075
 20
-138.5179877040858
 10
78.86478133879075
 20
-138.8373480555684
 10
78.90078258661161
 20
-139.1460286110468
 10
79.16088729574798
 20
-139.1460286110468
 10
79.40841740636317
 20
-139.1460286110468
 10
79.45716550747946
 20
-138.8649088194504
 10
79.45716550747946
 20
-138.5179877040858
 10
79.45716550747946
 20
-138.1982828430546
 10
79.41892494759318
 20
-137.8896022875762
 10
79.16088729574798
 20
-137.8896022875762
 97
        0
 97
        0
 75
     2
 76
     1
 98
        0
  0
ENDBLK
  5
9C
330
99
100
AcDbEntity
  8
0
100
AcDbBlockEnd
  0
BLOCK
  5
AC
330
AA
100
AcDbEntity
  8
0
100
AcDbBlockBegin
  2
block 5
 70
     0
 10
0.0
 20
0.0
 30
0.0
  3
block 5
  1

  0
SPLINE
  5
AE
330
AA
100
AcDbEntity
  8
_U+30EC_U+30A4_U+30E4_U+30FC 1
370
     0
100
AcDbSpline
210
0.0
220
0.0
230
1.0
 70
    11
 71
     3
 72
    53
 73
    49
 74
     0
 42
0.0000000001
 43
0.0000000001
 12
1.0
 22
0.0
 32
0.0
 13
1.0
 23
0.0
 33
0.0
 40
0.0
 40
0.0
 40
0.0
 40
0.0
 40
1.0
 40
1.0
 40
1.0
 40
2.0
 40
2.0
 40
2.0
 40
3.0
 40
3.0
 40
3.0
 40
4.0
 40
4.0
 40
4.0
 40
5.0
 40
5.0
 40
5.0
 40
6.0
 40
6.0
 40
6.0
 40
7.0
 40
7.0
 40
7.0
 40
8.0
 40
8.0
 40
8.0
 40
9.0
 40
9.0
 40
9.0
 40
10.0
 40
10.0
 40
10.0
 40
11.0
 40
11.0
 40
11.0
 40
12.0
 40
12.0
 40
12.0
 40
13.0
 40
13.0
 40
13.0
 40
14.0
 40
14.0
 40
14.0
 40
15.0
 40
15.0
 40
15.0
 40
16.0
 40
16.0
 40
16.0
 40
16.0
 10
86.05262855921602
 20
-139.3406765059634
 30
0.0
 10
85.97425263692658
 20
-139.3406765059634
 30
0.0
 10
85.87279457488597
 20
-139.3237955380857
 30
0.0
 10
85.7711642580711
 20
-139.2604057811571
 30
0.0
 10
85.59770370038878
 20
-139.1505072351777
 30
0.0
 10
85.57651636315448
 20
-139.0192490971896
 30
0.0
 10
85.55756833798561
 20
-138.9114176085013
 30
0.0
 10
85.55756833798561
 20
-138.9114176085013
 30
0.0
 10
85.77960474200997
 20
-138.9114176085013
 30
0.0
 10
85.77960474200997
 20
-138.9114176085013
 30
0.0
 10
85.83472626977397
 20
-139.1101996180002
 30
0.0
 10
85.96167803840542
 20
-139.1398274391734
 30
0.0
 10
86.05469561650716
 20
-139.1398274391734
 30
0.0
 10
86.19422198365979
 20
-139.1398274391734
 30
0.0
 10
86.34666745888208
 20
-139.0402641796497
 30
0.0
 10
86.34666745888208
 20
-138.8077202343953
 30
0.0
 10
86.34666745888208
 20
-138.5517496398412
 30
0.0
 10
86.16683347455205
 20
-138.4818142014907
 30
0.0
 10
86.0462551325683
 20
-138.4818142014907
 30
0.0
 10
86.014560254104
 20
-138.4818142014907
 30
0.0
 10
85.87279457488597
 20
-138.4818142014907
 30
0.0
 10
85.78391111136652
 20
-138.6110052821875
 30
0.0
 10
85.78391111136652
 20
-138.6110052821875
 30
0.0
 10
85.60838349639305
 20
-138.5920572570187
 30
0.0
 10
85.60838349639305
 20
-138.5920572570187
 30
0.0
 10
85.60838349639305
 20
-138.5920572570187
 30
0.0
 10
85.72896183837679
 20
-137.7455972962928
 30
0.0
 10
85.72896183837679
 20
-137.7455972962928
 30
0.0
 10
85.72896183837679
 20
-137.7455972962928
 30
0.0
 10
86.50738116326899
 20
-137.7455972962928
 30
0.0
 10
86.50738116326899
 20
-137.7455972962928
 30
0.0
 10
86.50738116326899
 20
-137.7455972962928
 30
0.0
 10
86.50738116326899
 20
-137.9402451912094
 30
0.0
 10
86.50738116326899
 20
-137.9402451912094
 30
0.0
 10
86.50738116326899
 20
-137.9402451912094
 30
0.0
 10
85.89174260005484
 20
-137.9402451912094
 30
0.0
 10
85.89174260005484
 20
-137.9402451912094
 30
0.0
 10
85.89174260005484
 20
-137.9402451912094
 30
0.0
 10
85.8262857858351
 20
-138.3633029167981
 30
0.0
 10
85.8262857858351
 20
-138.3633029167981
 30
0.0
 10
85.88760848547254
 20
-138.3295409810426
 30
0.0
 10
85.97011852234428
 20
-138.2892333638652
 30
0.0
 10
86.08845755226261
 20
-138.2892333638652
 30
0.0
 10
86.34236108952553
 20
-138.2892333638652
 30
0.0
 10
86.57938365891071
 20
-138.4756130296172
 30
0.0
 10
86.57938365891071
 20
-138.7887722092264
 30
0.0
 10
86.57938365891071
 20
-139.1060655034179
 30
0.0
 10
86.35510794282095
 20
-139.3406765059634
 30
0.0
 10
86.05262855921602
 20
-139.3406765059634
 30
0.0
  0
HATCH
  5
AF
330
AA
100
AcDbEntity
  8
_U+30EC_U+30A4_U+30E4_U+30FC 1
 62
     7
420
 16777215
100
AcDbHatch
 10
0.0
 20
0.0
 30
0.0
210
0.0
220
0.0
230
1.0
  2
SOLID
 70
     1
 71
     0
 91
        1
 92
        1
 93
        1
 72
     4
 94
        3
 73
     0
 74
     1
 95
       53
 96
       49
 40
0.0
 40
0.0
 40
0.0
 40
0.0
 40
1.0
 40
1.0
 40
1.0
 40
2.0
 40
2.0
 40
2.0
 40
3.0
 40
3.0
 40
3.0
 40
4.0
 40
4.0
 40
4.0
 40
5.0
 40
5.0
 40
5.0
 40
6.0
 40
6.0
 40
6.0
 40
7.0
 40
7.0
 40
7.0
 40
8.0
 40
8.0
 40
8.0
 40
9.0
 40
9.0
 40
9.0
 40
10.0
 40
10.0
 40
10.0
 40
11.0
 40
11.0
 40
11.0
 40
12.0
 40
12.0
 40
12.0
 40
13.0
 40
13.0
 40
13.0
 40
14.0
 40
14.0
 40
14.0
 40
15.0
 40
15.0
 40
15.0
 40
16.0
 40
16.0
 40
16.0
 40
16.0
 10
86.05262855921602
 20
-139.3406765059634
 10
85.97425263692658
 20
-139.3406765059634
 10
85.87279457488597
 20
-139.3237955380857
 10
85.7711642580711
 20
-139.2604057811571
 10
85.59770370038878
 20
-139.1505072351777
 10
85.57651636315448
 20
-139.0192490971896
 10
85.55756833798561
 20
-138.9114176085013
 10
85.55756833798561
 20
-138.9114176085013
 10
85.77960474200997
 20
-138.9114176085013
 10
85.77960474200997
 20
-138.9114176085013
 10
85.83472626977397
 20
-139.1101996180002
 10
85.96167803840542
 20
-139.1398274391734
 10
86.05469561650716
 20
-139.1398274391734
 10
86.19422198365979
 20
-139.1398274391734
 10
86.34666745888208
 20
-139.0402641796497
 10
86.34666745888208
 20
-138.8077202343953
 10
86.34666745888208
 20
-138.5517496398412
 10
86.16683347455205
 20
-138.4818142014907
 10
86.0462551325683
 20
-138.4818142014907
 10
86.014560254104
 20
-138.4818142014907
 10
85.87279457488597
 20
-138.4818142014907
 10
85.78391111136652
 20
-138.6110052821875
 10
85.78391111136652
 20
-138.6110052821875
 10
85.60838349639305
 20
-138.5920572570187
 10
85.60838349639305
 20
-138.5920572570187
 10
85.60838349639305
 20
-138.5920572570187
 10
85.72896183837679
 20
-137.7455972962928
 10
85.72896183837679
 20
-137.7455972962928
 10
85.72896183837679
 20
-137.7455972962928
 10
86.50738116326899
 20
-137.7455972962928
 10
86.50738116326899
 20
-137.7455972962928
 10
86.50738116326899
 20
-137.7455972962928
 10
86.50738116326899
 20
-137.9402451912094
 10
86.50738116326899
 20
-137.9402451912094
 10
86.50738116326899
 20
-137.9402451912094
 10
85.89174260005484
 20
-137.9402451912094
 10
85.89174260005484
 20
-137.9402451912094
 10
85.89174260005484
 20
-137.9402451912094
 10
85.8262857858351
 20
-138.3633029167981
 10
85.8262857858351
 20
-138.3633029167981
 10
85.88760848547254
 20
-138.3295409810426
 10
85.97011852234428
 20
-138.2892333638652
 10
86.08845755226261
 20
-138.2892333638652
 10
86.34236108952553
 20
-138.2892333638652
 10
86.57938365891071
 20
-138.4756130296172
 10
86.57938365891071
 20
-138.7887722092264
 10
86.57938365891071
 20
-139.1060655034179
 10
86.35510794282095
 20
-139.3406765059634
 10
86.05262855921602
 20
-139.3406765059634
 97
        0
 97
        0
 75
     2
 76
     1
 98
        0
  0
ENDBLK
  5
AD
330
AA
100
AcDbEntity
  8
0
100
AcDbBlockEnd
  0
BLOCK
  5
BE
330
BC
100
AcDbEntity
  8
0
100
AcDbBlockBegin
  2
block 6
 70
     0
 10
0.0
 20
0.0
 30
0.0
  3
block 6
  1

  0
SPLINE
  5
C0
330
BC
100
AcDbEntity
  8
_U+30EC_U+30A4_U+30E4_U+30FC 1
370
     0
100
AcDbSpline
210
0.0
220
0.0
230
1.0
 70
    11
 71
     3
 72
    62
 73
    58
 74
     0
 42
0.0000000001
 43
0.0000000001
 12
1.0
 22
0.0
 32
0.0
 13
1.0
 23
0.0
 33
0.0
 40
0.0
 40
0.0
 40
0.0
 40
0.0
 40
1.0
 40
1.0
 40
1.0
 40
2.0
 40
2.0
 40
2.0
 40
3.0
 40
3.0
 40
3.0
 40
4.0
 40
4.0
 40
4.0
 40
5.0
 40
5.0
 40
5.0
 40
6.0
 40
6.0
 40
6.0
 40
7.0
 40
7.0
 40
7.0
 40
8.0
 40
8.0
 40
8.0
 40
9.0
 40
9.0
 40
9.0
 40
10.0
 40
10.0
 40
10.0
 40
11.0
 40
11.0
 40
11.0
 40
12.0
 40
12.0
 40
12.0
 40
13.0
 40
13.0
 40
13.0
 40
14.0
 40
14.0
 40
14.0
 40
15.0
 40
15.0
 40
15.0
 40
16.0
 40
16.0
 40
16.0
 40
17.0
 40
17.0
 40
17.0
 40
18.0
 40
18.0
 40
18.0
 40
19.0
 40
19.0
 40
19.0
 40
19.0
 10
87.97550860430822
 20
-118.8408080757586
 30
0.0
 10
87.88007945936678
 20
-118.8408080757586
 30
0.0
 10
87.662349424699
 20
-118.8196207385243
 30
0.0
 10
87.53729245858443
 20
-118.6334133275465
 30
0.0
 10
87.46356741520009
 20
-118.5212754695016
 30
0.0
 10
87.45908879106926
 20
-118.4218844647522
 30
0.0
 10
87.45495467648696
 20
-118.3373073705893
 30
0.0
 10
87.45495467648696
 20
-118.3373073705893
 30
0.0
 10
87.67509627799443
 20
-118.3373073705893
 30
0.0
 10
87.67509627799443
 20
-118.3373073705893
 30
0.0
 10
87.67716333528557
 20
-118.4113769235222
 30
0.0
 10
87.68749862174133
 20
-118.6461601808419
 30
0.0
 10
87.97102998017739
 20
-118.6461601808419
 30
0.0
 10
88.10848929003886
 20
-118.6461601808419
 30
0.0
 10
88.26110702003542
 20
-118.5763969972656
 30
0.0
 10
88.26110702003542
 20
-118.3478149118193
 30
0.0
 10
88.26110702003542
 20
-118.2315429391921
 30
0.0
 10
88.22286646014915
 20
-118.1827948380758
 30
0.0
 10
88.19117158168486
 20
-118.1510999596115
 30
0.0
 10
88.11710202875197
 20
-118.0770304066787
 30
0.0
 10
88.00065780135053
 20
-118.0644558081575
 30
0.0
 10
87.94588078313507
 20
-118.0644558081575
 30
0.0
 10
87.92658824841766
 20
-118.0644558081575
 30
0.0
 10
87.89075925537107
 20
-118.0665228654486
 30
0.0
 10
87.86319849148907
 20
-118.0706569800309
 30
0.0
 10
87.86319849148907
 20
-118.0706569800309
 30
0.0
 10
87.86319849148907
 20
-117.8760090851143
 30
0.0
 10
87.86319849148907
 20
-117.8760090851143
 30
0.0
 10
87.90143905137533
 20
-117.882382511762
 30
0.0
 10
87.94346921629538
 20
-117.8846218238275
 30
0.0
 10
87.95001489771737
 20
-117.8846218238275
 30
0.0
 10
88.01547171193711
 20
-117.8846218238275
 30
0.0
 10
88.21425372143602
 20
-117.8634344865932
 30
0.0
 10
88.21425372143602
 20
-117.626411917208
 30
0.0
 10
88.21425372143602
 20
-117.4488172449434
 30
0.0
 10
88.08334009299654
 20
-117.3936957171794
 30
0.0
 10
87.97309703746853
 20
-117.3936957171794
 30
0.0
 10
87.70885821374988
 20
-117.3936957171794
 30
0.0
 10
87.70024547503675
 20
-117.626411917208
 30
0.0
 10
87.69611136045445
 20
-117.6984144128497
 30
0.0
 10
87.69611136045445
 20
-117.6984144128497
 30
0.0
 10
87.49285072682471
 20
-117.6984144128497
 30
0.0
 10
87.49285072682471
 20
-117.6984144128497
 30
0.0
 10
87.50146346553784
 20
-117.5735297015094
 30
0.0
 10
87.52902422941983
 20
-117.1969807649716
 30
0.0
 10
87.98584389076396
 20
-117.1969807649716
 30
0.0
 10
88.21011960685372
 20
-117.1969807649716
 30
0.0
 10
88.45127629082121
 20
-117.3239325336031
 30
0.0
 10
88.45127629082121
 20
-117.6200384905603
 30
0.0
 10
88.45127629082121
 20
-117.806245901538
 30
0.0
 10
88.35619165542832
 20
-117.8887559384098
 30
0.0
 10
88.2566283959046
 20
-117.9500786380472
 30
0.0
 10
88.31795109554204
 20
-117.9776394019292
 30
0.0
 10
88.49985213716323
 20
-118.0580823815098
 30
0.0
 10
88.49985213716323
 20
-118.3352403132981
 30
0.0
 10
88.49985213716323
 20
-118.6737209447239
 30
0.0
 10
88.2524942813223
 20
-118.8408080757586
 30
0.0
 10
87.97550860430822
 20
-118.8408080757586
 30
0.0
  0
HATCH
  5
C1
330
BC
100
AcDbEntity
  8
_U+30EC_U+30A4_U+30E4_U+30FC 1
 62
     7
420
 16777215
100
AcDbHatch
 10
0.0
 20
0.0
 30
0.0
210
0.0
220
0.0
230
1.0
  2
SOLID
 70
     1
 71
     0
 91
        1
 92
        1
 93
        1
 72
     4
 94
        3
 73
     0
 74
     1
 95
       62
 96
       58
 40
0.0
 40
0.0
 40
0.0
 40
0.0
 40
1.0
 40
1.0
 40
1.0
 40
2.0
 40
2.0
 40
2.0
 40
3.0
 40
3.0
 40
3.0
 40
4.0
 40
4.0
 40
4.0
 40
5.0
 40
5.0
 40
5.0
 40
6.0
 40
6.0
 40
6.0
 40
7.0
 40
7.0
 40
7.0
 40
8.0
 40
8.0
 40
8.0
 40
9.0
 40
9.0
 40
9.0
 40
10.0
 40
10.0
 40
10.0
 40
11.0
 40
11.0
 40
11.0
 40
12.0
 40
12.0
 40
12.0
 40
13.0
 40
13.0
 40
13.0
 40
14.0
 40
14.0
 40
14.0
 40
15.0
 40
15.0
 40
15.0
 40
16.0
 40
16.0
 40
16.0
 40
17.0
 40
17.0
 40
17.0
 40
18.0
 40
18.0
 40
18.0
 40
19.0
 40
19.0
 40
19.0
 40
19.0
 10
87.97550860430822
 20
-118.8408080757586
 10
87.88007945936678
 20
-118.8408080757586
 10
87.662349424699
 20
-118.8196207385243
 10
87.53729245858443
 20
-118.6334133275465
 10
87.46356741520009
 20
-118.5212754695016
 10
87.45908879106926
 20
-118.4218844647522
 10
87.45495467648696
 20
-118.3373073705893
 10
87.45495467648696
 20
-118.3373073705893
 10
87.67509627799443
 20
-118.3373073705893
 10
87.67509627799443
 20
-118.3373073705893
 10
87.67716333528557
 20
-118.4113769235222
 10
87.68749862174133
 20
-118.6461601808419
 10
87.97102998017739
 20
-118.6461601808419
 10
88.10848929003886
 20
-118.6461601808419
 10
88.26110702003542
 20
-118.5763969972656
 10
88.26110702003542
 20
-118.3478149118193
 10
88.26110702003542
 20
-118.2315429391921
 10
88.22286646014915
 20
-118.1827948380758
 10
88.19117158168486
 20
-118.1510999596115
 10
88.11710202875197
 20
-118.0770304066787
 10
88.00065780135053
 20
-118.0644558081575
 10
87.94588078313507
 20
-118.0644558081575
 10
87.92658824841766
 20
-118.0644558081575
 10
87.89075925537107
 20
-118.0665228654486
 10
87.86319849148907
 20
-118.0706569800309
 10
87.86319849148907
 20
-118.0706569800309
 10
87.86319849148907
 20
-117.8760090851143
 10
87.86319849148907
 20
-117.8760090851143
 10
87.90143905137533
 20
-117.882382511762
 10
87.94346921629538
 20
-117.8846218238275
 10
87.95001489771737
 20
-117.8846218238275
 10
88.01547171193711
 20
-117.8846218238275
 10
88.21425372143602
 20
-117.8634344865932
 10
88.21425372143602
 20
-117.626411917208
 10
88.21425372143602
 20
-117.4488172449434
 10
88.08334009299654
 20
-117.3936957171794
 10
87.97309703746853
 20
-117.3936957171794
 10
87.70885821374988
 20
-117.3936957171794
 10
87.70024547503675
 20
-117.626411917208
 10
87.69611136045445
 20
-117.6984144128497
 10
87.69611136045445
 20
-117.6984144128497
 10
87.49285072682471
 20
-117.6984144128497
 10
87.49285072682471
 20
-117.6984144128497
 10
87.50146346553784
 20
-117.5735297015094
 10
87.52902422941983
 20
-117.1969807649716
 10
87.98584389076396
 20
-117.1969807649716
 10
88.21011960685372
 20
-117.1969807649716
 10
88.45127629082121
 20
-117.3239325336031
 10
88.45127629082121
 20
-117.6200384905603
 10
88.45127629082121
 20
-117.806245901538
 10
88.35619165542832
 20
-117.8887559384098
 10
88.2566283959046
 20
-117.9500786380472
 10
88.31795109554204
 20
-117.9776394019292
 10
88.49985213716323
 20
-118.0580823815098
 10
88.49985213716323
 20
-118.3352403132981
 10
88.49985213716323
 20
-118.6737209447239
 10
88.2524942813223
 20
-118.8408080757586
 10
87.97550860430822
 20
-118.8408080757586
 97
        0
 97
        0
 75
     2
 76
     1
 98
        0
  0
SPLINE
  5
C2
330
BC
100
AcDbEntity
  8
_U+30EC_U+30A4_U+30E4_U+30FC 1
370
     0
100
AcDbSpline
210
0.0
220
0.0
230
1.0
 70
    11
 71
     3
 72
    29
 73
    25
 74
     0
 42
0.0000000001
 43
0.0000000001
 12
1.0
 22
0.0
 32
0.0
 13
1.0
 23
0.0
 33
0.0
 40
0.0
 40
0.0
 40
0.0
 40
0.0
 40
1.0
 40
1.0
 40
1.0
 40
2.0
 40
2.0
 40
2.0
 40
3.0
 40
3.0
 40
3.0
 40
4.0
 40
4.0
 40
4.0
 40
5.0
 40
5.0
 40
5.0
 40
6.0
 40
6.0
 40
6.0
 40
7.0
 40
7.0
 40
7.0
 40
8.0
 40
8.0
 40
8.0
 40
8.0
 10
89.55852997978052
 20
-118.6122259903122
 30
0.0
 10
89.45035398154367
 20
-118.8216877958154
 30
0.0
 10
89.2770656786356
 20
-118.8408080757586
 30
0.0
 10
89.16062145123415
 20
-118.8408080757586
 30
0.0
 10
88.99973549207299
 20
-118.8408080757586
 30
0.0
 10
88.85814206762922
 20
-118.7942992867077
 30
0.0
 10
88.76305743223632
 20
-118.6122259903122
 30
0.0
 10
88.6593600581303
 20
-118.4175780953956
 30
0.0
 10
88.64041203296144
 20
-118.1807277807847
 30
0.0
 10
88.64041203296144
 20
-118.0177747643324
 30
0.0
 10
88.64041203296144
 20
-117.8739420278232
 30
0.0
 10
88.65729300083915
 20
-117.6222778026257
 30
0.0
 10
88.76305743223632
 20
-117.4233235383525
 30
0.0
 10
88.87088892092464
 20
-117.220235159497
 30
0.0
 10
89.0317748800858
 20
-117.1969807649716
 30
0.0
 10
89.16062145123415
 20
-117.1969807649716
 30
0.0
 10
89.31944035310417
 20
-117.1969807649716
 30
0.0
 10
89.4631008348391
 20
-117.2414224967313
 30
0.0
 10
89.55852997978052
 20
-117.4233235383525
 30
0.0
 10
89.65774872975571
 20
-117.615904375978
 30
0.0
 10
89.6811753790554
 20
-117.84431420665
 30
0.0
 10
89.6811753790554
 20
-118.0177747643324
 30
0.0
 10
89.6811753790554
 20
-118.1891682647235
 30
0.0
 10
89.65981578704685
 20
-118.419817407461
 30
0.0
 10
89.55852997978052
 20
-118.6122259903122
 30
0.0
  0
SPLINE
  5
C3
330
BC
100
AcDbEntity
  8
_U+30EC_U+30A4_U+30E4_U+30FC 1
370
     0
100
AcDbSpline
210
0.0
220
0.0
230
1.0
 70
    11
 71
     3
 72
    17
 73
    13
 74
     0
 42
0.0000000001
 43
0.0000000001
 12
1.0
 22
0.0
 32
0.0
 13
1.0
 23
0.0
 33
0.0
 40
0.0
 40
0.0
 40
0.0
 40
0.0
 40
1.0
 40
1.0
 40
1.0
 40
2.0
 40
2.0
 40
2.0
 40
3.0
 40
3.0
 40
3.0
 40
4.0
 40
4.0
 40
4.0
 40
4.0
 10
89.16062145123415
 20
-117.3895616025971
 30
0.0
 10
88.91119653810206
 20
-117.3895616025971
 30
0.0
 10
88.86434323950267
 20
-117.6730929610331
 30
0.0
 10
88.86434323950267
 20
-118.0177747643324
 30
0.0
 10
88.86434323950267
 20
-118.3373073705893
 30
0.0
 10
88.90051674209779
 20
-118.6461601808419
 30
0.0
 10
89.16062145123415
 20
-118.6461601808419
 30
0.0
 10
89.40832381662362
 20
-118.6461601808419
 30
0.0
 10
89.45689966296564
 20
-118.364695879697
 30
0.0
 10
89.45689966296564
 20
-118.0177747643324
 30
0.0
 10
89.45689966296564
 20
-117.6984144128497
 30
0.0
 10
89.41865910307936
 20
-117.3895616025971
 30
0.0
 10
89.16062145123415
 20
-117.3895616025971
 30
0.0
  0
HATCH
  5
C4
330
BC
100
AcDbEntity
  8
_U+30EC_U+30A4_U+30E4_U+30FC 1
 62
     7
420
 16777215
100
AcDbHatch
 10
0.0
 20
0.0
 30
0.0
210
0.0
220
0.0
230
1.0
  2
SOLID
 70
     1
 71
     0
 91
        2
 92
        1
 93
        1
 72
     4
 94
        3
 73
     0
 74
     1
 95
       29
 96
       25
 40
0.0
 40
0.0
 40
0.0
 40
0.0
 40
1.0
 40
1.0
 40
1.0
 40
2.0
 40
2.0
 40
2.0
 40
3.0
 40
3.0
 40
3.0
 40
4.0
 40
4.0
 40
4.0
 40
5.0
 40
5.0
 40
5.0
 40
6.0
 40
6.0
 40
6.0
 40
7.0
 40
7.0
 40
7.0
 40
8.0
 40
8.0
 40
8.0
 40
8.0
 10
89.55852997978052
 20
-118.6122259903122
 10
89.45035398154367
 20
-118.8216877958154
 10
89.2770656786356
 20
-118.8408080757586
 10
89.16062145123415
 20
-118.8408080757586
 10
88.99973549207299
 20
-118.8408080757586
 10
88.85814206762922
 20
-118.7942992867077
 10
88.76305743223632
 20
-118.6122259903122
 10
88.6593600581303
 20
-118.4175780953956
 10
88.64041203296144
 20
-118.1807277807847
 10
88.64041203296144
 20
-118.0177747643324
 10
88.64041203296144
 20
-117.8739420278232
 10
88.65729300083915
 20
-117.6222778026257
 10
88.76305743223632
 20
-117.4233235383525
 10
88.87088892092464
 20
-117.220235159497
 10
89.0317748800858
 20
-117.1969807649716
 10
89.16062145123415
 20
-117.1969807649716
 10
89.31944035310417
 20
-117.1969807649716
 10
89.4631008348391
 20
-117.2414224967313
 10
89.55852997978052
 20
-117.4233235383525
 10
89.65774872975571
 20
-117.615904375978
 10
89.6811753790554
 20
-117.84431420665
 10
89.6811753790554
 20
-118.0177747643324
 10
89.6811753790554
 20
-118.1891682647235
 10
89.65981578704685
 20
-118.419817407461
 10
89.55852997978052
 20
-118.6122259903122
 97
        0
 97
        0
 92
        1
 93
        1
 72
     4
 94
        3
 73
     0
 74
     1
 95
       17
 96
       13
 40
0.0
 40
0.0
 40
0.0
 40
0.0
 40
1.0
 40
1.0
 40
1.0
 40
2.0
 40
2.0
 40
2.0
 40
3.0
 40
3.0
 40
3.0
 40
4.0
 40
4.0
 40
4.0
 40
4.0
 10
89.16062145123415
 20
-117.3895616025971
 10
88.91119653810206
 20
-117.3895616025971
 10
88.86434323950267
 20
-117.6730929610331
 10
88.86434323950267
 20
-118.0177747643324
 10
88.86434323950267
 20
-118.3373073705893
 10
88.90051674209779
 20
-118.6461601808419
 10
89.16062145123415
 20
-118.6461601808419
 10
89.40832381662362
 20
-118.6461601808419
 10
89.45689966296564
 20
-118.364695879697
 10
89.45689966296564
 20
-118.0177747643324
 10
89.45689966296564
 20
-117.6984144128497
 10
89.41865910307936
 20
-117.3895616025971
 10
89.16062145123415
 20
-117.3895616025971
 97
        0
 97
        0
 75
     2
 76
     1
 98
        0
  0
ENDBLK
  5
BF
330
BC
100
AcDbEntity
  8
0
100
AcDbBlockEnd
  0
BLOCK
  5
D3
330
D1
100
AcDbEntity
  8
0
100
AcDbBlockBegin
  2
block 7
 70
     0
 10
0.0
 20
0.0
 30
0.0
  3
block 7
  1

  0
SPLINE
  5
D5
330
D1
100
AcDbEntity
  8
_U+30EC_U+30A4_U+30E4_U+30FC 1
370
     0
100
AcDbSpline
210
0.0
220
0.0
230
1.0
 70
    11
 71
     3
 72
    29
 73
    25
 74
     0
 42
0.0000000001
 43
0.0000000001
 12
1.0
 22
0.0
 32
0.0
 13
1.0
 23
0.0
 33
0.0
 40
0.0
 40
0.0
 40
0.0
 40
0.0
 40
1.0
 40
1.0
 40
1.0
 40
2.0
 40
2.0
 40
2.0
 40
3.0
 40
3.0
 40
3.0
 40
4.0
 40
4.0
 40
4.0
 40
5.0
 40
5.0
 40
5.0
 40
6.0
 40
6.0
 40
6.0
 40
7.0
 40
7.0
 40
7.0
 40
8.0
 40
8.0
 40
8.0
 40
8.0
 10
105.9080918789049
 20
-129.5486816082378
 30
0.0
 10
105.9080918789049
 20
-129.8153319987962
 30
0.0
 10
105.7706325690435
 20
-130.0688910265106
 30
0.0
 10
105.4216443963876
 20
-130.0688910265106
 30
0.0
 10
105.1656738018336
 20
-130.0688910265106
 30
0.0
 10
105.0705891664407
 20
-129.9272976020668
 30
0.0
 10
105.0092664668032
 20
-129.8215331706696
 30
0.0
 10
104.950010824457
 20
-129.9462456272357
 30
0.0
 10
104.8356336543467
 20
-130.0223822374597
 30
0.0
 10
104.6747476951855
 20
-130.0223822374597
 30
0.0
 10
104.3998290754625
 20
-130.0223822374597
 30
0.0
 10
104.2644368228922
 20
-129.8236002279608
 30
0.0
 10
104.2644368228922
 20
-129.5486816082378
 30
0.0
 10
104.2644368228922
 20
-129.2651502498018
 30
0.0
 10
104.4084418141757
 20
-129.0746364694675
 30
0.0
 10
104.6747476951855
 20
-129.0746364694675
 30
0.0
 10
104.8356336543467
 20
-129.0746364694675
 30
0.0
 10
104.950010824457
 20
-129.1531846465311
 30
0.0
 10
105.0092664668032
 20
-129.2778971030972
 30
0.0
 10
105.0599093704364
 20
-129.1890136395778
 30
0.0
 10
105.1549940058293
 20
-129.0301947377077
 30
0.0
 10
105.4175102818053
 20
-129.0301947377077
 30
0.0
 10
105.791992161052
 20
-129.0301947377077
 30
0.0
 10
105.9080918789049
 20
-129.3095919815615
 30
0.0
 10
105.9080918789049
 20
-129.5486816082378
 30
0.0
  0
SPLINE
  5
D6
330
D1
100
AcDbEntity
  8
_U+30EC_U+30A4_U+30E4_U+30FC 1
370
     0
100
AcDbSpline
210
0.0
220
0.0
230
1.0
 70
    11
 71
     3
 72
    17
 73
    13
 74
     0
 42
0.0000000001
 43
0.0000000001
 12
1.0
 22
0.0
 32
0.0
 13
1.0
 23
0.0
 33
0.0
 40
0.0
 40
0.0
 40
0.0
 40
0.0
 40
1.0
 40
1.0
 40
1.0
 40
2.0
 40
2.0
 40
2.0
 40
3.0
 40
3.0
 40
3.0
 40
4.0
 40
4.0
 40
4.0
 40
4.0
 10
104.4570176605177
 20
-129.5486816082378
 30
0.0
 10
104.4570176605177
 20
-129.7137016819813
 30
0.0
 10
104.5521022959106
 20
-129.7981065213699
 30
0.0
 10
104.6874945484809
 20
-129.7981065213699
 30
0.0
 10
104.8101399477558
 20
-129.7981065213699
 30
0.0
 10
104.9286512324484
 20
-129.7264485352767
 30
0.0
 10
104.9286512324484
 20
-129.5486816082378
 30
0.0
 10
104.9286512324484
 20
-129.3709146811989
 30
0.0
 10
104.8101399477558
 20
-129.2989121855572
 30
0.0
 10
104.6874945484809
 20
-129.2989121855572
 30
0.0
 10
104.5521022959106
 20
-129.2989121855572
 30
0.0
 10
104.4570176605177
 20
-129.3857285917855
 30
0.0
 10
104.4570176605177
 20
-129.5486816082378
 30
0.0
  0
SPLINE
  5
D7
330
D1
100
AcDbEntity
  8
_U+30EC_U+30A4_U+30E4_U+30FC 1
370
     0
100
AcDbSpline
210
0.0
220
0.0
230
1.0
 70
    11
 71
     3
 72
    17
 73
    13
 74
     0
 42
0.0000000001
 43
0.0000000001
 12
1.0
 22
0.0
 32
0.0
 13
1.0
 23
0.0
 33
0.0
 40
0.0
 40
0.0
 40
0.0
 40
0.0
 40
1.0
 40
1.0
 40
1.0
 40
2.0
 40
2.0
 40
2.0
 40
3.0
 40
3.0
 40
3.0
 40
4.0
 40
4.0
 40
4.0
 40
4.0
 10
105.1170979554916
 20
-129.5486816082378
 30
0.0
 10
105.1170979554916
 20
-129.6923420899728
 30
0.0
 10
105.2039143617199
 20
-129.8449598199693
 30
0.0
 10
105.4068304858011
 20
-129.8449598199693
 30
0.0
 10
105.612158176722
 20
-129.8449598199693
 30
0.0
 10
105.7134439839883
 20
-129.7178357965636
 30
0.0
 10
105.7134439839883
 20
-129.5486816082378
 30
0.0
 10
105.7134439839883
 20
-129.3626464520343
 30
0.0
 10
105.5907985847134
 20
-129.2524033965063
 30
0.0
 10
105.4130316576745
 20
-129.2524033965063
 30
0.0
 10
105.1911675084244
 20
-129.2524033965063
 30
0.0
 10
105.1170979554916
 20
-129.4153564129587
 30
0.0
 10
105.1170979554916
 20
-129.5486816082378
 30
0.0
  0
HATCH
  5
D8
330
D1
100
AcDbEntity
  8
_U+30EC_U+30A4_U+30E4_U+30FC 1
 62
     7
420
 16777215
100
AcDbHatch
 10
0.0
 20
0.0
 30
0.0
210
0.0
220
0.0
230
1.0
  2
SOLID
 70
     1
 71
     0
 91
        3
 92
        1
 93
        1
 72
     4
 94
        3
 73
     0
 74
     1
 95
       29
 96
       25
 40
0.0
 40
0.0
 40
0.0
 40
0.0
 40
1.0
 40
1.0
 40
1.0
 40
2.0
 40
2.0
 40
2.0
 40
3.0
 40
3.0
 40
3.0
 40
4.0
 40
4.0
 40
4.0
 40
5.0
 40
5.0
 40
5.0
 40
6.0
 40
6.0
 40
6.0
 40
7.0
 40
7.0
 40
7.0
 40
8.0
 40
8.0
 40
8.0
 40
8.0
 10
105.9080918789049
 20
-129.5486816082378
 10
105.9080918789049
 20
-129.8153319987962
 10
105.7706325690435
 20
-130.0688910265106
 10
105.4216443963876
 20
-130.0688910265106
 10
105.1656738018336
 20
-130.0688910265106
 10
105.0705891664407
 20
-129.9272976020668
 10
105.0092664668032
 20
-129.8215331706696
 10
104.950010824457
 20
-129.9462456272357
 10
104.8356336543467
 20
-130.0223822374597
 10
104.6747476951855
 20
-130.0223822374597
 10
104.3998290754625
 20
-130.0223822374597
 10
104.2644368228922
 20
-129.8236002279608
 10
104.2644368228922
 20
-129.5486816082378
 10
104.2644368228922
 20
-129.2651502498018
 10
104.4084418141757
 20
-129.0746364694675
 10
104.6747476951855
 20
-129.0746364694675
 10
104.8356336543467
 20
-129.0746364694675
 10
104.950010824457
 20
-129.1531846465311
 10
105.0092664668032
 20
-129.2778971030972
 10
105.0599093704364
 20
-129.1890136395778
 10
105.1549940058293
 20
-129.0301947377077
 10
105.4175102818053
 20
-129.0301947377077
 10
105.791992161052
 20
-129.0301947377077
 10
105.9080918789049
 20
-129.3095919815615
 10
105.9080918789049
 20
-129.5486816082378
 97
        0
 97
        0
 92
        1
 93
        1
 72
     4
 94
        3
 73
     0
 74
     1
 95
       17
 96
       13
 40
0.0
 40
0.0
 40
0.0
 40
0.0
 40
1.0
 40
1.0
 40
1.0
 40
2.0
 40
2.0
 40
2.0
 40
3.0
 40
3.0
 40
3.0
 40
4.0
 40
4.0
 40
4.0
 40
4.0
 10
104.4570176605177
 20
-129.5486816082378
 10
104.4570176605177
 20
-129.7137016819813
 10
104.5521022959106
 20
-129.7981065213699
 10
104.6874945484809
 20
-129.7981065213699
 10
104.8101399477558
 20
-129.7981065213699
 10
104.9286512324484
 20
-129.7264485352767
 10
104.9286512324484
 20
-129.5486816082378
 10
104.9286512324484
 20
-129.3709146811989
 10
104.8101399477558
 20
-129.2989121855572
 10
104.6874945484809
 20
-129.2989121855572
 10
104.5521022959106
 20
-129.2989121855572
 10
104.4570176605177
 20
-129.3857285917855
 10
104.4570176605177
 20
-129.5486816082378
 97
        0
 97
        0
 92
        1
 93
        1
 72
     4
 94
        3
 73
     0
 74
     1
 95
       17
 96
       13
 40
0.0
 40
0.0
 40
0.0
 40
0.0
 40
1.0
 40
1.0
 40
1.0
 40
2.0
 40
2.0
 40
2.0
 40
3.0
 40
3.0
 40
3.0
 40
4.0
 40
4.0
 40
4.0
 40
4.0
 10
105.1170979554916
 20
-129.5486816082378
 10
105.1170979554916
 20
-129.6923420899728
 10
105.2039143617199
 20
-129.8449598199693
 10
105.4068304858011
 20
-129.8449598199693
 10
105.612158176722
 20
-129.8449598199693
 10
105.7134439839883
 20
-129.7178357965636
 10
105.7134439839883
 20
-129.5486816082378
 10
105.7134439839883
 20
-129.3626464520343
 10
105.5907985847134
 20
-129.2524033965063
 10
105.4130316576745
 20
-129.2524033965063
 10
105.1911675084244
 20
-129.2524033965063
 10
105.1170979554916
 20
-129.4153564129587
 10
105.1170979554916
 20
-129.5486816082378
 97
        0
 97
        0
 75
     2
 76
     1
 98
        0
  0
POLYLINE
  5
D9
330
D1
100
AcDbEntity
  8
_U+30EC_U+30A4_U+30E4_U+30FC 1
370
     0
100
AcDb2dPolyline
 66
     1
 10
0.0
 20
0.0
 30
0.0
  0
VERTEX
  5
DA
330
D9
100
AcDbEntity
  8
_U+30EC_U+30A4_U+30E4_U+30FC 1
370
     0
100
AcDbVertex
100
AcDb2dVertex
 10
105.8574489752718
 20
-128.8117756839429
 30
0.0
  0
VERTEX
  5
DB
330
D9
100
AcDbEntity
  8
_U+30EC_U+30A4_U+30E4_U+30FC 1
370
     0
100
AcDbVertex
100
AcDb2dVertex
 10
105.6056124953
 20
-128.8117756839429
 30
0.0
  0
VERTEX
  5
DC
330
D9
100
AcDbEntity
  8
_U+30EC_U+30A4_U+30E4_U+30FC 1
370
     0
100
AcDbVertex
100
AcDb2dVertex
 10
105.6056124953
 20
-128.5599392039711
 30
0.0
  0
VERTEX
  5
DD
330
D9
100
AcDbEntity
  8
_U+30EC_U+30A4_U+30E4_U+30FC 1
370
     0
100
AcDbVertex
100
AcDb2dVertex
 10
105.8574489752718
 20
-128.5599392039711
 30
0.0
  0
VERTEX
  5
DE
330
D9
100
AcDbEntity
  8
_U+30EC_U+30A4_U+30E4_U+30FC 1
370
     0
100
AcDbVertex
100
AcDb2dVertex
 10
105.8574489752718
 20
-128.8117756839429
 30
0.0
  0
SEQEND
  5
DF
330
D9
100
AcDbEntity
  8
_U+30EC_U+30A4_U+30E4_U+30FC 1
370
     0
  0
HATCH
  5
E0
330
D1
100
AcDbEntity
  8
_U+30EC_U+30A4_U+30E4_U+30FC 1
 62
     7
420
 16777215
100
AcDbHatch
 10
0.0
 20
0.0
 30
0.0
210
0.0
220
0.0
230
1.0
  2
SOLID
 70
     1
 71
     0
 91
        1
 92
        1
 93
        4
 72
     1
 10
105.8574489752718
 20
-128.8117756839429
 11
105.6056124953
 21
-128.8117756839429
 72
     1
 10
105.6056124953
 20
-128.8117756839429
 11
105.6056124953
 21
-128.5599392039711
 72
     1
 10
105.6056124953
 20
-128.5599392039711
 11
105.8574489752718
 21
-128.5599392039711
 72
     1
 10
105.8574489752718
 20
-128.5599392039711
 11
105.8574489752718
 21
-128.8117756839429
 97
        0
 75
     2
 76
     1
 98
        0
  0
SPLINE
  5
E1
330
D1
100
AcDbEntity
  8
_U+30EC_U+30A4_U+30E4_U+30FC 1
370
     0
100
AcDbSpline
210
0.0
220
0.0
230
1.0
 70
    11
 71
     3
 72
    53
 73
    49
 74
     0
 42
0.0000000001
 43
0.0000000001
 12
1.0
 22
0.0
 32
0.0
 13
1.0
 23
0.0
 33
0.0
 40
0.0
 40
0.0
 40
0.0
 40
0.0
 40
1.0
 40
1.0
 40
1.0
 40
2.0
 40
2.0
 40
2.0
 40
3.0
 40
3.0
 40
3.0
 40
4.0
 40
4.0
 40
4.0
 40
5.0
 40
5.0
 40
5.0
 40
6.0
 40
6.0
 40
6.0
 40
7.0
 40
7.0
 40
7.0
 40
8.0
 40
8.0
 40
8.0
 40
9.0
 40
9.0
 40
9.0
 40
10.0
 40
10.0
 40
10.0
 40
11.0
 40
11.0
 40
11.0
 40
12.0
 40
12.0
 40
12.0
 40
13.0
 40
13.0
 40
13.0
 40
14.0
 40
14.0
 40
14.0
 40
15.0
 40
15.0
 40
15.0
 40
16.0
 40
16.0
 40
16.0
 40
16.0
 10
105.9080918789049
 20
-127.8426703239421
 30
0.0
 10
105.9080918789049
 20
-127.9208739914573
 30
0.0
 10
105.8912109110272
 20
-128.0225043082721
 30
0.0
 10
105.8278211540986
 20
-128.124134625087
 30
0.0
 10
105.7179226081191
 20
-128.2974229279951
 30
0.0
 10
105.5866644701311
 20
-128.3187825200037
 30
0.0
 10
105.4788329814428
 20
-128.3377305451725
 30
0.0
 10
105.4788329814428
 20
-128.3377305451725
 30
0.0
 10
105.4788329814428
 20
-128.1155218863739
 30
0.0
 10
105.4788329814428
 20
-128.1155218863739
 30
0.0
 10
105.6776149909417
 20
-128.0607448681584
 30
0.0
 10
105.7072428121149
 20
-127.9336208447527
 30
0.0
 10
105.7072428121149
 20
-127.840603266651
 30
0.0
 10
105.7072428121149
 20
-127.7010768994983
 30
0.0
 10
105.6076795525911
 20
-127.5488036790503
 30
0.0
 10
105.3751356073368
 20
-127.5488036790503
 30
0.0
 10
105.1191650127827
 20
-127.5488036790503
 30
0.0
 10
105.0492295744321
 20
-127.7286376633803
 30
0.0
 10
105.0492295744321
 20
-127.8492160053641
 30
0.0
 10
105.0492295744321
 20
-127.8809108838284
 30
0.0
 10
105.0492295744321
 20
-128.0225043082721
 30
0.0
 10
105.178420655129
 20
-128.1113877717916
 30
0.0
 10
105.178420655129
 20
-128.1113877717916
 30
0.0
 10
105.1594726299601
 20
-128.2870876415394
 30
0.0
 10
105.1594726299601
 20
-128.2870876415394
 30
0.0
 10
105.1594726299601
 20
-128.2870876415394
 30
0.0
 10
104.3130126692343
 20
-128.1665092995556
 30
0.0
 10
104.3130126692343
 20
-128.1665092995556
 30
0.0
 10
104.3130126692343
 20
-128.1665092995556
 30
0.0
 10
104.3130126692343
 20
-127.3879177198891
 30
0.0
 10
104.3130126692343
 20
-127.3879177198891
 30
0.0
 10
104.3130126692343
 20
-127.3879177198891
 30
0.0
 10
104.5076605641509
 20
-127.3879177198891
 30
0.0
 10
104.5076605641509
 20
-127.3879177198891
 30
0.0
 10
104.5076605641509
 20
-127.3879177198891
 30
0.0
 10
104.5076605641509
 20
-128.0035562831033
 30
0.0
 10
104.5076605641509
 20
-128.0035562831033
 30
0.0
 10
104.5076605641509
 20
-128.0035562831033
 30
0.0
 10
104.9307182897395
 20
-128.069013097323
 30
0.0
 10
104.9307182897395
 20
-128.069013097323
 30
0.0
 10
104.8969563539841
 20
-128.0076903976856
 30
0.0
 10
104.8566487368067
 20
-127.9253526155881
 30
0.0
 10
104.8566487368067
 20
-127.8068413308955
 30
0.0
 10
104.8566487368067
 20
-127.5529377936326
 30
0.0
 10
105.0430284025587
 20
-127.3159152242474
 30
0.0
 10
105.3561875821679
 20
-127.3159152242474
 30
0.0
 10
105.6734808763594
 20
-127.3159152242474
 30
0.0
 10
105.9080918789049
 20
-127.5401909403372
 30
0.0
 10
105.9080918789049
 20
-127.8426703239421
 30
0.0
  0
HATCH
  5
E2
330
D1
100
AcDbEntity
  8
_U+30EC_U+30A4_U+30E4_U+30FC 1
 62
     7
420
 16777215
100
AcDbHatch
 10
0.0
 20
0.0
 30
0.0
210
0.0
220
0.0
230
1.0
  2
SOLID
 70
     1
 71
     0
 91
        1
 92
        1
 93
        1
 72
     4
 94
        3
 73
     0
 74
     1
 95
       53
 96
       49
 40
0.0
 40
0.0
 40
0.0
 40
0.0
 40
1.0
 40
1.0
 40
1.0
 40
2.0
 40
2.0
 40
2.0
 40
3.0
 40
3.0
 40
3.0
 40
4.0
 40
4.0
 40
4.0
 40
5.0
 40
5.0
 40
5.0
 40
6.0
 40
6.0
 40
6.0
 40
7.0
 40
7.0
 40
7.0
 40
8.0
 40
8.0
 40
8.0
 40
9.0
 40
9.0
 40
9.0
 40
10.0
 40
10.0
 40
10.0
 40
11.0
 40
11.0
 40
11.0
 40
12.0
 40
12.0
 40
12.0
 40
13.0
 40
13.0
 40
13.0
 40
14.0
 40
14.0
 40
14.0
 40
15.0
 40
15.0
 40
15.0
 40
16.0
 40
16.0
 40
16.0
 40
16.0
 10
105.9080918789049
 20
-127.8426703239421
 10
105.9080918789049
 20
-127.9208739914573
 10
105.8912109110272
 20
-128.0225043082721
 10
105.8278211540986
 20
-128.124134625087
 10
105.7179226081191
 20
-128.2974229279951
 10
105.5866644701311
 20
-128.3187825200037
 10
105.4788329814428
 20
-128.3377305451725
 10
105.4788329814428
 20
-128.3377305451725
 10
105.4788329814428
 20
-128.1155218863739
 10
105.4788329814428
 20
-128.1155218863739
 10
105.6776149909417
 20
-128.0607448681584
 10
105.7072428121149
 20
-127.9336208447527
 10
105.7072428121149
 20
-127.840603266651
 10
105.7072428121149
 20
-127.7010768994983
 10
105.6076795525911
 20
-127.5488036790503
 10
105.3751356073368
 20
-127.5488036790503
 10
105.1191650127827
 20
-127.5488036790503
 10
105.0492295744321
 20
-127.7286376633803
 10
105.0492295744321
 20
-127.8492160053641
 10
105.0492295744321
 20
-127.8809108838284
 10
105.0492295744321
 20
-128.0225043082721
 10
105.178420655129
 20
-128.1113877717916
 10
105.178420655129
 20
-128.1113877717916
 10
105.1594726299601
 20
-128.2870876415394
 10
105.1594726299601
 20
-128.2870876415394
 10
105.1594726299601
 20
-128.2870876415394
 10
104.3130126692343
 20
-128.1665092995556
 10
104.3130126692343
 20
-128.1665092995556
 10
104.3130126692343
 20
-128.1665092995556
 10
104.3130126692343
 20
-127.3879177198891
 10
104.3130126692343
 20
-127.3879177198891
 10
104.3130126692343
 20
-127.3879177198891
 10
104.5076605641509
 20
-127.3879177198891
 10
104.5076605641509
 20
-127.3879177198891
 10
104.5076605641509
 20
-127.3879177198891
 10
104.5076605641509
 20
-128.0035562831033
 10
104.5076605641509
 20
-128.0035562831033
 10
104.5076605641509
 20
-128.0035562831033
 10
104.9307182897395
 20
-128.069013097323
 10
104.9307182897395
 20
-128.069013097323
 10
104.8969563539841
 20
-128.0076903976856
 10
104.8566487368067
 20
-127.9253526155881
 10
104.8566487368067
 20
-127.8068413308955
 10
104.8566487368067
 20
-127.5529377936326
 10
105.0430284025587
 20
-127.3159152242474
 10
105.3561875821679
 20
-127.3159152242474
 10
105.6734808763594
 20
-127.3159152242474
 10
105.9080918789049
 20
-127.5401909403372
 10
105.9080918789049
 20
-127.8426703239421
 97
        0
 97
        0
 75
     2
 76
     1
 98
        0
  0
ENDBLK
  5
D4
330
D1
100
AcDbEntity
  8
0
100
AcDbBlockEnd
  0
ENDSEC
  0
SECTION
  2
ENTITIES
  0
POLYLINE
  5
41
330
1F
100
AcDbEntity
  8
_U+30EC_U+30A4_U+30E4_U+30FC 1
370
     0
100
AcDb2dPolyline
 66
     1
 10
0.0
 20
0.0
 30
0.0
  0
VERTEX
  5
42
330
41
100
AcDbEntity
  8
_U+30EC_U+30A4_U+30E4_U+30FC 1
370
     0
100
AcDbVertex
100
AcDb2dVertex
 10
73.57208590079749
 20
-124.4357994133354
 30
0.0
  0
VERTEX
  5
43
330
41
100
AcDbEntity
  8
_U+30EC_U+30A4_U+30E4_U+30FC 1
370
     0
100
AcDbVertex
100
AcDb2dVertex
 10
83.57248897899929
 20
-124.4357994133354
 30
0.0
  0
VERTEX
  5
44
330
41
100
AcDbEntity
  8
_U+30EC_U+30A4_U+30E4_U+30FC 1
370
     0
100
AcDbVertex
100
AcDb2dVertex
 10
83.57248897899929
 20
-135.9358963549047
 30
0.0
  0
VERTEX
  5
45
330
41
100
AcDbEntity
  8
_U+30EC_U+30A4_U+30E4_U+30FC 1
370
     0
100
AcDbVertex
100
AcDb2dVertex
 10
88.57202024033951
 20
-135.9358963549047
 30
0.0
  0
VERTEX
  5
46
330
41
100
AcDbEntity
  8
_U+30EC_U+30A4_U+30E4_U+30FC 1
370
     0
100
AcDbVertex
100
AcDb2dVertex
 10
88.57202024033951
 20
-132.9359094112103
 30
0.0
  0
VERTEX
  5
47
330
41
100
AcDbEntity
  8
_U+30EC_U+30A4_U+30E4_U+30FC 1
370
     0
100
AcDbVertex
100
AcDb2dVertex
 10
87.5722480436236
 20
-132.9359094112103
 30
0.0
  0
VERTEX
  5
48
330
41
100
AcDbEntity
  8
_U+30EC_U+30A4_U+30E4_U+30FC 1
370
     0
100
AcDbVertex
100
AcDb2dVertex
 10
87.5722480436236
 20
-134.9361241329327
 30
0.0
  0
VERTEX
  5
49
330
41
100
AcDbEntity
  8
_U+30EC_U+30A4_U+30E4_U+30FC 1
370
     0
100
AcDbVertex
100
AcDb2dVertex
 10
84.47235451159736
 20
-134.9361241329327
 30
0.0
  0
VERTEX
  5
4A
330
41
100
AcDbEntity
  8
_U+30EC_U+30A4_U+30E4_U+30FC 1
370
     0
100
AcDbVertex
100
AcDb2dVertex
 10
84.47235451159736
 20
-124.4357994133354
 30
0.0
  0
VERTEX
  5
4B
330
41
100
AcDbEntity
  8
_U+30EC_U+30A4_U+30E4_U+30FC 1
370
     0
100
AcDbVertex
100
AcDb2dVertex
 10
103.5719545798815
 20
-124.4357994133354
 30
0.0
  0
VERTEX
  5
4C
330
41
100
AcDbEntity
  8
_U+30EC_U+30A4_U+30E4_U+30FC 1
370
     0
100
AcDbVertex
100
AcDb2dVertex
 10
103.5719545798815
 20
-123.436062469141
 30
0.0
  0
VERTEX
  5
4D
330
41
100
AcDbEntity
  8
_U+30EC_U+30A4_U+30E4_U+30FC 1
370
     0
100
AcDbVertex
100
AcDb2dVertex
 10
73.57208590079749
 20
-123.436062469141
 30
0.0
  0
VERTEX
  5
4E
330
41
100
AcDbEntity
  8
_U+30EC_U+30A4_U+30E4_U+30FC 1
370
     0
100
AcDbVertex
100
AcDb2dVertex
 10
73.57208590079749
 20
-124.4357994133354
 30
0.0
  0
SEQEND
  5
50
330
41
100
AcDbEntity
  8
_U+30EC_U+30A4_U+30E4_U+30FC 1
370
     0
  0
HATCH
  5
4F
330
1F
100
AcDbEntity
  8
_U+30EC_U+30A4_U+30E4_U+30FC 1
 62
   253
420
 11711154
100
AcDbHatch
 10
0.0
 20
0.0
 30
0.0
210
0.0
220
0.0
230
1.0
  2
SOLID
 70
     1
 71
     0
 91
        1
 92
        1
 93
       12
 72
     1
 10
73.57208590079749
 20
-124.4357994133354
 11
83.57248897899929
 21
-124.4357994133354
 72
     1
 10
83.57248897899929
 20
-124.4357994133354
 11
83.57248897899929
 21
-135.9358963549047
 72
     1
 10
83.57248897899929
 20
-135.9358963549047
 11
88.57202024033951
 21
-135.9358963549047
 72
     1
 10
88.57202024033951
 20
-135.9358963549047
 11
88.57202024033951
 21
-132.9359094112103
 72
     1
 10
88.57202024033951
 20
-132.9359094112103
 11
87.5722480436236
 21
-132.9359094112103
 72
     1
 10
87.5722480436236
 20
-132.9359094112103
 11
87.5722480436236
 21
-134.9361241329327
 72
     1
 10
87.5722480436236
 20
-134.9361241329327
 11
84.47235451159736
 21
-134.9361241329327
 72
     1
 10
84.47235451159736
 20
-134.9361241329327
 11
84.47235451159736
 21
-124.4357994133354
 72
     1
 10
84.47235451159736
 20
-124.4357994133354
 11
103.5719545798815
 21
-124.4357994133354
 72
     1
 10
103.5719545798815
 20
-124.4357994133354
 11
103.5719545798815
 21
-123.436062469141
 72
     1
 10
103.5719545798815
 20
-123.436062469141
 11
73.57208590079749
 21
-123.436062469141
 72
     1
 10
73.57208590079749
 20
-123.436062469141
 11
73.57208590079749
 21
-124.4357994133354
 97
        0
 75
     2
 76
     1
 98
        0
  0
POLYLINE
  5
51
330
1F
100
AcDbEntity
  8
_U+30EC_U+30A4_U+30E4_U+30FC 1
 62
     7
420
 16777215
370
    25
100
AcDb2dPolyline
 66
     1
 10
0.0
 20
0.0
 30
0.0
  0
VERTEX
  5
52
330
51
100
AcDbEntity
  8
_U+30EC_U+30A4_U+30E4_U+30FC 1
 62
     7
420
 16777215
370
    25
100
AcDbVertex
100
AcDb2dVertex
 10
88.57202024033951
 20
-132.9359094112103
 30
0.0
  0
VERTEX
  5
53
330
51
100
AcDbEntity
  8
_U+30EC_U+30A4_U+30E4_U+30FC 1
 62
     7
420
 16777215
370
    25
100
AcDbVertex
100
AcDb2dVertex
 10
88.57202024033951
 20
-135.9358963549047
 30
0.0
  0
VERTEX
  5
54
330
51
100
AcDbEntity
  8
_U+30EC_U+30A4_U+30E4_U+30FC 1
 62
     7
420
 16777215
370
    25
100
AcDbVertex
100
AcDb2dVertex
 10
83.57248897899929
 20
-135.9358963549047
 30
0.0
  0
VERTEX
  5
55
330
51
100
AcDbEntity
  8
_U+30EC_U+30A4_U+30E4_U+30FC 1
 62
     7
420
 16777215
370
    25
100
AcDbVertex
100
AcDb2dVertex
 10
83.57248897899929
 20
-124.4357994133354
 30
0.0
  0
VERTEX
  5
56
330
51
100
AcDbEntity
  8
_U+30EC_U+30A4_U+30E4_U+30FC 1
 62
     7
420
 16777215
370
    25
100
AcDbVertex
100
AcDb2dVertex
 10
73.57208590079749
 20
-124.4357994133354
 30
0.0
  0
VERTEX
  5
57
330
51
100
AcDbEntity
  8
_U+30EC_U+30A4_U+30E4_U+30FC 1
 62
     7
420
 16777215
370
    25
100
AcDbVertex
100
AcDb2dVertex
 10
73.57208590079749
 20
-123.436062469141
 30
0.0
  0
VERTEX
  5
58
330
51
100
AcDbEntity
  8
_U+30EC_U+30A4_U+30E4_U+30FC 1
 62
     7
420
 16777215
370
    25
100
AcDbVertex
100
AcDb2dVertex
 10
103.5719545798815
 20
-123.436062469141
 30
0.0
  0
VERTEX
  5
59
330
51
100
AcDbEntity
  8
_U+30EC_U+30A4_U+30E4_U+30FC 1
 62
     7
420
 16777215
370
    25
100
AcDbVertex
100
AcDb2dVertex
 10
103.5719545798815
 20
-124.4357994133354
 30
0.0
  0
VERTEX
  5
5A
330
51
100
AcDbEntity
  8
_U+30EC_U+30A4_U+30E4_U+30FC 1
 62
     7
420
 16777215
370
    25
100
AcDbVertex
100
AcDb2dVertex
 10
84.47235451159736
 20
-124.4357994133354
 30
0.0
  0
VERTEX
  5
5B
330
51
100
AcDbEntity
  8
_U+30EC_U+30A4_U+30E4_U+30FC 1
 62
     7
420
 16777215
370
    25
100
AcDbVertex
100
AcDb2dVertex
 10
84.47235451159736
 20
-134.9361241329327
 30
0.0
  0
VERTEX
  5
5C
330
51
100
AcDbEntity
  8
_U+30EC_U+30A4_U+30E4_U+30FC 1
 62
     7
420
 16777215
370
    25
100
AcDbVertex
100
AcDb2dVertex
 10
87.5722480436236
 20
-134.9361241329327
 30
0.0
  0
VERTEX
  5
5D
330
51
100
AcDbEntity
  8
_U+30EC_U+30A4_U+30E4_U+30FC 1
 62
     7
420
 16777215
370
    25
100
AcDbVertex
100
AcDb2dVertex
 10
87.5722480436236
 20
-132.9359094112103
 30
0.0
  0
VERTEX
  5
5E
330
51
100
AcDbEntity
  8
_U+30EC_U+30A4_U+30E4_U+30FC 1
 62
     7
420
 16777215
370
    25
100
AcDbVertex
100
AcDb2dVertex
 10
88.57202024033951
 20
-132.9359094112103
 30
0.0
  0
SEQEND
  5
5F
330
51
100
AcDbEntity
  8
_U+30EC_U+30A4_U+30E4_U+30FC 1
 62
     7
420
 16777215
370
    25
  0
SPLINE
  5
60
330
1F
100
AcDbEntity
  8
_U+30EC_U+30A4_U+30E4_U+30FC 1
 62
     7
420
 16777215
370
     9
100
AcDbSpline
210
0.0
220
0.0
230
1.0
 70
    11
 71
     3
 72
    17
 73
    13
 74
     0
 42
0.0000000001
 43
0.0000000001
 12
1.0
 22
0.0
 32
0.0
 13
1.0
 23
0.0
 33
0.0
 40
0.0
 40
0.0
 40
0.0
 40
0.0
 40
1.0
 40
1.0
 40
1.0
 40
2.0
 40
2.0
 40
2.0
 40
3.0
 40
3.0
 40
3.0
 40
4.0
 40
4.0
 40
4.0
 40
4.0
 10
73.67199442602639
 20
-119.4359505256967
 30
0.0
 10
73.67199442602639
 20
-119.3808113590436
 30
0.0
 10
73.62719164826
 20
-119.336043859055
 30
0.0
 10
73.57208590079749
 20
-119.336043859055
 30
0.0
 10
73.51694673553754
 20
-119.336043859055
 30
0.0
 10
73.47217923667966
 20
-119.3808113590436
 30
0.0
 10
73.47217923667966
 20
-119.4359505256967
 30
0.0
 10
73.47217923667966
 20
-119.4912308034605
 30
0.0
 10
73.51694673553754
 20
-119.5360335812272
 30
0.0
 10
73.57208590079749
 20
-119.5360335812272
 30
0.0
 10
73.62719164826
 20
-119.5360335812272
 30
0.0
 10
73.67199442602639
 20
-119.4912308034605
 30
0.0
 10
73.67199442602639
 20
-119.4359505256967
 30
0.0
  0
SPLINE
  5
61
330
1F
100
AcDbEntity
  8
_U+30EC_U+30A4_U+30E4_U+30FC 1
 62
     7
420
 16777215
370
     9
100
AcDbSpline
210
0.0
220
0.0
230
1.0
 70
    11
 71
     3
 72
    17
 73
    13
 74
     0
 42
0.0000000001
 43
0.0000000001
 12
1.0
 22
0.0
 32
0.0
 13
1.0
 23
0.0
 33
0.0
 40
0.0
 40
0.0
 40
0.0
 40
0.0
 40
1.0
 40
1.0
 40
1.0
 40
2.0
 40
2.0
 40
2.0
 40
3.0
 40
3.0
 40
3.0
 40
4.0
 40
4.0
 40
4.0
 40
4.0
 10
103.6725694185263
 20
-119.4359505256967
 30
0.0
 10
103.6725694185263
 20
-119.3808113590436
 30
0.0
 10
103.6277666407596
 20
-119.336043859055
 30
0.0
 10
103.5719545798815
 20
-119.336043859055
 30
0.0
 10
103.5168506923984
 20
-119.336043859055
 30
0.0
 10
103.4720479157637
 20
-119.3808113590436
 30
0.0
 10
103.4720479157637
 20
-119.4359505256967
 30
0.0
 10
103.4720479157637
 20
-119.4912308034605
 30
0.0
 10
103.5168506923984
 20
-119.5360335812272
 30
0.0
 10
103.5719545798815
 20
-119.5360335812272
 30
0.0
 10
103.6277666407596
 20
-119.5360335812272
 30
0.0
 10
103.6725694185263
 20
-119.4912308034605
 30
0.0
 10
103.6725694185263
 20
-119.4359505256967
 30
0.0
  0
SPLINE
  5
62
330
1F
100
AcDbEntity
  8
_U+30EC_U+30A4_U+30E4_U+30FC 1
 62
     7
420
 16777215
370
     9
100
AcDbSpline
210
0.0
220
0.0
230
1.0
 70
    11
 71
     3
 72
    17
 73
    13
 74
     0
 42
0.0000000001
 43
0.0000000001
 12
1.0
 22
0.0
 32
0.0
 13
1.0
 23
0.0
 33
0.0
 40
0.0
 40
0.0
 40
0.0
 40
0.0
 40
1.0
 40
1.0
 40
1.0
 40
2.0
 40
2.0
 40
2.0
 40
3.0
 40
3.0
 40
3.0
 40
4.0
 40
4.0
 40
4.0
 40
4.0
 10
107.6723258641612
 20
-123.436062469141
 30
0.0
 10
107.6723258641612
 20
-123.3809233024882
 30
0.0
 10
107.6275230875265
 20
-123.3361558024994
 30
0.0
 10
107.5724192000434
 20
-123.3361558024994
 30
0.0
 10
107.5172800347834
 20
-123.3361558024994
 30
0.0
 10
107.4725125359256
 20
-123.3809233024882
 30
0.0
 10
107.4725125359256
 20
-123.436062469141
 30
0.0
 10
107.4725125359256
 20
-123.4911663580162
 30
0.0
 10
107.5172800347834
 20
-123.5359691357826
 30
0.0
 10
107.5724192000434
 20
-123.5359691357826
 30
0.0
 10
107.6275230875265
 20
-123.5359691357826
 30
0.0
 10
107.6723258641612
 20
-123.4911663580162
 30
0.0
 10
107.6723258641612
 20
-123.436062469141
 30
0.0
  0
SPLINE
  5
63
330
1F
100
AcDbEntity
  8
_U+30EC_U+30A4_U+30E4_U+30FC 1
 62
     7
420
 16777215
370
     9
100
AcDbSpline
210
0.0
220
0.0
230
1.0
 70
    11
 71
     3
 72
    17
 73
    13
 74
     0
 42
0.0000000001
 43
0.0000000001
 12
1.0
 22
0.0
 32
0.0
 13
1.0
 23
0.0
 33
0.0
 40
0.0
 40
0.0
 40
0.0
 40
0.0
 40
1.0
 40
1.0
 40
1.0
 40
2.0
 40
2.0
 40
2.0
 40
3.0
 40
3.0
 40
3.0
 40
4.0
 40
4.0
 40
4.0
 40
4.0
 10
107.6723258641612
 20
-124.4357994133354
 30
0.0
 10
107.6723258641612
 20
-124.3806955244605
 30
0.0
 10
107.6275230875265
 20
-124.3358927466937
 30
0.0
 10
107.5724192000434
 20
-124.3358927466937
 30
0.0
 10
107.5172800347834
 20
-124.3358927466937
 30
0.0
 10
107.4725125359256
 20
-124.3806955244605
 30
0.0
 10
107.4725125359256
 20
-124.4357994133354
 30
0.0
 10
107.4725125359256
 20
-124.4912913577662
 30
0.0
 10
107.5172800347834
 20
-124.5360588577548
 30
0.0
 10
107.5724192000434
 20
-124.5360588577548
 30
0.0
 10
107.6275230875265
 20
-124.5360588577548
 30
0.0
 10
107.6723258641612
 20
-124.4912913577662
 30
0.0
 10
107.6723258641612
 20
-124.4357994133354
 30
0.0
  0
SPLINE
  5
64
330
1F
100
AcDbEntity
  8
_U+30EC_U+30A4_U+30E4_U+30FC 1
 62
     7
420
 16777215
370
     9
100
AcDbSpline
210
0.0
220
0.0
230
1.0
 70
    11
 71
     3
 72
    17
 73
    13
 74
     0
 42
0.0000000001
 43
0.0000000001
 12
1.0
 22
0.0
 32
0.0
 13
1.0
 23
0.0
 33
0.0
 40
0.0
 40
0.0
 40
0.0
 40
0.0
 40
1.0
 40
1.0
 40
1.0
 40
2.0
 40
2.0
 40
2.0
 40
3.0
 40
3.0
 40
3.0
 40
4.0
 40
4.0
 40
4.0
 40
4.0
 10
107.6723258641612
 20
-132.9359094112103
 30
0.0
 10
107.6723258641612
 20
-132.8807702445579
 30
0.0
 10
107.6275230875265
 20
-132.8360027445687
 30
0.0
 10
107.5724192000434
 20
-132.8360027445687
 30
0.0
 10
107.5172800347834
 20
-132.8360027445687
 30
0.0
 10
107.4725125359256
 20
-132.8807702445579
 30
0.0
 10
107.4725125359256
 20
-132.9359094112103
 30
0.0
 10
107.4725125359256
 20
-132.9910133000859
 30
0.0
 10
107.5172800347834
 20
-133.0358160778519
 30
0.0
 10
107.5724192000434
 20
-133.0358160778519
 30
0.0
 10
107.6275230875265
 20
-133.0358160778519
 30
0.0
 10
107.6723258641612
 20
-132.9910133000859
 30
0.0
 10
107.6723258641612
 20
-132.9359094112103
 30
0.0
  0
SPLINE
  5
65
330
1F
100
AcDbEntity
  8
_U+30EC_U+30A4_U+30E4_U+30FC 1
 62
     7
420
 16777215
370
     9
100
AcDbSpline
210
0.0
220
0.0
230
1.0
 70
    11
 71
     3
 72
    17
 73
    13
 74
     0
 42
0.0000000001
 43
0.0000000001
 12
1.0
 22
0.0
 32
0.0
 13
1.0
 23
0.0
 33
0.0
 40
0.0
 40
0.0
 40
0.0
 40
0.0
 40
1.0
 40
1.0
 40
1.0
 40
2.0
 40
2.0
 40
2.0
 40
3.0
 40
3.0
 40
3.0
 40
4.0
 40
4.0
 40
4.0
 40
4.0
 10
107.6723258641612
 20
-135.9358963549047
 30
0.0
 10
107.6723258641612
 20
-135.8807571882522
 30
0.0
 10
107.6275230875265
 20
-135.835989688263
 30
0.0
 10
107.5724192000434
 20
-135.835989688263
 30
0.0
 10
107.5172800347834
 20
-135.835989688263
 30
0.0
 10
107.4725125359256
 20
-135.8807571882522
 30
0.0
 10
107.4725125359256
 20
-135.9358963549047
 30
0.0
 10
107.4725125359256
 20
-135.9910002437802
 30
0.0
 10
107.5172800347834
 20
-136.0358030215469
 30
0.0
 10
107.5724192000434
 20
-136.0358030215469
 30
0.0
 10
107.6275230875265
 20
-136.0358030215469
 30
0.0
 10
107.6723258641612
 20
-135.9910002437802
 30
0.0
 10
107.6723258641612
 20
-135.9358963549047
 30
0.0
  0
SPLINE
  5
66
330
1F
100
AcDbEntity
  8
_U+30EC_U+30A4_U+30E4_U+30FC 1
 62
     7
420
 16777215
370
     9
100
AcDbSpline
210
0.0
220
0.0
230
1.0
 70
    11
 71
     3
 72
    17
 73
    13
 74
     0
 42
0.0000000001
 43
0.0000000001
 12
1.0
 22
0.0
 32
0.0
 13
1.0
 23
0.0
 33
0.0
 40
0.0
 40
0.0
 40
0.0
 40
0.0
 40
1.0
 40
1.0
 40
1.0
 40
2.0
 40
2.0
 40
2.0
 40
3.0
 40
3.0
 40
3.0
 40
4.0
 40
4.0
 40
4.0
 40
4.0
 10
83.67239564311713
 20
-139.9356555205715
 30
0.0
 10
83.67239564311713
 20
-139.8805163539185
 30
0.0
 10
83.62762814425923
 20
-139.8357488539299
 30
0.0
 10
83.57248897899929
 20
-139.8357488539299
 30
0.0
 10
83.51738509151622
 20
-139.8357488539299
 30
0.0
 10
83.47258231488145
 20
-139.8805163539185
 30
0.0
 10
83.47258231488145
 20
-139.9356555205715
 30
0.0
 10
83.47258231488145
 20
-139.991464965002
 30
0.0
 10
83.51738509151622
 20
-140.0355621872132
 30
0.0
 10
83.57248897899929
 20
-140.0355621872132
 30
0.0
 10
83.62762814425923
 20
-140.0355621872132
 30
0.0
 10
83.67239564311713
 20
-139.991464965002
 30
0.0
 10
83.67239564311713
 20
-139.9356555205715
 30
0.0
  0
SPLINE
  5
67
330
1F
100
AcDbEntity
  8
_U+30EC_U+30A4_U+30E4_U+30FC 1
 62
     7
420
 16777215
370
     9
100
AcDbSpline
210
0.0
220
0.0
230
1.0
 70
    11
 71
     3
 72
    17
 73
    13
 74
     0
 42
0.0000000001
 43
0.0000000001
 12
1.0
 22
0.0
 32
0.0
 13
1.0
 23
0.0
 33
0.0
 40
0.0
 40
0.0
 40
0.0
 40
0.0
 40
1.0
 40
1.0
 40
1.0
 40
2.0
 40
2.0
 40
2.0
 40
3.0
 40
3.0
 40
3.0
 40
4.0
 40
4.0
 40
4.0
 40
4.0
 10
88.67192690445735
 20
-139.9356555205715
 30
0.0
 10
88.67192690445735
 20
-139.8805163539185
 30
0.0
 10
88.62715940559946
 20
-139.8357488539299
 30
0.0
 10
88.57202024033951
 20
-139.8357488539299
 30
0.0
 10
88.51691635285644
 20
-139.8357488539299
 30
0.0
 10
88.47211357622167
 20
-139.8805163539185
 30
0.0
 10
88.47211357622167
 20
-139.9356555205715
 30
0.0
 10
88.47211357622167
 20
-139.991464965002
 30
0.0
 10
88.51691635285644
 20
-140.0355621872132
 30
0.0
 10
88.57202024033951
 20
-140.0355621872132
 30
0.0
 10
88.62715940559946
 20
-140.0355621872132
 30
0.0
 10
88.67192690445735
 20
-139.991464965002
 30
0.0
 10
88.67192690445735
 20
-139.9356555205715
 30
0.0
  0
SPLINE
  5
68
330
1F
100
AcDbEntity
  8
_U+30EC_U+30A4_U+30E4_U+30FC 1
 62
     7
420
 16777215
370
     9
100
AcDbSpline
210
0.0
220
0.0
230
1.0
 70
    11
 71
     3
 72
    17
 73
    13
 74
     0
 42
0.0000000001
 43
0.0000000001
 12
1.0
 22
0.0
 32
0.0
 13
1.0
 23
0.0
 33
0.0
 40
0.0
 40
0.0
 40
0.0
 40
0.0
 40
1.0
 40
1.0
 40
1.0
 40
2.0
 40
2.0
 40
2.0
 40
3.0
 40
3.0
 40
3.0
 40
4.0
 40
4.0
 40
4.0
 40
4.0
 10
73.67199442602639
 20
-139.9356555205715
 30
0.0
 10
73.67199442602639
 20
-139.8805163539185
 30
0.0
 10
73.62719164826
 20
-139.8357488539299
 30
0.0
 10
73.57208590079749
 20
-139.8357488539299
 30
0.0
 10
73.51694673553754
 20
-139.8357488539299
 30
0.0
 10
73.47217923667966
 20
-139.8805163539185
 30
0.0
 10
73.47217923667966
 20
-139.9356555205715
 30
0.0
 10
73.47217923667966
 20
-139.991464965002
 30
0.0
 10
73.51694673553754
 20
-140.0355621872132
 30
0.0
 10
73.57208590079749
 20
-140.0355621872132
 30
0.0
 10
73.62719164826
 20
-140.0355621872132
 30
0.0
 10
73.67199442602639
 20
-139.991464965002
 30
0.0
 10
73.67199442602639
 20
-139.9356555205715
 30
0.0
  0
POLYLINE
  5
69
330
1F
100
AcDbEntity
  8
_U+30EC_U+30A4_U+30E4_U+30FC 1
 62
     7
420
 16777215
370
     9
100
AcDb2dPolyline
 66
     1
 10
0.0
 20
0.0
 30
0.0
  0
VERTEX
  5
6A
330
69
100
AcDbEntity
  8
_U+30EC_U+30A4_U+30E4_U+30FC 1
 62
     7
420
 16777215
370
     9
100
AcDbVertex
100
AcDb2dVertex
 10
107.5724192000434
 20
-123.436062469141
 30
0.0
  0
VERTEX
  5
6B
330
69
100
AcDbEntity
  8
_U+30EC_U+30A4_U+30E4_U+30FC 1
 62
     7
420
 16777215
370
     9
100
AcDbVertex
100
AcDb2dVertex
 10
107.5724192000434
 20
-119.6657499700836
 30
0.0
  0
SEQEND
  5
6C
330
69
100
AcDbEntity
  8
_U+30EC_U+30A4_U+30E4_U+30FC 1
 62
     7
420
 16777215
370
     9
  0
POLYLINE
  5
6D
330
1F
100
AcDbEntity
  8
_U+30EC_U+30A4_U+30E4_U+30FC 1
 62
     7
420
 16777215
370
     9
100
AcDb2dPolyline
 66
     1
 10
0.0
 20
0.0
 30
0.0
  0
VERTEX
  5
6E
330
6D
100
AcDbEntity
  8
_U+30EC_U+30A4_U+30E4_U+30FC 1
 62
     7
420
 16777215
370
     9
100
AcDbVertex
100
AcDb2dVertex
 10
107.5724192000434
 20
-123.436062469141
 30
0.0
  0
VERTEX
  5
6F
330
6D
100
AcDbEntity
  8
_U+30EC_U+30A4_U+30E4_U+30FC 1
 62
     7
420
 16777215
370
     9
100
AcDbVertex
100
AcDb2dVertex
 10
107.5724192000434
 20
-124.4357994133354
 30
0.0
  0
SEQEND
  5
70
330
6D
100
AcDbEntity
  8
_U+30EC_U+30A4_U+30E4_U+30FC 1
 62
     7
420
 16777215
370
     9
  0
POLYLINE
  5
71
330
1F
100
AcDbEntity
  8
_U+30EC_U+30A4_U+30E4_U+30FC 1
 62
     7
420
 16777215
370
     9
100
AcDb2dPolyline
 66
     1
 10
0.0
 20
0.0
 30
0.0
  0
VERTEX
  5
72
330
71
100
AcDbEntity
  8
_U+30EC_U+30A4_U+30E4_U+30FC 1
 62
     7
420
 16777215
370
     9
100
AcDbVertex
100
AcDb2dVertex
 10
106.1123805290272
 20
-123.436062469141
 30
0.0
  0
VERTEX
  5
73
330
71
100
AcDbEntity
  8
_U+30EC_U+30A4_U+30E4_U+30FC 1
 62
     7
420
 16777215
370
     9
100
AcDbVertex
100
AcDb2dVertex
 10
108.5721913967593
 20
-123.436062469141
 30
0.0
  0
SEQEND
  5
74
330
71
100
AcDbEntity
  8
_U+30EC_U+30A4_U+30E4_U+30FC 1
 62
     7
420
 16777215
370
     9
  0
POLYLINE
  5
75
330
1F
100
AcDbEntity
  8
_U+30EC_U+30A4_U+30E4_U+30FC 1
 62
     7
420
 16777215
370
     9
100
AcDb2dPolyline
 66
     1
 10
0.0
 20
0.0
 30
0.0
  0
VERTEX
  5
76
330
75
100
AcDbEntity
  8
_U+30EC_U+30A4_U+30E4_U+30FC 1
 62
     7
420
 16777215
370
     9
100
AcDbVertex
100
AcDb2dVertex
 10
106.1123805290272
 20
-124.4357994133354
 30
0.0
  0
VERTEX
  5
77
330
75
100
AcDbEntity
  8
_U+30EC_U+30A4_U+30E4_U+30FC 1
 62
     7
420
 16777215
370
     9
100
AcDbVertex
100
AcDb2dVertex
 10
108.5721913967593
 20
-124.4357994133354
 30
0.0
  0
SEQEND
  5
78
330
75
100
AcDbEntity
  8
_U+30EC_U+30A4_U+30E4_U+30FC 1
 62
     7
420
 16777215
370
     9
  0
INSERT
  5
7A
330
1F
100
AcDbEntity
  8
_U+30EC_U+30A4_U+30E4_U+30FC 1
100
AcDbBlockReference
  2
block 2
 10
0.0
 20
0.0
 30
0.0
  0
POLYLINE
  5
7F
330
1F
100
AcDbEntity
  8
_U+30EC_U+30A4_U+30E4_U+30FC 1
 62
     7
420
 16777215
370
     9
100
AcDb2dPolyline
 66
     1
 10
0.0
 20
0.0
 30
0.0
  0
VERTEX
  5
80
330
7F
100
AcDbEntity
  8
_U+30EC_U+30A4_U+30E4_U+30FC 1
 62
     7
420
 16777215
370
     9
100
AcDbVertex
100
AcDb2dVertex
 10
107.5724192000434
 20
-135.9358963549047
 30
0.0
  0
VERTEX
  5
81
330
7F
100
AcDbEntity
  8
_U+30EC_U+30A4_U+30E4_U+30FC 1
 62
     7
420
 16777215
370
     9
100
AcDbVertex
100
AcDb2dVertex
 10
107.5724192000434
 20
-132.9359094112103
 30
0.0
  0
SEQEND
  5
82
330
7F
100
AcDbEntity
  8
_U+30EC_U+30A4_U+30E4_U+30FC 1
 62
     7
420
 16777215
370
     9
  0
POLYLINE
  5
83
330
1F
100
AcDbEntity
  8
_U+30EC_U+30A4_U+30E4_U+30FC 1
 62
     7
420
 16777215
370
     9
100
AcDb2dPolyline
 66
     1
 10
0.0
 20
0.0
 30
0.0
  0
VERTEX
  5
84
330
83
100
AcDbEntity
  8
_U+30EC_U+30A4_U+30E4_U+30FC 1
 62
     7
420
 16777215
370
     9
100
AcDbVertex
100
AcDb2dVertex
 10
91.11244350886125
 20
-135.9358963549047
 30
0.0
  0
VERTEX
  5
85
330
83
100
AcDbEntity
  8
_U+30EC_U+30A4_U+30E4_U+30FC 1
 62
     7
420
 16777215
370
     9
100
AcDbVertex
100
AcDb2dVertex
 10
108.5721913967593
 20
-135.9358963549047
 30
0.0
  0
SEQEND
  5
86
330
83
100
AcDbEntity
  8
_U+30EC_U+30A4_U+30E4_U+30FC 1
 62
     7
420
 16777215
370
     9
  0
INSERT
  5
88
330
1F
100
AcDbEntity
  8
_U+30EC_U+30A4_U+30E4_U+30FC 1
100
AcDbBlockReference
  2
block 3
 10
0.0
 20
0.0
 30
0.0
  0
POLYLINE
  5
8D
330
1F
100
AcDbEntity
  8
_U+30EC_U+30A4_U+30E4_U+30FC 1
 62
     7
420
 16777215
370
     9
100
AcDb2dPolyline
 66
     1
 10
0.0
 20
0.0
 30
0.0
  0
VERTEX
  5
8E
330
8D
100
AcDbEntity
  8
_U+30EC_U+30A4_U+30E4_U+30FC 1
 62
     7
420
 16777215
370
     9
100
AcDbVertex
100
AcDb2dVertex
 10
73.57208590079749
 20
-139.9356555205715
 30
0.0
  0
VERTEX
  5
8F
330
8D
100
AcDbEntity
  8
_U+30EC_U+30A4_U+30E4_U+30FC 1
 62
     7
420
 16777215
370
     9
100
AcDbVertex
100
AcDb2dVertex
 10
83.57248897899929
 20
-139.9356555205715
 30
0.0
  0
SEQEND
  5
90
330
8D
100
AcDbEntity
  8
_U+30EC_U+30A4_U+30E4_U+30FC 1
 62
     7
420
 16777215
370
     9
  0
POLYLINE
  5
91
330
1F
100
AcDbEntity
  8
_U+30EC_U+30A4_U+30E4_U+30FC 1
 62
     7
420
 16777215
370
     9
100
AcDb2dPolyline
 66
     1
 10
0.0
 20
0.0
 30
0.0
  0
VERTEX
  5
92
330
91
100
AcDbEntity
  8
_U+30EC_U+30A4_U+30E4_U+30FC 1
 62
     7
420
 16777215
370
     9
100
AcDbVertex
100
AcDb2dVertex
 10
73.57208590079749
 20
-126.9762227460338
 30
0.0
  0
VERTEX
  5
93
330
91
100
AcDbEntity
  8
_U+30EC_U+30A4_U+30E4_U+30FC 1
 62
     7
420
 16777215
370
     9
100
AcDbVertex
100
AcDb2dVertex
 10
73.57208590079749
 20
-140.9360980203214
 30
0.0
  0
SEQEND
  5
94
330
91
100
AcDbEntity
  8
_U+30EC_U+30A4_U+30E4_U+30FC 1
 62
     7
420
 16777215
370
     9
  0
POLYLINE
  5
95
330
1F
100
AcDbEntity
  8
_U+30EC_U+30A4_U+30E4_U+30FC 1
 62
     7
420
 16777215
370
     9
100
AcDb2dPolyline
 66
     1
 10
0.0
 20
0.0
 30
0.0
  0
VERTEX
  5
96
330
95
100
AcDbEntity
  8
_U+30EC_U+30A4_U+30E4_U+30FC 1
 62
     7
420
 16777215
370
     9
100
AcDbVertex
100
AcDb2dVertex
 10
83.57248897899929
 20
-138.4756141320478
 30
0.0
  0
VERTEX
  5
97
330
95
100
AcDbEntity
  8
_U+30EC_U+30A4_U+30E4_U+30FC 1
 62
     7
420
 16777215
370
     9
100
AcDbVertex
100
AcDb2dVertex
 10
83.57248897899929
 20
-140.9360980203214
 30
0.0
  0
SEQEND
  5
98
330
95
100
AcDbEntity
  8
_U+30EC_U+30A4_U+30E4_U+30FC 1
 62
     7
420
 16777215
370
     9
  0
INSERT
  5
9A
330
1F
100
AcDbEntity
  8
_U+30EC_U+30A4_U+30E4_U+30FC 1
100
AcDbBlockReference
  2
block 4
 10
0.0
 20
0.0
 30
0.0
  0
POLYLINE
  5
A2
330
1F
100
AcDbEntity
  8
_U+30EC_U+30A4_U+30E4_U+30FC 1
 62
     7
420
 16777215
370
     9
100
AcDb2dPolyline
 66
     1
 10
0.0
 20
0.0
 30
0.0
  0
VERTEX
  5
A3
330
A2
100
AcDbEntity
  8
_U+30EC_U+30A4_U+30E4_U+30FC 1
 62
     7
420
 16777215
370
     9
100
AcDbVertex
100
AcDb2dVertex
 10
83.57248897899929
 20
-139.9356555205715
 30
0.0
  0
VERTEX
  5
A4
330
A2
100
AcDbEntity
  8
_U+30EC_U+30A4_U+30E4_U+30FC 1
 62
     7
420
 16777215
370
     9
100
AcDbVertex
100
AcDb2dVertex
 10
88.57202024033951
 20
-139.9356555205715
 30
0.0
  0
SEQEND
  5
A5
330
A2
100
AcDbEntity
  8
_U+30EC_U+30A4_U+30E4_U+30FC 1
 62
     7
420
 16777215
370
     9
  0
POLYLINE
  5
A6
330
1F
100
AcDbEntity
  8
_U+30EC_U+30A4_U+30E4_U+30FC 1
 62
     7
420
 16777215
370
     9
100
AcDb2dPolyline
 66
     1
 10
0.0
 20
0.0
 30
0.0
  0
VERTEX
  5
A7
330
A6
100
AcDbEntity
  8
_U+30EC_U+30A4_U+30E4_U+30FC 1
 62
     7
420
 16777215
370
     9
100
AcDbVertex
100
AcDb2dVertex
 10
88.57202024033951
 20
-138.4756141320478
 30
0.0
  0
VERTEX
  5
A8
330
A6
100
AcDbEntity
  8
_U+30EC_U+30A4_U+30E4_U+30FC 1
 62
     7
420
 16777215
370
     9
100
AcDbVertex
100
AcDb2dVertex
 10
88.57202024033951
 20
-140.9360980203214
 30
0.0
  0
SEQEND
  5
A9
330
A6
100
AcDbEntity
  8
_U+30EC_U+30A4_U+30E4_U+30FC 1
 62
     7
420
 16777215
370
     9
  0
INSERT
  5
AB
330
1F
100
AcDbEntity
  8
_U+30EC_U+30A4_U+30E4_U+30FC 1
100
AcDbBlockReference
  2
block 5
 10
0.0
 20
0.0
 30
0.0
  0
POLYLINE
  5
B0
330
1F
100
AcDbEntity
  8
_U+30EC_U+30A4_U+30E4_U+30FC 1
 62
     7
420
 16777215
370
     9
100
AcDb2dPolyline
 66
     1
 10
0.0
 20
0.0
 30
0.0
  0
VERTEX
  5
B1
330
B0
100
AcDbEntity
  8
_U+30EC_U+30A4_U+30E4_U+30FC 1
 62
     7
420
 16777215
370
     9
100
AcDbVertex
100
AcDb2dVertex
 10
73.57208590079749
 20
-119.4359505256967
 30
0.0
  0
VERTEX
  5
B2
330
B0
100
AcDbEntity
  8
_U+30EC_U+30A4_U+30E4_U+30FC 1
 62
     7
420
 16777215
370
     9
100
AcDbVertex
100
AcDb2dVertex
 10
103.5719545798815
 20
-119.4359505256967
 30
0.0
  0
SEQEND
  5
B3
330
B0
100
AcDbEntity
  8
_U+30EC_U+30A4_U+30E4_U+30FC 1
 62
     7
420
 16777215
370
     9
  0
POLYLINE
  5
B4
330
1F
100
AcDbEntity
  8
_U+30EC_U+30A4_U+30E4_U+30FC 1
 62
     7
420
 16777215
370
     9
100
AcDb2dPolyline
 66
     1
 10
0.0
 20
0.0
 30
0.0
  0
VERTEX
  5
B5
330
B4
100
AcDbEntity
  8
_U+30EC_U+30A4_U+30E4_U+30FC 1
 62
     7
420
 16777215
370
     9
100
AcDbVertex
100
AcDb2dVertex
 10
73.57208590079749
 20
-120.8959919142204
 30
0.0
  0
VERTEX
  5
B6
330
B4
100
AcDbEntity
  8
_U+30EC_U+30A4_U+30E4_U+30FC 1
 62
     7
420
 16777215
370
     9
100
AcDbVertex
100
AcDb2dVertex
 10
73.57208590079749
 20
-118.4360019148356
 30
0.0
  0
SEQEND
  5
B7
330
B4
100
AcDbEntity
  8
_U+30EC_U+30A4_U+30E4_U+30FC 1
 62
     7
420
 16777215
370
     9
  0
POLYLINE
  5
B8
330
1F
100
AcDbEntity
  8
_U+30EC_U+30A4_U+30E4_U+30FC 1
 62
     7
420
 16777215
370
     9
100
AcDb2dPolyline
 66
     1
 10
0.0
 20
0.0
 30
0.0
  0
VERTEX
  5
B9
330
B8
100
AcDbEntity
  8
_U+30EC_U+30A4_U+30E4_U+30FC 1
 62
     7
420
 16777215
370
     9
100
AcDbVertex
100
AcDb2dVertex
 10
103.5719545798815
 20
-120.8959919142204
 30
0.0
  0
VERTEX
  5
BA
330
B8
100
AcDbEntity
  8
_U+30EC_U+30A4_U+30E4_U+30FC 1
 62
     7
420
 16777215
370
     9
100
AcDbVertex
100
AcDb2dVertex
 10
103.5719545798815
 20
-118.4360019148356
 30
0.0
  0
SEQEND
  5
BB
330
B8
100
AcDbEntity
  8
_U+30EC_U+30A4_U+30E4_U+30FC 1
 62
     7
420
 16777215
370
     9
  0
INSERT
  5
BD
330
1F
100
AcDbEntity
  8
_U+30EC_U+30A4_U+30E4_U+30FC 1
100
AcDbBlockReference
  2
block 6
 10
0.0
 20
0.0
 30
0.0
  0
POLYLINE
  5
C5
330
1F
100
AcDbEntity
  8
_U+30EC_U+30A4_U+30E4_U+30FC 1
 62
     7
420
 16777215
370
     9
100
AcDb2dPolyline
 66
     1
 10
0.0
 20
0.0
 30
0.0
  0
VERTEX
  5
C6
330
C5
100
AcDbEntity
  8
_U+30EC_U+30A4_U+30E4_U+30FC 1
 62
     7
420
 16777215
370
     9
100
AcDbVertex
100
AcDb2dVertex
 10
107.5724192000434
 20
-132.9359094112103
 30
0.0
  0
VERTEX
  5
C7
330
C5
100
AcDbEntity
  8
_U+30EC_U+30A4_U+30E4_U+30FC 1
 62
     7
420
 16777215
370
     9
100
AcDbVertex
100
AcDb2dVertex
 10
107.5724192000434
 20
-124.4357994133354
 30
0.0
  0
SEQEND
  5
C8
330
C5
100
AcDbEntity
  8
_U+30EC_U+30A4_U+30E4_U+30FC 1
 62
     7
420
 16777215
370
     9
  0
POLYLINE
  5
C9
330
1F
100
AcDbEntity
  8
_U+30EC_U+30A4_U+30E4_U+30FC 1
 62
     7
420
 16777215
370
     9
100
AcDb2dPolyline
 66
     1
 10
0.0
 20
0.0
 30
0.0
  0
VERTEX
  5
CA
330
C9
100
AcDbEntity
  8
_U+30EC_U+30A4_U+30E4_U+30FC 1
 62
     7
420
 16777215
370
     9
100
AcDbVertex
100
AcDb2dVertex
 10
91.11244350886125
 20
-132.9359094112103
 30
0.0
  0
VERTEX
  5
CB
330
C9
100
AcDbEntity
  8
_U+30EC_U+30A4_U+30E4_U+30FC 1
 62
     7
420
 16777215
370
     9
100
AcDbVertex
100
AcDb2dVertex
 10
108.5721913967593
 20
-132.9359094112103
 30
0.0
  0
SEQEND
  5
CC
330
C9
100
AcDbEntity
  8
_U+30EC_U+30A4_U+30E4_U+30FC 1
 62
     7
420
 16777215
370
     9
  0
POLYLINE
  5
CD
330
1F
100
AcDbEntity
  8
_U+30EC_U+30A4_U+30E4_U+30FC 1
 62
     7
420
 16777215
370
     9
100
AcDb2dPolyline
 66
     1
 10
0.0
 20
0.0
 30
0.0
  0
VERTEX
  5
CE
330
CD
100
AcDbEntity
  8
_U+30EC_U+30A4_U+30E4_U+30FC 1
 62
     7
420
 16777215
370
     9
100
AcDbVertex
100
AcDb2dVertex
 10
106.1123805290272
 20
-124.4357994133354
 30
0.0
  0
VERTEX
  5
CF
330
CD
100
AcDbEntity
  8
_U+30EC_U+30A4_U+30E4_U+30FC 1
 62
     7
420
 16777215
370
     9
100
AcDbVertex
100
AcDb2dVertex
 10
108.5721913967593
 20
-124.4357994133354
 30
0.0
  0
SEQEND
  5
D0
330
CD
100
AcDbEntity
  8
_U+30EC_U+30A4_U+30E4_U+30FC 1
 62
     7
420
 16777215
370
     9
  0
INSERT
  5
D2
330
1F
100
AcDbEntity
  8
_U+30EC_U+30A4_U+30E4_U+30FC 1
100
AcDbBlockReference
  2
block 7
 10
0.0
 20
0.0
 30
0.0
  0
ENDSEC
  0
SECTION
  2
OBJECTS
  0
DICTIONARY
  5
C
330
0
100
AcDbDictionary
281
     1
  3
ACAD_GROUP
350
D
  3
ACAD_LAYOUT
350
1A
  3
ACAD_MATERIAL
350
3B
  3
ACAD_MLEADERSTYLE
350
E4
  3
ACAD_MLINESTYLE
350
17
  3
ACAD_PLOTSETTINGS
350
19
  3
ACAD_PLOTSTYLENAME
350
E
  3
ACAD_TABLESTYLE
350
E3
  3
ACAD_VISUALSTYLE
350
2A
  0
SUN
  5
3F
330
29
100
AcDbSun
 90
        1
290
     0
 63
     7
421
 16777215
 40
1.0
291
     1
 91
  2455826
 92
 54000000
292
     0
 70
     2
 71
   256
280
     1
  0
DICTIONARY
  5
D
102
{ACAD_REACTORS
330
C
102
}
330
C
100
AcDbDictionary
281
     1
  0
DICTIONARY
  5
1A
102
{ACAD_REACTORS
330
C
102
}
330
C
100
AcDbDictionary
281
     1
  3
Layout1
350
1E
  3
Layout2
350
26
  3
Model
350
22
  0
DICTIONARY
  5
3B
102
{ACAD_REACTORS
330
C
102
}
330
C
100
AcDbDictionary
281
     1
  3
ByBlock
350
3D
  3
ByLayer
350
3C
  3
Global
350
3E
  0
DICTIONARY
  5
E4
102
{ACAD_REACTORS
330
C
102
}
330
C
100
AcDbDictionary
281
     1
  0
DICTIONARY
  5
17
102
{ACAD_REACTORS
330
C
102
}
330
C
100
AcDbDictionary
281
     1
  3
Standard
350
18
  0
DICTIONARY
  5
19
102
{ACAD_REACTORS
330
C
102
}
330
C
100
AcDbDictionary
281
     1
  0
ACDBDICTIONARYWDFLT
  5
E
102
{ACAD_REACTORS
330
C
102
}
330
C
100
AcDbDictionary
281
     1
  3
Normal
350
F
100
AcDbDictionaryWithDefault
340
F
  0
DICTIONARY
  5
E3
102
{ACAD_REACTORS
330
C
102
}
330
C
100
AcDbDictionary
281
     1
  0
DICTIONARY
  5
2A
102
{ACAD_REACTORS
330
C
102
}
330
C
100
AcDbDictionary
281
     1
  3
2dWireframe
350
2F
  3
3D Hidden
350
31
  3
3dWireframe
350
30
  3
Basic
350
32
  3
Brighten
350
36
  3
ColorChange
350
3A
  3
Conceptual
350
34
  3
Dim
350
35
  3
Facepattern
350
39
  3
Flat
350
2B
  3
FlatWithEdges
350
2C
  3
Gouraud
350
2D
  3
GouraudWithEdges
350
2E
  3
Linepattern
350
38
  3
Realistic
350
33
  3
Thicken
350
37
  0
LAYOUT
  5
1E
102
{ACAD_REACTORS
330
1A
102
}
330
1A
100
AcDbPlotSettings
  1

  2
none_device
  4

  6

 40
0.0
 41
0.0
 42
0.0
 43
0.0
 44
0.0
 45
0.0
 46
0.0
 47
0.0
 48
0.0
 49
0.0
140
0.0
141
0.0
142
1.0
143
1.0
 70
   688
 72
     0
 73
     0
 74
     5
  7

 75
    16
 76
     0
 77
     2
 78
   300
147
1.0
148
0.0
149
0.0
100
AcDbLayout
  1
Layout1
 70
     1
 71
     1
 10
0.0
 20
0.0
 11
12.0
 21
9.0
 12
0.0
 22
0.0
 32
0.0
 14
1.000000000000000E+20
 24
1.000000000000000E+20
 34
1.000000000000000E+20
 15
-1.000000000000000E+20
 25
-1.000000000000000E+20
 35
-1.000000000000000E+20
146
0.0
 13
0.0
 23
0.0
 33
0.0
 16
1.0
 26
0.0
 36
0.0
 17
0.0
 27
1.0
 37
0.0
 76
     0
330
1B
  0
LAYOUT
  5
26
102
{ACAD_REACTORS
330
1A
102
}
330
1A
100
AcDbPlotSettings
  1

  2
none_device
  4

  6

 40
0.0
 41
0.0
 42
0.0
 43
0.0
 44
0.0
 45
0.0
 46
0.0
 47
0.0
 48
0.0
 49
0.0
140
0.0
141
0.0
142
1.0
143
1.0
 70
   688
 72
     0
 73
     0
 74
     5
  7

 75
    16
 76
     0
 77
     2
 78
   300
147
1.0
148
0.0
149
0.0
100
AcDbLayout
  1
Layout2
 70
     1
 71
     2
 10
0.0
 20
0.0
 11
0.0
 21
0.0
 12
0.0
 22
0.0
 32
0.0
 14
0.0
 24
0.0
 34
0.0
 15
0.0
 25
0.0
 35
0.0
146
0.0
 13
0.0
 23
0.0
 33
0.0
 16
1.0
 26
0.0
 36
0.0
 17
0.0
 27
1.0
 37
0.0
 76
     0
330
23
  0
LAYOUT
  5
22
102
{ACAD_REACTORS
330
1A
102
}
330
1A
100
AcDbPlotSettings
  1

  2
none_device
  4

  6

 40
0.0
 41
0.0
 42
0.0
 43
0.0
 44
0.0
 45
0.0
 46
0.0
 47
0.0
 48
0.0
 49
0.0
140
0.0
141
0.0
142
1.0
143
1.0
 70
  1712
 72
     0
 73
     0
 74
     0
  7

 75
     0
 76
     0
 77
     2
 78
   300
147
1.0
148
0.0
149
0.0
100
AcDbLayout
  1
Model
 70
     1
 71
     0
 10
0.0
 20
0.0
 11
12.0
 21
9.0
 12
0.0
 22
0.0
 32
0.0
 14
1.000000000000000E+20
 24
1.000000000000000E+20
 34
1.000000000000000E+20
 15
-1.000000000000000E+20
 25
-1.000000000000000E+20
 35
-1.000000000000000E+20
146
0.0
 13
0.0
 23
0.0
 33
0.0
 16
1.0
 26
0.0
 36
0.0
 17
0.0
 27
1.0
 37
0.0
 76
     0
330
1F
331
29
  0
MATERIAL
  5
3D
102
{ACAD_REACTORS
330
3B
102
}
330
3B
100
AcDbMaterial
  1
ByBlock
 72
     1
 94
      127
  0
MATERIAL
  5
3C
102
{ACAD_REACTORS
330
3B
102
}
330
3B
100
AcDbMaterial
  1
ByLayer
 72
     1
 94
      127
  0
MATERIAL
  5
3E
102
{ACAD_REACTORS
330
3B
102
}
330
3B
100
AcDbMaterial
  1
Global
 72
     1
 94
      127
  0
MLINESTYLE
  5
18
102
{ACAD_REACTORS
330
17
102
}
330
17
100
AcDbMlineStyle
  2
Standard
 70
     0
  3

 62
   256
 51
90.0
 52
90.0
 71
     2
 49
0.5
 62
   256
  6
BYLAYER
 49
-0.5
 62
   256
  6
BYLAYER
  0
ACDBPLACEHOLDER
  5
F
102
{ACAD_REACTORS
330
E
102
}
330
E
  0
VISUALSTYLE
  5
2F
102
{ACAD_REACTORS
330
2A
102
}
330
2A
100
AcDbVisualStyle
  2
2dWireframe
 70
     4
177
     2
291
     0
 71
     0
176
     1
 72
     2
176
     1
 73
     0
176
     1
 90
        0
176
     1
 40
-0.6
176
     1
 41
-30.0
176
     1
 62
     5
 63
     7
421
 16777215
176
     1
 74
     1
176
     1
 91
        4
176
     1
 64
     7
176
     1
 65
   257
176
     1
 75
     1
176
     1
175
     1
176
     1
 42
1.0
176
     1
 92
        0
176
     1
 66
   257
176
     1
 43
1.0
176
     1
 76
     1
176
     1
 77
     6
176
     1
 78
     2
176
     1
 67
     7
176
     1
 79
     5
176
     1
170
     0
176
     1
171
     0
176
     1
290
     0
176
     1
 93
        1
176
     1
 44
0.0
176
     1
173
     0
176
     1
  0
VISUALSTYLE
  5
31
102
{ACAD_REACTORS
330
2A
102
}
330
2A
100
AcDbVisualStyle
  2
3D Hidden
 70
     6
177
     2
291
     0
 71
     1
176
     1
 72
     2
176
     1
 73
     2
176
     1
 90
        0
176
     1
 40
-0.6
176
     1
 41
-30.0
176
     1
 62
     5
 63
     7
421
 16777215
176
     1
 74
     2
176
     1
 91
        2
176
     1
 64
     7
176
     1
 65
   257
176
     1
 75
     2
176
     1
175
     1
176
     1
 42
40.0
176
     1
 92
        0
176
     1
 66
   257
176
     1
 43
1.0
176
     1
 76
     1
176
     1
 77
     6
176
     1
 78
     2
176
     1
 67
     7
176
     1
 79
     3
176
     1
170
     0
176
     1
171
     0
176
     1
290
     0
176
     1
 93
        1
176
     1
 44
0.0
176
     1
173
     0
176
     1
  0
VISUALSTYLE
  5
30
102
{ACAD_REACTORS
330
2A
102
}
330
2A
100
AcDbVisualStyle
  2
3dWireframe
 70
     5
177
     2
291
     0
 71
     0
176
     1
 72
     2
176
     1
 73
     0
176
     1
 90
        0
176
     1
 40
-0.6
176
     1
 41
-30.0
176
     1
 62
     5
 63
     7
421
 16777215
176
     1
 74
     1
176
     1
 91
        4
176
     1
 64
     7
176
     1
 65
   257
176
     1
 75
     1
176
     1
175
     1
176
     1
 42
1.0
176
     1
 92
        0
176
     1
 66
   257
176
     1
 43
1.0
176
     1
 76
     1
176
     1
 77
     6
176
     1
 78
     2
176
     1
 67
     7
176
     1
 79
     5
176
     1
170
     0
176
     1
171
     0
176
     1
290
     0
176
     1
 93
        1
176
     1
 44
0.0
176
     1
173
     0
176
     1
  0
VISUALSTYLE
  5
32
102
{ACAD_REACTORS
330
2A
102
}
330
2A
100
AcDbVisualStyle
  2
Basic
 70
     7
177
     2
291
     1
 71
     1
176
     1
 72
     0
176
     1
 73
     1
176
     1
 90
        0
176
     1
 40
-0.6
176
     1
 41
-30.0
176
     1
 62
     5
 63
     7
421
 16777215
176
     1
 74
     0
176
     1
 91
        4
176
     1
 64
     7
176
     1
 65
   257
176
     1
 75
     1
176
     1
175
     1
176
     1
 42
1.0
176
     1
 92
        8
176
     1
 66
     7
176
     1
 43
1.0
176
     1
 76
     1
176
     1
 77
     6
176
     1
 78
     2
176
     1
 67
     7
176
     1
 79
     5
176
     1
170
     0
176
     1
171
     0
176
     1
290
     0
176
     1
 93
        1
176
     1
 44
0.0
176
     1
173
     0
176
     1
  0
VISUALSTYLE
  5
36
102
{ACAD_REACTORS
330
2A
102
}
330
2A
100
AcDbVisualStyle
  2
Brighten
 70
    12
177
     2
291
     1
 71
     2
176
     1
 72
     2
176
     1
 73
     0
176
     1
 90
        0
176
     1
 40
-0.6
176
     1
 41
-30.0
176
     1
 62
     5
 63
     7
421
 16777215
176
     1
 74
     1
176
     1
 91
        4
176
     1
 64
     7
176
     1
 65
   257
176
     1
 75
     1
176
     1
175
     1
176
     1
 42
1.0
176
     1
 92
        8
176
     1
 66
     7
176
     1
 43
1.0
176
     1
 76
     1
176
     1
 77
     6
176
     1
 78
     2
176
     1
 67
     7
176
     1
 79
     5
176
     1
170
     0
176
     1
171
     0
176
     1
290
     0
176
     1
 93
        1
176
     1
 44
50.0
176
     1
173
     0
176
     1
  0
VISUALSTYLE
  5
3A
102
{ACAD_REACTORS
330
2A
102
}
330
2A
100
AcDbVisualStyle
  2
ColorChange
 70
    16
177
     2
291
     1
 71
     2
176
     1
 72
     2
176
     1
 73
     3
176
     1
 90
        0
176
     1
 40
-0.6
176
     1
 41
-30.0
176
     1
 62
     5
 63
     8
421
  8421504
176
     1
 74
     1
176
     1
 91
        4
176
     1
 64
     7
176
     1
 65
   257
176
     1
 75
     1
176
     1
175
     1
176
     1
 42
1.0
176
     1
 92
        8
176
     1
 66
     8
424
  8421504
176
     1
 43
1.0
176
     1
 76
     1
176
     1
 77
     6
176
     1
 78
     2
176
     1
 67
     7
176
     1
 79
     5
176
     1
170
     0
176
     1
171
     0
176
     1
290
     0
176
     1
 93
        1
176
     1
 44
0.0
176
     1
173
     0
176
     1
  0
VISUALSTYLE
  5
34
102
{ACAD_REACTORS
330
2A
102
}
330
2A
100
AcDbVisualStyle
  2
Conceptual
 70
     9
177
     2
291
     0
 71
     3
176
     1
 72
     2
176
     1
 73
     0
176
     1
 90
        0
176
     1
 40
-0.6
176
     1
 41
-30.0
176
     1
 62
     5
 63
     7
421
 16777215
176
     1
 74
     2
176
     1
 91
        2
176
     1
 64
     7
176
     1
 65
   257
176
     1
 75
     1
176
     1
175
     1
176
     1
 42
40.0
176
     1
 92
        8
176
     1
 66
     7
176
     1
 43
1.0
176
     1
 76
     1
176
     1
 77
     6
176
     1
 78
     2
176
     1
 67
     7
176
     1
 79
     3
176
     1
170
     0
176
     1
171
     0
176
     1
290
     0
176
     1
 93
        1
176
     1
 44
0.0
176
     1
173
     0
176
     1
  0
VISUALSTYLE
  5
35
102
{ACAD_REACTORS
330
2A
102
}
330
2A
100
AcDbVisualStyle
  2
Dim
 70
    11
177
     2
291
     1
 71
     2
176
     1
 72
     2
176
     1
 73
     0
176
     1
 90
        0
176
     1
 40
-0.6
176
     1
 41
-30.0
176
     1
 62
     5
 63
     7
421
 16777215
176
     1
 74
     1
176
     1
 91
        4
176
     1
 64
     7
176
     1
 65
   257
176
     1
 75
     1
176
     1
175
     1
176
     1
 42
1.0
176
     1
 92
        8
176
     1
 66
     7
176
     1
 43
1.0
176
     1
 76
     1
176
     1
 77
     6
176
     1
 78
     2
176
     1
 67
     7
176
     1
 79
     5
176
     1
170
     0
176
     1
171
     0
176
     1
290
     0
176
     1
 93
        1
176
     1
 44
-50.0
176
     1
173
     0
176
     1
  0
VISUALSTYLE
  5
39
102
{ACAD_REACTORS
330
2A
102
}
330
2A
100
AcDbVisualStyle
  2
Facepattern
 70
    15
177
     2
291
     1
 71
     2
176
     1
 72
     2
176
     1
 73
     0
176
     1
 90
        0
176
     1
 40
-0.6
176
     1
 41
-30.0
176
     1
 62
     5
 63
     7
421
 16777215
176
     1
 74
     1
176
     1
 91
        4
176
     1
 64
     7
176
     1
 65
   257
176
     1
 75
     1
176
     1
175
     1
176
     1
 42
1.0
176
     1
 92
        8
176
     1
 66
     7
176
     1
 43
1.0
176
     1
 76
     1
176
     1
 77
     6
176
     1
 78
     2
176
     1
 67
     7
176
     1
 79
     5
176
     1
170
     0
176
     1
171
     0
176
     1
290
     0
176
     1
 93
        1
176
     1
 44
0.0
176
     1
173
     0
176
     1
  0
VISUALSTYLE
  5
2B
102
{ACAD_REACTORS
330
2A
102
}
330
2A
100
AcDbVisualStyle
  2
Flat
 70
     0
177
     2
291
     1
 71
     2
176
     1
 72
     1
176
     1
 73
     1
176
     1
 90
        2
176
     1
 40
-0.6
176
     1
 41
30.0
176
     1
 62
     5
 63
     7
421
 16777215
176
     1
 74
     0
176
     1
 91
        4
176
     1
 64
     7
176
     1
 65
   257
176
     1
 75
     1
176
     1
175
     1
176
     1
 42
1.0
176
     1
 92
        8
176
     1
 66
     7
176
     1
 43
1.0
176
     1
 76
     1
176
     1
 77
     6
176
     1
 78
     2
176
     1
 67
     7
176
     1
 79
     5
176
     1
170
     0
176
     1
171
     0
176
     1
290
     0
176
     1
 93
       13
176
     1
 44
0.0
176
     1
173
     0
176
     1
  0
VISUALSTYLE
  5
2C
102
{ACAD_REACTORS
330
2A
102
}
330
2A
100
AcDbVisualStyle
  2
FlatWithEdges
 70
     1
177
     2
291
     1
 71
     2
176
     1
 72
     1
176
     1
 73
     1
176
     1
 90
        2
176
     1
 40
-0.6
176
     1
 41
30.0
176
     1
 62
     5
 63
     7
421
 16777215
176
     1
 74
     1
176
     1
 91
        4
176
     1
 64
     7
176
     1
 65
   257
176
     1
 75
     1
176
     1
175
     1
176
     1
 42
1.0
176
     1
 92
        0
176
     1
 66
   257
176
     1
 43
1.0
176
     1
 76
     1
176
     1
 77
     6
176
     1
 78
     2
176
     1
 67
     7
176
     1
 79
     5
176
     1
170
     0
176
     1
171
     0
176
     1
290
     0
176
     1
 93
       13
176
     1
 44
0.0
176
     1
173
     0
176
     1
  0
VISUALSTYLE
  5
2D
102
{ACAD_REACTORS
330
2A
102
}
330
2A
100
AcDbVisualStyle
  2
Gouraud
 70
     2
177
     2
291
     1
 71
     2
176
     1
 72
     2
176
     1
 73
     1
176
     1
 90
        2
176
     1
 40
-0.6
176
     1
 41
30.0
176
     1
 62
     5
 63
     7
421
 16777215
176
     1
 74
     0
176
     1
 91
        4
176
     1
 64
     7
176
     1
 65
   257
176
     1
 75
     1
176
     1
175
     1
176
     1
 42
1.0
176
     1
 92
        0
176
     1
 66
     7
176
     1
 43
1.0
176
     1
 76
     1
176
     1
 77
     6
176
     1
 78
     2
176
     1
 67
     7
176
     1
 79
     5
176
     1
170
     0
176
     1
171
     0
176
     1
290
     0
176
     1
 93
       13
176
     1
 44
0.0
176
     1
173
     0
176
     1
  0
VISUALSTYLE
  5
2E
102
{ACAD_REACTORS
330
2A
102
}
330
2A
100
AcDbVisualStyle
  2
GouraudWithEdges
 70
     3
177
     2
291
     1
 71
     2
176
     1
 72
     2
176
     1
 73
     1
176
     1
 90
        2
176
     1
 40
-0.6
176
     1
 41
30.0
176
     1
 62
     5
 63
     7
421
 16777215
176
     1
 74
     1
176
     1
 91
        4
176
     1
 64
     7
176
     1
 65
   257
176
     1
 75
     1
176
     1
175
     1
176
     1
 42
1.0
176
     1
 92
        0
176
     1
 66
   257
176
     1
 43
1.0
176
     1
 76
     1
176
     1
 77
     6
176
     1
 78
     2
176
     1
 67
     7
176
     1
 79
     5
176
     1
170
     0
176
     1
171
     0
176
     1
290
     0
176
     1
 93
       13
176
     1
 44
0.0
176
     1
173
     0
176
     1
  0
VISUALSTYLE
  5
38
102
{ACAD_REACTORS
330
2A
102
}
330
2A
100
AcDbVisualStyle
  2
Linepattern
 70
    14
177
     2
291
     1
 71
     2
176
     1
 72
     2
176
     1
 73
     0
176
     1
 90
        0
176
     1
 40
-0.6
176
     1
 41
-30.0
176
     1
 62
     5
 63
     7
421
 16777215
176
     1
 74
     1
176
     1
 91
        4
176
     1
 64
     7
176
     1
 65
   257
176
     1
 75
     7
176
     1
175
     7
176
     1
 42
1.0
176
     1
 92
        8
176
     1
 66
     7
176
     1
 43
1.0
176
     1
 76
     1
176
     1
 77
     6
176
     1
 78
     2
176
     1
 67
     7
176
     1
 79
     5
176
     1
170
     0
176
     1
171
     0
176
     1
290
     0
176
     1
 93
        1
176
     1
 44
0.0
176
     1
173
     0
176
     1
  0
VISUALSTYLE
  5
33
102
{ACAD_REACTORS
330
2A
102
}
330
2A
100
AcDbVisualStyle
  2
Realistic
 70
     8
177
     2
291
     0
 71
     2
176
     1
 72
     2
176
     1
 73
     0
176
     1
 90
        0
176
     1
 40
-0.6
176
     1
 41
-30.0
176
     1
 62
     5
 63
     7
421
 16777215
176
     1
 74
     1
176
     1
 91
        0
176
     1
 64
     7
176
     1
 65
   257
176
     1
 75
     1
176
     1
175
     1
176
     1
 42
1.0
176
     1
 92
        8
176
     1
 66
     8
424
  7895160
176
     1
 43
1.0
176
     1
 76
     1
176
     1
 77
     6
176
     1
 78
     2
176
     1
 67
     7
176
     1
 79
     5
176
     1
170
     0
176
     1
171
     0
176
     1
290
     0
176
     1
 93
       13
176
     1
 44
0.0
176
     1
173
     0
176
     1
  0
VISUALSTYLE
  5
37
102
{ACAD_REACTORS
330
2A
102
}
330
2A
100
AcDbVisualStyle
  2
Thicken
 70
    13
177
     2
291
     1
 71
     2
176
     1
 72
     2
176
     1
 73
     0
176
     1
 90
        0
176
     1
 40
-0.6
176
     1
 41
-30.0
176
     1
 62
     5
 63
     7
421
 16777215
176
     1
 74
     1
176
     1
 91
        4
176
     1
 64
     7
176
     1
 65
   257
176
     1
 75
     1
176
     1
175
     1
176
     1
 42
1.0
176
     1
 92
       12
176
     1
 66
     7
176
     1
 43
1.0
176
     1
 76
     1
176
     1
 77
     6
176
     1
 78
     2
176
     1
 67
     7
176
     1
 79
     5
176
     1
170
     0
176
     1
171
     0
176
     1
290
     0
176
     1
 93
        1
176
     1
 44
0.0
176
     1
173
     0
176
     1
  0
ENDSEC
  0
EOF
