  0
SECTION
  2
HEADER
  9
$ACADVER
  1
AC1024
  9
$ACADMAINTVER
 70
     6
  9
$DWGCODEPAGE
  3
UNDEFINED
  9
$INSBASE
 10
0.0
 20
0.0
 30
0.0
  9
$EXTMIN
 10
1.000000000000000E+20
 20
1.000000000000000E+20
 30
1.000000000000000E+20
  9
$EXTMAX
 10
-1.000000000000000E+20
 20
-1.000000000000000E+20
 30
-1.000000000000000E+20
  9
$LIMMIN
 10
0.0
 20
0.0
  9
$LIMMAX
 10
12.0
 20
9.0
  9
$ORTHOMODE
 70
     0
  9
$REGENMODE
 70
     1
  9
$FILLMODE
 70
     1
  9
$QTEXTMODE
 70
     0
  9
$MIRRTEXT
 70
     1
  9
$LTSCALE
 40
1.0
  9
$ATTMODE
 70
     1
  9
$TEXTSIZE
 40
0.2
  9
$TRACEWID
 40
0.05
  9
$TEXTSTYLE
  7
Standard
  9
$CLAYER
  8
0
  9
$CELTYPE
  6
ByLayer
  9
$CECOLOR
 62
   256
  9
$CELTSCALE
 40
1.0
  9
$DISPSILH
 70
     0
  9
$DIMSCALE
 40
1.0
  9
$DIMASZ
 40
0.18
  9
$DIMEXO
 40
0.0625
  9
$DIMDLI
 40
0.38
  9
$DIMRND
 40
0.0
  9
$DIMDLE
 40
0.0
  9
$DIMEXE
 40
0.18
  9
$DIMTP
 40
0.0
  9
$DIMTM
 40
0.0
  9
$DIMTXT
 40
0.18
  9
$DIMCEN
 40
0.09
  9
$DIMTSZ
 40
0.0
  9
$DIMTOL
 70
     0
  9
$DIMLIM
 70
     0
  9
$DIMTIH
 70
     1
  9
$DIMTOH
 70
     1
  9
$DIMSE1
 70
     0
  9
$DIMSE2
 70
     0
  9
$DIMTAD
 70
     0
  9
$DIMZIN
 70
     0
  9
$DIMBLK
  1

  9
$DIMASO
 70
     1
  9
$DIMSHO
 70
     1
  9
$DIMPOST
  1

  9
$DIMAPOST
  1

  9
$DIMALT
 70
     0
  9
$DIMALTD
 70
     2
  9
$DIMALTF
 40
25.4
  9
$DIMLFAC
 40
1.0
  9
$DIMTOFL
 70
     0
  9
$DIMTVP
 40
0.0
  9
$DIMTIX
 70
     0
  9
$DIMSOXD
 70
     0
  9
$DIMSAH
 70
     0
  9
$DIMBLK1
  1

  9
$DIMBLK2
  1

  9
$DIMSTYLE
  2
Standard
  9
$DIMCLRD
 70
     0
  9
$DIMCLRE
 70
     0
  9
$DIMCLRT
 70
     0
  9
$DIMTFAC
 40
1.0
  9
$DIMGAP
 40
0.09
  9
$DIMJUST
 70
     0
  9
$DIMSD1
 70
     0
  9
$DIMSD2
 70
     0
  9
$DIMTOLJ
 70
     1
  9
$DIMTZIN
 70
     0
  9
$DIMALTZ
 70
     0
  9
$DIMALTTZ
 70
     0
  9
$DIMUPT
 70
     0
  9
$DIMDEC
 70
     4
  9
$DIMTDEC
 70
     4
  9
$DIMALTU
 70
     2
  9
$DIMALTTD
 70
     2
  9
$DIMTXSTY
  7
Standard
  9
$DIMAUNIT
 70
     0
  9
$DIMADEC
 70
     0
  9
$DIMALTRND
 40
0.0
  9
$DIMAZIN
 70
     0
  9
$DIMDSEP
 70
    46
  9
$DIMATFIT
 70
     3
  9
$DIMFRAC
 70
     0
  9
$DIMLDRBLK
  1

  9
$DIMLUNIT
 70
     2
  9
$DIMLWD
 70
    -2
  9
$DIMLWE
 70
    -2
  9
$DIMTMOVE
 70
     0
  9
$DIMFXL
 40
1.0
  9
$DIMFXLON
 70
     0
  9
$DIMJOGANG
 40
0.7853981633974483
  9
$DIMTFILL
 70
     0
  9
$DIMTFILLCLR
 70
     0
  9
$DIMARCSYM
 70
     0
  9
$DIMLTYPE
  6

  9
$DIMLTEX1
  6

  9
$DIMLTEX2
  6

  9
$DIMTXTDIRECTION
 70
     0
  9
$LUNITS
 70
     2
  9
$LUPREC
 70
     4
  9
$SKETCHINC
 40
0.1
  9
$FILLETRAD
 40
0.5
  9
$AUNITS
 70
     0
  9
$AUPREC
 70
     0
  9
$MENU
  1
.
  9
$ELEVATION
 40
0.0
  9
$PELEVATION
 40
0.0
  9
$THICKNESS
 40
0.0
  9
$LIMCHECK
 70
     0
  9
$CHAMFERA
 40
0.5
  9
$CHAMFERB
 40
0.5
  9
$CHAMFERC
 40
1.0
  9
$CHAMFERD
 40
0.0
  9
$SKPOLY
 70
     0
  9
$TDCREATE
 40
2457917.615543982
  9
$TDUCREATE
 40
2457917.240543982
  9
$TDUPDATE
 40
2457917.615543982
  9
$TDUUPDATE
 40
2457917.240543982
  9
$TDINDWG
 40
0.0000000116
  9
$TDUSRTIMER
 40
0.0000000116
  9
$USRTIMER
 70
     1
  9
$ANGBASE
 50
0.0
  9
$ANGDIR
 70
     0
  9
$PDMODE
 70
     0
  9
$PDSIZE
 40
0.0
  9
$PLINEWID
 40
0.0
  9
$SPLFRAME
 70
     0
  9
$SPLINETYPE
 70
     6
  9
$SPLINESEGS
 70
     8
  9
$HANDSEED
  5
D9
  9
$SURFTAB1
 70
     6
  9
$SURFTAB2
 70
     6
  9
$SURFTYPE
 70
     6
  9
$SURFU
 70
     6
  9
$SURFV
 70
     6
  9
$UCSBASE
  2

  9
$UCSNAME
  2

  9
$UCSORG
 10
0.0
 20
0.0
 30
0.0
  9
$UCSXDIR
 10
1.0
 20
0.0
 30
0.0
  9
$UCSYDIR
 10
0.0
 20
1.0
 30
0.0
  9
$UCSORTHOREF
  2

  9
$UCSORTHOVIEW
 70
     0
  9
$UCSORGTOP
 10
0.0
 20
0.0
 30
0.0
  9
$UCSORGBOTTOM
 10
0.0
 20
0.0
 30
0.0
  9
$UCSORGLEFT
 10
0.0
 20
0.0
 30
0.0
  9
$UCSORGRIGHT
 10
0.0
 20
0.0
 30
0.0
  9
$UCSORGFRONT
 10
0.0
 20
0.0
 30
0.0
  9
$UCSORGBACK
 10
0.0
 20
0.0
 30
0.0
  9
$PUCSBASE
  2

  9
$PUCSNAME
  2

  9
$PUCSORG
 10
0.0
 20
0.0
 30
0.0
  9
$PUCSXDIR
 10
1.0
 20
0.0
 30
0.0
  9
$PUCSYDIR
 10
0.0
 20
1.0
 30
0.0
  9
$PUCSORTHOREF
  2

  9
$PUCSORTHOVIEW
 70
     0
  9
$PUCSORGTOP
 10
0.0
 20
0.0
 30
0.0
  9
$PUCSORGBOTTOM
 10
0.0
 20
0.0
 30
0.0
  9
$PUCSORGLEFT
 10
0.0
 20
0.0
 30
0.0
  9
$PUCSORGRIGHT
 10
0.0
 20
0.0
 30
0.0
  9
$PUCSORGFRONT
 10
0.0
 20
0.0
 30
0.0
  9
$PUCSORGBACK
 10
0.0
 20
0.0
 30
0.0
  9
$USERI1
 70
     0
  9
$USERI2
 70
     0
  9
$USERI3
 70
     0
  9
$USERI4
 70
     0
  9
$USERI5
 70
     0
  9
$USERR1
 40
0.0
  9
$USERR2
 40
0.0
  9
$USERR3
 40
0.0
  9
$USERR4
 40
0.0
  9
$USERR5
 40
0.0
  9
$WORLDVIEW
 70
     1
  9
$SHADEDGE
 70
     3
  9
$SHADEDIF
 70
    70
  9
$TILEMODE
 70
     1
  9
$MAXACTVP
 70
    64
  9
$PINSBASE
 10
0.0
 20
0.0
 30
0.0
  9
$PLIMCHECK
 70
     0
  9
$PEXTMIN
 10
1.000000000000000E+20
 20
1.000000000000000E+20
 30
1.000000000000000E+20
  9
$PEXTMAX
 10
-1.000000000000000E+20
 20
-1.000000000000000E+20
 30
-1.000000000000000E+20
  9
$PLIMMIN
 10
0.0
 20
0.0
  9
$PLIMMAX
 10
12.0
 20
9.0
  9
$UNITMODE
 70
     0
  9
$VISRETAIN
 70
     1
  9
$PLINEGEN
 70
     0
  9
$PSLTSCALE
 70
     1
  9
$TREEDEPTH
 70
  3020
  9
$CMLSTYLE
  2
Standard
  9
$CMLJUST
 70
     0
  9
$CMLSCALE
 40
1.0
  9
$PROXYGRAPHICS
 70
     1
  9
$MEASUREMENT
 70
     0
  9
$CELWEIGHT
370
    -1
  9
$ENDCAPS
280
     0
  9
$JOINSTYLE
280
     0
  9
$LWDISPLAY
290
     1
  9
$INSUNITS
 70
     1
  9
$HYPERLINKBASE
  1

  9
$STYLESHEET
  1

  9
$XEDIT
290
     1
  9
$CEPSNTYPE
380
     0
  9
$PSTYLEMODE
290
     1
  9
$FINGERPRINTGUID
  2
{E4DA3A61-7FCF-363B-E45A-1B3B9EC2145F}
  9
$VERSIONGUID
  2
{FAEB1C32-E019-11D5-929B-00C0DF256EC4}
  9
$EXTNAMES
290
     1
  9
$PSVPSCALE
 40
0.0
  9
$OLESTARTUP
290
     0
  9
$SORTENTS
280
   127
  9
$INDEXCTL
280
     0
  9
$HIDETEXT
280
     1
  9
$XCLIPFRAME
280
     2
  9
$HALOGAP
280
     0
  9
$OBSCOLOR
 70
   257
  9
$OBSLTYPE
280
     0
  9
$INTERSECTIONDISPLAY
280
     0
  9
$INTERSECTIONCOLOR
 70
   257
  9
$DIMASSOC
280
     2
  9
$PROJECTNAME
  1

  9
$CAMERADISPLAY
290
     0
  9
$LENSLENGTH
 40
50.0
  9
$CAMERAHEIGHT
 40
0.0
  9
$STEPSPERSEC
 40
2.0
  9
$STEPSIZE
 40
6.0
  9
$3DDWFPREC
 40
2.0
  9
$PSOLWIDTH
 40
0.25
  9
$PSOLHEIGHT
 40
4.0
  9
$LOFTANG1
 40
1.570796326794897
  9
$LOFTANG2
 40
1.570796326794897
  9
$LOFTMAG1
 40
0.0
  9
$LOFTMAG2
 40
0.0
  9
$LOFTPARAM
 70
     7
  9
$LOFTNORMALS
280
     1
  9
$LATITUDE
 40
37.795
  9
$LONGITUDE
 40
-122.394
  9
$NORTHDIRECTION
 40
0.0
  9
$TIMEZONE
 70
 -8000
  9
$LIGHTGLYPHDISPLAY
280
     1
  9
$TILEMODELIGHTSYNCH
280
     1
  9
$CMATERIAL
347
3C
  9
$SOLIDHIST
280
     1
  9
$SHOWHIST
280
     1
  9
$DWFFRAME
280
     2
  9
$DGNFRAME
280
     2
  9
$REALWORLDSCALE
290
     1
  9
$INTERFERECOLOR
 62
   256
  9
$CSHADOW
280
     0
  9
$SHADOWPLANELOCATION
 40
0.0
  0
ENDSEC
  0
SECTION
  2
CLASSES
  0
CLASS
  1
ACDBDICTIONARYWDFLT
  2
AcDbDictionaryWithDefault
  3
ObjectDBX Classes
 90
        0
 91
        4
280
     0
281
     0
  0
CLASS
  1
VISUALSTYLE
  2
AcDbVisualStyle
  3
ObjectDBX Classes
 90
     4095
 91
        4
280
     0
281
     0
  0
CLASS
  1
MATERIAL
  2
AcDbMaterial
  3
ObjectDBX Classes
 90
     1153
 91
        4
280
     0
281
     0
  0
CLASS
  1
SUN
  2
AcDbSun
  3
SCENEOE
 90
     1024
 91
        4
280
     0
281
     0
  0
ENDSEC
  0
SECTION
  2
TABLES
  0
TABLE
  2
VPORT
  5
8
330
0
100
AcDbSymbolTable
 70
     1
  0
VPORT
  5
29
330
8
100
AcDbSymbolTableRecord
100
AcDbViewportTableRecord
  2
*Active
 70
     0
 10
0.0
 20
0.0
 11
1.0
 21
1.0
 12
0.0
 22
0.0
 13
0.0
 23
0.0
 14
0.5
 24
0.5
 15
0.5
 25
0.5
 16
0.0
 26
0.0
 36
1.0
 17
91.00082462281999
 27
-128.4993055234307
 37
0.0
 40
256.9986110468615
 41
0.7081814508812795
 42
50.0
 43
0.0
 44
0.0
 50
0.0
 51
0.0
 71
     0
 72
   100
 73
     1
 74
     3
 75
     0
 76
     0
 77
     0
 78
     0
281
     0
 65
     1
110
0.0
120
0.0
130
0.0
111
1.0
121
0.0
131
0.0
112
0.0
122
1.0
132
0.0
 79
     0
146
0.0
 60
     3
 61
     5
292
     1
282
     1
141
0.0
142
0.0
 63
   250
361
3F
  0
ENDTAB
  0
TABLE
  2
LTYPE
  5
5
330
0
100
AcDbSymbolTable
 70
     1
  0
LTYPE
  5
14
330
5
100
AcDbSymbolTableRecord
100
AcDbLinetypeTableRecord
  2
ByBlock
 70
     0
  3

 72
    65
 73
     0
 40
0.0
  0
LTYPE
  5
15
330
5
100
AcDbSymbolTableRecord
100
AcDbLinetypeTableRecord
  2
ByLayer
 70
     0
  3

 72
    65
 73
     0
 40
0.0
  0
LTYPE
  5
16
330
5
100
AcDbSymbolTableRecord
100
AcDbLinetypeTableRecord
  2
Continuous
 70
     0
  3
Solid line
 72
    65
 73
     0
 40
0.0
  0
ENDTAB
  0
TABLE
  2
LAYER
  5
2
330
0
100
AcDbSymbolTable
 70
     2
  0
LAYER
  5
10
330
2
100
AcDbSymbolTableRecord
100
AcDbLayerTableRecord
  2
0
 70
     0
 62
     7
  6
Continuous
370
    -3
390
F
347
3E
  0
LAYER
  5
40
330
2
100
AcDbSymbolTableRecord
100
AcDbLayerTableRecord
  2
_U+30EC_U+30A4_U+30E4_U+30FC 1
 70
     0
 62
     7
  6
Continuous
370
    -3
390
F
347
3E
  0
ENDTAB
  0
TABLE
  2
STYLE
  5
3
330
0
100
AcDbSymbolTable
 70
     1
  0
STYLE
  5
11
330
3
100
AcDbSymbolTableRecord
100
AcDbTextStyleTableRecord
  2
Standard
 70
     0
 40
0.0
 41
1.0
 50
0.0
 71
     0
 42
0.2
  3
txt
  4

  0
ENDTAB
  0
TABLE
  2
VIEW
  5
6
330
0
100
AcDbSymbolTable
 70
     0
  0
ENDTAB
  0
TABLE
  2
UCS
  5
7
330
0
100
AcDbSymbolTable
 70
     0
  0
ENDTAB
  0
TABLE
  2
APPID
  5
9
330
0
100
AcDbSymbolTable
 70
     1
  0
APPID
  5
12
330
9
100
AcDbSymbolTableRecord
100
AcDbRegAppTableRecord
  2
ACAD
 70
     0
  0
ENDTAB
  0
TABLE
  2
DIMSTYLE
  5
A
330
0
100
AcDbSymbolTable
 70
     1
100
AcDbDimStyleTable
  0
DIMSTYLE
105
27
330
A
100
AcDbSymbolTableRecord
100
AcDbDimStyleTableRecord
  2
Standard
 70
     0
178
     0
340
11
  0
ENDTAB
  0
TABLE
  2
BLOCK_RECORD
  5
1
330
0
100
AcDbSymbolTable
 70
     7
  0
BLOCK_RECORD
  5
1F
330
1
100
AcDbSymbolTableRecord
100
AcDbBlockTableRecord
  2
*Model_Space
340
22
 70
     0
280
     1
281
     0
  0
BLOCK_RECORD
  5
1B
330
1
100
AcDbSymbolTableRecord
100
AcDbBlockTableRecord
  2
*Paper_Space
340
1E
 70
     0
280
     1
281
     0
  0
BLOCK_RECORD
  5
23
330
1
100
AcDbSymbolTableRecord
100
AcDbBlockTableRecord
  2
*Paper_Space0
340
26
 70
     0
280
     1
281
     0
  0
BLOCK_RECORD
  5
79
330
1
100
AcDbSymbolTableRecord
100
AcDbBlockTableRecord
  2
block 2
340
0
102
{BLKREFS
331
7A
102
}
 70
     0
280
     1
281
     0
  0
BLOCK_RECORD
  5
87
330
1
100
AcDbSymbolTableRecord
100
AcDbBlockTableRecord
  2
block 3
340
0
102
{BLKREFS
331
88
102
}
 70
     0
280
     1
281
     0
  0
BLOCK_RECORD
  5
99
330
1
100
AcDbSymbolTableRecord
100
AcDbBlockTableRecord
  2
block 4
340
0
102
{BLKREFS
331
9A
102
}
 70
     0
280
     1
281
     0
  0
BLOCK_RECORD
  5
A9
330
1
100
AcDbSymbolTableRecord
100
AcDbBlockTableRecord
  2
block 5
340
0
102
{BLKREFS
331
AA
102
}
 70
     0
280
     1
281
     0
  0
BLOCK_RECORD
  5
BB
330
1
100
AcDbSymbolTableRecord
100
AcDbBlockTableRecord
  2
block 6
340
0
102
{BLKREFS
331
BC
102
}
 70
     0
280
     1
281
     0
  0
BLOCK_RECORD
  5
CF
330
1
100
AcDbSymbolTableRecord
100
AcDbBlockTableRecord
  2
block 7
340
0
102
{BLKREFS
331
D0
102
}
 70
     0
280
     1
281
     0
  0
ENDTAB
  0
ENDSEC
  0
SECTION
  2
BLOCKS
  0
BLOCK
  5
20
330
1F
100
AcDbEntity
  8
0
100
AcDbBlockBegin
  2
*Model_Space
 70
     0
 10
0.0
 20
0.0
 30
0.0
  3
*Model_Space
  1

  0
ENDBLK
  5
21
330
1F
100
AcDbEntity
  8
0
100
AcDbBlockEnd
  0
BLOCK
  5
1C
330
1B
100
AcDbEntity
 67
     1
  8
0
100
AcDbBlockBegin
  2
*Paper_Space
 70
     0
 10
0.0
 20
0.0
 30
0.0
  3
*Paper_Space
  1

  0
ENDBLK
  5
1D
330
1B
100
AcDbEntity
 67
     1
  8
0
100
AcDbBlockEnd
  0
BLOCK
  5
24
330
23
100
AcDbEntity
  8
0
100
AcDbBlockBegin
  2
*Paper_Space0
 70
     0
 10
0.0
 20
0.0
 30
0.0
  3
*Paper_Space0
  1

  0
ENDBLK
  5
25
330
23
100
AcDbEntity
  8
0
100
AcDbBlockEnd
  0
BLOCK
  5
7B
330
79
100
AcDbEntity
  8
0
100
AcDbBlockBegin
  2
block 2
 70
     0
 10
0.0
 20
0.0
 30
0.0
  3
block 2
  1

  0
SPLINE
  5
7D
330
79
100
AcDbEntity
  8
_U+30EC_U+30A4_U+30E4_U+30FC 1
370
     0
100
AcDbSpline
210
0.0
220
0.0
230
1.0
 70
    11
 71
     3
 72
    26
 73
    22
 74
     0
 42
0.0000000001
 43
0.0000000001
 12
1.0
 22
0.0
 32
0.0
 13
1.0
 23
0.0
 33
0.0
 40
0.0
 40
0.0
 40
0.0
 40
0.0
 40
1.0
 40
1.0
 40
1.0
 40
2.0
 40
2.0
 40
2.0
 40
3.0
 40
3.0
 40
3.0
 40
4.0
 40
4.0
 40
4.0
 40
5.0
 40
5.0
 40
5.0
 40
6.0
 40
6.0
 40
6.0
 40
7.0
 40
7.0
 40
7.0
 40
7.0
 10
108.1546386448363
 20
-121.8268445875989
 30
0.0
 10
108.1546386448363
 20
-121.8268445875989
 30
0.0
 10
107.0504855418138
 20
-121.8268445875989
 30
0.0
 10
107.0504855418138
 20
-121.8268445875989
 30
0.0
 10
107.0504855418138
 20
-121.8268445875989
 30
0.0
 10
107.0504855418138
 20
-122.1792778557399
 30
0.0
 10
107.0504855418138
 20
-122.1792778557399
 30
0.0
 10
107.0504855418138
 20
-122.1792778557399
 30
0.0
 10
106.902346435948
 20
-122.1792778557399
 30
0.0
 10
106.902346435948
 20
-122.1792778557399
 30
0.0
 10
106.8875325253615
 20
-121.8244330207592
 30
0.0
 10
106.7245795089091
 20
-121.7748236457716
 30
0.0
 10
106.6102023387988
 20
-121.7431287673073
 30
0.0
 10
106.6102023387988
 20
-121.7431287673073
 30
0.0
 10
106.6102023387988
 20
-121.5870659418255
 30
0.0
 10
106.6102023387988
 20
-121.5870659418255
 30
0.0
 10
106.6102023387988
 20
-121.5870659418255
 30
0.0
 10
108.1546386448363
 20
-121.5870659418255
 30
0.0
 10
108.1546386448363
 20
-121.5870659418255
 30
0.0
 10
108.1546386448363
 20
-121.5870659418255
 30
0.0
 10
108.1546386448363
 20
-121.8268445875989
 30
0.0
 10
108.1546386448363
 20
-121.8268445875989
 30
0.0
  0
HATCH
  5
7E
330
79
100
AcDbEntity
  8
_U+30EC_U+30A4_U+30E4_U+30FC 1
 62
     7
420
 16777215
100
AcDbHatch
 10
0.0
 20
0.0
 30
0.0
210
0.0
220
0.0
230
1.0
  2
SOLID
 70
     1
 71
     0
 91
        1
 92
        1
 93
        1
 72
     4
 94
        3
 73
     0
 74
     1
 95
       26
 96
       22
 40
0.0
 40
0.0
 40
0.0
 40
0.0
 40
1.0
 40
1.0
 40
1.0
 40
2.0
 40
2.0
 40
2.0
 40
3.0
 40
3.0
 40
3.0
 40
4.0
 40
4.0
 40
4.0
 40
5.0
 40
5.0
 40
5.0
 40
6.0
 40
6.0
 40
6.0
 40
7.0
 40
7.0
 40
7.0
 40
7.0
 10
108.1546386448363
 20
-121.8268445875989
 10
108.1546386448363
 20
-121.8268445875989
 10
107.0504855418138
 20
-121.8268445875989
 10
107.0504855418138
 20
-121.8268445875989
 10
107.0504855418138
 20
-121.8268445875989
 10
107.0504855418138
 20
-122.1792778557399
 10
107.0504855418138
 20
-122.1792778557399
 10
107.0504855418138
 20
-122.1792778557399
 10
106.902346435948
 20
-122.1792778557399
 10
106.902346435948
 20
-122.1792778557399
 10
106.8875325253615
 20
-121.8244330207592
 10
106.7245795089091
 20
-121.7748236457716
 10
106.6102023387988
 20
-121.7431287673073
 10
106.6102023387988
 20
-121.7431287673073
 10
106.6102023387988
 20
-121.5870659418255
 10
106.6102023387988
 20
-121.5870659418255
 10
106.6102023387988
 20
-121.5870659418255
 10
108.1546386448363
 20
-121.5870659418255
 10
108.1546386448363
 20
-121.5870659418255
 10
108.1546386448363
 20
-121.5870659418255
 10
108.1546386448363
 20
-121.8268445875989
 10
108.1546386448363
 20
-121.8268445875989
 97
        0
 97
        0
 75
     2
 76
     1
 98
        0
  0
ENDBLK
  5
7C
330
79
100
AcDbEntity
  8
0
100
AcDbBlockEnd
  0
BLOCK
  5
89
330
87
100
AcDbEntity
  8
0
100
AcDbBlockBegin
  2
block 3
 70
     0
 10
0.0
 20
0.0
 30
0.0
  3
block 3
  1

  0
SPLINE
  5
8B
330
87
100
AcDbEntity
  8
_U+30EC_U+30A4_U+30E4_U+30FC 1
370
     0
100
AcDbSpline
210
0.0
220
0.0
230
1.0
 70
    11
 71
     3
 72
    62
 73
    58
 74
     0
 42
0.0000000001
 43
0.0000000001
 12
1.0
 22
0.0
 32
0.0
 13
1.0
 23
0.0
 33
0.0
 40
0.0
 40
0.0
 40
0.0
 40
0.0
 40
1.0
 40
1.0
 40
1.0
 40
2.0
 40
2.0
 40
2.0
 40
3.0
 40
3.0
 40
3.0
 40
4.0
 40
4.0
 40
4.0
 40
5.0
 40
5.0
 40
5.0
 40
6.0
 40
6.0
 40
6.0
 40
7.0
 40
7.0
 40
7.0
 40
8.0
 40
8.0
 40
8.0
 40
9.0
 40
9.0
 40
9.0
 40
10.0
 40
10.0
 40
10.0
 40
11.0
 40
11.0
 40
11.0
 40
12.0
 40
12.0
 40
12.0
 40
13.0
 40
13.0
 40
13.0
 40
14.0
 40
14.0
 40
14.0
 40
15.0
 40
15.0
 40
15.0
 40
16.0
 40
16.0
 40
16.0
 40
17.0
 40
17.0
 40
17.0
 40
18.0
 40
18.0
 40
18.0
 40
19.0
 40
19.0
 40
19.0
 40
19.0
 10
108.2052815484695
 20
-136.7565103824776
 30
0.0
 10
108.2052815484695
 20
-136.8581406992924
 30
0.0
 10
108.1842664660095
 20
-137.0910291540953
 30
0.0
 10
107.998231309806
 20
-137.2243543493745
 30
0.0
 10
107.8859211969869
 20
-137.3035915455352
 30
0.0
 10
107.7867024470117
 20
-137.3080701696661
 30
0.0
 10
107.7019530980745
 20
-137.3125487937969
 30
0.0
 10
107.7019530980745
 20
-137.3125487937969
 30
0.0
 10
107.7019530980745
 20
-137.0775932817028
 30
0.0
 10
107.7019530980745
 20
-137.0775932817028
 30
0.0
 10
107.7760226510074
 20
-137.0751817148632
 30
0.0
 10
108.0106336535529
 20
-137.0638128997618
 30
0.0
 10
108.0106336535529
 20
-136.7609890066084
 30
0.0
 10
108.0106336535529
 20
-136.6138834293882
 30
0.0
 10
107.9410427247509
 20
-136.4512749224844
 30
0.0
 10
107.7126328940788
 20
-136.4512749224844
 30
0.0
 10
107.5961886666773
 20
-136.4512749224844
 30
0.0
 10
107.5476128203353
 20
-136.4919270492103
 30
0.0
 10
107.515917941871
 20
-136.5256889849658
 30
0.0
 10
107.4418483889382
 20
-136.6049261811266
 30
0.0
 10
107.4291015356427
 20
-136.7292941281441
 30
0.0
 10
107.4291015356427
 20
-136.7882052609419
 30
0.0
 10
107.4291015356427
 20
-136.8085313243048
 30
0.0
 10
107.4311685929339
 20
-136.8467718841911
 30
0.0
 10
107.4353027075162
 20
-136.8763997053642
 30
0.0
 10
107.4353027075162
 20
-136.8763997053642
 30
0.0
 10
107.2406548125996
 20
-136.8763997053642
 30
0.0
 10
107.2406548125996
 20
-136.8763997053642
 30
0.0
 10
107.2472004940215
 20
-136.8357475786383
 30
0.0
 10
107.2492675513127
 20
-136.790272318233
 30
0.0
 10
107.2492675513127
 20
-136.783726636811
 30
0.0
 10
107.2492675513127
 20
-136.7134466889119
 30
0.0
 10
107.2279079593041
 20
-136.500884297472
 30
0.0
 10
106.9912298994675
 20
-136.500884297472
 30
0.0
 10
106.8134629724286
 20
-136.500884297472
 30
0.0
 10
106.7583414446646
 20
-136.6410996837217
 30
0.0
 10
106.7583414446646
 20
-136.7585774397687
 30
0.0
 10
106.7583414446646
 20
-137.0414197791077
 30
0.0
 10
106.9912298994675
 20
-137.0503770273694
 30
0.0
 10
107.0628878855607
 20
-137.0548556515002
 30
0.0
 10
107.0628878855607
 20
-137.0548556515002
 30
0.0
 10
107.0628878855607
 20
-137.2718966670709
 30
0.0
 10
107.0628878855607
 20
-137.2718966670709
 30
0.0
 10
106.9381754289946
 20
-137.2629394188093
 30
0.0
 10
106.5616264924568
 20
-137.2336561071847
 30
0.0
 10
106.5616264924568
 20
-136.7451415673762
 30
0.0
 10
106.5616264924568
 20
-136.5053629216028
 30
0.0
 10
106.6887505158625
 20
-136.2476697793061
 30
0.0
 10
106.9846842180455
 20
-136.2476697793061
 30
0.0
 10
107.1710638837975
 20
-136.2476697793061
 30
0.0
 10
107.253401665895
 20
-136.3496446056695
 30
0.0
 10
107.3147243655324
 20
-136.4557535466152
 30
0.0
 10
107.3422851294144
 20
-136.3902967323955
 30
0.0
 10
107.4225558542208
 20
-136.1956488374789
 30
0.0
 10
107.6998860407834
 20
-136.1956488374789
 30
0.0
 10
108.0381944174349
 20
-136.1956488374789
 30
0.0
 10
108.2052815484695
 20
-136.4602321707461
 30
0.0
 10
108.2052815484695
 20
-136.7565103824776
 30
0.0
  0
HATCH
  5
8C
330
87
100
AcDbEntity
  8
_U+30EC_U+30A4_U+30E4_U+30FC 1
 62
     7
420
 16777215
100
AcDbHatch
 10
0.0
 20
0.0
 30
0.0
210
0.0
220
0.0
230
1.0
  2
SOLID
 70
     1
 71
     0
 91
        1
 92
        1
 93
        1
 72
     4
 94
        3
 73
     0
 74
     1
 95
       62
 96
       58
 40
0.0
 40
0.0
 40
0.0
 40
0.0
 40
1.0
 40
1.0
 40
1.0
 40
2.0
 40
2.0
 40
2.0
 40
3.0
 40
3.0
 40
3.0
 40
4.0
 40
4.0
 40
4.0
 40
5.0
 40
5.0
 40
5.0
 40
6.0
 40
6.0
 40
6.0
 40
7.0
 40
7.0
 40
7.0
 40
8.0
 40
8.0
 40
8.0
 40
9.0
 40
9.0
 40
9.0
 40
10.0
 40
10.0
 40
10.0
 40
11.0
 40
11.0
 40
11.0
 40
12.0
 40
12.0
 40
12.0
 40
13.0
 40
13.0
 40
13.0
 40
14.0
 40
14.0
 40
14.0
 40
15.0
 40
15.0
 40
15.0
 40
16.0
 40
16.0
 40
16.0
 40
17.0
 40
17.0
 40
17.0
 40
18.0
 40
18.0
 40
18.0
 40
19.0
 40
19.0
 40
19.0
 40
19.0
 10
108.2052815484695
 20
-136.7565103824776
 10
108.2052815484695
 20
-136.8581406992924
 10
108.1842664660095
 20
-137.0910291540953
 10
107.998231309806
 20
-137.2243543493745
 10
107.8859211969869
 20
-137.3035915455352
 10
107.7867024470117
 20
-137.3080701696661
 10
107.7019530980745
 20
-137.3125487937969
 10
107.7019530980745
 20
-137.3125487937969
 10
107.7019530980745
 20
-137.0775932817028
 10
107.7019530980745
 20
-137.0775932817028
 10
107.7760226510074
 20
-137.0751817148632
 10
108.0106336535529
 20
-137.0638128997618
 10
108.0106336535529
 20
-136.7609890066084
 10
108.0106336535529
 20
-136.6138834293882
 10
107.9410427247509
 20
-136.4512749224844
 10
107.7126328940788
 20
-136.4512749224844
 10
107.5961886666773
 20
-136.4512749224844
 10
107.5476128203353
 20
-136.4919270492103
 10
107.515917941871
 20
-136.5256889849658
 10
107.4418483889382
 20
-136.6049261811266
 10
107.4291015356427
 20
-136.7292941281441
 10
107.4291015356427
 20
-136.7882052609419
 10
107.4291015356427
 20
-136.8085313243048
 10
107.4311685929339
 20
-136.8467718841911
 10
107.4353027075162
 20
-136.8763997053642
 10
107.4353027075162
 20
-136.8763997053642
 10
107.2406548125996
 20
-136.8763997053642
 10
107.2406548125996
 20
-136.8763997053642
 10
107.2472004940215
 20
-136.8357475786383
 10
107.2492675513127
 20
-136.790272318233
 10
107.2492675513127
 20
-136.783726636811
 10
107.2492675513127
 20
-136.7134466889119
 10
107.2279079593041
 20
-136.500884297472
 10
106.9912298994675
 20
-136.500884297472
 10
106.8134629724286
 20
-136.500884297472
 10
106.7583414446646
 20
-136.6410996837217
 10
106.7583414446646
 20
-136.7585774397687
 10
106.7583414446646
 20
-137.0414197791077
 10
106.9912298994675
 20
-137.0503770273694
 10
107.0628878855607
 20
-137.0548556515002
 10
107.0628878855607
 20
-137.0548556515002
 10
107.0628878855607
 20
-137.2718966670709
 10
107.0628878855607
 20
-137.2718966670709
 10
106.9381754289946
 20
-137.2629394188093
 10
106.5616264924568
 20
-137.2336561071847
 10
106.5616264924568
 20
-136.7451415673762
 10
106.5616264924568
 20
-136.5053629216028
 10
106.6887505158625
 20
-136.2476697793061
 10
106.9846842180455
 20
-136.2476697793061
 10
107.1710638837975
 20
-136.2476697793061
 10
107.253401665895
 20
-136.3496446056695
 10
107.3147243655324
 20
-136.4557535466152
 10
107.3422851294144
 20
-136.3902967323955
 10
107.4225558542208
 20
-136.1956488374789
 10
107.6998860407834
 20
-136.1956488374789
 10
108.0381944174349
 20
-136.1956488374789
 10
108.2052815484695
 20
-136.4602321707461
 10
108.2052815484695
 20
-136.7565103824776
 97
        0
 97
        0
 75
     2
 76
     1
 98
        0
  0
ENDBLK
  5
8A
330
87
100
AcDbEntity
  8
0
100
AcDbBlockEnd
  0
BLOCK
  5
9B
330
99
100
AcDbEntity
  8
0
100
AcDbBlockBegin
  2
block 4
 70
     0
 10
0.0
 20
0.0
 30
0.0
  3
block 4
  1

  0
SPLINE
  5
9D
330
99
100
AcDbEntity
  8
_U+30EC_U+30A4_U+30E4_U+30FC 1
370
     0
100
AcDbSpline
210
0.0
220
0.0
230
1.0
 70
    11
 71
     3
 72
    26
 73
    22
 74
     0
 42
0.0000000001
 43
0.0000000001
 12
1.0
 22
0.0
 32
0.0
 13
1.0
 23
0.0
 33
0.0
 40
0.0
 40
0.0
 40
0.0
 40
0.0
 40
1.0
 40
1.0
 40
1.0
 40
2.0
 40
2.0
 40
2.0
 40
3.0
 40
3.0
 40
3.0
 40
4.0
 40
4.0
 40
4.0
 40
5.0
 40
5.0
 40
5.0
 40
6.0
 40
6.0
 40
6.0
 40
7.0
 40
7.0
 40
7.0
 40
7.0
 10
77.68724770193236
 20
-141.6003146347388
 30
0.0
 10
77.68724770193236
 20
-141.6003146347388
 30
0.0
 10
77.68724770193236
 20
-140.4961615317162
 30
0.0
 10
77.68724770193236
 20
-140.4961615317162
 30
0.0
 10
77.68724770193236
 20
-140.4961615317162
 30
0.0
 10
77.33446992424277
 20
-140.4961615317162
 30
0.0
 10
77.33446992424277
 20
-140.4961615317162
 30
0.0
 10
77.33446992424277
 20
-140.4961615317162
 30
0.0
 10
77.33446992424277
 20
-140.3480224258505
 30
0.0
 10
77.33446992424277
 20
-140.3480224258505
 30
0.0
 10
77.68948701399778
 20
-140.3332085152639
 30
0.0
 10
77.73926864375963
 20
-140.1702554988116
 30
0.0
 10
77.77079126744967
 20
-140.0558783287013
 30
0.0
 10
77.77079126744967
 20
-140.0558783287013
 30
0.0
 10
77.92685409293148
 20
-140.0558783287013
 30
0.0
 10
77.92685409293148
 20
-140.0558783287013
 30
0.0
 10
77.92685409293148
 20
-140.0558783287013
 30
0.0
 10
77.92685409293148
 20
-141.6003146347388
 30
0.0
 10
77.92685409293148
 20
-141.6003146347388
 30
0.0
 10
77.92685409293148
 20
-141.6003146347388
 30
0.0
 10
77.68724770193236
 20
-141.6003146347388
 30
0.0
 10
77.68724770193236
 20
-141.6003146347388
 30
0.0
  0
HATCH
  5
9E
330
99
100
AcDbEntity
  8
_U+30EC_U+30A4_U+30E4_U+30FC 1
 62
     7
420
 16777215
100
AcDbHatch
 10
0.0
 20
0.0
 30
0.0
210
0.0
220
0.0
230
1.0
  2
SOLID
 70
     1
 71
     0
 91
        1
 92
        1
 93
        1
 72
     4
 94
        3
 73
     0
 74
     1
 95
       26
 96
       22
 40
0.0
 40
0.0
 40
0.0
 40
0.0
 40
1.0
 40
1.0
 40
1.0
 40
2.0
 40
2.0
 40
2.0
 40
3.0
 40
3.0
 40
3.0
 40
4.0
 40
4.0
 40
4.0
 40
5.0
 40
5.0
 40
5.0
 40
6.0
 40
6.0
 40
6.0
 40
7.0
 40
7.0
 40
7.0
 40
7.0
 10
77.68724770193236
 20
-141.6003146347388
 10
77.68724770193236
 20
-141.6003146347388
 10
77.68724770193236
 20
-140.4961615317162
 10
77.68724770193236
 20
-140.4961615317162
 10
77.68724770193236
 20
-140.4961615317162
 10
77.33446992424277
 20
-140.4961615317162
 10
77.33446992424277
 20
-140.4961615317162
 10
77.33446992424277
 20
-140.4961615317162
 10
77.33446992424277
 20
-140.3480224258505
 10
77.33446992424277
 20
-140.3480224258505
 10
77.68948701399778
 20
-140.3332085152639
 10
77.73926864375963
 20
-140.1702554988116
 10
77.77079126744967
 20
-140.0558783287013
 10
77.77079126744967
 20
-140.0558783287013
 10
77.92685409293148
 20
-140.0558783287013
 10
77.92685409293148
 20
-140.0558783287013
 10
77.92685409293148
 20
-140.0558783287013
 10
77.92685409293148
 20
-141.6003146347388
 10
77.92685409293148
 20
-141.6003146347388
 10
77.92685409293148
 20
-141.6003146347388
 10
77.68724770193236
 20
-141.6003146347388
 10
77.68724770193236
 20
-141.6003146347388
 97
        0
 97
        0
 75
     2
 76
     1
 98
        0
  0
SPLINE
  5
9F
330
99
100
AcDbEntity
  8
_U+30EC_U+30A4_U+30E4_U+30FC 1
370
     0
100
AcDbSpline
210
0.0
220
0.0
230
1.0
 70
    11
 71
     3
 72
    53
 73
    49
 74
     0
 42
0.0000000001
 43
0.0000000001
 12
1.0
 22
0.0
 32
0.0
 13
1.0
 23
0.0
 33
0.0
 40
0.0
 40
0.0
 40
0.0
 40
0.0
 40
1.0
 40
1.0
 40
1.0
 40
2.0
 40
2.0
 40
2.0
 40
3.0
 40
3.0
 40
3.0
 40
4.0
 40
4.0
 40
4.0
 40
5.0
 40
5.0
 40
5.0
 40
6.0
 40
6.0
 40
6.0
 40
7.0
 40
7.0
 40
7.0
 40
8.0
 40
8.0
 40
8.0
 40
9.0
 40
9.0
 40
9.0
 40
10.0
 40
10.0
 40
10.0
 40
11.0
 40
11.0
 40
11.0
 40
12.0
 40
12.0
 40
12.0
 40
13.0
 40
13.0
 40
13.0
 40
14.0
 40
14.0
 40
14.0
 40
15.0
 40
15.0
 40
15.0
 40
16.0
 40
16.0
 40
16.0
 40
16.0
 10
78.97674694206137
 20
-141.650957538372
 30
0.0
 10
78.8930311217698
 20
-141.650957538372
 30
0.0
 10
78.78451061398444
 20
-141.6340765704943
 30
0.0
 10
78.67599010619907
 20
-141.5706868135657
 30
0.0
 10
78.49064396909262
 20
-141.4607882675862
 30
0.0
 10
78.46807859366423
 20
-141.3295301295982
 30
0.0
 10
78.447580275527
 20
-141.2216986409099
 30
0.0
 10
78.447580275527
 20
-141.2216986409099
 30
0.0
 10
78.68511960923497
 20
-141.2216986409099
 30
0.0
 10
78.68511960923497
 20
-141.2216986409099
 30
0.0
 10
78.74385848725848
 20
-141.4204806504088
 30
0.0
 10
78.87942299460306
 20
-141.4501084715819
 30
0.0
 10
78.97898625412678
 20
-141.4501084715819
 30
0.0
 10
79.1281588886381
 20
-141.4501084715819
 30
0.0
 10
79.29093965031616
 20
-141.3505452120582
 30
0.0
 10
79.29093965031616
 20
-141.1180012668038
 30
0.0
 10
79.29093965031616
 20
-140.8620306722498
 30
0.0
 10
79.09870332223922
 20
-140.7920952338992
 30
0.0
 10
78.96985675109087
 20
-140.7920952338992
 30
0.0
 10
78.93592256056117
 20
-140.7920952338992
 30
0.0
 10
78.78451061398444
 20
-140.7920952338992
 30
0.0
 10
78.6895982333658
 20
-140.9212863145961
 30
0.0
 10
78.6895982333658
 20
-140.9212863145961
 30
0.0
 10
78.50184052941968
 20
-140.9023382894272
 30
0.0
 10
78.50184052941968
 20
-140.9023382894272
 30
0.0
 10
78.50184052941968
 20
-140.9023382894272
 30
0.0
 10
78.63068710056803
 20
-140.0558783287013
 30
0.0
 10
78.63068710056803
 20
-140.0558783287013
 30
0.0
 10
78.63068710056803
 20
-140.0558783287013
 30
0.0
 10
79.46267766025586
 20
-140.0558783287013
 30
0.0
 10
79.46267766025586
 20
-140.0558783287013
 30
0.0
 10
79.46267766025586
 20
-140.0558783287013
 30
0.0
 10
79.46267766025586
 20
-140.2505262236179
 30
0.0
 10
79.46267766025586
 20
-140.2505262236179
 30
0.0
 10
79.46267766025586
 20
-140.2505262236179
 30
0.0
 10
78.80483667734741
 20
-140.2505262236179
 30
0.0
 10
78.80483667734741
 20
-140.2505262236179
 30
0.0
 10
78.80483667734741
 20
-140.2505262236179
 30
0.0
 10
78.73472898422257
 20
-140.6735839492066
 30
0.0
 10
78.73472898422257
 20
-140.6735839492066
 30
0.0
 10
78.80035805321658
 20
-140.6398220134512
 30
0.0
 10
78.88855249763898
 20
-140.5995143962737
 30
0.0
 10
79.01515975672191
 20
-140.5995143962737
 30
0.0
 10
79.28646102618534
 20
-140.5995143962737
 30
0.0
 10
79.5396755443512
 20
-140.7858940620258
 30
0.0
 10
79.5396755443512
 20
-141.099053241635
 30
0.0
 10
79.5396755443512
 20
-141.4163465358265
 30
0.0
 10
79.30006915335207
 20
-141.650957538372
 30
0.0
 10
78.97674694206137
 20
-141.650957538372
 30
0.0
  0
HATCH
  5
A0
330
99
100
AcDbEntity
  8
_U+30EC_U+30A4_U+30E4_U+30FC 1
 62
     7
420
 16777215
100
AcDbHatch
 10
0.0
 20
0.0
 30
0.0
210
0.0
220
0.0
230
1.0
  2
SOLID
 70
     1
 71
     0
 91
        1
 92
        1
 93
        1
 72
     4
 94
        3
 73
     0
 74
     1
 95
       53
 96
       49
 40
0.0
 40
0.0
 40
0.0
 40
0.0
 40
1.0
 40
1.0
 40
1.0
 40
2.0
 40
2.0
 40
2.0
 40
3.0
 40
3.0
 40
3.0
 40
4.0
 40
4.0
 40
4.0
 40
5.0
 40
5.0
 40
5.0
 40
6.0
 40
6.0
 40
6.0
 40
7.0
 40
7.0
 40
7.0
 40
8.0
 40
8.0
 40
8.0
 40
9.0
 40
9.0
 40
9.0
 40
10.0
 40
10.0
 40
10.0
 40
11.0
 40
11.0
 40
11.0
 40
12.0
 40
12.0
 40
12.0
 40
13.0
 40
13.0
 40
13.0
 40
14.0
 40
14.0
 40
14.0
 40
15.0
 40
15.0
 40
15.0
 40
16.0
 40
16.0
 40
16.0
 40
16.0
 10
78.97674694206137
 20
-141.650957538372
 10
78.8930311217698
 20
-141.650957538372
 10
78.78451061398444
 20
-141.6340765704943
 10
78.67599010619907
 20
-141.5706868135657
 10
78.49064396909262
 20
-141.4607882675862
 10
78.46807859366423
 20
-141.3295301295982
 10
78.447580275527
 20
-141.2216986409099
 10
78.447580275527
 20
-141.2216986409099
 10
78.68511960923497
 20
-141.2216986409099
 10
78.68511960923497
 20
-141.2216986409099
 10
78.74385848725848
 20
-141.4204806504088
 10
78.87942299460306
 20
-141.4501084715819
 10
78.97898625412678
 20
-141.4501084715819
 10
79.1281588886381
 20
-141.4501084715819
 10
79.29093965031616
 20
-141.3505452120582
 10
79.29093965031616
 20
-141.1180012668038
 10
79.29093965031616
 20
-140.8620306722498
 10
79.09870332223922
 20
-140.7920952338992
 10
78.96985675109087
 20
-140.7920952338992
 10
78.93592256056117
 20
-140.7920952338992
 10
78.78451061398444
 20
-140.7920952338992
 10
78.6895982333658
 20
-140.9212863145961
 10
78.6895982333658
 20
-140.9212863145961
 10
78.50184052941968
 20
-140.9023382894272
 10
78.50184052941968
 20
-140.9023382894272
 10
78.50184052941968
 20
-140.9023382894272
 10
78.63068710056803
 20
-140.0558783287013
 10
78.63068710056803
 20
-140.0558783287013
 10
78.63068710056803
 20
-140.0558783287013
 10
79.46267766025586
 20
-140.0558783287013
 10
79.46267766025586
 20
-140.0558783287013
 10
79.46267766025586
 20
-140.0558783287013
 10
79.46267766025586
 20
-140.2505262236179
 10
79.46267766025586
 20
-140.2505262236179
 10
79.46267766025586
 20
-140.2505262236179
 10
78.80483667734741
 20
-140.2505262236179
 10
78.80483667734741
 20
-140.2505262236179
 10
78.80483667734741
 20
-140.2505262236179
 10
78.73472898422257
 20
-140.6735839492066
 10
78.73472898422257
 20
-140.6735839492066
 10
78.80035805321658
 20
-140.6398220134512
 10
78.88855249763898
 20
-140.5995143962737
 10
79.01515975672191
 20
-140.5995143962737
 10
79.28646102618534
 20
-140.5995143962737
 10
79.5396755443512
 20
-140.7858940620258
 10
79.5396755443512
 20
-141.099053241635
 10
79.5396755443512
 20
-141.4163465358265
 10
79.30006915335207
 20
-141.650957538372
 10
78.97674694206137
 20
-141.650957538372
 97
        0
 97
        0
 75
     2
 76
     1
 98
        0
  0
ENDBLK
  5
9C
330
99
100
AcDbEntity
  8
0
100
AcDbBlockEnd
  0
BLOCK
  5
AB
330
A9
100
AcDbEntity
  8
0
100
AcDbBlockBegin
  2
block 5
 70
     0
 10
0.0
 20
0.0
 30
0.0
  3
block 5
  1

  0
SPLINE
  5
AD
330
A9
100
AcDbEntity
  8
_U+30EC_U+30A4_U+30E4_U+30FC 1
370
     0
100
AcDbSpline
210
0.0
220
0.0
230
1.0
 70
    11
 71
     3
 72
    53
 73
    49
 74
     0
 42
0.0000000001
 43
0.0000000001
 12
1.0
 22
0.0
 32
0.0
 13
1.0
 23
0.0
 33
0.0
 40
0.0
 40
0.0
 40
0.0
 40
0.0
 40
1.0
 40
1.0
 40
1.0
 40
2.0
 40
2.0
 40
2.0
 40
3.0
 40
3.0
 40
3.0
 40
4.0
 40
4.0
 40
4.0
 40
5.0
 40
5.0
 40
5.0
 40
6.0
 40
6.0
 40
6.0
 40
7.0
 40
7.0
 40
7.0
 40
8.0
 40
8.0
 40
8.0
 40
9.0
 40
9.0
 40
9.0
 40
10.0
 40
10.0
 40
10.0
 40
11.0
 40
11.0
 40
11.0
 40
12.0
 40
12.0
 40
12.0
 40
13.0
 40
13.0
 40
13.0
 40
14.0
 40
14.0
 40
14.0
 40
15.0
 40
15.0
 40
15.0
 40
16.0
 40
16.0
 40
16.0
 40
16.0
 10
88.34861244536077
 20
-141.650957538372
 30
0.0
 10
88.2648966250692
 20
-141.650957538372
 30
0.0
 10
88.15637611728383
 20
-141.6340765704943
 30
0.0
 10
88.04785560949846
 20
-141.5706868135657
 30
0.0
 10
87.86250947239202
 20
-141.4607882675862
 30
0.0
 10
87.83977184218936
 20
-141.3295301295982
 30
0.0
 10
87.81944577882639
 20
-141.2216986409099
 30
0.0
 10
87.81944577882639
 20
-141.2216986409099
 30
0.0
 10
88.05681285776011
 20
-141.2216986409099
 30
0.0
 10
88.05681285776011
 20
-141.2216986409099
 30
0.0
 10
88.11572399055788
 20
-141.4204806504088
 30
0.0
 10
88.25128849790246
 20
-141.4501084715819
 30
0.0
 10
88.35085175742618
 20
-141.4501084715819
 30
0.0
 10
88.5000243919375
 20
-141.4501084715819
 30
0.0
 10
88.66280515361555
 20
-141.3505452120582
 30
0.0
 10
88.66280515361555
 20
-141.1180012668038
 30
0.0
 10
88.66280515361555
 20
-140.8620306722498
 30
0.0
 10
88.4705688255386
 20
-140.7920952338992
 30
0.0
 10
88.34172225439026
 20
-140.7920952338992
 30
0.0
 10
88.30778806386056
 20
-140.7920952338992
 30
0.0
 10
88.15637611728383
 20
-140.7920952338992
 30
0.0
 10
88.06146373666519
 20
-140.9212863145961
 30
0.0
 10
88.06146373666519
 20
-140.9212863145961
 30
0.0
 10
87.87370603271907
 20
-140.9023382894272
 30
0.0
 10
87.87370603271907
 20
-140.9023382894272
 30
0.0
 10
87.87370603271907
 20
-140.9023382894272
 30
0.0
 10
88.00272485864168
 20
-140.0558783287013
 30
0.0
 10
88.00272485864168
 20
-140.0558783287013
 30
0.0
 10
88.00272485864168
 20
-140.0558783287013
 30
0.0
 10
88.83471541832952
 20
-140.0558783287013
 30
0.0
 10
88.83471541832952
 20
-140.0558783287013
 30
0.0
 10
88.83471541832952
 20
-140.0558783287013
 30
0.0
 10
88.83471541832952
 20
-140.2505262236179
 30
0.0
 10
88.83471541832952
 20
-140.2505262236179
 30
0.0
 10
88.83471541832952
 20
-140.2505262236179
 30
0.0
 10
88.1767021806468
 20
-140.2505262236179
 30
0.0
 10
88.1767021806468
 20
-140.2505262236179
 30
0.0
 10
88.1767021806468
 20
-140.2505262236179
 30
0.0
 10
88.10659448752196
 20
-140.6735839492066
 30
0.0
 10
88.10659448752196
 20
-140.6735839492066
 30
0.0
 10
88.17222355651597
 20
-140.6398220134512
 30
0.0
 10
88.26041800093837
 20
-140.5995143962737
 30
0.0
 10
88.3870252600213
 20
-140.5995143962737
 30
0.0
 10
88.65832652948473
 20
-140.5995143962737
 30
0.0
 10
88.91154104765059
 20
-140.7858940620258
 30
0.0
 10
88.91154104765059
 20
-141.099053241635
 30
0.0
 10
88.91154104765059
 20
-141.4163465358265
 30
0.0
 10
88.6717624018772
 20
-141.650957538372
 30
0.0
 10
88.34861244536077
 20
-141.650957538372
 30
0.0
  0
HATCH
  5
AE
330
A9
100
AcDbEntity
  8
_U+30EC_U+30A4_U+30E4_U+30FC 1
 62
     7
420
 16777215
100
AcDbHatch
 10
0.0
 20
0.0
 30
0.0
210
0.0
220
0.0
230
1.0
  2
SOLID
 70
     1
 71
     0
 91
        1
 92
        1
 93
        1
 72
     4
 94
        3
 73
     0
 74
     1
 95
       53
 96
       49
 40
0.0
 40
0.0
 40
0.0
 40
0.0
 40
1.0
 40
1.0
 40
1.0
 40
2.0
 40
2.0
 40
2.0
 40
3.0
 40
3.0
 40
3.0
 40
4.0
 40
4.0
 40
4.0
 40
5.0
 40
5.0
 40
5.0
 40
6.0
 40
6.0
 40
6.0
 40
7.0
 40
7.0
 40
7.0
 40
8.0
 40
8.0
 40
8.0
 40
9.0
 40
9.0
 40
9.0
 40
10.0
 40
10.0
 40
10.0
 40
11.0
 40
11.0
 40
11.0
 40
12.0
 40
12.0
 40
12.0
 40
13.0
 40
13.0
 40
13.0
 40
14.0
 40
14.0
 40
14.0
 40
15.0
 40
15.0
 40
15.0
 40
16.0
 40
16.0
 40
16.0
 40
16.0
 10
88.34861244536077
 20
-141.650957538372
 10
88.2648966250692
 20
-141.650957538372
 10
88.15637611728383
 20
-141.6340765704943
 10
88.04785560949846
 20
-141.5706868135657
 10
87.86250947239202
 20
-141.4607882675862
 10
87.83977184218936
 20
-141.3295301295982
 10
87.81944577882639
 20
-141.2216986409099
 10
87.81944577882639
 20
-141.2216986409099
 10
88.05681285776011
 20
-141.2216986409099
 10
88.05681285776011
 20
-141.2216986409099
 10
88.11572399055788
 20
-141.4204806504088
 10
88.25128849790246
 20
-141.4501084715819
 10
88.35085175742618
 20
-141.4501084715819
 10
88.5000243919375
 20
-141.4501084715819
 10
88.66280515361555
 20
-141.3505452120582
 10
88.66280515361555
 20
-141.1180012668038
 10
88.66280515361555
 20
-140.8620306722498
 10
88.4705688255386
 20
-140.7920952338992
 10
88.34172225439026
 20
-140.7920952338992
 10
88.30778806386056
 20
-140.7920952338992
 10
88.15637611728383
 20
-140.7920952338992
 10
88.06146373666519
 20
-140.9212863145961
 10
88.06146373666519
 20
-140.9212863145961
 10
87.87370603271907
 20
-140.9023382894272
 10
87.87370603271907
 20
-140.9023382894272
 10
87.87370603271907
 20
-140.9023382894272
 10
88.00272485864168
 20
-140.0558783287013
 10
88.00272485864168
 20
-140.0558783287013
 10
88.00272485864168
 20
-140.0558783287013
 10
88.83471541832952
 20
-140.0558783287013
 10
88.83471541832952
 20
-140.0558783287013
 10
88.83471541832952
 20
-140.0558783287013
 10
88.83471541832952
 20
-140.2505262236179
 10
88.83471541832952
 20
-140.2505262236179
 10
88.83471541832952
 20
-140.2505262236179
 10
88.1767021806468
 20
-140.2505262236179
 10
88.1767021806468
 20
-140.2505262236179
 10
88.1767021806468
 20
-140.2505262236179
 10
88.10659448752196
 20
-140.6735839492066
 10
88.10659448752196
 20
-140.6735839492066
 10
88.17222355651597
 20
-140.6398220134512
 10
88.26041800093837
 20
-140.5995143962737
 10
88.3870252600213
 20
-140.5995143962737
 10
88.65832652948473
 20
-140.5995143962737
 10
88.91154104765059
 20
-140.7858940620258
 10
88.91154104765059
 20
-141.099053241635
 10
88.91154104765059
 20
-141.4163465358265
 10
88.6717624018772
 20
-141.650957538372
 10
88.34861244536077
 20
-141.650957538372
 97
        0
 97
        0
 75
     2
 76
     1
 98
        0
  0
ENDBLK
  5
AC
330
A9
100
AcDbEntity
  8
0
100
AcDbBlockEnd
  0
BLOCK
  5
BD
330
BB
100
AcDbEntity
  8
0
100
AcDbBlockBegin
  2
block 6
 70
     0
 10
0.0
 20
0.0
 30
0.0
  3
block 6
  1

  0
SPLINE
  5
BF
330
BB
100
AcDbEntity
  8
_U+30EC_U+30A4_U+30E4_U+30FC 1
370
     0
100
AcDbSpline
210
0.0
220
0.0
230
1.0
 70
    11
 71
     3
 72
    62
 73
    58
 74
     0
 42
0.0000000001
 43
0.0000000001
 12
1.0
 22
0.0
 32
0.0
 13
1.0
 23
0.0
 33
0.0
 40
0.0
 40
0.0
 40
0.0
 40
0.0
 40
1.0
 40
1.0
 40
1.0
 40
2.0
 40
2.0
 40
2.0
 40
3.0
 40
3.0
 40
3.0
 40
4.0
 40
4.0
 40
4.0
 40
5.0
 40
5.0
 40
5.0
 40
6.0
 40
6.0
 40
6.0
 40
7.0
 40
7.0
 40
7.0
 40
8.0
 40
8.0
 40
8.0
 40
9.0
 40
9.0
 40
9.0
 40
10.0
 40
10.0
 40
10.0
 40
11.0
 40
11.0
 40
11.0
 40
12.0
 40
12.0
 40
12.0
 40
13.0
 40
13.0
 40
13.0
 40
14.0
 40
14.0
 40
14.0
 40
15.0
 40
15.0
 40
15.0
 40
16.0
 40
16.0
 40
16.0
 40
17.0
 40
17.0
 40
17.0
 40
18.0
 40
18.0
 40
18.0
 40
19.0
 40
19.0
 40
19.0
 40
19.0
 10
87.73039006053268
 20
-116.6516221496565
 30
0.0
 10
87.62875974371781
 20
-116.6516221496565
 30
0.0
 10
87.39587128891492
 20
-116.6304348124223
 30
0.0
 10
87.26254609363576
 20
-116.4442274014445
 30
0.0
 10
87.18330889747502
 20
-116.3320895433996
 30
0.0
 10
87.17883027334419
 20
-116.2326985386502
 30
0.0
 10
87.17435164921336
 20
-116.1481214444873
 30
0.0
 10
87.17435164921336
 20
-116.1481214444873
 30
0.0
 10
87.4093071613074
 20
-116.1481214444873
 30
0.0
 10
87.4093071613074
 20
-116.1481214444873
 30
0.0
 10
87.41171872814708
 20
-116.2221909974202
 30
0.0
 10
87.4230875432484
 20
-116.4569742547399
 30
0.0
 10
87.72591143640186
 20
-116.4569742547399
 30
0.0
 10
87.87301701362203
 20
-116.4569742547399
 30
0.0
 10
88.03562552052583
 20
-116.3872110711636
 30
0.0
 10
88.03562552052583
 20
-116.1586289857173
 30
0.0
 10
88.03562552052583
 20
-116.0423570130901
 30
0.0
 10
87.99497339379987
 20
-115.9936089119738
 30
0.0
 10
87.96121145804442
 20
-115.9619140335095
 30
0.0
 10
87.88197426188368
 20
-115.8878444805767
 30
0.0
 10
87.75760631486615
 20
-115.8752698820555
 30
0.0
 10
87.69869518206839
 20
-115.8752698820555
 30
0.0
 10
87.67836911870542
 20
-115.8752698820555
 30
0.0
 10
87.64012855881914
 20
-115.8773369393466
 30
0.0
 10
87.61050073764599
 20
-115.8814710539289
 30
0.0
 10
87.61050073764599
 20
-115.8814710539289
 30
0.0
 10
87.61050073764599
 20
-115.6868231590123
 30
0.0
 10
87.61050073764599
 20
-115.6868231590123
 30
0.0
 10
87.65115286437194
 20
-115.69319658566
 30
0.0
 10
87.69662812477723
 20
-115.6954358977254
 30
0.0
 10
87.70317380619922
 20
-115.6954358977254
 30
0.0
 10
87.77345375409831
 20
-115.6954358977254
 30
0.0
 10
87.98601614553822
 20
-115.6742485604912
 30
0.0
 10
87.98601614553822
 20
-115.437225991106
 30
0.0
 10
87.98601614553822
 20
-115.2596313188413
 30
0.0
 10
87.84580075928855
 20
-115.2045097910774
 30
0.0
 10
87.72832300324153
 20
-115.2045097910774
 30
0.0
 10
87.44548066390253
 20
-115.2045097910774
 30
0.0
 10
87.43652341564088
 20
-115.437225991106
 30
0.0
 10
87.43204479151005
 20
-115.5092284867477
 30
0.0
 10
87.43204479151005
 20
-115.5092284867477
 30
0.0
 10
87.21500377593931
 20
-115.5092284867477
 30
0.0
 10
87.21500377593931
 20
-115.5092284867477
 30
0.0
 10
87.22396102420096
 20
-115.3843437754074
 30
0.0
 10
87.25324433582558
 20
-115.0077948388696
 30
0.0
 10
87.741758875634
 20
-115.0077948388696
 30
0.0
 10
87.9815375214074
 20
-115.0077948388696
 30
0.0
 10
88.23923066370409
 20
-115.134746607501
 30
0.0
 10
88.23923066370409
 20
-115.4308525644583
 30
0.0
 10
88.23923066370409
 20
-115.617059975436
 30
0.0
 10
88.13725583734069
 20
-115.6995700123077
 30
0.0
 10
88.031146896395
 20
-115.7608927119452
 30
0.0
 10
88.09660371061474
 20
-115.7884534758272
 30
0.0
 10
88.29125160553136
 20
-115.8688964554078
 30
0.0
 10
88.29125160553136
 20
-116.1460543871961
 30
0.0
 10
88.29125160553136
 20
-116.4845350186219
 30
0.0
 10
88.02666827226417
 20
-116.6516221496565
 30
0.0
 10
87.73039006053268
 20
-116.6516221496565
 30
0.0
  0
HATCH
  5
C0
330
BB
100
AcDbEntity
  8
_U+30EC_U+30A4_U+30E4_U+30FC 1
 62
     7
420
 16777215
100
AcDbHatch
 10
0.0
 20
0.0
 30
0.0
210
0.0
220
0.0
230
1.0
  2
SOLID
 70
     1
 71
     0
 91
        1
 92
        1
 93
        1
 72
     4
 94
        3
 73
     0
 74
     1
 95
       62
 96
       58
 40
0.0
 40
0.0
 40
0.0
 40
0.0
 40
1.0
 40
1.0
 40
1.0
 40
2.0
 40
2.0
 40
2.0
 40
3.0
 40
3.0
 40
3.0
 40
4.0
 40
4.0
 40
4.0
 40
5.0
 40
5.0
 40
5.0
 40
6.0
 40
6.0
 40
6.0
 40
7.0
 40
7.0
 40
7.0
 40
8.0
 40
8.0
 40
8.0
 40
9.0
 40
9.0
 40
9.0
 40
10.0
 40
10.0
 40
10.0
 40
11.0
 40
11.0
 40
11.0
 40
12.0
 40
12.0
 40
12.0
 40
13.0
 40
13.0
 40
13.0
 40
14.0
 40
14.0
 40
14.0
 40
15.0
 40
15.0
 40
15.0
 40
16.0
 40
16.0
 40
16.0
 40
17.0
 40
17.0
 40
17.0
 40
18.0
 40
18.0
 40
18.0
 40
19.0
 40
19.0
 40
19.0
 40
19.0
 10
87.73039006053268
 20
-116.6516221496565
 10
87.62875974371781
 20
-116.6516221496565
 10
87.39587128891492
 20
-116.6304348124223
 10
87.26254609363576
 20
-116.4442274014445
 10
87.18330889747502
 20
-116.3320895433996
 10
87.17883027334419
 20
-116.2326985386502
 10
87.17435164921336
 20
-116.1481214444873
 10
87.17435164921336
 20
-116.1481214444873
 10
87.4093071613074
 20
-116.1481214444873
 10
87.4093071613074
 20
-116.1481214444873
 10
87.41171872814708
 20
-116.2221909974202
 10
87.4230875432484
 20
-116.4569742547399
 10
87.72591143640186
 20
-116.4569742547399
 10
87.87301701362203
 20
-116.4569742547399
 10
88.03562552052583
 20
-116.3872110711636
 10
88.03562552052583
 20
-116.1586289857173
 10
88.03562552052583
 20
-116.0423570130901
 10
87.99497339379987
 20
-115.9936089119738
 10
87.96121145804442
 20
-115.9619140335095
 10
87.88197426188368
 20
-115.8878444805767
 10
87.75760631486615
 20
-115.8752698820555
 10
87.69869518206839
 20
-115.8752698820555
 10
87.67836911870542
 20
-115.8752698820555
 10
87.64012855881914
 20
-115.8773369393466
 10
87.61050073764599
 20
-115.8814710539289
 10
87.61050073764599
 20
-115.8814710539289
 10
87.61050073764599
 20
-115.6868231590123
 10
87.61050073764599
 20
-115.6868231590123
 10
87.65115286437194
 20
-115.69319658566
 10
87.69662812477723
 20
-115.6954358977254
 10
87.70317380619922
 20
-115.6954358977254
 10
87.77345375409831
 20
-115.6954358977254
 10
87.98601614553822
 20
-115.6742485604912
 10
87.98601614553822
 20
-115.437225991106
 10
87.98601614553822
 20
-115.2596313188413
 10
87.84580075928855
 20
-115.2045097910774
 10
87.72832300324153
 20
-115.2045097910774
 10
87.44548066390253
 20
-115.2045097910774
 10
87.43652341564088
 20
-115.437225991106
 10
87.43204479151005
 20
-115.5092284867477
 10
87.43204479151005
 20
-115.5092284867477
 10
87.21500377593931
 20
-115.5092284867477
 10
87.21500377593931
 20
-115.5092284867477
 10
87.22396102420096
 20
-115.3843437754074
 10
87.25324433582558
 20
-115.0077948388696
 10
87.741758875634
 20
-115.0077948388696
 10
87.9815375214074
 20
-115.0077948388696
 10
88.23923066370409
 20
-115.134746607501
 10
88.23923066370409
 20
-115.4308525644583
 10
88.23923066370409
 20
-115.617059975436
 10
88.13725583734069
 20
-115.6995700123077
 10
88.031146896395
 20
-115.7608927119452
 10
88.09660371061474
 20
-115.7884534758272
 10
88.29125160553136
 20
-115.8688964554078
 10
88.29125160553136
 20
-116.1460543871961
 10
88.29125160553136
 20
-116.4845350186219
 10
88.02666827226417
 20
-116.6516221496565
 10
87.73039006053268
 20
-116.6516221496565
 97
        0
 97
        0
 75
     2
 76
     1
 98
        0
  0
SPLINE
  5
C1
330
BB
100
AcDbEntity
  8
_U+30EC_U+30A4_U+30E4_U+30FC 1
370
     0
100
AcDbSpline
210
0.0
220
0.0
230
1.0
 70
    11
 71
     3
 72
    53
 73
    49
 74
     0
 42
0.0000000001
 43
0.0000000001
 12
1.0
 22
0.0
 32
0.0
 13
1.0
 23
0.0
 33
0.0
 40
0.0
 40
0.0
 40
0.0
 40
0.0
 40
1.0
 40
1.0
 40
1.0
 40
2.0
 40
2.0
 40
2.0
 40
3.0
 40
3.0
 40
3.0
 40
4.0
 40
4.0
 40
4.0
 40
5.0
 40
5.0
 40
5.0
 40
6.0
 40
6.0
 40
6.0
 40
7.0
 40
7.0
 40
7.0
 40
8.0
 40
8.0
 40
8.0
 40
9.0
 40
9.0
 40
9.0
 40
10.0
 40
10.0
 40
10.0
 40
11.0
 40
11.0
 40
11.0
 40
12.0
 40
12.0
 40
12.0
 40
13.0
 40
13.0
 40
13.0
 40
14.0
 40
14.0
 40
14.0
 40
15.0
 40
15.0
 40
15.0
 40
16.0
 40
16.0
 40
16.0
 40
16.0
 10
88.97682560709607
 20
-116.6516221496565
 30
0.0
 10
88.89345429635303
 20
-116.6516221496565
 30
0.0
 10
88.78458927901913
 20
-116.6345689270046
 30
0.0
 10
88.67641328078228
 20
-116.571179170076
 30
0.0
 10
88.49072263412732
 20
-116.4611083693222
 30
0.0
 10
88.4683295134732
 20
-116.3300224861085
 30
0.0
 10
88.44800345011022
 20
-116.2221909974202
 30
0.0
 10
88.44800345011022
 20
-116.2221909974202
 30
0.0
 10
88.68537052904394
 20
-116.2221909974202
 30
0.0
 10
88.68537052904394
 20
-116.2221909974202
 30
0.0
 10
88.74393715229319
 20
-116.4209730069191
 30
0.0
 10
88.87967391441202
 20
-116.4506008280922
 30
0.0
 10
88.97923717393574
 20
-116.4506008280922
 30
0.0
 10
89.12840980844707
 20
-116.4506008280922
 30
0.0
 10
89.29101831535085
 20
-116.3512098233428
 30
0.0
 10
89.29101831535085
 20
-116.1184936233141
 30
0.0
 10
89.29101831535085
 20
-115.8625230287601
 30
0.0
 10
89.09912649682245
 20
-115.7927598451838
 30
0.0
 10
88.9702799256741
 20
-115.7927598451838
 30
0.0
 10
88.93617348037013
 20
-115.7927598451838
 30
0.0
 10
88.78458927901913
 20
-115.7927598451838
 30
0.0
 10
88.68984915317476
 20
-115.9217786711064
 30
0.0
 10
88.68984915317476
 20
-115.9217786711064
 30
0.0
 10
88.50209144922864
 20
-115.9026583911632
 30
0.0
 10
88.50209144922864
 20
-115.9026583911632
 30
0.0
 10
88.50209144922864
 20
-115.9026583911632
 30
0.0
 10
88.63093802037699
 20
-115.0565429399859
 30
0.0
 10
88.63093802037699
 20
-115.0565429399859
 30
0.0
 10
88.63093802037699
 20
-115.0565429399859
 30
0.0
 10
89.46292858006483
 20
-115.0565429399859
 30
0.0
 10
89.46292858006483
 20
-115.0565429399859
 30
0.0
 10
89.46292858006483
 20
-115.0565429399859
 30
0.0
 10
89.46292858006483
 20
-115.2511908349025
 30
0.0
 10
89.46292858006483
 20
-115.2511908349025
 30
0.0
 10
89.46292858006483
 20
-115.2511908349025
 30
0.0
 10
88.80525985193063
 20
-115.2511908349025
 30
0.0
 10
88.80525985193063
 20
-115.2511908349025
 30
0.0
 10
88.80525985193063
 20
-115.2511908349025
 30
0.0
 10
88.73497990403153
 20
-115.6742485604912
 30
0.0
 10
88.73497990403153
 20
-115.6742485604912
 30
0.0
 10
88.80043671825129
 20
-115.6403143699615
 30
0.0
 10
88.88863116267368
 20
-115.6001790075583
 30
0.0
 10
89.01541067653088
 20
-115.6001790075583
 30
0.0
 10
89.28653969122004
 20
-115.6001790075583
 30
0.0
 10
89.5397542093859
 20
-115.7863864185361
 30
0.0
 10
89.5397542093859
 20
-116.099373343371
 30
0.0
 10
89.5397542093859
 20
-116.4168388923368
 30
0.0
 10
89.30032007316103
 20
-116.6516221496565
 30
0.0
 10
88.97682560709607
 20
-116.6516221496565
 30
0.0
  0
HATCH
  5
C2
330
BB
100
AcDbEntity
  8
_U+30EC_U+30A4_U+30E4_U+30FC 1
 62
     7
420
 16777215
100
AcDbHatch
 10
0.0
 20
0.0
 30
0.0
210
0.0
220
0.0
230
1.0
  2
SOLID
 70
     1
 71
     0
 91
        1
 92
        1
 93
        1
 72
     4
 94
        3
 73
     0
 74
     1
 95
       53
 96
       49
 40
0.0
 40
0.0
 40
0.0
 40
0.0
 40
1.0
 40
1.0
 40
1.0
 40
2.0
 40
2.0
 40
2.0
 40
3.0
 40
3.0
 40
3.0
 40
4.0
 40
4.0
 40
4.0
 40
5.0
 40
5.0
 40
5.0
 40
6.0
 40
6.0
 40
6.0
 40
7.0
 40
7.0
 40
7.0
 40
8.0
 40
8.0
 40
8.0
 40
9.0
 40
9.0
 40
9.0
 40
10.0
 40
10.0
 40
10.0
 40
11.0
 40
11.0
 40
11.0
 40
12.0
 40
12.0
 40
12.0
 40
13.0
 40
13.0
 40
13.0
 40
14.0
 40
14.0
 40
14.0
 40
15.0
 40
15.0
 40
15.0
 40
16.0
 40
16.0
 40
16.0
 40
16.0
 10
88.97682560709607
 20
-116.6516221496565
 10
88.89345429635303
 20
-116.6516221496565
 10
88.78458927901913
 20
-116.6345689270046
 10
88.67641328078228
 20
-116.571179170076
 10
88.49072263412732
 20
-116.4611083693222
 10
88.4683295134732
 20
-116.3300224861085
 10
88.44800345011022
 20
-116.2221909974202
 10
88.44800345011022
 20
-116.2221909974202
 10
88.68537052904394
 20
-116.2221909974202
 10
88.68537052904394
 20
-116.2221909974202
 10
88.74393715229319
 20
-116.4209730069191
 10
88.87967391441202
 20
-116.4506008280922
 10
88.97923717393574
 20
-116.4506008280922
 10
89.12840980844707
 20
-116.4506008280922
 10
89.29101831535085
 20
-116.3512098233428
 10
89.29101831535085
 20
-116.1184936233141
 10
89.29101831535085
 20
-115.8625230287601
 10
89.09912649682245
 20
-115.7927598451838
 10
88.9702799256741
 20
-115.7927598451838
 10
88.93617348037013
 20
-115.7927598451838
 10
88.78458927901913
 20
-115.7927598451838
 10
88.68984915317476
 20
-115.9217786711064
 10
88.68984915317476
 20
-115.9217786711064
 10
88.50209144922864
 20
-115.9026583911632
 10
88.50209144922864
 20
-115.9026583911632
 10
88.50209144922864
 20
-115.9026583911632
 10
88.63093802037699
 20
-115.0565429399859
 10
88.63093802037699
 20
-115.0565429399859
 10
88.63093802037699
 20
-115.0565429399859
 10
89.46292858006483
 20
-115.0565429399859
 10
89.46292858006483
 20
-115.0565429399859
 10
89.46292858006483
 20
-115.0565429399859
 10
89.46292858006483
 20
-115.2511908349025
 10
89.46292858006483
 20
-115.2511908349025
 10
89.46292858006483
 20
-115.2511908349025
 10
88.80525985193063
 20
-115.2511908349025
 10
88.80525985193063
 20
-115.2511908349025
 10
88.80525985193063
 20
-115.2511908349025
 10
88.73497990403153
 20
-115.6742485604912
 10
88.73497990403153
 20
-115.6742485604912
 10
88.80043671825129
 20
-115.6403143699615
 10
88.88863116267368
 20
-115.6001790075583
 10
89.01541067653088
 20
-115.6001790075583
 10
89.28653969122004
 20
-115.6001790075583
 10
89.5397542093859
 20
-115.7863864185361
 10
89.5397542093859
 20
-116.099373343371
 10
89.5397542093859
 20
-116.4168388923368
 10
89.30032007316103
 20
-116.6516221496565
 10
88.97682560709607
 20
-116.6516221496565
 97
        0
 97
        0
 75
     2
 76
     1
 98
        0
  0
ENDBLK
  5
BE
330
BB
100
AcDbEntity
  8
0
100
AcDbBlockEnd
  0
BLOCK
  5
D1
330
CF
100
AcDbEntity
  8
0
100
AcDbBlockBegin
  2
block 7
 70
     0
 10
0.0
 20
0.0
 30
0.0
  3
block 7
  1

  0
SPLINE
  5
D3
330
CF
100
AcDbEntity
  8
_U+30EC_U+30A4_U+30E4_U+30FC 1
370
     0
100
AcDbSpline
210
0.0
220
0.0
230
1.0
 70
    11
 71
     3
 72
    26
 73
    22
 74
     0
 42
0.0000000001
 43
0.0000000001
 12
1.0
 22
0.0
 32
0.0
 13
1.0
 23
0.0
 33
0.0
 40
0.0
 40
0.0
 40
0.0
 40
0.0
 40
1.0
 40
1.0
 40
1.0
 40
2.0
 40
2.0
 40
2.0
 40
3.0
 40
3.0
 40
3.0
 40
4.0
 40
4.0
 40
4.0
 40
5.0
 40
5.0
 40
5.0
 40
6.0
 40
6.0
 40
6.0
 40
7.0
 40
7.0
 40
7.0
 40
7.0
 10
108.1546386448363
 20
-129.4284477758026
 30
0.0
 10
108.1546386448363
 20
-129.4284477758026
 30
0.0
 10
107.0504855418138
 20
-129.4284477758026
 30
0.0
 10
107.0504855418138
 20
-129.4284477758026
 30
0.0
 10
107.0504855418138
 20
-129.4284477758026
 30
0.0
 10
107.0504855418138
 20
-129.7808810439437
 30
0.0
 10
107.0504855418138
 20
-129.7808810439437
 30
0.0
 10
107.0504855418138
 20
-129.7808810439437
 30
0.0
 10
106.902346435948
 20
-129.7808810439437
 30
0.0
 10
106.902346435948
 20
-129.7808810439437
 30
0.0
 10
106.8875325253615
 20
-129.426036208963
 30
0.0
 10
106.7245795089091
 20
-129.3764268339753
 30
0.0
 10
106.6102023387988
 20
-129.344731955511
 30
0.0
 10
106.6102023387988
 20
-129.344731955511
 30
0.0
 10
106.6102023387988
 20
-129.1886691300292
 30
0.0
 10
106.6102023387988
 20
-129.1886691300292
 30
0.0
 10
106.6102023387988
 20
-129.1886691300292
 30
0.0
 10
108.1546386448363
 20
-129.1886691300292
 30
0.0
 10
108.1546386448363
 20
-129.1886691300292
 30
0.0
 10
108.1546386448363
 20
-129.1886691300292
 30
0.0
 10
108.1546386448363
 20
-129.4284477758026
 30
0.0
 10
108.1546386448363
 20
-129.4284477758026
 30
0.0
  0
HATCH
  5
D4
330
CF
100
AcDbEntity
  8
_U+30EC_U+30A4_U+30E4_U+30FC 1
 62
     7
420
 16777215
100
AcDbHatch
 10
0.0
 20
0.0
 30
0.0
210
0.0
220
0.0
230
1.0
  2
SOLID
 70
     1
 71
     0
 91
        1
 92
        1
 93
        1
 72
     4
 94
        3
 73
     0
 74
     1
 95
       26
 96
       22
 40
0.0
 40
0.0
 40
0.0
 40
0.0
 40
1.0
 40
1.0
 40
1.0
 40
2.0
 40
2.0
 40
2.0
 40
3.0
 40
3.0
 40
3.0
 40
4.0
 40
4.0
 40
4.0
 40
5.0
 40
5.0
 40
5.0
 40
6.0
 40
6.0
 40
6.0
 40
7.0
 40
7.0
 40
7.0
 40
7.0
 10
108.1546386448363
 20
-129.4284477758026
 10
108.1546386448363
 20
-129.4284477758026
 10
107.0504855418138
 20
-129.4284477758026
 10
107.0504855418138
 20
-129.4284477758026
 10
107.0504855418138
 20
-129.4284477758026
 10
107.0504855418138
 20
-129.7808810439437
 10
107.0504855418138
 20
-129.7808810439437
 10
107.0504855418138
 20
-129.7808810439437
 10
106.902346435948
 20
-129.7808810439437
 10
106.902346435948
 20
-129.7808810439437
 10
106.8875325253615
 20
-129.426036208963
 10
106.7245795089091
 20
-129.3764268339753
 10
106.6102023387988
 20
-129.344731955511
 10
106.6102023387988
 20
-129.344731955511
 10
106.6102023387988
 20
-129.1886691300292
 10
106.6102023387988
 20
-129.1886691300292
 10
106.6102023387988
 20
-129.1886691300292
 10
108.1546386448363
 20
-129.1886691300292
 10
108.1546386448363
 20
-129.1886691300292
 10
108.1546386448363
 20
-129.1886691300292
 10
108.1546386448363
 20
-129.4284477758026
 10
108.1546386448363
 20
-129.4284477758026
 97
        0
 97
        0
 75
     2
 76
     1
 98
        0
  0
SPLINE
  5
D5
330
CF
100
AcDbEntity
  8
_U+30EC_U+30A4_U+30E4_U+30FC 1
370
     0
100
AcDbSpline
210
0.0
220
0.0
230
1.0
 70
    11
 71
     3
 72
    62
 73
    58
 74
     0
 42
0.0000000001
 43
0.0000000001
 12
1.0
 22
0.0
 32
0.0
 13
1.0
 23
0.0
 33
0.0
 40
0.0
 40
0.0
 40
0.0
 40
0.0
 40
1.0
 40
1.0
 40
1.0
 40
2.0
 40
2.0
 40
2.0
 40
3.0
 40
3.0
 40
3.0
 40
4.0
 40
4.0
 40
4.0
 40
5.0
 40
5.0
 40
5.0
 40
6.0
 40
6.0
 40
6.0
 40
7.0
 40
7.0
 40
7.0
 40
8.0
 40
8.0
 40
8.0
 40
9.0
 40
9.0
 40
9.0
 40
10.0
 40
10.0
 40
10.0
 40
11.0
 40
11.0
 40
11.0
 40
12.0
 40
12.0
 40
12.0
 40
13.0
 40
13.0
 40
13.0
 40
14.0
 40
14.0
 40
14.0
 40
15.0
 40
15.0
 40
15.0
 40
16.0
 40
16.0
 40
16.0
 40
17.0
 40
17.0
 40
17.0
 40
18.0
 40
18.0
 40
18.0
 40
19.0
 40
19.0
 40
19.0
 40
19.0
 10
108.2052815484695
 20
-128.1275797205723
 30
0.0
 10
108.2052815484695
 20
-128.2292100373872
 30
0.0
 10
108.1842664660095
 20
-128.46209849219
 30
0.0
 10
107.998231309806
 20
-128.5954236874692
 30
0.0
 10
107.8859211969869
 20
-128.6746608836299
 30
0.0
 10
107.7867024470117
 20
-128.6791395077608
 30
0.0
 10
107.7019530980745
 20
-128.6836181318916
 30
0.0
 10
107.7019530980745
 20
-128.6836181318916
 30
0.0
 10
107.7019530980745
 20
-128.4486626197976
 30
0.0
 10
107.7019530980745
 20
-128.4486626197976
 30
0.0
 10
107.7760226510074
 20
-128.4462510529579
 30
0.0
 10
108.0106336535529
 20
-128.4348822378566
 30
0.0
 10
108.0106336535529
 20
-128.1320583447031
 30
0.0
 10
108.0106336535529
 20
-127.9849527674829
 30
0.0
 10
107.9410427247509
 20
-127.8223442605791
 30
0.0
 10
107.7126328940788
 20
-127.8223442605791
 30
0.0
 10
107.5961886666773
 20
-127.8223442605791
 30
0.0
 10
107.5476128203353
 20
-127.8629963873051
 30
0.0
 10
107.515917941871
 20
-127.8971028326091
 30
0.0
 10
107.4418483889382
 20
-127.9759955192213
 30
0.0
 10
107.4291015356427
 20
-128.1003634662388
 30
0.0
 10
107.4291015356427
 20
-128.1592745990366
 30
0.0
 10
107.4291015356427
 20
-128.1796006623995
 30
0.0
 10
107.4311685929339
 20
-128.2178412222858
 30
0.0
 10
107.4353027075162
 20
-128.247469043459
 30
0.0
 10
107.4353027075162
 20
-128.247469043459
 30
0.0
 10
107.2406548125996
 20
-128.247469043459
 30
0.0
 10
107.2406548125996
 20
-128.247469043459
 30
0.0
 10
107.2472004940215
 20
-128.206816916733
 30
0.0
 10
107.2492675513127
 20
-128.1613416563277
 30
0.0
 10
107.2492675513127
 20
-128.1547959749057
 30
0.0
 10
107.2492675513127
 20
-128.0845160270067
 30
0.0
 10
107.2279079593041
 20
-127.8719536355667
 30
0.0
 10
106.9912298994675
 20
-127.8719536355667
 30
0.0
 10
106.8134629724286
 20
-127.8719536355667
 30
0.0
 10
106.7583414446646
 20
-128.0121690218164
 30
0.0
 10
106.7583414446646
 20
-128.1296467778634
 30
0.0
 10
106.7583414446646
 20
-128.4124891172024
 30
0.0
 10
106.9912298994675
 20
-128.4214463654641
 30
0.0
 10
107.0628878855607
 20
-128.4259249895949
 30
0.0
 10
107.0628878855607
 20
-128.4259249895949
 30
0.0
 10
107.0628878855607
 20
-128.6429660051656
 30
0.0
 10
107.0628878855607
 20
-128.6429660051656
 30
0.0
 10
106.9381754289946
 20
-128.634008756904
 30
0.0
 10
106.5616264924568
 20
-128.6047254452794
 30
0.0
 10
106.5616264924568
 20
-128.116210905471
 30
0.0
 10
106.5616264924568
 20
-127.8764322596976
 30
0.0
 10
106.6887505158625
 20
-127.6187391174009
 30
0.0
 10
106.9846842180455
 20
-127.6187391174009
 30
0.0
 10
107.1710638837975
 20
-127.6187391174009
 30
0.0
 10
107.253401665895
 20
-127.7207139437643
 30
0.0
 10
107.3147243655324
 20
-127.82682288471
 30
0.0
 10
107.3422851294144
 20
-127.7613660704902
 30
0.0
 10
107.4225558542208
 20
-127.5667181755736
 30
0.0
 10
107.6998860407834
 20
-127.5667181755736
 30
0.0
 10
108.0381944174349
 20
-127.5667181755736
 30
0.0
 10
108.2052815484695
 20
-127.8313015088408
 30
0.0
 10
108.2052815484695
 20
-128.1275797205723
 30
0.0
  0
HATCH
  5
D6
330
CF
100
AcDbEntity
  8
_U+30EC_U+30A4_U+30E4_U+30FC 1
 62
     7
420
 16777215
100
AcDbHatch
 10
0.0
 20
0.0
 30
0.0
210
0.0
220
0.0
230
1.0
  2
SOLID
 70
     1
 71
     0
 91
        1
 92
        1
 93
        1
 72
     4
 94
        3
 73
     0
 74
     1
 95
       62
 96
       58
 40
0.0
 40
0.0
 40
0.0
 40
0.0
 40
1.0
 40
1.0
 40
1.0
 40
2.0
 40
2.0
 40
2.0
 40
3.0
 40
3.0
 40
3.0
 40
4.0
 40
4.0
 40
4.0
 40
5.0
 40
5.0
 40
5.0
 40
6.0
 40
6.0
 40
6.0
 40
7.0
 40
7.0
 40
7.0
 40
8.0
 40
8.0
 40
8.0
 40
9.0
 40
9.0
 40
9.0
 40
10.0
 40
10.0
 40
10.0
 40
11.0
 40
11.0
 40
11.0
 40
12.0
 40
12.0
 40
12.0
 40
13.0
 40
13.0
 40
13.0
 40
14.0
 40
14.0
 40
14.0
 40
15.0
 40
15.0
 40
15.0
 40
16.0
 40
16.0
 40
16.0
 40
17.0
 40
17.0
 40
17.0
 40
18.0
 40
18.0
 40
18.0
 40
19.0
 40
19.0
 40
19.0
 40
19.0
 10
108.2052815484695
 20
-128.1275797205723
 10
108.2052815484695
 20
-128.2292100373872
 10
108.1842664660095
 20
-128.46209849219
 10
107.998231309806
 20
-128.5954236874692
 10
107.8859211969869
 20
-128.6746608836299
 10
107.7867024470117
 20
-128.6791395077608
 10
107.7019530980745
 20
-128.6836181318916
 10
107.7019530980745
 20
-128.6836181318916
 10
107.7019530980745
 20
-128.4486626197976
 10
107.7019530980745
 20
-128.4486626197976
 10
107.7760226510074
 20
-128.4462510529579
 10
108.0106336535529
 20
-128.4348822378566
 10
108.0106336535529
 20
-128.1320583447031
 10
108.0106336535529
 20
-127.9849527674829
 10
107.9410427247509
 20
-127.8223442605791
 10
107.7126328940788
 20
-127.8223442605791
 10
107.5961886666773
 20
-127.8223442605791
 10
107.5476128203353
 20
-127.8629963873051
 10
107.515917941871
 20
-127.8971028326091
 10
107.4418483889382
 20
-127.9759955192213
 10
107.4291015356427
 20
-128.1003634662388
 10
107.4291015356427
 20
-128.1592745990366
 10
107.4291015356427
 20
-128.1796006623995
 10
107.4311685929339
 20
-128.2178412222858
 10
107.4353027075162
 20
-128.247469043459
 10
107.4353027075162
 20
-128.247469043459
 10
107.2406548125996
 20
-128.247469043459
 10
107.2406548125996
 20
-128.247469043459
 10
107.2472004940215
 20
-128.206816916733
 10
107.2492675513127
 20
-128.1613416563277
 10
107.2492675513127
 20
-128.1547959749057
 10
107.2492675513127
 20
-128.0845160270067
 10
107.2279079593041
 20
-127.8719536355667
 10
106.9912298994675
 20
-127.8719536355667
 10
106.8134629724286
 20
-127.8719536355667
 10
106.7583414446646
 20
-128.0121690218164
 10
106.7583414446646
 20
-128.1296467778634
 10
106.7583414446646
 20
-128.4124891172024
 10
106.9912298994675
 20
-128.4214463654641
 10
107.0628878855607
 20
-128.4259249895949
 10
107.0628878855607
 20
-128.4259249895949
 10
107.0628878855607
 20
-128.6429660051656
 10
107.0628878855607
 20
-128.6429660051656
 10
106.9381754289946
 20
-128.634008756904
 10
106.5616264924568
 20
-128.6047254452794
 10
106.5616264924568
 20
-128.116210905471
 10
106.5616264924568
 20
-127.8764322596976
 10
106.6887505158625
 20
-127.6187391174009
 10
106.9846842180455
 20
-127.6187391174009
 10
107.1710638837975
 20
-127.6187391174009
 10
107.253401665895
 20
-127.7207139437643
 10
107.3147243655324
 20
-127.82682288471
 10
107.3422851294144
 20
-127.7613660704902
 10
107.4225558542208
 20
-127.5667181755736
 10
107.6998860407834
 20
-127.5667181755736
 10
108.0381944174349
 20
-127.5667181755736
 10
108.2052815484695
 20
-127.8313015088408
 10
108.2052815484695
 20
-128.1275797205723
 97
        0
 97
        0
 75
     2
 76
     1
 98
        0
  0
ENDBLK
  5
D2
330
CF
100
AcDbEntity
  8
0
100
AcDbBlockEnd
  0
ENDSEC
  0
SECTION
  2
ENTITIES
  0
POLYLINE
  5
41
330
1F
100
AcDbEntity
  8
_U+30EC_U+30A4_U+30E4_U+30FC 1
370
     0
100
AcDb2dPolyline
 66
     1
 10
0.0
 20
0.0
 30
0.0
  0
VERTEX
  5
42
330
41
100
AcDbEntity
  8
_U+30EC_U+30A4_U+30E4_U+30FC 1
370
     0
100
AcDbVertex
100
AcDb2dVertex
 10
70.86853819199297
 20
-122.2466369138827
 30
0.0
  0
VERTEX
  5
43
330
41
100
AcDbEntity
  8
_U+30EC_U+30A4_U+30E4_U+30FC 1
370
     0
100
AcDbVertex
100
AcDb2dVertex
 10
85.86953086484131
 20
-122.2466369138827
 30
0.0
  0
VERTEX
  5
44
330
41
100
AcDbEntity
  8
_U+30EC_U+30A4_U+30E4_U+30FC 1
370
     0
100
AcDbVertex
100
AcDb2dVertex
 10
85.86953086484131
 20
-138.2468730209939
 30
0.0
  0
VERTEX
  5
45
330
41
100
AcDbEntity
  8
_U+30EC_U+30A4_U+30E4_U+30FC 1
370
     0
100
AcDbVertex
100
AcDb2dVertex
 10
90.86902684840466
 20
-138.2468730209939
 30
0.0
  0
VERTEX
  5
46
330
41
100
AcDbEntity
  8
_U+30EC_U+30A4_U+30E4_U+30FC 1
370
     0
100
AcDbVertex
100
AcDb2dVertex
 10
90.86902684840466
 20
-135.2468860772995
 30
0.0
  0
VERTEX
  5
47
330
41
100
AcDbEntity
  8
_U+30EC_U+30A4_U+30E4_U+30FC 1
370
     0
100
AcDbVertex
100
AcDb2dVertex
 10
89.86928992946562
 20
-135.2468860772995
 30
0.0
  0
VERTEX
  5
48
330
41
100
AcDbEntity
  8
_U+30EC_U+30A4_U+30E4_U+30FC 1
370
     0
100
AcDbVertex
100
AcDb2dVertex
 10
89.86928992946562
 20
-137.2471007990214
 30
0.0
  0
VERTEX
  5
49
330
41
100
AcDbEntity
  8
_U+30EC_U+30A4_U+30E4_U+30FC 1
370
     0
100
AcDbVertex
100
AcDb2dVertex
 10
86.7693611196625
 20
-137.2471007990214
 30
0.0
  0
VERTEX
  5
4A
330
41
100
AcDbEntity
  8
_U+30EC_U+30A4_U+30E4_U+30FC 1
370
     0
100
AcDbVertex
100
AcDb2dVertex
 10
86.7693611196625
 20
-122.2466369138827
 30
0.0
  0
VERTEX
  5
4B
330
41
100
AcDbEntity
  8
_U+30EC_U+30A4_U+30E4_U+30FC 1
370
     0
100
AcDbVertex
100
AcDb2dVertex
 10
105.8691728546079
 20
-122.2466369138827
 30
0.0
  0
VERTEX
  5
4C
330
41
100
AcDbEntity
  8
_U+30EC_U+30A4_U+30E4_U+30FC 1
370
     0
100
AcDbVertex
100
AcDb2dVertex
 10
105.8691728546079
 20
-121.2468646919104
 30
0.0
  0
VERTEX
  5
4D
330
41
100
AcDbEntity
  8
_U+30EC_U+30A4_U+30E4_U+30FC 1
370
     0
100
AcDbVertex
100
AcDb2dVertex
 10
70.86853819199297
 20
-121.2468646919104
 30
0.0
  0
VERTEX
  5
4E
330
41
100
AcDbEntity
  8
_U+30EC_U+30A4_U+30E4_U+30FC 1
370
     0
100
AcDbVertex
100
AcDb2dVertex
 10
70.86853819199297
 20
-122.2466369138827
 30
0.0
  0
SEQEND
  5
50
330
41
100
AcDbEntity
  8
_U+30EC_U+30A4_U+30E4_U+30FC 1
370
     0
  0
HATCH
  5
4F
330
1F
100
AcDbEntity
  8
_U+30EC_U+30A4_U+30E4_U+30FC 1
 62
   253
420
 11711154
100
AcDbHatch
 10
0.0
 20
0.0
 30
0.0
210
0.0
220
0.0
230
1.0
  2
SOLID
 70
     1
 71
     0
 91
        1
 92
        1
 93
       12
 72
     1
 10
70.86853819199297
 20
-122.2466369138827
 11
85.86953086484131
 21
-122.2466369138827
 72
     1
 10
85.86953086484131
 20
-122.2466369138827
 11
85.86953086484131
 21
-138.2468730209939
 72
     1
 10
85.86953086484131
 20
-138.2468730209939
 11
90.86902684840466
 21
-138.2468730209939
 72
     1
 10
90.86902684840466
 20
-138.2468730209939
 11
90.86902684840466
 21
-135.2468860772995
 72
     1
 10
90.86902684840466
 20
-135.2468860772995
 11
89.86928992946562
 21
-135.2468860772995
 72
     1
 10
89.86928992946562
 20
-135.2468860772995
 11
89.86928992946562
 21
-137.2471007990214
 72
     1
 10
89.86928992946562
 20
-137.2471007990214
 11
86.7693611196625
 21
-137.2471007990214
 72
     1
 10
86.7693611196625
 20
-137.2471007990214
 11
86.7693611196625
 21
-122.2466369138827
 72
     1
 10
86.7693611196625
 20
-122.2466369138827
 11
105.8691728546079
 21
-122.2466369138827
 72
     1
 10
105.8691728546079
 20
-122.2466369138827
 11
105.8691728546079
 21
-121.2468646919104
 72
     1
 10
105.8691728546079
 20
-121.2468646919104
 11
70.86853819199297
 21
-121.2468646919104
 72
     1
 10
70.86853819199297
 20
-121.2468646919104
 11
70.86853819199297
 21
-122.2466369138827
 97
        0
 75
     2
 76
     1
 98
        0
  0
POLYLINE
  5
51
330
1F
100
AcDbEntity
  8
_U+30EC_U+30A4_U+30E4_U+30FC 1
 62
     7
420
 16777215
370
    25
100
AcDb2dPolyline
 66
     1
 10
0.0
 20
0.0
 30
0.0
  0
VERTEX
  5
52
330
51
100
AcDbEntity
  8
_U+30EC_U+30A4_U+30E4_U+30FC 1
 62
     7
420
 16777215
370
    25
100
AcDbVertex
100
AcDb2dVertex
 10
90.86902684840466
 20
-138.2468730209939
 30
0.0
  0
VERTEX
  5
53
330
51
100
AcDbEntity
  8
_U+30EC_U+30A4_U+30E4_U+30FC 1
 62
     7
420
 16777215
370
    25
100
AcDbVertex
100
AcDb2dVertex
 10
90.86902684840466
 20
-135.2468860772995
 30
0.0
  0
VERTEX
  5
54
330
51
100
AcDbEntity
  8
_U+30EC_U+30A4_U+30E4_U+30FC 1
 62
     7
420
 16777215
370
    25
100
AcDbVertex
100
AcDb2dVertex
 10
89.86928992946562
 20
-135.2468860772995
 30
0.0
  0
VERTEX
  5
55
330
51
100
AcDbEntity
  8
_U+30EC_U+30A4_U+30E4_U+30FC 1
 62
     7
420
 16777215
370
    25
100
AcDbVertex
100
AcDb2dVertex
 10
89.86928992946562
 20
-137.2471007990214
 30
0.0
  0
VERTEX
  5
56
330
51
100
AcDbEntity
  8
_U+30EC_U+30A4_U+30E4_U+30FC 1
 62
     7
420
 16777215
370
    25
100
AcDbVertex
100
AcDb2dVertex
 10
86.7693611196625
 20
-137.2471007990214
 30
0.0
  0
VERTEX
  5
57
330
51
100
AcDbEntity
  8
_U+30EC_U+30A4_U+30E4_U+30FC 1
 62
     7
420
 16777215
370
    25
100
AcDbVertex
100
AcDb2dVertex
 10
86.7693611196625
 20
-122.2466369138827
 30
0.0
  0
VERTEX
  5
58
330
51
100
AcDbEntity
  8
_U+30EC_U+30A4_U+30E4_U+30FC 1
 62
     7
420
 16777215
370
    25
100
AcDbVertex
100
AcDb2dVertex
 10
105.8691728546079
 20
-122.2466369138827
 30
0.0
  0
VERTEX
  5
59
330
51
100
AcDbEntity
  8
_U+30EC_U+30A4_U+30E4_U+30FC 1
 62
     7
420
 16777215
370
    25
100
AcDbVertex
100
AcDb2dVertex
 10
105.8691728546079
 20
-121.2468646919104
 30
0.0
  0
VERTEX
  5
5A
330
51
100
AcDbEntity
  8
_U+30EC_U+30A4_U+30E4_U+30FC 1
 62
     7
420
 16777215
370
    25
100
AcDbVertex
100
AcDb2dVertex
 10
70.86853819199297
 20
-121.2468646919104
 30
0.0
  0
VERTEX
  5
5B
330
51
100
AcDbEntity
  8
_U+30EC_U+30A4_U+30E4_U+30FC 1
 62
     7
420
 16777215
370
    25
100
AcDbVertex
100
AcDb2dVertex
 10
70.86853819199297
 20
-122.2466369138827
 30
0.0
  0
VERTEX
  5
5C
330
51
100
AcDbEntity
  8
_U+30EC_U+30A4_U+30E4_U+30FC 1
 62
     7
420
 16777215
370
    25
100
AcDbVertex
100
AcDb2dVertex
 10
85.86953086484131
 20
-122.2466369138827
 30
0.0
  0
VERTEX
  5
5D
330
51
100
AcDbEntity
  8
_U+30EC_U+30A4_U+30E4_U+30FC 1
 62
     7
420
 16777215
370
    25
100
AcDbVertex
100
AcDb2dVertex
 10
85.86953086484131
 20
-138.2468730209939
 30
0.0
  0
VERTEX
  5
5E
330
51
100
AcDbEntity
  8
_U+30EC_U+30A4_U+30E4_U+30FC 1
 62
     7
420
 16777215
370
    25
100
AcDbVertex
100
AcDb2dVertex
 10
90.86902684840466
 20
-138.2468730209939
 30
0.0
  0
SEQEND
  5
5F
330
51
100
AcDbEntity
  8
_U+30EC_U+30A4_U+30E4_U+30FC 1
 62
     7
420
 16777215
370
    25
  0
SPLINE
  5
60
330
1F
100
AcDbEntity
  8
_U+30EC_U+30A4_U+30E4_U+30FC 1
 62
     7
420
 16777215
370
     9
100
AcDbSpline
210
0.0
220
0.0
230
1.0
 70
    11
 71
     3
 72
    17
 73
    13
 74
     0
 42
0.0000000001
 43
0.0000000001
 12
1.0
 22
0.0
 32
0.0
 13
1.0
 23
0.0
 33
0.0
 40
0.0
 40
0.0
 40
0.0
 40
0.0
 40
1.0
 40
1.0
 40
1.0
 40
2.0
 40
2.0
 40
2.0
 40
3.0
 40
3.0
 40
3.0
 40
4.0
 40
4.0
 40
4.0
 40
4.0
 10
70.96844485611079
 20
-117.2467527484661
 30
0.0
 10
70.96844485611079
 20
-117.1916488595909
 30
0.0
 10
70.92367735725291
 20
-117.1468460818245
 30
0.0
 10
70.86853819199297
 20
-117.1468460818245
 30
0.0
 10
70.81343609340767
 20
-117.1468460818245
 30
0.0
 10
70.76863331564127
 20
-117.1916488595909
 30
0.0
 10
70.76863331564127
 20
-117.2467527484661
 30
0.0
 10
70.76863331564127
 20
-117.3020683040078
 30
0.0
 10
70.81343609340767
 20
-117.3468358039966
 30
0.0
 10
70.86853819199297
 20
-117.3468358039966
 30
0.0
 10
70.92367735725291
 20
-117.3468358039966
 30
0.0
 10
70.96844485611079
 20
-117.3020683040078
 30
0.0
 10
70.96844485611079
 20
-117.2467527484661
 30
0.0
  0
SPLINE
  5
61
330
1F
100
AcDbEntity
  8
_U+30EC_U+30A4_U+30E4_U+30FC 1
 62
     7
420
 16777215
370
     9
100
AcDbSpline
210
0.0
220
0.0
230
1.0
 70
    11
 71
     3
 72
    17
 73
    13
 74
     0
 42
0.0000000001
 43
0.0000000001
 12
1.0
 22
0.0
 32
0.0
 13
1.0
 23
0.0
 33
0.0
 40
0.0
 40
0.0
 40
0.0
 40
0.0
 40
1.0
 40
1.0
 40
1.0
 40
2.0
 40
2.0
 40
2.0
 40
3.0
 40
3.0
 40
3.0
 40
4.0
 40
4.0
 40
4.0
 40
4.0
 10
105.9697497964865
 20
-117.2467527484661
 30
0.0
 10
105.9697497964865
 20
-117.1916488595909
 30
0.0
 10
105.9249822976286
 20
-117.1468460818245
 30
0.0
 10
105.8691728546079
 20
-117.1468460818245
 30
0.0
 10
105.814033689348
 20
-117.1468460818245
 30
0.0
 10
105.7692661904901
 20
-117.1916488595909
 30
0.0
 10
105.7692661904901
 20
-117.2467527484661
 30
0.0
 10
105.7692661904901
 20
-117.3020683040078
 30
0.0
 10
105.814033689348
 20
-117.3468358039966
 30
0.0
 10
105.8691728546079
 20
-117.3468358039966
 30
0.0
 10
105.9249822976286
 20
-117.3468358039966
 30
0.0
 10
105.9697497964865
 20
-117.3020683040078
 30
0.0
 10
105.9697497964865
 20
-117.2467527484661
 30
0.0
  0
SPLINE
  5
62
330
1F
100
AcDbEntity
  8
_U+30EC_U+30A4_U+30E4_U+30FC 1
 62
     7
420
 16777215
370
     9
100
AcDbSpline
210
0.0
220
0.0
230
1.0
 70
    11
 71
     3
 72
    17
 73
    13
 74
     0
 42
0.0000000001
 43
0.0000000001
 12
1.0
 22
0.0
 32
0.0
 13
1.0
 23
0.0
 33
0.0
 40
0.0
 40
0.0
 40
0.0
 40
0.0
 40
1.0
 40
1.0
 40
1.0
 40
2.0
 40
2.0
 40
2.0
 40
3.0
 40
3.0
 40
3.0
 40
4.0
 40
4.0
 40
4.0
 40
4.0
 10
109.9695088611108
 20
-121.2468646919104
 30
0.0
 10
109.9695088611108
 20
-121.1917255252577
 30
0.0
 10
109.9247413622529
 20
-121.1469580252688
 30
0.0
 10
109.8696021969929
 20
-121.1469580252688
 30
0.0
 10
109.8144983095099
 20
-121.1469580252688
 30
0.0
 10
109.7696955328751
 20
-121.1917255252577
 30
0.0
 10
109.7696955328751
 20
-121.2468646919104
 30
0.0
 10
109.7696955328751
 20
-121.3019685807857
 30
0.0
 10
109.8144983095099
 20
-121.3467713585521
 30
0.0
 10
109.8696021969929
 20
-121.3467713585521
 30
0.0
 10
109.9247413622529
 20
-121.3467713585521
 30
0.0
 10
109.9695088611108
 20
-121.3019685807857
 30
0.0
 10
109.9695088611108
 20
-121.2468646919104
 30
0.0
  0
SPLINE
  5
63
330
1F
100
AcDbEntity
  8
_U+30EC_U+30A4_U+30E4_U+30FC 1
 62
     7
420
 16777215
370
     9
100
AcDbSpline
210
0.0
220
0.0
230
1.0
 70
    11
 71
     3
 72
    17
 73
    13
 74
     0
 42
0.0000000001
 43
0.0000000001
 12
1.0
 22
0.0
 32
0.0
 13
1.0
 23
0.0
 33
0.0
 40
0.0
 40
0.0
 40
0.0
 40
0.0
 40
1.0
 40
1.0
 40
1.0
 40
2.0
 40
2.0
 40
2.0
 40
3.0
 40
3.0
 40
3.0
 40
4.0
 40
4.0
 40
4.0
 40
4.0
 10
109.9695088611108
 20
-122.2466369138827
 30
0.0
 10
109.9695088611108
 20
-122.1914977472299
 30
0.0
 10
109.9247413622529
 20
-122.146730247241
 30
0.0
 10
109.8696021969929
 20
-122.146730247241
 30
0.0
 10
109.8144983095099
 20
-122.146730247241
 30
0.0
 10
109.7696955328751
 20
-122.1914977472299
 30
0.0
 10
109.7696955328751
 20
-122.2466369138827
 30
0.0
 10
109.7696955328751
 20
-122.3020935805357
 30
0.0
 10
109.8144983095099
 20
-122.3468963583021
 30
0.0
 10
109.8696021969929
 20
-122.3468963583021
 30
0.0
 10
109.9247413622529
 20
-122.3468963583021
 30
0.0
 10
109.9695088611108
 20
-122.3020935805357
 30
0.0
 10
109.9695088611108
 20
-122.2466369138827
 30
0.0
  0
SPLINE
  5
64
330
1F
100
AcDbEntity
  8
_U+30EC_U+30A4_U+30E4_U+30FC 1
 62
     7
420
 16777215
370
     9
100
AcDbSpline
210
0.0
220
0.0
230
1.0
 70
    11
 71
     3
 72
    17
 73
    13
 74
     0
 42
0.0000000001
 43
0.0000000001
 12
1.0
 22
0.0
 32
0.0
 13
1.0
 23
0.0
 33
0.0
 40
0.0
 40
0.0
 40
0.0
 40
0.0
 40
1.0
 40
1.0
 40
1.0
 40
2.0
 40
2.0
 40
2.0
 40
3.0
 40
3.0
 40
3.0
 40
4.0
 40
4.0
 40
4.0
 40
4.0
 10
109.9695088611108
 20
-135.2468860772995
 30
0.0
 10
109.9695088611108
 20
-135.1917469106465
 30
0.0
 10
109.9247413622529
 20
-135.1469794106579
 30
0.0
 10
109.8696021969929
 20
-135.1469794106579
 30
0.0
 10
109.8144983095099
 20
-135.1469794106579
 30
0.0
 10
109.7696955328751
 20
-135.1917469106465
 30
0.0
 10
109.7696955328751
 20
-135.2468860772995
 30
0.0
 10
109.7696955328751
 20
-135.3019899661745
 30
0.0
 10
109.8144983095099
 20
-135.3467927439412
 30
0.0
 10
109.8696021969929
 20
-135.3467927439412
 30
0.0
 10
109.9247413622529
 20
-135.3467927439412
 30
0.0
 10
109.9695088611108
 20
-135.3019899661745
 30
0.0
 10
109.9695088611108
 20
-135.2468860772995
 30
0.0
  0
SPLINE
  5
65
330
1F
100
AcDbEntity
  8
_U+30EC_U+30A4_U+30E4_U+30FC 1
 62
     7
420
 16777215
370
     9
100
AcDbSpline
210
0.0
220
0.0
230
1.0
 70
    11
 71
     3
 72
    17
 73
    13
 74
     0
 42
0.0000000001
 43
0.0000000001
 12
1.0
 22
0.0
 32
0.0
 13
1.0
 23
0.0
 33
0.0
 40
0.0
 40
0.0
 40
0.0
 40
0.0
 40
1.0
 40
1.0
 40
1.0
 40
2.0
 40
2.0
 40
2.0
 40
3.0
 40
3.0
 40
3.0
 40
4.0
 40
4.0
 40
4.0
 40
4.0
 10
109.9695088611108
 20
-138.2468730209939
 30
0.0
 10
109.9695088611108
 20
-138.1917338543408
 30
0.0
 10
109.9247413622529
 20
-138.1469663543523
 30
0.0
 10
109.8696021969929
 20
-138.1469663543523
 30
0.0
 10
109.8144983095099
 20
-138.1469663543523
 30
0.0
 10
109.7696955328751
 20
-138.1917338543408
 30
0.0
 10
109.7696955328751
 20
-138.2468730209939
 30
0.0
 10
109.7696955328751
 20
-138.3019769098688
 30
0.0
 10
109.8144983095099
 20
-138.3467796876355
 30
0.0
 10
109.8696021969929
 20
-138.3467796876355
 30
0.0
 10
109.9247413622529
 20
-138.3467796876355
 30
0.0
 10
109.9695088611108
 20
-138.3019769098688
 30
0.0
 10
109.9695088611108
 20
-138.2468730209939
 30
0.0
  0
SPLINE
  5
66
330
1F
100
AcDbEntity
  8
_U+30EC_U+30A4_U+30E4_U+30FC 1
 62
     7
420
 16777215
370
     9
100
AcDbSpline
210
0.0
220
0.0
230
1.0
 70
    11
 71
     3
 72
    17
 73
    13
 74
     0
 42
0.0000000001
 43
0.0000000001
 12
1.0
 22
0.0
 32
0.0
 13
1.0
 23
0.0
 33
0.0
 40
0.0
 40
0.0
 40
0.0
 40
0.0
 40
1.0
 40
1.0
 40
1.0
 40
2.0
 40
2.0
 40
2.0
 40
3.0
 40
3.0
 40
3.0
 40
4.0
 40
4.0
 40
4.0
 40
4.0
 10
85.96943752895915
 20
-142.2466321866608
 30
0.0
 10
85.96943752895915
 20
-142.1914930200077
 30
0.0
 10
85.92463475232438
 20
-142.146690242241
 30
0.0
 10
85.86953086484131
 20
-142.146690242241
 30
0.0
 10
85.81439169958136
 20
-142.146690242241
 30
0.0
 10
85.76962420072348
 20
-142.1914930200077
 30
0.0
 10
85.76962420072348
 20
-142.2466321866608
 30
0.0
 10
85.76962420072348
 20
-142.3024416310912
 30
0.0
 10
85.81439169958136
 20
-142.3465388533024
 30
0.0
 10
85.86953086484131
 20
-142.3465388533024
 30
0.0
 10
85.92463475232438
 20
-142.3465388533024
 30
0.0
 10
85.96943752895915
 20
-142.3024416310912
 30
0.0
 10
85.96943752895915
 20
-142.2466321866608
 30
0.0
  0
SPLINE
  5
67
330
1F
100
AcDbEntity
  8
_U+30EC_U+30A4_U+30E4_U+30FC 1
 62
     7
420
 16777215
370
     9
100
AcDbSpline
210
0.0
220
0.0
230
1.0
 70
    11
 71
     3
 72
    17
 73
    13
 74
     0
 42
0.0000000001
 43
0.0000000001
 12
1.0
 22
0.0
 32
0.0
 13
1.0
 23
0.0
 33
0.0
 40
0.0
 40
0.0
 40
0.0
 40
0.0
 40
1.0
 40
1.0
 40
1.0
 40
2.0
 40
2.0
 40
2.0
 40
3.0
 40
3.0
 40
3.0
 40
4.0
 40
4.0
 40
4.0
 40
4.0
 10
90.9689335125225
 20
-142.2466321866608
 30
0.0
 10
90.9689335125225
 20
-142.1914930200077
 30
0.0
 10
90.9241660136646
 20
-142.146690242241
 30
0.0
 10
90.86902684840466
 20
-142.146690242241
 30
0.0
 10
90.81392296092159
 20
-142.146690242241
 30
0.0
 10
90.76912018428682
 20
-142.1914930200077
 30
0.0
 10
90.76912018428682
 20
-142.2466321866608
 30
0.0
 10
90.76912018428682
 20
-142.3024416310912
 30
0.0
 10
90.81392296092159
 20
-142.3465388533024
 30
0.0
 10
90.86902684840466
 20
-142.3465388533024
 30
0.0
 10
90.9241660136646
 20
-142.3465388533024
 30
0.0
 10
90.9689335125225
 20
-142.3024416310912
 30
0.0
 10
90.9689335125225
 20
-142.2466321866608
 30
0.0
  0
SPLINE
  5
68
330
1F
100
AcDbEntity
  8
_U+30EC_U+30A4_U+30E4_U+30FC 1
 62
     7
420
 16777215
370
     9
100
AcDbSpline
210
0.0
220
0.0
230
1.0
 70
    11
 71
     3
 72
    17
 73
    13
 74
     0
 42
0.0000000001
 43
0.0000000001
 12
1.0
 22
0.0
 32
0.0
 13
1.0
 23
0.0
 33
0.0
 40
0.0
 40
0.0
 40
0.0
 40
0.0
 40
1.0
 40
1.0
 40
1.0
 40
2.0
 40
2.0
 40
2.0
 40
3.0
 40
3.0
 40
3.0
 40
4.0
 40
4.0
 40
4.0
 40
4.0
 10
70.96844485611079
 20
-142.2466321866608
 30
0.0
 10
70.96844485611079
 20
-142.1914930200077
 30
0.0
 10
70.92367735725291
 20
-142.146690242241
 30
0.0
 10
70.86853819199297
 20
-142.146690242241
 30
0.0
 10
70.81343609340767
 20
-142.146690242241
 30
0.0
 10
70.76863331564127
 20
-142.1914930200077
 30
0.0
 10
70.76863331564127
 20
-142.2466321866608
 30
0.0
 10
70.76863331564127
 20
-142.3024416310912
 30
0.0
 10
70.81343609340767
 20
-142.3465388533024
 30
0.0
 10
70.86853819199297
 20
-142.3465388533024
 30
0.0
 10
70.92367735725291
 20
-142.3465388533024
 30
0.0
 10
70.96844485611079
 20
-142.3024416310912
 30
0.0
 10
70.96844485611079
 20
-142.2466321866608
 30
0.0
  0
POLYLINE
  5
69
330
1F
100
AcDbEntity
  8
_U+30EC_U+30A4_U+30E4_U+30FC 1
 62
     7
420
 16777215
370
     9
100
AcDb2dPolyline
 66
     1
 10
0.0
 20
0.0
 30
0.0
  0
VERTEX
  5
6A
330
69
100
AcDbEntity
  8
_U+30EC_U+30A4_U+30E4_U+30FC 1
 62
     7
420
 16777215
370
     9
100
AcDbVertex
100
AcDb2dVertex
 10
109.8696021969929
 20
-121.2468646919104
 30
0.0
  0
VERTEX
  5
6B
330
69
100
AcDbEntity
  8
_U+30EC_U+30A4_U+30E4_U+30FC 1
 62
     7
420
 16777215
370
     9
100
AcDbVertex
100
AcDb2dVertex
 10
109.8696021969929
 20
-117.476552192853
 30
0.0
  0
SEQEND
  5
6C
330
69
100
AcDbEntity
  8
_U+30EC_U+30A4_U+30E4_U+30FC 1
 62
     7
420
 16777215
370
     9
  0
POLYLINE
  5
6D
330
1F
100
AcDbEntity
  8
_U+30EC_U+30A4_U+30E4_U+30FC 1
 62
     7
420
 16777215
370
     9
100
AcDb2dPolyline
 66
     1
 10
0.0
 20
0.0
 30
0.0
  0
VERTEX
  5
6E
330
6D
100
AcDbEntity
  8
_U+30EC_U+30A4_U+30E4_U+30FC 1
 62
     7
420
 16777215
370
     9
100
AcDbVertex
100
AcDb2dVertex
 10
109.8696021969929
 20
-121.2468646919104
 30
0.0
  0
VERTEX
  5
6F
330
6D
100
AcDbEntity
  8
_U+30EC_U+30A4_U+30E4_U+30FC 1
 62
     7
420
 16777215
370
     9
100
AcDbVertex
100
AcDb2dVertex
 10
109.8696021969929
 20
-122.2466369138827
 30
0.0
  0
SEQEND
  5
70
330
6D
100
AcDbEntity
  8
_U+30EC_U+30A4_U+30E4_U+30FC 1
 62
     7
420
 16777215
370
     9
  0
POLYLINE
  5
71
330
1F
100
AcDbEntity
  8
_U+30EC_U+30A4_U+30E4_U+30FC 1
 62
     7
420
 16777215
370
     9
100
AcDb2dPolyline
 66
     1
 10
0.0
 20
0.0
 30
0.0
  0
VERTEX
  5
72
330
71
100
AcDbEntity
  8
_U+30EC_U+30A4_U+30E4_U+30FC 1
 62
     7
420
 16777215
370
     9
100
AcDbVertex
100
AcDb2dVertex
 10
108.4095608453528
 20
-121.2468646919104
 30
0.0
  0
VERTEX
  5
73
330
71
100
AcDbEntity
  8
_U+30EC_U+30A4_U+30E4_U+30FC 1
 62
     7
420
 16777215
370
     9
100
AcDbVertex
100
AcDb2dVertex
 10
110.8693743937088
 20
-121.2468646919104
 30
0.0
  0
SEQEND
  5
74
330
71
100
AcDbEntity
  8
_U+30EC_U+30A4_U+30E4_U+30FC 1
 62
     7
420
 16777215
370
     9
  0
POLYLINE
  5
75
330
1F
100
AcDbEntity
  8
_U+30EC_U+30A4_U+30E4_U+30FC 1
 62
     7
420
 16777215
370
     9
100
AcDb2dPolyline
 66
     1
 10
0.0
 20
0.0
 30
0.0
  0
VERTEX
  5
76
330
75
100
AcDbEntity
  8
_U+30EC_U+30A4_U+30E4_U+30FC 1
 62
     7
420
 16777215
370
     9
100
AcDbVertex
100
AcDb2dVertex
 10
108.4095608453528
 20
-122.2466369138827
 30
0.0
  0
VERTEX
  5
77
330
75
100
AcDbEntity
  8
_U+30EC_U+30A4_U+30E4_U+30FC 1
 62
     7
420
 16777215
370
     9
100
AcDbVertex
100
AcDb2dVertex
 10
110.8693743937088
 20
-122.2466369138827
 30
0.0
  0
SEQEND
  5
78
330
75
100
AcDbEntity
  8
_U+30EC_U+30A4_U+30E4_U+30FC 1
 62
     7
420
 16777215
370
     9
  0
INSERT
  5
7A
330
1F
100
AcDbEntity
  8
_U+30EC_U+30A4_U+30E4_U+30FC 1
100
AcDbBlockReference
  2
block 2
 10
0.0
 20
0.0
 30
0.0
  0
POLYLINE
  5
7F
330
1F
100
AcDbEntity
  8
_U+30EC_U+30A4_U+30E4_U+30FC 1
 62
     7
420
 16777215
370
     9
100
AcDb2dPolyline
 66
     1
 10
0.0
 20
0.0
 30
0.0
  0
VERTEX
  5
80
330
7F
100
AcDbEntity
  8
_U+30EC_U+30A4_U+30E4_U+30FC 1
 62
     7
420
 16777215
370
     9
100
AcDbVertex
100
AcDb2dVertex
 10
109.8696021969929
 20
-138.2468730209939
 30
0.0
  0
VERTEX
  5
81
330
7F
100
AcDbEntity
  8
_U+30EC_U+30A4_U+30E4_U+30FC 1
 62
     7
420
 16777215
370
     9
100
AcDbVertex
100
AcDb2dVertex
 10
109.8696021969929
 20
-135.2468860772995
 30
0.0
  0
SEQEND
  5
82
330
7F
100
AcDbEntity
  8
_U+30EC_U+30A4_U+30E4_U+30FC 1
 62
     7
420
 16777215
370
     9
  0
POLYLINE
  5
83
330
1F
100
AcDbEntity
  8
_U+30EC_U+30A4_U+30E4_U+30FC 1
 62
     7
420
 16777215
370
     9
100
AcDb2dPolyline
 66
     1
 10
0.0
 20
0.0
 30
0.0
  0
VERTEX
  5
84
330
83
100
AcDbEntity
  8
_U+30EC_U+30A4_U+30E4_U+30FC 1
 62
     7
420
 16777215
370
     9
100
AcDbVertex
100
AcDb2dVertex
 10
93.40962650581078
 20
-138.2468730209939
 30
0.0
  0
VERTEX
  5
85
330
83
100
AcDbEntity
  8
_U+30EC_U+30A4_U+30E4_U+30FC 1
 62
     7
420
 16777215
370
     9
100
AcDbVertex
100
AcDb2dVertex
 10
110.8693743937088
 20
-138.2468730209939
 30
0.0
  0
SEQEND
  5
86
330
83
100
AcDbEntity
  8
_U+30EC_U+30A4_U+30E4_U+30FC 1
 62
     7
420
 16777215
370
     9
  0
INSERT
  5
88
330
1F
100
AcDbEntity
  8
_U+30EC_U+30A4_U+30E4_U+30FC 1
100
AcDbBlockReference
  2
block 3
 10
0.0
 20
0.0
 30
0.0
  0
POLYLINE
  5
8D
330
1F
100
AcDbEntity
  8
_U+30EC_U+30A4_U+30E4_U+30FC 1
 62
     7
420
 16777215
370
     9
100
AcDb2dPolyline
 66
     1
 10
0.0
 20
0.0
 30
0.0
  0
VERTEX
  5
8E
330
8D
100
AcDbEntity
  8
_U+30EC_U+30A4_U+30E4_U+30FC 1
 62
     7
420
 16777215
370
     9
100
AcDbVertex
100
AcDb2dVertex
 10
70.86853819199297
 20
-142.2466321866608
 30
0.0
  0
VERTEX
  5
8F
330
8D
100
AcDbEntity
  8
_U+30EC_U+30A4_U+30E4_U+30FC 1
 62
     7
420
 16777215
370
     9
100
AcDbVertex
100
AcDb2dVertex
 10
85.86953086484131
 20
-142.2466321866608
 30
0.0
  0
SEQEND
  5
90
330
8D
100
AcDbEntity
  8
_U+30EC_U+30A4_U+30E4_U+30FC 1
 62
     7
420
 16777215
370
     9
  0
POLYLINE
  5
91
330
1F
100
AcDbEntity
  8
_U+30EC_U+30A4_U+30E4_U+30FC 1
 62
     7
420
 16777215
370
     9
100
AcDb2dPolyline
 66
     1
 10
0.0
 20
0.0
 30
0.0
  0
VERTEX
  5
92
330
91
100
AcDbEntity
  8
_U+30EC_U+30A4_U+30E4_U+30FC 1
 62
     7
420
 16777215
370
     9
100
AcDbVertex
100
AcDb2dVertex
 10
70.86853819199297
 20
-124.787060246581
 30
0.0
  0
VERTEX
  5
93
330
91
100
AcDbEntity
  8
_U+30EC_U+30A4_U+30E4_U+30FC 1
 62
     7
420
 16777215
370
     9
100
AcDbVertex
100
AcDb2dVertex
 10
70.86853819199297
 20
-143.2470746864107
 30
0.0
  0
SEQEND
  5
94
330
91
100
AcDbEntity
  8
_U+30EC_U+30A4_U+30E4_U+30FC 1
 62
     7
420
 16777215
370
     9
  0
POLYLINE
  5
95
330
1F
100
AcDbEntity
  8
_U+30EC_U+30A4_U+30E4_U+30FC 1
 62
     7
420
 16777215
370
     9
100
AcDb2dPolyline
 66
     1
 10
0.0
 20
0.0
 30
0.0
  0
VERTEX
  5
96
330
95
100
AcDbEntity
  8
_U+30EC_U+30A4_U+30E4_U+30FC 1
 62
     7
420
 16777215
370
     9
100
AcDbVertex
100
AcDb2dVertex
 10
85.86953086484131
 20
-140.7865907981364
 30
0.0
  0
VERTEX
  5
97
330
95
100
AcDbEntity
  8
_U+30EC_U+30A4_U+30E4_U+30FC 1
 62
     7
420
 16777215
370
     9
100
AcDbVertex
100
AcDb2dVertex
 10
85.86953086484131
 20
-143.2470746864107
 30
0.0
  0
SEQEND
  5
98
330
95
100
AcDbEntity
  8
_U+30EC_U+30A4_U+30E4_U+30FC 1
 62
     7
420
 16777215
370
     9
  0
INSERT
  5
9A
330
1F
100
AcDbEntity
  8
_U+30EC_U+30A4_U+30E4_U+30FC 1
100
AcDbBlockReference
  2
block 4
 10
0.0
 20
0.0
 30
0.0
  0
POLYLINE
  5
A1
330
1F
100
AcDbEntity
  8
_U+30EC_U+30A4_U+30E4_U+30FC 1
 62
     7
420
 16777215
370
     9
100
AcDb2dPolyline
 66
     1
 10
0.0
 20
0.0
 30
0.0
  0
VERTEX
  5
A2
330
A1
100
AcDbEntity
  8
_U+30EC_U+30A4_U+30E4_U+30FC 1
 62
     7
420
 16777215
370
     9
100
AcDbVertex
100
AcDb2dVertex
 10
85.86953086484131
 20
-142.2466321866608
 30
0.0
  0
VERTEX
  5
A3
330
A1
100
AcDbEntity
  8
_U+30EC_U+30A4_U+30E4_U+30FC 1
 62
     7
420
 16777215
370
     9
100
AcDbVertex
100
AcDb2dVertex
 10
90.86902684840466
 20
-142.2466321866608
 30
0.0
  0
SEQEND
  5
A4
330
A1
100
AcDbEntity
  8
_U+30EC_U+30A4_U+30E4_U+30FC 1
 62
     7
420
 16777215
370
     9
  0
POLYLINE
  5
A5
330
1F
100
AcDbEntity
  8
_U+30EC_U+30A4_U+30E4_U+30FC 1
 62
     7
420
 16777215
370
     9
100
AcDb2dPolyline
 66
     1
 10
0.0
 20
0.0
 30
0.0
  0
VERTEX
  5
A6
330
A5
100
AcDbEntity
  8
_U+30EC_U+30A4_U+30E4_U+30FC 1
 62
     7
420
 16777215
370
     9
100
AcDbVertex
100
AcDb2dVertex
 10
90.86902684840466
 20
-140.7865907981364
 30
0.0
  0
VERTEX
  5
A7
330
A5
100
AcDbEntity
  8
_U+30EC_U+30A4_U+30E4_U+30FC 1
 62
     7
420
 16777215
370
     9
100
AcDbVertex
100
AcDb2dVertex
 10
90.86902684840466
 20
-143.2470746864107
 30
0.0
  0
SEQEND
  5
A8
330
A5
100
AcDbEntity
  8
_U+30EC_U+30A4_U+30E4_U+30FC 1
 62
     7
420
 16777215
370
     9
  0
INSERT
  5
AA
330
1F
100
AcDbEntity
  8
_U+30EC_U+30A4_U+30E4_U+30FC 1
100
AcDbBlockReference
  2
block 5
 10
0.0
 20
0.0
 30
0.0
  0
POLYLINE
  5
AF
330
1F
100
AcDbEntity
  8
_U+30EC_U+30A4_U+30E4_U+30FC 1
 62
     7
420
 16777215
370
     9
100
AcDb2dPolyline
 66
     1
 10
0.0
 20
0.0
 30
0.0
  0
VERTEX
  5
B0
330
AF
100
AcDbEntity
  8
_U+30EC_U+30A4_U+30E4_U+30FC 1
 62
     7
420
 16777215
370
     9
100
AcDbVertex
100
AcDb2dVertex
 10
70.86853819199297
 20
-117.2467527484661
 30
0.0
  0
VERTEX
  5
B1
330
AF
100
AcDbEntity
  8
_U+30EC_U+30A4_U+30E4_U+30FC 1
 62
     7
420
 16777215
370
     9
100
AcDbVertex
100
AcDb2dVertex
 10
105.8691728546079
 20
-117.2467527484661
 30
0.0
  0
SEQEND
  5
B2
330
AF
100
AcDbEntity
  8
_U+30EC_U+30A4_U+30E4_U+30FC 1
 62
     7
420
 16777215
370
     9
  0
POLYLINE
  5
B3
330
1F
100
AcDbEntity
  8
_U+30EC_U+30A4_U+30E4_U+30FC 1
 62
     7
420
 16777215
370
     9
100
AcDb2dPolyline
 66
     1
 10
0.0
 20
0.0
 30
0.0
  0
VERTEX
  5
B4
330
B3
100
AcDbEntity
  8
_U+30EC_U+30A4_U+30E4_U+30FC 1
 62
     7
420
 16777215
370
     9
100
AcDbVertex
100
AcDb2dVertex
 10
70.86853819199297
 20
-118.7067941369901
 30
0.0
  0
VERTEX
  5
B5
330
B3
100
AcDbEntity
  8
_U+30EC_U+30A4_U+30E4_U+30FC 1
 62
     7
420
 16777215
370
     9
100
AcDbVertex
100
AcDb2dVertex
 10
70.86853819199297
 20
-116.2468394153829
 30
0.0
  0
SEQEND
  5
B6
330
B3
100
AcDbEntity
  8
_U+30EC_U+30A4_U+30E4_U+30FC 1
 62
     7
420
 16777215
370
     9
  0
POLYLINE
  5
B7
330
1F
100
AcDbEntity
  8
_U+30EC_U+30A4_U+30E4_U+30FC 1
 62
     7
420
 16777215
370
     9
100
AcDb2dPolyline
 66
     1
 10
0.0
 20
0.0
 30
0.0
  0
VERTEX
  5
B8
330
B7
100
AcDbEntity
  8
_U+30EC_U+30A4_U+30E4_U+30FC 1
 62
     7
420
 16777215
370
     9
100
AcDbVertex
100
AcDb2dVertex
 10
105.8691728546079
 20
-118.7067941369901
 30
0.0
  0
VERTEX
  5
B9
330
B7
100
AcDbEntity
  8
_U+30EC_U+30A4_U+30E4_U+30FC 1
 62
     7
420
 16777215
370
     9
100
AcDbVertex
100
AcDb2dVertex
 10
105.8691728546079
 20
-116.2468394153829
 30
0.0
  0
SEQEND
  5
BA
330
B7
100
AcDbEntity
  8
_U+30EC_U+30A4_U+30E4_U+30FC 1
 62
     7
420
 16777215
370
     9
  0
INSERT
  5
BC
330
1F
100
AcDbEntity
  8
_U+30EC_U+30A4_U+30E4_U+30FC 1
100
AcDbBlockReference
  2
block 6
 10
0.0
 20
0.0
 30
0.0
  0
POLYLINE
  5
C3
330
1F
100
AcDbEntity
  8
_U+30EC_U+30A4_U+30E4_U+30FC 1
 62
     7
420
 16777215
370
     9
100
AcDb2dPolyline
 66
     1
 10
0.0
 20
0.0
 30
0.0
  0
VERTEX
  5
C4
330
C3
100
AcDbEntity
  8
_U+30EC_U+30A4_U+30E4_U+30FC 1
 62
     7
420
 16777215
370
     9
100
AcDbVertex
100
AcDb2dVertex
 10
109.8696021969929
 20
-135.2468860772995
 30
0.0
  0
VERTEX
  5
C5
330
C3
100
AcDbEntity
  8
_U+30EC_U+30A4_U+30E4_U+30FC 1
 62
     7
420
 16777215
370
     9
100
AcDbVertex
100
AcDb2dVertex
 10
109.8696021969929
 20
-122.2466369138827
 30
0.0
  0
SEQEND
  5
C6
330
C3
100
AcDbEntity
  8
_U+30EC_U+30A4_U+30E4_U+30FC 1
 62
     7
420
 16777215
370
     9
  0
POLYLINE
  5
C7
330
1F
100
AcDbEntity
  8
_U+30EC_U+30A4_U+30E4_U+30FC 1
 62
     7
420
 16777215
370
     9
100
AcDb2dPolyline
 66
     1
 10
0.0
 20
0.0
 30
0.0
  0
VERTEX
  5
C8
330
C7
100
AcDbEntity
  8
_U+30EC_U+30A4_U+30E4_U+30FC 1
 62
     7
420
 16777215
370
     9
100
AcDbVertex
100
AcDb2dVertex
 10
93.40962650581078
 20
-135.2468860772995
 30
0.0
  0
VERTEX
  5
C9
330
C7
100
AcDbEntity
  8
_U+30EC_U+30A4_U+30E4_U+30FC 1
 62
     7
420
 16777215
370
     9
100
AcDbVertex
100
AcDb2dVertex
 10
110.8693743937088
 20
-135.2468860772995
 30
0.0
  0
SEQEND
  5
CA
330
C7
100
AcDbEntity
  8
_U+30EC_U+30A4_U+30E4_U+30FC 1
 62
     7
420
 16777215
370
     9
  0
POLYLINE
  5
CB
330
1F
100
AcDbEntity
  8
_U+30EC_U+30A4_U+30E4_U+30FC 1
 62
     7
420
 16777215
370
     9
100
AcDb2dPolyline
 66
     1
 10
0.0
 20
0.0
 30
0.0
  0
VERTEX
  5
CC
330
CB
100
AcDbEntity
  8
_U+30EC_U+30A4_U+30E4_U+30FC 1
 62
     7
420
 16777215
370
     9
100
AcDbVertex
100
AcDb2dVertex
 10
108.4095608453528
 20
-122.2466369138827
 30
0.0
  0
VERTEX
  5
CD
330
CB
100
AcDbEntity
  8
_U+30EC_U+30A4_U+30E4_U+30FC 1
 62
     7
420
 16777215
370
     9
100
AcDbVertex
100
AcDb2dVertex
 10
110.8693743937088
 20
-122.2466369138827
 30
0.0
  0
SEQEND
  5
CE
330
CB
100
AcDbEntity
  8
_U+30EC_U+30A4_U+30E4_U+30FC 1
 62
     7
420
 16777215
370
     9
  0
INSERT
  5
D0
330
1F
100
AcDbEntity
  8
_U+30EC_U+30A4_U+30E4_U+30FC 1
100
AcDbBlockReference
  2
block 7
 10
0.0
 20
0.0
 30
0.0
  0
ENDSEC
  0
SECTION
  2
OBJECTS
  0
DICTIONARY
  5
C
330
0
100
AcDbDictionary
281
     1
  3
ACAD_GROUP
350
D
  3
ACAD_LAYOUT
350
1A
  3
ACAD_MATERIAL
350
3B
  3
ACAD_MLEADERSTYLE
350
D8
  3
ACAD_MLINESTYLE
350
17
  3
ACAD_PLOTSETTINGS
350
19
  3
ACAD_PLOTSTYLENAME
350
E
  3
ACAD_TABLESTYLE
350
D7
  3
ACAD_VISUALSTYLE
350
2A
  0
SUN
  5
3F
330
29
100
AcDbSun
 90
        1
290
     0
 63
     7
421
 16777215
 40
1.0
291
     1
 91
  2455826
 92
 54000000
292
     0
 70
     2
 71
   256
280
     1
  0
DICTIONARY
  5
D
102
{ACAD_REACTORS
330
C
102
}
330
C
100
AcDbDictionary
281
     1
  0
DICTIONARY
  5
1A
102
{ACAD_REACTORS
330
C
102
}
330
C
100
AcDbDictionary
281
     1
  3
Layout1
350
1E
  3
Layout2
350
26
  3
Model
350
22
  0
DICTIONARY
  5
3B
102
{ACAD_REACTORS
330
C
102
}
330
C
100
AcDbDictionary
281
     1
  3
ByBlock
350
3D
  3
ByLayer
350
3C
  3
Global
350
3E
  0
DICTIONARY
  5
D8
102
{ACAD_REACTORS
330
C
102
}
330
C
100
AcDbDictionary
281
     1
  0
DICTIONARY
  5
17
102
{ACAD_REACTORS
330
C
102
}
330
C
100
AcDbDictionary
281
     1
  3
Standard
350
18
  0
DICTIONARY
  5
19
102
{ACAD_REACTORS
330
C
102
}
330
C
100
AcDbDictionary
281
     1
  0
ACDBDICTIONARYWDFLT
  5
E
102
{ACAD_REACTORS
330
C
102
}
330
C
100
AcDbDictionary
281
     1
  3
Normal
350
F
100
AcDbDictionaryWithDefault
340
F
  0
DICTIONARY
  5
D7
102
{ACAD_REACTORS
330
C
102
}
330
C
100
AcDbDictionary
281
     1
  0
DICTIONARY
  5
2A
102
{ACAD_REACTORS
330
C
102
}
330
C
100
AcDbDictionary
281
     1
  3
2dWireframe
350
2F
  3
3D Hidden
350
31
  3
3dWireframe
350
30
  3
Basic
350
32
  3
Brighten
350
36
  3
ColorChange
350
3A
  3
Conceptual
350
34
  3
Dim
350
35
  3
Facepattern
350
39
  3
Flat
350
2B
  3
FlatWithEdges
350
2C
  3
Gouraud
350
2D
  3
GouraudWithEdges
350
2E
  3
Linepattern
350
38
  3
Realistic
350
33
  3
Thicken
350
37
  0
LAYOUT
  5
1E
102
{ACAD_REACTORS
330
1A
102
}
330
1A
100
AcDbPlotSettings
  1

  2
none_device
  4

  6

 40
0.0
 41
0.0
 42
0.0
 43
0.0
 44
0.0
 45
0.0
 46
0.0
 47
0.0
 48
0.0
 49
0.0
140
0.0
141
0.0
142
1.0
143
1.0
 70
   688
 72
     0
 73
     0
 74
     5
  7

 75
    16
 76
     0
 77
     2
 78
   300
147
1.0
148
0.0
149
0.0
100
AcDbLayout
  1
Layout1
 70
     1
 71
     1
 10
0.0
 20
0.0
 11
12.0
 21
9.0
 12
0.0
 22
0.0
 32
0.0
 14
1.000000000000000E+20
 24
1.000000000000000E+20
 34
1.000000000000000E+20
 15
-1.000000000000000E+20
 25
-1.000000000000000E+20
 35
-1.000000000000000E+20
146
0.0
 13
0.0
 23
0.0
 33
0.0
 16
1.0
 26
0.0
 36
0.0
 17
0.0
 27
1.0
 37
0.0
 76
     0
330
1B
  0
LAYOUT
  5
26
102
{ACAD_REACTORS
330
1A
102
}
330
1A
100
AcDbPlotSettings
  1

  2
none_device
  4

  6

 40
0.0
 41
0.0
 42
0.0
 43
0.0
 44
0.0
 45
0.0
 46
0.0
 47
0.0
 48
0.0
 49
0.0
140
0.0
141
0.0
142
1.0
143
1.0
 70
   688
 72
     0
 73
     0
 74
     5
  7

 75
    16
 76
     0
 77
     2
 78
   300
147
1.0
148
0.0
149
0.0
100
AcDbLayout
  1
Layout2
 70
     1
 71
     2
 10
0.0
 20
0.0
 11
0.0
 21
0.0
 12
0.0
 22
0.0
 32
0.0
 14
0.0
 24
0.0
 34
0.0
 15
0.0
 25
0.0
 35
0.0
146
0.0
 13
0.0
 23
0.0
 33
0.0
 16
1.0
 26
0.0
 36
0.0
 17
0.0
 27
1.0
 37
0.0
 76
     0
330
23
  0
LAYOUT
  5
22
102
{ACAD_REACTORS
330
1A
102
}
330
1A
100
AcDbPlotSettings
  1

  2
none_device
  4

  6

 40
0.0
 41
0.0
 42
0.0
 43
0.0
 44
0.0
 45
0.0
 46
0.0
 47
0.0
 48
0.0
 49
0.0
140
0.0
141
0.0
142
1.0
143
1.0
 70
  1712
 72
     0
 73
     0
 74
     0
  7

 75
     0
 76
     0
 77
     2
 78
   300
147
1.0
148
0.0
149
0.0
100
AcDbLayout
  1
Model
 70
     1
 71
     0
 10
0.0
 20
0.0
 11
12.0
 21
9.0
 12
0.0
 22
0.0
 32
0.0
 14
1.000000000000000E+20
 24
1.000000000000000E+20
 34
1.000000000000000E+20
 15
-1.000000000000000E+20
 25
-1.000000000000000E+20
 35
-1.000000000000000E+20
146
0.0
 13
0.0
 23
0.0
 33
0.0
 16
1.0
 26
0.0
 36
0.0
 17
0.0
 27
1.0
 37
0.0
 76
     0
330
1F
331
29
  0
MATERIAL
  5
3D
102
{ACAD_REACTORS
330
3B
102
}
330
3B
100
AcDbMaterial
  1
ByBlock
 72
     1
 94
      127
  0
MATERIAL
  5
3C
102
{ACAD_REACTORS
330
3B
102
}
330
3B
100
AcDbMaterial
  1
ByLayer
 72
     1
 94
      127
  0
MATERIAL
  5
3E
102
{ACAD_REACTORS
330
3B
102
}
330
3B
100
AcDbMaterial
  1
Global
 72
     1
 94
      127
  0
MLINESTYLE
  5
18
102
{ACAD_REACTORS
330
17
102
}
330
17
100
AcDbMlineStyle
  2
Standard
 70
     0
  3

 62
   256
 51
90.0
 52
90.0
 71
     2
 49
0.5
 62
   256
  6
BYLAYER
 49
-0.5
 62
   256
  6
BYLAYER
  0
ACDBPLACEHOLDER
  5
F
102
{ACAD_REACTORS
330
E
102
}
330
E
  0
VISUALSTYLE
  5
2F
102
{ACAD_REACTORS
330
2A
102
}
330
2A
100
AcDbVisualStyle
  2
2dWireframe
 70
     4
177
     2
291
     0
 71
     0
176
     1
 72
     2
176
     1
 73
     0
176
     1
 90
        0
176
     1
 40
-0.6
176
     1
 41
-30.0
176
     1
 62
     5
 63
     7
421
 16777215
176
     1
 74
     1
176
     1
 91
        4
176
     1
 64
     7
176
     1
 65
   257
176
     1
 75
     1
176
     1
175
     1
176
     1
 42
1.0
176
     1
 92
        0
176
     1
 66
   257
176
     1
 43
1.0
176
     1
 76
     1
176
     1
 77
     6
176
     1
 78
     2
176
     1
 67
     7
176
     1
 79
     5
176
     1
170
     0
176
     1
171
     0
176
     1
290
     0
176
     1
 93
        1
176
     1
 44
0.0
176
     1
173
     0
176
     1
  0
VISUALSTYLE
  5
31
102
{ACAD_REACTORS
330
2A
102
}
330
2A
100
AcDbVisualStyle
  2
3D Hidden
 70
     6
177
     2
291
     0
 71
     1
176
     1
 72
     2
176
     1
 73
     2
176
     1
 90
        0
176
     1
 40
-0.6
176
     1
 41
-30.0
176
     1
 62
     5
 63
     7
421
 16777215
176
     1
 74
     2
176
     1
 91
        2
176
     1
 64
     7
176
     1
 65
   257
176
     1
 75
     2
176
     1
175
     1
176
     1
 42
40.0
176
     1
 92
        0
176
     1
 66
   257
176
     1
 43
1.0
176
     1
 76
     1
176
     1
 77
     6
176
     1
 78
     2
176
     1
 67
     7
176
     1
 79
     3
176
     1
170
     0
176
     1
171
     0
176
     1
290
     0
176
     1
 93
        1
176
     1
 44
0.0
176
     1
173
     0
176
     1
  0
VISUALSTYLE
  5
30
102
{ACAD_REACTORS
330
2A
102
}
330
2A
100
AcDbVisualStyle
  2
3dWireframe
 70
     5
177
     2
291
     0
 71
     0
176
     1
 72
     2
176
     1
 73
     0
176
     1
 90
        0
176
     1
 40
-0.6
176
     1
 41
-30.0
176
     1
 62
     5
 63
     7
421
 16777215
176
     1
 74
     1
176
     1
 91
        4
176
     1
 64
     7
176
     1
 65
   257
176
     1
 75
     1
176
     1
175
     1
176
     1
 42
1.0
176
     1
 92
        0
176
     1
 66
   257
176
     1
 43
1.0
176
     1
 76
     1
176
     1
 77
     6
176
     1
 78
     2
176
     1
 67
     7
176
     1
 79
     5
176
     1
170
     0
176
     1
171
     0
176
     1
290
     0
176
     1
 93
        1
176
     1
 44
0.0
176
     1
173
     0
176
     1
  0
VISUALSTYLE
  5
32
102
{ACAD_REACTORS
330
2A
102
}
330
2A
100
AcDbVisualStyle
  2
Basic
 70
     7
177
     2
291
     1
 71
     1
176
     1
 72
     0
176
     1
 73
     1
176
     1
 90
        0
176
     1
 40
-0.6
176
     1
 41
-30.0
176
     1
 62
     5
 63
     7
421
 16777215
176
     1
 74
     0
176
     1
 91
        4
176
     1
 64
     7
176
     1
 65
   257
176
     1
 75
     1
176
     1
175
     1
176
     1
 42
1.0
176
     1
 92
        8
176
     1
 66
     7
176
     1
 43
1.0
176
     1
 76
     1
176
     1
 77
     6
176
     1
 78
     2
176
     1
 67
     7
176
     1
 79
     5
176
     1
170
     0
176
     1
171
     0
176
     1
290
     0
176
     1
 93
        1
176
     1
 44
0.0
176
     1
173
     0
176
     1
  0
VISUALSTYLE
  5
36
102
{ACAD_REACTORS
330
2A
102
}
330
2A
100
AcDbVisualStyle
  2
Brighten
 70
    12
177
     2
291
     1
 71
     2
176
     1
 72
     2
176
     1
 73
     0
176
     1
 90
        0
176
     1
 40
-0.6
176
     1
 41
-30.0
176
     1
 62
     5
 63
     7
421
 16777215
176
     1
 74
     1
176
     1
 91
        4
176
     1
 64
     7
176
     1
 65
   257
176
     1
 75
     1
176
     1
175
     1
176
     1
 42
1.0
176
     1
 92
        8
176
     1
 66
     7
176
     1
 43
1.0
176
     1
 76
     1
176
     1
 77
     6
176
     1
 78
     2
176
     1
 67
     7
176
     1
 79
     5
176
     1
170
     0
176
     1
171
     0
176
     1
290
     0
176
     1
 93
        1
176
     1
 44
50.0
176
     1
173
     0
176
     1
  0
VISUALSTYLE
  5
3A
102
{ACAD_REACTORS
330
2A
102
}
330
2A
100
AcDbVisualStyle
  2
ColorChange
 70
    16
177
     2
291
     1
 71
     2
176
     1
 72
     2
176
     1
 73
     3
176
     1
 90
        0
176
     1
 40
-0.6
176
     1
 41
-30.0
176
     1
 62
     5
 63
     8
421
  8421504
176
     1
 74
     1
176
     1
 91
        4
176
     1
 64
     7
176
     1
 65
   257
176
     1
 75
     1
176
     1
175
     1
176
     1
 42
1.0
176
     1
 92
        8
176
     1
 66
     8
424
  8421504
176
     1
 43
1.0
176
     1
 76
     1
176
     1
 77
     6
176
     1
 78
     2
176
     1
 67
     7
176
     1
 79
     5
176
     1
170
     0
176
     1
171
     0
176
     1
290
     0
176
     1
 93
        1
176
     1
 44
0.0
176
     1
173
     0
176
     1
  0
VISUALSTYLE
  5
34
102
{ACAD_REACTORS
330
2A
102
}
330
2A
100
AcDbVisualStyle
  2
Conceptual
 70
     9
177
     2
291
     0
 71
     3
176
     1
 72
     2
176
     1
 73
     0
176
     1
 90
        0
176
     1
 40
-0.6
176
     1
 41
-30.0
176
     1
 62
     5
 63
     7
421
 16777215
176
     1
 74
     2
176
     1
 91
        2
176
     1
 64
     7
176
     1
 65
   257
176
     1
 75
     1
176
     1
175
     1
176
     1
 42
40.0
176
     1
 92
        8
176
     1
 66
     7
176
     1
 43
1.0
176
     1
 76
     1
176
     1
 77
     6
176
     1
 78
     2
176
     1
 67
     7
176
     1
 79
     3
176
     1
170
     0
176
     1
171
     0
176
     1
290
     0
176
     1
 93
        1
176
     1
 44
0.0
176
     1
173
     0
176
     1
  0
VISUALSTYLE
  5
35
102
{ACAD_REACTORS
330
2A
102
}
330
2A
100
AcDbVisualStyle
  2
Dim
 70
    11
177
     2
291
     1
 71
     2
176
     1
 72
     2
176
     1
 73
     0
176
     1
 90
        0
176
     1
 40
-0.6
176
     1
 41
-30.0
176
     1
 62
     5
 63
     7
421
 16777215
176
     1
 74
     1
176
     1
 91
        4
176
     1
 64
     7
176
     1
 65
   257
176
     1
 75
     1
176
     1
175
     1
176
     1
 42
1.0
176
     1
 92
        8
176
     1
 66
     7
176
     1
 43
1.0
176
     1
 76
     1
176
     1
 77
     6
176
     1
 78
     2
176
     1
 67
     7
176
     1
 79
     5
176
     1
170
     0
176
     1
171
     0
176
     1
290
     0
176
     1
 93
        1
176
     1
 44
-50.0
176
     1
173
     0
176
     1
  0
VISUALSTYLE
  5
39
102
{ACAD_REACTORS
330
2A
102
}
330
2A
100
AcDbVisualStyle
  2
Facepattern
 70
    15
177
     2
291
     1
 71
     2
176
     1
 72
     2
176
     1
 73
     0
176
     1
 90
        0
176
     1
 40
-0.6
176
     1
 41
-30.0
176
     1
 62
     5
 63
     7
421
 16777215
176
     1
 74
     1
176
     1
 91
        4
176
     1
 64
     7
176
     1
 65
   257
176
     1
 75
     1
176
     1
175
     1
176
     1
 42
1.0
176
     1
 92
        8
176
     1
 66
     7
176
     1
 43
1.0
176
     1
 76
     1
176
     1
 77
     6
176
     1
 78
     2
176
     1
 67
     7
176
     1
 79
     5
176
     1
170
     0
176
     1
171
     0
176
     1
290
     0
176
     1
 93
        1
176
     1
 44
0.0
176
     1
173
     0
176
     1
  0
VISUALSTYLE
  5
2B
102
{ACAD_REACTORS
330
2A
102
}
330
2A
100
AcDbVisualStyle
  2
Flat
 70
     0
177
     2
291
     1
 71
     2
176
     1
 72
     1
176
     1
 73
     1
176
     1
 90
        2
176
     1
 40
-0.6
176
     1
 41
30.0
176
     1
 62
     5
 63
     7
421
 16777215
176
     1
 74
     0
176
     1
 91
        4
176
     1
 64
     7
176
     1
 65
   257
176
     1
 75
     1
176
     1
175
     1
176
     1
 42
1.0
176
     1
 92
        8
176
     1
 66
     7
176
     1
 43
1.0
176
     1
 76
     1
176
     1
 77
     6
176
     1
 78
     2
176
     1
 67
     7
176
     1
 79
     5
176
     1
170
     0
176
     1
171
     0
176
     1
290
     0
176
     1
 93
       13
176
     1
 44
0.0
176
     1
173
     0
176
     1
  0
VISUALSTYLE
  5
2C
102
{ACAD_REACTORS
330
2A
102
}
330
2A
100
AcDbVisualStyle
  2
FlatWithEdges
 70
     1
177
     2
291
     1
 71
     2
176
     1
 72
     1
176
     1
 73
     1
176
     1
 90
        2
176
     1
 40
-0.6
176
     1
 41
30.0
176
     1
 62
     5
 63
     7
421
 16777215
176
     1
 74
     1
176
     1
 91
        4
176
     1
 64
     7
176
     1
 65
   257
176
     1
 75
     1
176
     1
175
     1
176
     1
 42
1.0
176
     1
 92
        0
176
     1
 66
   257
176
     1
 43
1.0
176
     1
 76
     1
176
     1
 77
     6
176
     1
 78
     2
176
     1
 67
     7
176
     1
 79
     5
176
     1
170
     0
176
     1
171
     0
176
     1
290
     0
176
     1
 93
       13
176
     1
 44
0.0
176
     1
173
     0
176
     1
  0
VISUALSTYLE
  5
2D
102
{ACAD_REACTORS
330
2A
102
}
330
2A
100
AcDbVisualStyle
  2
Gouraud
 70
     2
177
     2
291
     1
 71
     2
176
     1
 72
     2
176
     1
 73
     1
176
     1
 90
        2
176
     1
 40
-0.6
176
     1
 41
30.0
176
     1
 62
     5
 63
     7
421
 16777215
176
     1
 74
     0
176
     1
 91
        4
176
     1
 64
     7
176
     1
 65
   257
176
     1
 75
     1
176
     1
175
     1
176
     1
 42
1.0
176
     1
 92
        0
176
     1
 66
     7
176
     1
 43
1.0
176
     1
 76
     1
176
     1
 77
     6
176
     1
 78
     2
176
     1
 67
     7
176
     1
 79
     5
176
     1
170
     0
176
     1
171
     0
176
     1
290
     0
176
     1
 93
       13
176
     1
 44
0.0
176
     1
173
     0
176
     1
  0
VISUALSTYLE
  5
2E
102
{ACAD_REACTORS
330
2A
102
}
330
2A
100
AcDbVisualStyle
  2
GouraudWithEdges
 70
     3
177
     2
291
     1
 71
     2
176
     1
 72
     2
176
     1
 73
     1
176
     1
 90
        2
176
     1
 40
-0.6
176
     1
 41
30.0
176
     1
 62
     5
 63
     7
421
 16777215
176
     1
 74
     1
176
     1
 91
        4
176
     1
 64
     7
176
     1
 65
   257
176
     1
 75
     1
176
     1
175
     1
176
     1
 42
1.0
176
     1
 92
        0
176
     1
 66
   257
176
     1
 43
1.0
176
     1
 76
     1
176
     1
 77
     6
176
     1
 78
     2
176
     1
 67
     7
176
     1
 79
     5
176
     1
170
     0
176
     1
171
     0
176
     1
290
     0
176
     1
 93
       13
176
     1
 44
0.0
176
     1
173
     0
176
     1
  0
VISUALSTYLE
  5
38
102
{ACAD_REACTORS
330
2A
102
}
330
2A
100
AcDbVisualStyle
  2
Linepattern
 70
    14
177
     2
291
     1
 71
     2
176
     1
 72
     2
176
     1
 73
     0
176
     1
 90
        0
176
     1
 40
-0.6
176
     1
 41
-30.0
176
     1
 62
     5
 63
     7
421
 16777215
176
     1
 74
     1
176
     1
 91
        4
176
     1
 64
     7
176
     1
 65
   257
176
     1
 75
     7
176
     1
175
     7
176
     1
 42
1.0
176
     1
 92
        8
176
     1
 66
     7
176
     1
 43
1.0
176
     1
 76
     1
176
     1
 77
     6
176
     1
 78
     2
176
     1
 67
     7
176
     1
 79
     5
176
     1
170
     0
176
     1
171
     0
176
     1
290
     0
176
     1
 93
        1
176
     1
 44
0.0
176
     1
173
     0
176
     1
  0
VISUALSTYLE
  5
33
102
{ACAD_REACTORS
330
2A
102
}
330
2A
100
AcDbVisualStyle
  2
Realistic
 70
     8
177
     2
291
     0
 71
     2
176
     1
 72
     2
176
     1
 73
     0
176
     1
 90
        0
176
     1
 40
-0.6
176
     1
 41
-30.0
176
     1
 62
     5
 63
     7
421
 16777215
176
     1
 74
     1
176
     1
 91
        0
176
     1
 64
     7
176
     1
 65
   257
176
     1
 75
     1
176
     1
175
     1
176
     1
 42
1.0
176
     1
 92
        8
176
     1
 66
     8
424
  7895160
176
     1
 43
1.0
176
     1
 76
     1
176
     1
 77
     6
176
     1
 78
     2
176
     1
 67
     7
176
     1
 79
     5
176
     1
170
     0
176
     1
171
     0
176
     1
290
     0
176
     1
 93
       13
176
     1
 44
0.0
176
     1
173
     0
176
     1
  0
VISUALSTYLE
  5
37
102
{ACAD_REACTORS
330
2A
102
}
330
2A
100
AcDbVisualStyle
  2
Thicken
 70
    13
177
     2
291
     1
 71
     2
176
     1
 72
     2
176
     1
 73
     0
176
     1
 90
        0
176
     1
 40
-0.6
176
     1
 41
-30.0
176
     1
 62
     5
 63
     7
421
 16777215
176
     1
 74
     1
176
     1
 91
        4
176
     1
 64
     7
176
     1
 65
   257
176
     1
 75
     1
176
     1
175
     1
176
     1
 42
1.0
176
     1
 92
       12
176
     1
 66
     7
176
     1
 43
1.0
176
     1
 76
     1
176
     1
 77
     6
176
     1
 78
     2
176
     1
 67
     7
176
     1
 79
     5
176
     1
170
     0
176
     1
171
     0
176
     1
290
     0
176
     1
 93
        1
176
     1
 44
0.0
176
     1
173
     0
176
     1
  0
ENDSEC
  0
EOF
