  0
SECTION
  2
HEADER
  9
$ACADVER
  1
AC1024
  9
$ACADMAINTVER
 70
     6
  9
$DWGCODEPAGE
  3
UNDEFINED
  9
$INSBASE
 10
0.0
 20
0.0
 30
0.0
  9
$EXTMIN
 10
1.000000000000000E+20
 20
1.000000000000000E+20
 30
1.000000000000000E+20
  9
$EXTMAX
 10
-1.000000000000000E+20
 20
-1.000000000000000E+20
 30
-1.000000000000000E+20
  9
$LIMMIN
 10
0.0
 20
0.0
  9
$LIMMAX
 10
12.0
 20
9.0
  9
$ORTHOMODE
 70
     0
  9
$REGENMODE
 70
     1
  9
$FILLMODE
 70
     1
  9
$QTEXTMODE
 70
     0
  9
$MIRRTEXT
 70
     1
  9
$LTSCALE
 40
1.0
  9
$ATTMODE
 70
     1
  9
$TEXTSIZE
 40
0.2
  9
$TRACEWID
 40
0.05
  9
$TEXTSTYLE
  7
Standard
  9
$CLAYER
  8
0
  9
$CELTYPE
  6
ByLayer
  9
$CECOLOR
 62
   256
  9
$CELTSCALE
 40
1.0
  9
$DISPSILH
 70
     0
  9
$DIMSCALE
 40
1.0
  9
$DIMASZ
 40
0.18
  9
$DIMEXO
 40
0.0625
  9
$DIMDLI
 40
0.38
  9
$DIMRND
 40
0.0
  9
$DIMDLE
 40
0.0
  9
$DIMEXE
 40
0.18
  9
$DIMTP
 40
0.0
  9
$DIMTM
 40
0.0
  9
$DIMTXT
 40
0.18
  9
$DIMCEN
 40
0.09
  9
$DIMTSZ
 40
0.0
  9
$DIMTOL
 70
     0
  9
$DIMLIM
 70
     0
  9
$DIMTIH
 70
     1
  9
$DIMTOH
 70
     1
  9
$DIMSE1
 70
     0
  9
$DIMSE2
 70
     0
  9
$DIMTAD
 70
     0
  9
$DIMZIN
 70
     0
  9
$DIMBLK
  1

  9
$DIMASO
 70
     1
  9
$DIMSHO
 70
     1
  9
$DIMPOST
  1

  9
$DIMAPOST
  1

  9
$DIMALT
 70
     0
  9
$DIMALTD
 70
     2
  9
$DIMALTF
 40
25.4
  9
$DIMLFAC
 40
1.0
  9
$DIMTOFL
 70
     0
  9
$DIMTVP
 40
0.0
  9
$DIMTIX
 70
     0
  9
$DIMSOXD
 70
     0
  9
$DIMSAH
 70
     0
  9
$DIMBLK1
  1

  9
$DIMBLK2
  1

  9
$DIMSTYLE
  2
Standard
  9
$DIMCLRD
 70
     0
  9
$DIMCLRE
 70
     0
  9
$DIMCLRT
 70
     0
  9
$DIMTFAC
 40
1.0
  9
$DIMGAP
 40
0.09
  9
$DIMJUST
 70
     0
  9
$DIMSD1
 70
     0
  9
$DIMSD2
 70
     0
  9
$DIMTOLJ
 70
     1
  9
$DIMTZIN
 70
     0
  9
$DIMALTZ
 70
     0
  9
$DIMALTTZ
 70
     0
  9
$DIMUPT
 70
     0
  9
$DIMDEC
 70
     4
  9
$DIMTDEC
 70
     4
  9
$DIMALTU
 70
     2
  9
$DIMALTTD
 70
     2
  9
$DIMTXSTY
  7
Standard
  9
$DIMAUNIT
 70
     0
  9
$DIMADEC
 70
     0
  9
$DIMALTRND
 40
0.0
  9
$DIMAZIN
 70
     0
  9
$DIMDSEP
 70
    46
  9
$DIMATFIT
 70
     3
  9
$DIMFRAC
 70
     0
  9
$DIMLDRBLK
  1

  9
$DIMLUNIT
 70
     2
  9
$DIMLWD
 70
    -2
  9
$DIMLWE
 70
    -2
  9
$DIMTMOVE
 70
     0
  9
$DIMFXL
 40
1.0
  9
$DIMFXLON
 70
     0
  9
$DIMJOGANG
 40
0.7853981633974483
  9
$DIMTFILL
 70
     0
  9
$DIMTFILLCLR
 70
     0
  9
$DIMARCSYM
 70
     0
  9
$DIMLTYPE
  6

  9
$DIMLTEX1
  6

  9
$DIMLTEX2
  6

  9
$DIMTXTDIRECTION
 70
     0
  9
$LUNITS
 70
     2
  9
$LUPREC
 70
     4
  9
$SKETCHINC
 40
0.1
  9
$FILLETRAD
 40
0.5
  9
$AUNITS
 70
     0
  9
$AUPREC
 70
     0
  9
$MENU
  1
.
  9
$ELEVATION
 40
0.0
  9
$PELEVATION
 40
0.0
  9
$THICKNESS
 40
0.0
  9
$LIMCHECK
 70
     0
  9
$CHAMFERA
 40
0.5
  9
$CHAMFERB
 40
0.5
  9
$CHAMFERC
 40
1.0
  9
$CHAMFERD
 40
0.0
  9
$SKPOLY
 70
     0
  9
$TDCREATE
 40
2457917.615509248
  9
$TDUCREATE
 40
2457917.240509259
  9
$TDUPDATE
 40
2457917.615509248
  9
$TDUUPDATE
 40
2457917.240509259
  9
$TDINDWG
 40
0.0000000116
  9
$TDUSRTIMER
 40
0.0000000116
  9
$USRTIMER
 70
     1
  9
$ANGBASE
 50
0.0
  9
$ANGDIR
 70
     0
  9
$PDMODE
 70
     0
  9
$PDSIZE
 40
0.0
  9
$PLINEWID
 40
0.0
  9
$SPLFRAME
 70
     0
  9
$SPLINETYPE
 70
     6
  9
$SPLINESEGS
 70
     8
  9
$HANDSEED
  5
E3
  9
$SURFTAB1
 70
     6
  9
$SURFTAB2
 70
     6
  9
$SURFTYPE
 70
     6
  9
$SURFU
 70
     6
  9
$SURFV
 70
     6
  9
$UCSBASE
  2

  9
$UCSNAME
  2

  9
$UCSORG
 10
0.0
 20
0.0
 30
0.0
  9
$UCSXDIR
 10
1.0
 20
0.0
 30
0.0
  9
$UCSYDIR
 10
0.0
 20
1.0
 30
0.0
  9
$UCSORTHOREF
  2

  9
$UCSORTHOVIEW
 70
     0
  9
$UCSORGTOP
 10
0.0
 20
0.0
 30
0.0
  9
$UCSORGBOTTOM
 10
0.0
 20
0.0
 30
0.0
  9
$UCSORGLEFT
 10
0.0
 20
0.0
 30
0.0
  9
$UCSORGRIGHT
 10
0.0
 20
0.0
 30
0.0
  9
$UCSORGFRONT
 10
0.0
 20
0.0
 30
0.0
  9
$UCSORGBACK
 10
0.0
 20
0.0
 30
0.0
  9
$PUCSBASE
  2

  9
$PUCSNAME
  2

  9
$PUCSORG
 10
0.0
 20
0.0
 30
0.0
  9
$PUCSXDIR
 10
1.0
 20
0.0
 30
0.0
  9
$PUCSYDIR
 10
0.0
 20
1.0
 30
0.0
  9
$PUCSORTHOREF
  2

  9
$PUCSORTHOVIEW
 70
     0
  9
$PUCSORGTOP
 10
0.0
 20
0.0
 30
0.0
  9
$PUCSORGBOTTOM
 10
0.0
 20
0.0
 30
0.0
  9
$PUCSORGLEFT
 10
0.0
 20
0.0
 30
0.0
  9
$PUCSORGRIGHT
 10
0.0
 20
0.0
 30
0.0
  9
$PUCSORGFRONT
 10
0.0
 20
0.0
 30
0.0
  9
$PUCSORGBACK
 10
0.0
 20
0.0
 30
0.0
  9
$USERI1
 70
     0
  9
$USERI2
 70
     0
  9
$USERI3
 70
     0
  9
$USERI4
 70
     0
  9
$USERI5
 70
     0
  9
$USERR1
 40
0.0
  9
$USERR2
 40
0.0
  9
$USERR3
 40
0.0
  9
$USERR4
 40
0.0
  9
$USERR5
 40
0.0
  9
$WORLDVIEW
 70
     1
  9
$SHADEDGE
 70
     3
  9
$SHADEDIF
 70
    70
  9
$TILEMODE
 70
     1
  9
$MAXACTVP
 70
    64
  9
$PINSBASE
 10
0.0
 20
0.0
 30
0.0
  9
$PLIMCHECK
 70
     0
  9
$PEXTMIN
 10
1.000000000000000E+20
 20
1.000000000000000E+20
 30
1.000000000000000E+20
  9
$PEXTMAX
 10
-1.000000000000000E+20
 20
-1.000000000000000E+20
 30
-1.000000000000000E+20
  9
$PLIMMIN
 10
0.0
 20
0.0
  9
$PLIMMAX
 10
12.0
 20
9.0
  9
$UNITMODE
 70
     0
  9
$VISRETAIN
 70
     1
  9
$PLINEGEN
 70
     0
  9
$PSLTSCALE
 70
     1
  9
$TREEDEPTH
 70
  3020
  9
$CMLSTYLE
  2
Standard
  9
$CMLJUST
 70
     0
  9
$CMLSCALE
 40
1.0
  9
$PROXYGRAPHICS
 70
     1
  9
$MEASUREMENT
 70
     0
  9
$CELWEIGHT
370
    -1
  9
$ENDCAPS
280
     0
  9
$JOINSTYLE
280
     0
  9
$LWDISPLAY
290
     1
  9
$INSUNITS
 70
     1
  9
$HYPERLINKBASE
  1

  9
$STYLESHEET
  1

  9
$XEDIT
290
     1
  9
$CEPSNTYPE
380
     0
  9
$PSTYLEMODE
290
     1
  9
$FINGERPRINTGUID
  2
{937BF38F-3426-7937-4D9C-4302286DB293}
  9
$VERSIONGUID
  2
{FAEB1C32-E019-11D5-929B-00C0DF256EC4}
  9
$EXTNAMES
290
     1
  9
$PSVPSCALE
 40
0.0
  9
$OLESTARTUP
290
     0
  9
$SORTENTS
280
   127
  9
$INDEXCTL
280
     0
  9
$HIDETEXT
280
     1
  9
$XCLIPFRAME
280
     2
  9
$HALOGAP
280
     0
  9
$OBSCOLOR
 70
   257
  9
$OBSLTYPE
280
     0
  9
$INTERSECTIONDISPLAY
280
     0
  9
$INTERSECTIONCOLOR
 70
   257
  9
$DIMASSOC
280
     2
  9
$PROJECTNAME
  1

  9
$CAMERADISPLAY
290
     0
  9
$LENSLENGTH
 40
50.0
  9
$CAMERAHEIGHT
 40
0.0
  9
$STEPSPERSEC
 40
2.0
  9
$STEPSIZE
 40
6.0
  9
$3DDWFPREC
 40
2.0
  9
$PSOLWIDTH
 40
0.25
  9
$PSOLHEIGHT
 40
4.0
  9
$LOFTANG1
 40
1.570796326794897
  9
$LOFTANG2
 40
1.570796326794897
  9
$LOFTMAG1
 40
0.0
  9
$LOFTMAG2
 40
0.0
  9
$LOFTPARAM
 70
     7
  9
$LOFTNORMALS
280
     1
  9
$LATITUDE
 40
37.795
  9
$LONGITUDE
 40
-122.394
  9
$NORTHDIRECTION
 40
0.0
  9
$TIMEZONE
 70
 -8000
  9
$LIGHTGLYPHDISPLAY
280
     1
  9
$TILEMODELIGHTSYNCH
280
     1
  9
$CMATERIAL
347
3C
  9
$SOLIDHIST
280
     1
  9
$SHOWHIST
280
     1
  9
$DWFFRAME
280
     2
  9
$DGNFRAME
280
     2
  9
$REALWORLDSCALE
290
     1
  9
$INTERFERECOLOR
 62
   256
  9
$CSHADOW
280
     0
  9
$SHADOWPLANELOCATION
 40
0.0
  0
ENDSEC
  0
SECTION
  2
CLASSES
  0
CLASS
  1
ACDBDICTIONARYWDFLT
  2
AcDbDictionaryWithDefault
  3
ObjectDBX Classes
 90
        0
 91
        4
280
     0
281
     0
  0
CLASS
  1
VISUALSTYLE
  2
AcDbVisualStyle
  3
ObjectDBX Classes
 90
     4095
 91
        4
280
     0
281
     0
  0
CLASS
  1
MATERIAL
  2
AcDbMaterial
  3
ObjectDBX Classes
 90
     1153
 91
        4
280
     0
281
     0
  0
CLASS
  1
SUN
  2
AcDbSun
  3
SCENEOE
 90
     1024
 91
        4
280
     0
281
     0
  0
ENDSEC
  0
SECTION
  2
TABLES
  0
TABLE
  2
VPORT
  5
8
330
0
100
AcDbSymbolTable
 70
     1
  0
VPORT
  5
29
330
8
100
AcDbSymbolTableRecord
100
AcDbViewportTableRecord
  2
*Active
 70
     0
 10
0.0
 20
0.0
 11
1.0
 21
1.0
 12
0.0
 22
0.0
 13
0.0
 23
0.0
 14
0.5
 24
0.5
 15
0.5
 25
0.5
 16
0.0
 26
0.0
 36
1.0
 17
91.00082462281999
 27
-128.4993055234307
 37
0.0
 40
256.9986110468615
 41
0.7081814508812795
 42
50.0
 43
0.0
 44
0.0
 50
0.0
 51
0.0
 71
     0
 72
   100
 73
     1
 74
     3
 75
     0
 76
     0
 77
     0
 78
     0
281
     0
 65
     1
110
0.0
120
0.0
130
0.0
111
1.0
121
0.0
131
0.0
112
0.0
122
1.0
132
0.0
 79
     0
146
0.0
 60
     3
 61
     5
292
     1
282
     1
141
0.0
142
0.0
 63
   250
361
3F
  0
ENDTAB
  0
TABLE
  2
LTYPE
  5
5
330
0
100
AcDbSymbolTable
 70
     1
  0
LTYPE
  5
14
330
5
100
AcDbSymbolTableRecord
100
AcDbLinetypeTableRecord
  2
ByBlock
 70
     0
  3

 72
    65
 73
     0
 40
0.0
  0
LTYPE
  5
15
330
5
100
AcDbSymbolTableRecord
100
AcDbLinetypeTableRecord
  2
ByLayer
 70
     0
  3

 72
    65
 73
     0
 40
0.0
  0
LTYPE
  5
16
330
5
100
AcDbSymbolTableRecord
100
AcDbLinetypeTableRecord
  2
Continuous
 70
     0
  3
Solid line
 72
    65
 73
     0
 40
0.0
  0
ENDTAB
  0
TABLE
  2
LAYER
  5
2
330
0
100
AcDbSymbolTable
 70
     2
  0
LAYER
  5
10
330
2
100
AcDbSymbolTableRecord
100
AcDbLayerTableRecord
  2
0
 70
     0
 62
     7
  6
Continuous
370
    -3
390
F
347
3E
  0
LAYER
  5
40
330
2
100
AcDbSymbolTableRecord
100
AcDbLayerTableRecord
  2
_U+30EC_U+30A4_U+30E4_U+30FC 1
 70
     0
 62
     7
  6
Continuous
370
    -3
390
F
347
3E
  0
ENDTAB
  0
TABLE
  2
STYLE
  5
3
330
0
100
AcDbSymbolTable
 70
     1
  0
STYLE
  5
11
330
3
100
AcDbSymbolTableRecord
100
AcDbTextStyleTableRecord
  2
Standard
 70
     0
 40
0.0
 41
1.0
 50
0.0
 71
     0
 42
0.2
  3
txt
  4

  0
ENDTAB
  0
TABLE
  2
VIEW
  5
6
330
0
100
AcDbSymbolTable
 70
     0
  0
ENDTAB
  0
TABLE
  2
UCS
  5
7
330
0
100
AcDbSymbolTable
 70
     0
  0
ENDTAB
  0
TABLE
  2
APPID
  5
9
330
0
100
AcDbSymbolTable
 70
     1
  0
APPID
  5
12
330
9
100
AcDbSymbolTableRecord
100
AcDbRegAppTableRecord
  2
ACAD
 70
     0
  0
ENDTAB
  0
TABLE
  2
DIMSTYLE
  5
A
330
0
100
AcDbSymbolTable
 70
     1
100
AcDbDimStyleTable
  0
DIMSTYLE
105
27
330
A
100
AcDbSymbolTableRecord
100
AcDbDimStyleTableRecord
  2
Standard
 70
     0
178
     0
340
11
  0
ENDTAB
  0
TABLE
  2
BLOCK_RECORD
  5
1
330
0
100
AcDbSymbolTable
 70
     7
  0
BLOCK_RECORD
  5
1F
330
1
100
AcDbSymbolTableRecord
100
AcDbBlockTableRecord
  2
*Model_Space
340
22
 70
     0
280
     1
281
     0
  0
BLOCK_RECORD
  5
1B
330
1
100
AcDbSymbolTableRecord
100
AcDbBlockTableRecord
  2
*Paper_Space
340
1E
 70
     0
280
     1
281
     0
  0
BLOCK_RECORD
  5
23
330
1
100
AcDbSymbolTableRecord
100
AcDbBlockTableRecord
  2
*Paper_Space0
340
26
 70
     0
280
     1
281
     0
  0
BLOCK_RECORD
  5
79
330
1
100
AcDbSymbolTableRecord
100
AcDbBlockTableRecord
  2
block 2
340
0
102
{BLKREFS
331
7A
102
}
 70
     0
280
     1
281
     0
  0
BLOCK_RECORD
  5
87
330
1
100
AcDbSymbolTableRecord
100
AcDbBlockTableRecord
  2
block 3
340
0
102
{BLKREFS
331
88
102
}
 70
     0
280
     1
281
     0
  0
BLOCK_RECORD
  5
99
330
1
100
AcDbSymbolTableRecord
100
AcDbBlockTableRecord
  2
block 4
340
0
102
{BLKREFS
331
9A
102
}
 70
     0
280
     1
281
     0
  0
BLOCK_RECORD
  5
A9
330
1
100
AcDbSymbolTableRecord
100
AcDbBlockTableRecord
  2
block 5
340
0
102
{BLKREFS
331
AA
102
}
 70
     0
280
     1
281
     0
  0
BLOCK_RECORD
  5
BB
330
1
100
AcDbSymbolTableRecord
100
AcDbBlockTableRecord
  2
block 6
340
0
102
{BLKREFS
331
BC
102
}
 70
     0
280
     1
281
     0
  0
BLOCK_RECORD
  5
CF
330
1
100
AcDbSymbolTableRecord
100
AcDbBlockTableRecord
  2
block 7
340
0
102
{BLKREFS
331
D0
102
}
 70
     0
280
     1
281
     0
  0
ENDTAB
  0
ENDSEC
  0
SECTION
  2
BLOCKS
  0
BLOCK
  5
20
330
1F
100
AcDbEntity
  8
0
100
AcDbBlockBegin
  2
*Model_Space
 70
     0
 10
0.0
 20
0.0
 30
0.0
  3
*Model_Space
  1

  0
ENDBLK
  5
21
330
1F
100
AcDbEntity
  8
0
100
AcDbBlockEnd
  0
BLOCK
  5
1C
330
1B
100
AcDbEntity
 67
     1
  8
0
100
AcDbBlockBegin
  2
*Paper_Space
 70
     0
 10
0.0
 20
0.0
 30
0.0
  3
*Paper_Space
  1

  0
ENDBLK
  5
1D
330
1B
100
AcDbEntity
 67
     1
  8
0
100
AcDbBlockEnd
  0
BLOCK
  5
24
330
23
100
AcDbEntity
  8
0
100
AcDbBlockBegin
  2
*Paper_Space0
 70
     0
 10
0.0
 20
0.0
 30
0.0
  3
*Paper_Space0
  1

  0
ENDBLK
  5
25
330
23
100
AcDbEntity
  8
0
100
AcDbBlockEnd
  0
BLOCK
  5
7B
330
79
100
AcDbEntity
  8
0
100
AcDbBlockBegin
  2
block 2
 70
     0
 10
0.0
 20
0.0
 30
0.0
  3
block 2
  1

  0
SPLINE
  5
7D
330
79
100
AcDbEntity
  8
_U+30EC_U+30A4_U+30E4_U+30FC 1
370
     0
100
AcDbSpline
210
0.0
220
0.0
230
1.0
 70
    11
 71
     3
 72
    26
 73
    22
 74
     0
 42
0.0000000001
 43
0.0000000001
 12
1.0
 22
0.0
 32
0.0
 13
1.0
 23
0.0
 33
0.0
 40
0.0
 40
0.0
 40
0.0
 40
0.0
 40
1.0
 40
1.0
 40
1.0
 40
2.0
 40
2.0
 40
2.0
 40
3.0
 40
3.0
 40
3.0
 40
4.0
 40
4.0
 40
4.0
 40
5.0
 40
5.0
 40
5.0
 40
6.0
 40
6.0
 40
6.0
 40
7.0
 40
7.0
 40
7.0
 40
7.0
 10
108.3303385145841
 20
-124.3076578465273
 30
0.0
 10
108.3303385145841
 20
-124.3076578465273
 30
0.0
 10
107.2261854115615
 20
-124.3076578465273
 30
0.0
 10
107.2261854115615
 20
-124.3076578465273
 30
0.0
 10
107.2261854115615
 20
-124.3076578465273
 30
0.0
 10
107.2261854115615
 20
-124.6600911146683
 30
0.0
 10
107.2261854115615
 20
-124.6600911146683
 30
0.0
 10
107.2261854115615
 20
-124.6600911146683
 30
0.0
 10
107.0780463056958
 20
-124.6600911146683
 30
0.0
 10
107.0780463056958
 20
-124.6600911146683
 30
0.0
 10
107.0632323951092
 20
-124.3052462796876
 30
0.0
 10
106.9002793786569
 20
-124.2556369047
 30
0.0
 10
106.7859022085466
 20
-124.2239420262357
 30
0.0
 10
106.7859022085466
 20
-124.2239420262357
 30
0.0
 10
106.7859022085466
 20
-124.0678792007539
 30
0.0
 10
106.7859022085466
 20
-124.0678792007539
 30
0.0
 10
106.7859022085466
 20
-124.0678792007539
 30
0.0
 10
108.3303385145841
 20
-124.0678792007539
 30
0.0
 10
108.3303385145841
 20
-124.0678792007539
 30
0.0
 10
108.3303385145841
 20
-124.0678792007539
 30
0.0
 10
108.3303385145841
 20
-124.3076578465273
 30
0.0
 10
108.3303385145841
 20
-124.3076578465273
 30
0.0
  0
HATCH
  5
7E
330
79
100
AcDbEntity
  8
_U+30EC_U+30A4_U+30E4_U+30FC 1
 62
     7
420
 16777215
100
AcDbHatch
 10
0.0
 20
0.0
 30
0.0
210
0.0
220
0.0
230
1.0
  2
SOLID
 70
     1
 71
     0
 91
        1
 92
        1
 93
        1
 72
     4
 94
        3
 73
     0
 74
     1
 95
       26
 96
       22
 40
0.0
 40
0.0
 40
0.0
 40
0.0
 40
1.0
 40
1.0
 40
1.0
 40
2.0
 40
2.0
 40
2.0
 40
3.0
 40
3.0
 40
3.0
 40
4.0
 40
4.0
 40
4.0
 40
5.0
 40
5.0
 40
5.0
 40
6.0
 40
6.0
 40
6.0
 40
7.0
 40
7.0
 40
7.0
 40
7.0
 10
108.3303385145841
 20
-124.3076578465273
 10
108.3303385145841
 20
-124.3076578465273
 10
107.2261854115615
 20
-124.3076578465273
 10
107.2261854115615
 20
-124.3076578465273
 10
107.2261854115615
 20
-124.3076578465273
 10
107.2261854115615
 20
-124.6600911146683
 10
107.2261854115615
 20
-124.6600911146683
 10
107.2261854115615
 20
-124.6600911146683
 10
107.0780463056958
 20
-124.6600911146683
 10
107.0780463056958
 20
-124.6600911146683
 10
107.0632323951092
 20
-124.3052462796876
 10
106.9002793786569
 20
-124.2556369047
 10
106.7859022085466
 20
-124.2239420262357
 10
106.7859022085466
 20
-124.2239420262357
 10
106.7859022085466
 20
-124.0678792007539
 10
106.7859022085466
 20
-124.0678792007539
 10
106.7859022085466
 20
-124.0678792007539
 10
108.3303385145841
 20
-124.0678792007539
 10
108.3303385145841
 20
-124.0678792007539
 10
108.3303385145841
 20
-124.0678792007539
 10
108.3303385145841
 20
-124.3076578465273
 10
108.3303385145841
 20
-124.3076578465273
 97
        0
 97
        0
 75
     2
 76
     1
 98
        0
  0
ENDBLK
  5
7C
330
79
100
AcDbEntity
  8
0
100
AcDbBlockEnd
  0
BLOCK
  5
89
330
87
100
AcDbEntity
  8
0
100
AcDbBlockBegin
  2
block 3
 70
     0
 10
0.0
 20
0.0
 30
0.0
  3
block 3
  1

  0
SPLINE
  5
8B
330
87
100
AcDbEntity
  8
_U+30EC_U+30A4_U+30E4_U+30FC 1
370
     0
100
AcDbSpline
210
0.0
220
0.0
230
1.0
 70
    11
 71
     3
 72
    62
 73
    58
 74
     0
 42
0.0000000001
 43
0.0000000001
 12
1.0
 22
0.0
 32
0.0
 13
1.0
 23
0.0
 33
0.0
 40
0.0
 40
0.0
 40
0.0
 40
0.0
 40
1.0
 40
1.0
 40
1.0
 40
2.0
 40
2.0
 40
2.0
 40
3.0
 40
3.0
 40
3.0
 40
4.0
 40
4.0
 40
4.0
 40
5.0
 40
5.0
 40
5.0
 40
6.0
 40
6.0
 40
6.0
 40
7.0
 40
7.0
 40
7.0
 40
8.0
 40
8.0
 40
8.0
 40
9.0
 40
9.0
 40
9.0
 40
10.0
 40
10.0
 40
10.0
 40
11.0
 40
11.0
 40
11.0
 40
12.0
 40
12.0
 40
12.0
 40
13.0
 40
13.0
 40
13.0
 40
14.0
 40
14.0
 40
14.0
 40
15.0
 40
15.0
 40
15.0
 40
16.0
 40
16.0
 40
16.0
 40
17.0
 40
17.0
 40
17.0
 40
18.0
 40
18.0
 40
18.0
 40
19.0
 40
19.0
 40
19.0
 40
19.0
 10
108.3809814182173
 20
-134.7369954090241
 30
0.0
 10
108.3809814182173
 20
-134.838625725839
 30
0.0
 10
108.3599663357572
 20
-135.0715141806419
 30
0.0
 10
108.1739311795537
 20
-135.204839375921
 30
0.0
 10
108.0616210667346
 20
-135.2840765720818
 30
0.0
 10
107.9624023167594
 20
-135.2885551962126
 30
0.0
 10
107.8776529678223
 20
-135.2930338203434
 30
0.0
 10
107.8776529678223
 20
-135.2930338203434
 30
0.0
 10
107.8776529678223
 20
-135.0580783082494
 30
0.0
 10
107.8776529678223
 20
-135.0580783082494
 30
0.0
 10
107.9517225207551
 20
-135.0556667414097
 30
0.0
 10
108.1863335233006
 20
-135.0442979263084
 30
0.0
 10
108.1863335233006
 20
-134.7414740331549
 30
0.0
 10
108.1863335233006
 20
-134.5943684559348
 30
0.0
 10
108.1167425944986
 20
-134.4317599490309
 30
0.0
 10
107.8883327638265
 20
-134.4317599490309
 30
0.0
 10
107.7718885364251
 20
-134.4317599490309
 30
0.0
 10
107.7233126900831
 20
-134.4724120757569
 30
0.0
 10
107.6916178116188
 20
-134.5061740115123
 30
0.0
 10
107.6175482586859
 20
-134.5854112076731
 30
0.0
 10
107.6048014053905
 20
-134.7097791546906
 30
0.0
 10
107.6048014053905
 20
-134.7686902874884
 30
0.0
 10
107.6048014053905
 20
-134.7890163508514
 30
0.0
 10
107.6068684626816
 20
-134.8272569107376
 30
0.0
 10
107.6110025772639
 20
-134.8568847319108
 30
0.0
 10
107.6110025772639
 20
-134.8568847319108
 30
0.0
 10
107.4163546823473
 20
-134.8568847319108
 30
0.0
 10
107.4163546823473
 20
-134.8568847319108
 30
0.0
 10
107.4229003637693
 20
-134.8162326051848
 30
0.0
 10
107.4249674210604
 20
-134.7707573447795
 30
0.0
 10
107.4249674210604
 20
-134.7642116633576
 30
0.0
 10
107.4249674210604
 20
-134.6939317154585
 30
0.0
 10
107.4036078290519
 20
-134.4813693240185
 30
0.0
 10
107.1669297692152
 20
-134.4813693240185
 30
0.0
 10
106.9891628421763
 20
-134.4813693240185
 30
0.0
 10
106.9340413144123
 20
-134.6215847102682
 30
0.0
 10
106.9340413144123
 20
-134.7390624663152
 30
0.0
 10
106.9340413144123
 20
-135.0219048056543
 30
0.0
 10
107.1669297692152
 20
-135.0308620539159
 30
0.0
 10
107.2385877553084
 20
-135.0353406780467
 30
0.0
 10
107.2385877553084
 20
-135.0353406780467
 30
0.0
 10
107.2385877553084
 20
-135.2523816936175
 30
0.0
 10
107.2385877553084
 20
-135.2523816936175
 30
0.0
 10
107.1138752987424
 20
-135.2434244453558
 30
0.0
 10
106.7373263622046
 20
-135.2141411337312
 30
0.0
 10
106.7373263622046
 20
-134.7256265939228
 30
0.0
 10
106.7373263622046
 20
-134.4858479481494
 30
0.0
 10
106.8644503856103
 20
-134.2281548058527
 30
0.0
 10
107.1603840877932
 20
-134.2281548058527
 30
0.0
 10
107.3467637535453
 20
-134.2281548058527
 30
0.0
 10
107.4291015356427
 20
-134.3301296322161
 30
0.0
 10
107.4904242352802
 20
-134.4362385731618
 30
0.0
 10
107.5179849991622
 20
-134.370781758942
 30
0.0
 10
107.5982557239685
 20
-134.1761338640254
 30
0.0
 10
107.8755859105311
 20
-134.1761338640254
 30
0.0
 10
108.2138942871826
 20
-134.1761338640254
 30
0.0
 10
108.3809814182173
 20
-134.4407171972926
 30
0.0
 10
108.3809814182173
 20
-134.7369954090241
 30
0.0
  0
HATCH
  5
8C
330
87
100
AcDbEntity
  8
_U+30EC_U+30A4_U+30E4_U+30FC 1
 62
     7
420
 16777215
100
AcDbHatch
 10
0.0
 20
0.0
 30
0.0
210
0.0
220
0.0
230
1.0
  2
SOLID
 70
     1
 71
     0
 91
        1
 92
        1
 93
        1
 72
     4
 94
        3
 73
     0
 74
     1
 95
       62
 96
       58
 40
0.0
 40
0.0
 40
0.0
 40
0.0
 40
1.0
 40
1.0
 40
1.0
 40
2.0
 40
2.0
 40
2.0
 40
3.0
 40
3.0
 40
3.0
 40
4.0
 40
4.0
 40
4.0
 40
5.0
 40
5.0
 40
5.0
 40
6.0
 40
6.0
 40
6.0
 40
7.0
 40
7.0
 40
7.0
 40
8.0
 40
8.0
 40
8.0
 40
9.0
 40
9.0
 40
9.0
 40
10.0
 40
10.0
 40
10.0
 40
11.0
 40
11.0
 40
11.0
 40
12.0
 40
12.0
 40
12.0
 40
13.0
 40
13.0
 40
13.0
 40
14.0
 40
14.0
 40
14.0
 40
15.0
 40
15.0
 40
15.0
 40
16.0
 40
16.0
 40
16.0
 40
17.0
 40
17.0
 40
17.0
 40
18.0
 40
18.0
 40
18.0
 40
19.0
 40
19.0
 40
19.0
 40
19.0
 10
108.3809814182173
 20
-134.7369954090241
 10
108.3809814182173
 20
-134.838625725839
 10
108.3599663357572
 20
-135.0715141806419
 10
108.1739311795537
 20
-135.204839375921
 10
108.0616210667346
 20
-135.2840765720818
 10
107.9624023167594
 20
-135.2885551962126
 10
107.8776529678223
 20
-135.2930338203434
 10
107.8776529678223
 20
-135.2930338203434
 10
107.8776529678223
 20
-135.0580783082494
 10
107.8776529678223
 20
-135.0580783082494
 10
107.9517225207551
 20
-135.0556667414097
 10
108.1863335233006
 20
-135.0442979263084
 10
108.1863335233006
 20
-134.7414740331549
 10
108.1863335233006
 20
-134.5943684559348
 10
108.1167425944986
 20
-134.4317599490309
 10
107.8883327638265
 20
-134.4317599490309
 10
107.7718885364251
 20
-134.4317599490309
 10
107.7233126900831
 20
-134.4724120757569
 10
107.6916178116188
 20
-134.5061740115123
 10
107.6175482586859
 20
-134.5854112076731
 10
107.6048014053905
 20
-134.7097791546906
 10
107.6048014053905
 20
-134.7686902874884
 10
107.6048014053905
 20
-134.7890163508514
 10
107.6068684626816
 20
-134.8272569107376
 10
107.6110025772639
 20
-134.8568847319108
 10
107.6110025772639
 20
-134.8568847319108
 10
107.4163546823473
 20
-134.8568847319108
 10
107.4163546823473
 20
-134.8568847319108
 10
107.4229003637693
 20
-134.8162326051848
 10
107.4249674210604
 20
-134.7707573447795
 10
107.4249674210604
 20
-134.7642116633576
 10
107.4249674210604
 20
-134.6939317154585
 10
107.4036078290519
 20
-134.4813693240185
 10
107.1669297692152
 20
-134.4813693240185
 10
106.9891628421763
 20
-134.4813693240185
 10
106.9340413144123
 20
-134.6215847102682
 10
106.9340413144123
 20
-134.7390624663152
 10
106.9340413144123
 20
-135.0219048056543
 10
107.1669297692152
 20
-135.0308620539159
 10
107.2385877553084
 20
-135.0353406780467
 10
107.2385877553084
 20
-135.0353406780467
 10
107.2385877553084
 20
-135.2523816936175
 10
107.2385877553084
 20
-135.2523816936175
 10
107.1138752987424
 20
-135.2434244453558
 10
106.7373263622046
 20
-135.2141411337312
 10
106.7373263622046
 20
-134.7256265939228
 10
106.7373263622046
 20
-134.4858479481494
 10
106.8644503856103
 20
-134.2281548058527
 10
107.1603840877932
 20
-134.2281548058527
 10
107.3467637535453
 20
-134.2281548058527
 10
107.4291015356427
 20
-134.3301296322161
 10
107.4904242352802
 20
-134.4362385731618
 10
107.5179849991622
 20
-134.370781758942
 10
107.5982557239685
 20
-134.1761338640254
 10
107.8755859105311
 20
-134.1761338640254
 10
108.2138942871826
 20
-134.1761338640254
 10
108.3809814182173
 20
-134.4407171972926
 10
108.3809814182173
 20
-134.7369954090241
 97
        0
 97
        0
 75
     2
 76
     1
 98
        0
  0
ENDBLK
  5
8A
330
87
100
AcDbEntity
  8
0
100
AcDbBlockEnd
  0
BLOCK
  5
9B
330
99
100
AcDbEntity
  8
0
100
AcDbBlockBegin
  2
block 4
 70
     0
 10
0.0
 20
0.0
 30
0.0
  3
block 4
  1

  0
SPLINE
  5
9D
330
99
100
AcDbEntity
  8
_U+30EC_U+30A4_U+30E4_U+30FC 1
370
     0
100
AcDbSpline
210
0.0
220
0.0
230
1.0
 70
    11
 71
     3
 72
    26
 73
    22
 74
     0
 42
0.0000000001
 43
0.0000000001
 12
1.0
 22
0.0
 32
0.0
 13
1.0
 23
0.0
 33
0.0
 40
0.0
 40
0.0
 40
0.0
 40
0.0
 40
1.0
 40
1.0
 40
1.0
 40
2.0
 40
2.0
 40
2.0
 40
3.0
 40
3.0
 40
3.0
 40
4.0
 40
4.0
 40
4.0
 40
5.0
 40
5.0
 40
5.0
 40
6.0
 40
6.0
 40
6.0
 40
7.0
 40
7.0
 40
7.0
 40
7.0
 10
77.86346433600289
 20
-139.5814886803824
 30
0.0
 10
77.86346433600289
 20
-139.5814886803824
 30
0.0
 10
77.86346433600289
 20
-138.4773355773598
 30
0.0
 10
77.86346433600289
 20
-138.4773355773598
 30
0.0
 10
77.86346433600289
 20
-138.4773355773598
 30
0.0
 10
77.51068655831331
 20
-138.4773355773598
 30
0.0
 10
77.51068655831331
 20
-138.4773355773598
 30
0.0
 10
77.51068655831331
 20
-138.4773355773598
 30
0.0
 10
77.51068655831331
 20
-138.3291964714941
 30
0.0
 10
77.51068655831331
 20
-138.3291964714941
 30
0.0
 10
77.8657036480683
 20
-138.3143825609075
 30
0.0
 10
77.91548527783016
 20
-138.1514295444552
 30
0.0
 10
77.94718015629446
 20
-138.0370523743449
 30
0.0
 10
77.94718015629446
 20
-138.0370523743449
 30
0.0
 10
78.10307072700202
 20
-138.0370523743449
 30
0.0
 10
78.10307072700202
 20
-138.0370523743449
 30
0.0
 10
78.10307072700202
 20
-138.0370523743449
 30
0.0
 10
78.10307072700202
 20
-139.5814886803824
 30
0.0
 10
78.10307072700202
 20
-139.5814886803824
 30
0.0
 10
78.10307072700202
 20
-139.5814886803824
 30
0.0
 10
77.86346433600289
 20
-139.5814886803824
 30
0.0
 10
77.86346433600289
 20
-139.5814886803824
 30
0.0
  0
HATCH
  5
9E
330
99
100
AcDbEntity
  8
_U+30EC_U+30A4_U+30E4_U+30FC 1
 62
     7
420
 16777215
100
AcDbHatch
 10
0.0
 20
0.0
 30
0.0
210
0.0
220
0.0
230
1.0
  2
SOLID
 70
     1
 71
     0
 91
        1
 92
        1
 93
        1
 72
     4
 94
        3
 73
     0
 74
     1
 95
       26
 96
       22
 40
0.0
 40
0.0
 40
0.0
 40
0.0
 40
1.0
 40
1.0
 40
1.0
 40
2.0
 40
2.0
 40
2.0
 40
3.0
 40
3.0
 40
3.0
 40
4.0
 40
4.0
 40
4.0
 40
5.0
 40
5.0
 40
5.0
 40
6.0
 40
6.0
 40
6.0
 40
7.0
 40
7.0
 40
7.0
 40
7.0
 10
77.86346433600289
 20
-139.5814886803824
 10
77.86346433600289
 20
-139.5814886803824
 10
77.86346433600289
 20
-138.4773355773598
 10
77.86346433600289
 20
-138.4773355773598
 10
77.86346433600289
 20
-138.4773355773598
 10
77.51068655831331
 20
-138.4773355773598
 10
77.51068655831331
 20
-138.4773355773598
 10
77.51068655831331
 20
-138.4773355773598
 10
77.51068655831331
 20
-138.3291964714941
 10
77.51068655831331
 20
-138.3291964714941
 10
77.8657036480683
 20
-138.3143825609075
 10
77.91548527783016
 20
-138.1514295444552
 10
77.94718015629446
 20
-138.0370523743449
 10
77.94718015629446
 20
-138.0370523743449
 10
78.10307072700202
 20
-138.0370523743449
 10
78.10307072700202
 20
-138.0370523743449
 10
78.10307072700202
 20
-138.0370523743449
 10
78.10307072700202
 20
-139.5814886803824
 10
78.10307072700202
 20
-139.5814886803824
 10
78.10307072700202
 20
-139.5814886803824
 10
77.86346433600289
 20
-139.5814886803824
 10
77.86346433600289
 20
-139.5814886803824
 97
        0
 97
        0
 75
     2
 76
     1
 98
        0
  0
SPLINE
  5
9F
330
99
100
AcDbEntity
  8
_U+30EC_U+30A4_U+30E4_U+30FC 1
370
     0
100
AcDbSpline
210
0.0
220
0.0
230
1.0
 70
    11
 71
     3
 72
    53
 73
    49
 74
     0
 42
0.0000000001
 43
0.0000000001
 12
1.0
 22
0.0
 32
0.0
 13
1.0
 23
0.0
 33
0.0
 40
0.0
 40
0.0
 40
0.0
 40
0.0
 40
1.0
 40
1.0
 40
1.0
 40
2.0
 40
2.0
 40
2.0
 40
3.0
 40
3.0
 40
3.0
 40
4.0
 40
4.0
 40
4.0
 40
5.0
 40
5.0
 40
5.0
 40
6.0
 40
6.0
 40
6.0
 40
7.0
 40
7.0
 40
7.0
 40
8.0
 40
8.0
 40
8.0
 40
9.0
 40
9.0
 40
9.0
 40
10.0
 40
10.0
 40
10.0
 40
11.0
 40
11.0
 40
11.0
 40
12.0
 40
12.0
 40
12.0
 40
13.0
 40
13.0
 40
13.0
 40
14.0
 40
14.0
 40
14.0
 40
15.0
 40
15.0
 40
15.0
 40
16.0
 40
16.0
 40
16.0
 40
16.0
 10
79.1529635761319
 20
-139.6321315840156
 30
0.0
 10
79.06924775584034
 20
-139.6321315840156
 30
0.0
 10
78.96072724805497
 20
-139.6152506161379
 30
0.0
 10
78.8522067402696
 20
-139.5518608592093
 30
0.0
 10
78.66686060316314
 20
-139.4419623132298
 30
0.0
 10
78.6441229729605
 20
-139.3107041752418
 30
0.0
 10
78.62379690959753
 20
-139.2028726865535
 30
0.0
 10
78.62379690959753
 20
-139.2028726865535
 30
0.0
 10
78.86116398853125
 20
-139.2028726865535
 30
0.0
 10
78.86116398853125
 20
-139.2028726865535
 30
0.0
 10
78.920075121329
 20
-139.4016546960524
 30
0.0
 10
79.05563962867359
 20
-139.4312825172255
 30
0.0
 10
79.15520288819731
 20
-139.4312825172255
 30
0.0
 10
79.30437552270863
 20
-139.4312825172255
 30
0.0
 10
79.46715628438669
 20
-139.3317192577018
 30
0.0
 10
79.46715628438669
 20
-139.0991753124474
 30
0.0
 10
79.46715628438669
 20
-138.8432047178934
 30
0.0
 10
79.27491995630974
 20
-138.7732692795428
 30
0.0
 10
79.1460733851614
 20
-138.7732692795428
 30
0.0
 10
79.1121391946317
 20
-138.7732692795428
 30
0.0
 10
78.96072724805497
 20
-138.7732692795428
 30
0.0
 10
78.86581486743633
 20
-138.9024603602397
 30
0.0
 10
78.86581486743633
 20
-138.9024603602397
 30
0.0
 10
78.67805716349021
 20
-138.8835123350708
 30
0.0
 10
78.67805716349021
 20
-138.8835123350708
 30
0.0
 10
78.67805716349021
 20
-138.8835123350708
 30
0.0
 10
78.80707598941282
 20
-138.0370523743449
 30
0.0
 10
78.80707598941282
 20
-138.0370523743449
 30
0.0
 10
78.80707598941282
 20
-138.0370523743449
 30
0.0
 10
79.63906654910065
 20
-138.0370523743449
 30
0.0
 10
79.63906654910065
 20
-138.0370523743449
 30
0.0
 10
79.63906654910065
 20
-138.0370523743449
 30
0.0
 10
79.63906654910065
 20
-138.2317002692615
 30
0.0
 10
79.63906654910065
 20
-138.2317002692615
 30
0.0
 10
79.63906654910065
 20
-138.2317002692615
 30
0.0
 10
78.98105331141794
 20
-138.2317002692615
 30
0.0
 10
78.98105331141794
 20
-138.2317002692615
 30
0.0
 10
78.98105331141794
 20
-138.2317002692615
 30
0.0
 10
78.9109456182931
 20
-138.6547579948502
 30
0.0
 10
78.9109456182931
 20
-138.6547579948502
 30
0.0
 10
78.97657468728711
 20
-138.6209960590948
 30
0.0
 10
79.06476913170951
 20
-138.5806884419173
 30
0.0
 10
79.19137639079244
 20
-138.5806884419173
 30
0.0
 10
79.46267766025586
 20
-138.5806884419173
 30
0.0
 10
79.71589217842173
 20
-138.7670681076694
 30
0.0
 10
79.71589217842173
 20
-139.0802272872785
 30
0.0
 10
79.71589217842173
 20
-139.3975205814701
 30
0.0
 10
79.47611353264834
 20
-139.6321315840156
 30
0.0
 10
79.1529635761319
 20
-139.6321315840156
 30
0.0
  0
HATCH
  5
A0
330
99
100
AcDbEntity
  8
_U+30EC_U+30A4_U+30E4_U+30FC 1
 62
     7
420
 16777215
100
AcDbHatch
 10
0.0
 20
0.0
 30
0.0
210
0.0
220
0.0
230
1.0
  2
SOLID
 70
     1
 71
     0
 91
        1
 92
        1
 93
        1
 72
     4
 94
        3
 73
     0
 74
     1
 95
       53
 96
       49
 40
0.0
 40
0.0
 40
0.0
 40
0.0
 40
1.0
 40
1.0
 40
1.0
 40
2.0
 40
2.0
 40
2.0
 40
3.0
 40
3.0
 40
3.0
 40
4.0
 40
4.0
 40
4.0
 40
5.0
 40
5.0
 40
5.0
 40
6.0
 40
6.0
 40
6.0
 40
7.0
 40
7.0
 40
7.0
 40
8.0
 40
8.0
 40
8.0
 40
9.0
 40
9.0
 40
9.0
 40
10.0
 40
10.0
 40
10.0
 40
11.0
 40
11.0
 40
11.0
 40
12.0
 40
12.0
 40
12.0
 40
13.0
 40
13.0
 40
13.0
 40
14.0
 40
14.0
 40
14.0
 40
15.0
 40
15.0
 40
15.0
 40
16.0
 40
16.0
 40
16.0
 40
16.0
 10
79.1529635761319
 20
-139.6321315840156
 10
79.06924775584034
 20
-139.6321315840156
 10
78.96072724805497
 20
-139.6152506161379
 10
78.8522067402696
 20
-139.5518608592093
 10
78.66686060316314
 20
-139.4419623132298
 10
78.6441229729605
 20
-139.3107041752418
 10
78.62379690959753
 20
-139.2028726865535
 10
78.62379690959753
 20
-139.2028726865535
 10
78.86116398853125
 20
-139.2028726865535
 10
78.86116398853125
 20
-139.2028726865535
 10
78.920075121329
 20
-139.4016546960524
 10
79.05563962867359
 20
-139.4312825172255
 10
79.15520288819731
 20
-139.4312825172255
 10
79.30437552270863
 20
-139.4312825172255
 10
79.46715628438669
 20
-139.3317192577018
 10
79.46715628438669
 20
-139.0991753124474
 10
79.46715628438669
 20
-138.8432047178934
 10
79.27491995630974
 20
-138.7732692795428
 10
79.1460733851614
 20
-138.7732692795428
 10
79.1121391946317
 20
-138.7732692795428
 10
78.96072724805497
 20
-138.7732692795428
 10
78.86581486743633
 20
-138.9024603602397
 10
78.86581486743633
 20
-138.9024603602397
 10
78.67805716349021
 20
-138.8835123350708
 10
78.67805716349021
 20
-138.8835123350708
 10
78.67805716349021
 20
-138.8835123350708
 10
78.80707598941282
 20
-138.0370523743449
 10
78.80707598941282
 20
-138.0370523743449
 10
78.80707598941282
 20
-138.0370523743449
 10
79.63906654910065
 20
-138.0370523743449
 10
79.63906654910065
 20
-138.0370523743449
 10
79.63906654910065
 20
-138.0370523743449
 10
79.63906654910065
 20
-138.2317002692615
 10
79.63906654910065
 20
-138.2317002692615
 10
79.63906654910065
 20
-138.2317002692615
 10
78.98105331141794
 20
-138.2317002692615
 10
78.98105331141794
 20
-138.2317002692615
 10
78.98105331141794
 20
-138.2317002692615
 10
78.9109456182931
 20
-138.6547579948502
 10
78.9109456182931
 20
-138.6547579948502
 10
78.97657468728711
 20
-138.6209960590948
 10
79.06476913170951
 20
-138.5806884419173
 10
79.19137639079244
 20
-138.5806884419173
 10
79.46267766025586
 20
-138.5806884419173
 10
79.71589217842173
 20
-138.7670681076694
 10
79.71589217842173
 20
-139.0802272872785
 10
79.71589217842173
 20
-139.3975205814701
 10
79.47611353264834
 20
-139.6321315840156
 10
79.1529635761319
 20
-139.6321315840156
 97
        0
 97
        0
 75
     2
 76
     1
 98
        0
  0
ENDBLK
  5
9C
330
99
100
AcDbEntity
  8
0
100
AcDbBlockEnd
  0
BLOCK
  5
AB
330
A9
100
AcDbEntity
  8
0
100
AcDbBlockBegin
  2
block 5
 70
     0
 10
0.0
 20
0.0
 30
0.0
  3
block 5
  1

  0
SPLINE
  5
AD
330
A9
100
AcDbEntity
  8
_U+30EC_U+30A4_U+30E4_U+30FC 1
370
     0
100
AcDbSpline
210
0.0
220
0.0
230
1.0
 70
    11
 71
     3
 72
    53
 73
    49
 74
     0
 42
0.0000000001
 43
0.0000000001
 12
1.0
 22
0.0
 32
0.0
 13
1.0
 23
0.0
 33
0.0
 40
0.0
 40
0.0
 40
0.0
 40
0.0
 40
1.0
 40
1.0
 40
1.0
 40
2.0
 40
2.0
 40
2.0
 40
3.0
 40
3.0
 40
3.0
 40
4.0
 40
4.0
 40
4.0
 40
5.0
 40
5.0
 40
5.0
 40
6.0
 40
6.0
 40
6.0
 40
7.0
 40
7.0
 40
7.0
 40
8.0
 40
8.0
 40
8.0
 40
9.0
 40
9.0
 40
9.0
 40
10.0
 40
10.0
 40
10.0
 40
11.0
 40
11.0
 40
11.0
 40
12.0
 40
12.0
 40
12.0
 40
13.0
 40
13.0
 40
13.0
 40
14.0
 40
14.0
 40
14.0
 40
15.0
 40
15.0
 40
15.0
 40
16.0
 40
16.0
 40
16.0
 40
16.0
 10
88.52414006033425
 20
-139.6321315840156
 30
0.0
 10
88.44042424004267
 20
-139.6321315840156
 30
0.0
 10
88.3319037322573
 20
-139.6152506161379
 30
0.0
 10
88.22338322447193
 20
-139.5518608592093
 30
0.0
 10
88.0380370873655
 20
-139.4419623132298
 30
0.0
 10
88.01547171193711
 20
-139.3107041752418
 30
0.0
 10
87.99497339379987
 20
-139.2028726865535
 30
0.0
 10
87.99497339379987
 20
-139.2028726865535
 30
0.0
 10
88.23251272750785
 20
-139.2028726865535
 30
0.0
 10
88.23251272750785
 20
-139.2028726865535
 30
0.0
 10
88.29125160553136
 20
-139.4016546960524
 30
0.0
 10
88.42681611287594
 20
-139.4312825172255
 30
0.0
 10
88.52637937239966
 20
-139.4312825172255
 30
0.0
 10
88.67555200691098
 20
-139.4312825172255
 30
0.0
 10
88.83833276858903
 20
-139.3317192577018
 30
0.0
 10
88.83833276858903
 20
-139.0991753124474
 30
0.0
 10
88.83833276858903
 20
-138.8432047178934
 30
0.0
 10
88.6460964405121
 20
-138.7732692795428
 30
0.0
 10
88.51724986936375
 20
-138.7732692795428
 30
0.0
 10
88.48331567883403
 20
-138.7732692795428
 30
0.0
 10
88.3319037322573
 20
-138.7732692795428
 30
0.0
 10
88.23699135163868
 20
-138.9024603602397
 30
0.0
 10
88.23699135163868
 20
-138.9024603602397
 30
0.0
 10
88.04923364769256
 20
-138.8835123350708
 30
0.0
 10
88.04923364769256
 20
-138.8835123350708
 30
0.0
 10
88.04923364769256
 20
-138.8835123350708
 30
0.0
 10
88.1780802188409
 20
-138.0370523743449
 30
0.0
 10
88.1780802188409
 20
-138.0370523743449
 30
0.0
 10
88.1780802188409
 20
-138.0370523743449
 30
0.0
 10
89.01007077852874
 20
-138.0370523743449
 30
0.0
 10
89.01007077852874
 20
-138.0370523743449
 30
0.0
 10
89.01007077852874
 20
-138.0370523743449
 30
0.0
 10
89.01007077852874
 20
-138.2317002692615
 30
0.0
 10
89.01007077852874
 20
-138.2317002692615
 30
0.0
 10
89.01007077852874
 20
-138.2317002692615
 30
0.0
 10
88.35222979562027
 20
-138.2317002692615
 30
0.0
 10
88.35222979562027
 20
-138.2317002692615
 30
0.0
 10
88.35222979562027
 20
-138.2317002692615
 30
0.0
 10
88.28212210249545
 20
-138.6547579948502
 30
0.0
 10
88.28212210249545
 20
-138.6547579948502
 30
0.0
 10
88.34775117148945
 20
-138.6209960590948
 30
0.0
 10
88.43594561591185
 20
-138.5806884419173
 30
0.0
 10
88.56255287499478
 20
-138.5806884419173
 30
0.0
 10
88.8338541444582
 20
-138.5806884419173
 30
0.0
 10
89.08706866262408
 20
-138.7670681076694
 30
0.0
 10
89.08706866262408
 20
-139.0802272872785
 30
0.0
 10
89.08706866262408
 20
-139.3975205814701
 30
0.0
 10
88.84746227162495
 20
-139.6321315840156
 30
0.0
 10
88.52414006033425
 20
-139.6321315840156
 30
0.0
  0
HATCH
  5
AE
330
A9
100
AcDbEntity
  8
_U+30EC_U+30A4_U+30E4_U+30FC 1
 62
     7
420
 16777215
100
AcDbHatch
 10
0.0
 20
0.0
 30
0.0
210
0.0
220
0.0
230
1.0
  2
SOLID
 70
     1
 71
     0
 91
        1
 92
        1
 93
        1
 72
     4
 94
        3
 73
     0
 74
     1
 95
       53
 96
       49
 40
0.0
 40
0.0
 40
0.0
 40
0.0
 40
1.0
 40
1.0
 40
1.0
 40
2.0
 40
2.0
 40
2.0
 40
3.0
 40
3.0
 40
3.0
 40
4.0
 40
4.0
 40
4.0
 40
5.0
 40
5.0
 40
5.0
 40
6.0
 40
6.0
 40
6.0
 40
7.0
 40
7.0
 40
7.0
 40
8.0
 40
8.0
 40
8.0
 40
9.0
 40
9.0
 40
9.0
 40
10.0
 40
10.0
 40
10.0
 40
11.0
 40
11.0
 40
11.0
 40
12.0
 40
12.0
 40
12.0
 40
13.0
 40
13.0
 40
13.0
 40
14.0
 40
14.0
 40
14.0
 40
15.0
 40
15.0
 40
15.0
 40
16.0
 40
16.0
 40
16.0
 40
16.0
 10
88.52414006033425
 20
-139.6321315840156
 10
88.44042424004267
 20
-139.6321315840156
 10
88.3319037322573
 20
-139.6152506161379
 10
88.22338322447193
 20
-139.5518608592093
 10
88.0380370873655
 20
-139.4419623132298
 10
88.01547171193711
 20
-139.3107041752418
 10
87.99497339379987
 20
-139.2028726865535
 10
87.99497339379987
 20
-139.2028726865535
 10
88.23251272750785
 20
-139.2028726865535
 10
88.23251272750785
 20
-139.2028726865535
 10
88.29125160553136
 20
-139.4016546960524
 10
88.42681611287594
 20
-139.4312825172255
 10
88.52637937239966
 20
-139.4312825172255
 10
88.67555200691098
 20
-139.4312825172255
 10
88.83833276858903
 20
-139.3317192577018
 10
88.83833276858903
 20
-139.0991753124474
 10
88.83833276858903
 20
-138.8432047178934
 10
88.6460964405121
 20
-138.7732692795428
 10
88.51724986936375
 20
-138.7732692795428
 10
88.48331567883403
 20
-138.7732692795428
 10
88.3319037322573
 20
-138.7732692795428
 10
88.23699135163868
 20
-138.9024603602397
 10
88.23699135163868
 20
-138.9024603602397
 10
88.04923364769256
 20
-138.8835123350708
 10
88.04923364769256
 20
-138.8835123350708
 10
88.04923364769256
 20
-138.8835123350708
 10
88.1780802188409
 20
-138.0370523743449
 10
88.1780802188409
 20
-138.0370523743449
 10
88.1780802188409
 20
-138.0370523743449
 10
89.01007077852874
 20
-138.0370523743449
 10
89.01007077852874
 20
-138.0370523743449
 10
89.01007077852874
 20
-138.0370523743449
 10
89.01007077852874
 20
-138.2317002692615
 10
89.01007077852874
 20
-138.2317002692615
 10
89.01007077852874
 20
-138.2317002692615
 10
88.35222979562027
 20
-138.2317002692615
 10
88.35222979562027
 20
-138.2317002692615
 10
88.35222979562027
 20
-138.2317002692615
 10
88.28212210249545
 20
-138.6547579948502
 10
88.28212210249545
 20
-138.6547579948502
 10
88.34775117148945
 20
-138.6209960590948
 10
88.43594561591185
 20
-138.5806884419173
 10
88.56255287499478
 20
-138.5806884419173
 10
88.8338541444582
 20
-138.5806884419173
 10
89.08706866262408
 20
-138.7670681076694
 10
89.08706866262408
 20
-139.0802272872785
 10
89.08706866262408
 20
-139.3975205814701
 10
88.84746227162495
 20
-139.6321315840156
 10
88.52414006033425
 20
-139.6321315840156
 97
        0
 97
        0
 75
     2
 76
     1
 98
        0
  0
ENDBLK
  5
AC
330
A9
100
AcDbEntity
  8
0
100
AcDbBlockEnd
  0
BLOCK
  5
BD
330
BB
100
AcDbEntity
  8
0
100
AcDbBlockBegin
  2
block 6
 70
     0
 10
0.0
 20
0.0
 30
0.0
  3
block 6
  1

  0
SPLINE
  5
BF
330
BB
100
AcDbEntity
  8
_U+30EC_U+30A4_U+30E4_U+30FC 1
370
     0
100
AcDbSpline
210
0.0
220
0.0
230
1.0
 70
    11
 71
     3
 72
    62
 73
    58
 74
     0
 42
0.0000000001
 43
0.0000000001
 12
1.0
 22
0.0
 32
0.0
 13
1.0
 23
0.0
 33
0.0
 40
0.0
 40
0.0
 40
0.0
 40
0.0
 40
1.0
 40
1.0
 40
1.0
 40
2.0
 40
2.0
 40
2.0
 40
3.0
 40
3.0
 40
3.0
 40
4.0
 40
4.0
 40
4.0
 40
5.0
 40
5.0
 40
5.0
 40
6.0
 40
6.0
 40
6.0
 40
7.0
 40
7.0
 40
7.0
 40
8.0
 40
8.0
 40
8.0
 40
9.0
 40
9.0
 40
9.0
 40
10.0
 40
10.0
 40
10.0
 40
11.0
 40
11.0
 40
11.0
 40
12.0
 40
12.0
 40
12.0
 40
13.0
 40
13.0
 40
13.0
 40
14.0
 40
14.0
 40
14.0
 40
15.0
 40
15.0
 40
15.0
 40
16.0
 40
16.0
 40
16.0
 40
17.0
 40
17.0
 40
17.0
 40
18.0
 40
18.0
 40
18.0
 40
19.0
 40
19.0
 40
19.0
 40
19.0
 10
87.90540091118338
 20
-119.1326076633592
 30
0.0
 10
87.8037705943685
 20
-119.1326076633592
 30
0.0
 10
87.57088213956561
 20
-119.1114203261249
 30
0.0
 10
87.43755694428644
 20
-118.9252129151472
 30
0.0
 10
87.35831974812571
 20
-118.8130750571023
 30
0.0
 10
87.35384112399488
 20
-118.7136840523528
 30
0.0
 10
87.34936249986406
 20
-118.62910695819
 30
0.0
 10
87.34936249986406
 20
-118.62910695819
 30
0.0
 10
87.58431801195809
 20
-118.62910695819
 30
0.0
 10
87.58431801195809
 20
-118.62910695819
 30
0.0
 10
87.58672957879777
 20
-118.7031765111228
 30
0.0
 10
87.5980983938991
 20
-118.9379597684426
 30
0.0
 10
87.90092228705255
 20
-118.9379597684426
 30
0.0
 10
88.04802786427273
 20
-118.9379597684426
 30
0.0
 10
88.2106363711765
 20
-118.8681965848663
 30
0.0
 10
88.2106363711765
 20
-118.63961449942
 30
0.0
 10
88.2106363711765
 20
-118.5233425267928
 30
0.0
 10
88.16998424445056
 20
-118.4745944256765
 30
0.0
 10
88.13622230869511
 20
-118.4428995472122
 30
0.0
 10
88.05698511253436
 20
-118.3688299942793
 30
0.0
 10
87.93261716551685
 20
-118.3562553957582
 30
0.0
 10
87.87370603271907
 20
-118.3562553957582
 30
0.0
 10
87.8533799693561
 20
-118.3562553957582
 30
0.0
 10
87.81513940946984
 20
-118.3583224530493
 30
0.0
 10
87.78551158829669
 20
-118.3624565676316
 30
0.0
 10
87.78551158829669
 20
-118.3624565676316
 30
0.0
 10
87.78551158829669
 20
-118.167808672715
 30
0.0
 10
87.78551158829669
 20
-118.167808672715
 30
0.0
 10
87.82616371502263
 20
-118.1741820993627
 30
0.0
 10
87.87163897542793
 20
-118.1764214114281
 30
0.0
 10
87.8781846568499
 20
-118.1764214114281
 30
0.0
 10
87.948464604749
 20
-118.1764214114281
 30
0.0
 10
88.16102699618891
 20
-118.1552340741938
 30
0.0
 10
88.16102699618891
 20
-117.9182115048087
 30
0.0
 10
88.16102699618891
 20
-117.740616832544
 30
0.0
 10
88.02081160993924
 20
-117.68549530478
 30
0.0
 10
87.90333385389222
 20
-117.68549530478
 30
0.0
 10
87.62049151455321
 20
-117.68549530478
 30
0.0
 10
87.61153426629157
 20
-117.9182115048087
 30
0.0
 10
87.60705564216074
 20
-117.9902140004504
 30
0.0
 10
87.60705564216074
 20
-117.9902140004504
 30
0.0
 10
87.39001462659
 20
-117.9902140004504
 30
0.0
 10
87.39001462659
 20
-117.9902140004504
 30
0.0
 10
87.39897187485165
 20
-117.8653292891101
 30
0.0
 10
87.42825518647628
 20
-117.4887803525722
 30
0.0
 10
87.9167697262847
 20
-117.4887803525722
 30
0.0
 10
88.15654837205808
 20
-117.4887803525722
 30
0.0
 10
88.41424151435477
 20
-117.6157321212037
 30
0.0
 10
88.41424151435477
 20
-117.9118380781609
 30
0.0
 10
88.41424151435477
 20
-118.0980454891387
 30
0.0
 10
88.31226668799138
 20
-118.1805555260104
 30
0.0
 10
88.2061577470457
 20
-118.2418782256479
 30
0.0
 10
88.27161456126544
 20
-118.2694389895299
 30
0.0
 10
88.46626245618205
 20
-118.3498819691105
 30
0.0
 10
88.46626245618205
 20
-118.6270399008988
 30
0.0
 10
88.46626245618205
 20
-118.9655205323246
 30
0.0
 10
88.20167912291487
 20
-119.1326076633592
 30
0.0
 10
87.90540091118338
 20
-119.1326076633592
 30
0.0
  0
HATCH
  5
C0
330
BB
100
AcDbEntity
  8
_U+30EC_U+30A4_U+30E4_U+30FC 1
 62
     7
420
 16777215
100
AcDbHatch
 10
0.0
 20
0.0
 30
0.0
210
0.0
220
0.0
230
1.0
  2
SOLID
 70
     1
 71
     0
 91
        1
 92
        1
 93
        1
 72
     4
 94
        3
 73
     0
 74
     1
 95
       62
 96
       58
 40
0.0
 40
0.0
 40
0.0
 40
0.0
 40
1.0
 40
1.0
 40
1.0
 40
2.0
 40
2.0
 40
2.0
 40
3.0
 40
3.0
 40
3.0
 40
4.0
 40
4.0
 40
4.0
 40
5.0
 40
5.0
 40
5.0
 40
6.0
 40
6.0
 40
6.0
 40
7.0
 40
7.0
 40
7.0
 40
8.0
 40
8.0
 40
8.0
 40
9.0
 40
9.0
 40
9.0
 40
10.0
 40
10.0
 40
10.0
 40
11.0
 40
11.0
 40
11.0
 40
12.0
 40
12.0
 40
12.0
 40
13.0
 40
13.0
 40
13.0
 40
14.0
 40
14.0
 40
14.0
 40
15.0
 40
15.0
 40
15.0
 40
16.0
 40
16.0
 40
16.0
 40
17.0
 40
17.0
 40
17.0
 40
18.0
 40
18.0
 40
18.0
 40
19.0
 40
19.0
 40
19.0
 40
19.0
 10
87.90540091118338
 20
-119.1326076633592
 10
87.8037705943685
 20
-119.1326076633592
 10
87.57088213956561
 20
-119.1114203261249
 10
87.43755694428644
 20
-118.9252129151472
 10
87.35831974812571
 20
-118.8130750571023
 10
87.35384112399488
 20
-118.7136840523528
 10
87.34936249986406
 20
-118.62910695819
 10
87.34936249986406
 20
-118.62910695819
 10
87.58431801195809
 20
-118.62910695819
 10
87.58431801195809
 20
-118.62910695819
 10
87.58672957879777
 20
-118.7031765111228
 10
87.5980983938991
 20
-118.9379597684426
 10
87.90092228705255
 20
-118.9379597684426
 10
88.04802786427273
 20
-118.9379597684426
 10
88.2106363711765
 20
-118.8681965848663
 10
88.2106363711765
 20
-118.63961449942
 10
88.2106363711765
 20
-118.5233425267928
 10
88.16998424445056
 20
-118.4745944256765
 10
88.13622230869511
 20
-118.4428995472122
 10
88.05698511253436
 20
-118.3688299942793
 10
87.93261716551685
 20
-118.3562553957582
 10
87.87370603271907
 20
-118.3562553957582
 10
87.8533799693561
 20
-118.3562553957582
 10
87.81513940946984
 20
-118.3583224530493
 10
87.78551158829669
 20
-118.3624565676316
 10
87.78551158829669
 20
-118.3624565676316
 10
87.78551158829669
 20
-118.167808672715
 10
87.78551158829669
 20
-118.167808672715
 10
87.82616371502263
 20
-118.1741820993627
 10
87.87163897542793
 20
-118.1764214114281
 10
87.8781846568499
 20
-118.1764214114281
 10
87.948464604749
 20
-118.1764214114281
 10
88.16102699618891
 20
-118.1552340741938
 10
88.16102699618891
 20
-117.9182115048087
 10
88.16102699618891
 20
-117.740616832544
 10
88.02081160993924
 20
-117.68549530478
 10
87.90333385389222
 20
-117.68549530478
 10
87.62049151455321
 20
-117.68549530478
 10
87.61153426629157
 20
-117.9182115048087
 10
87.60705564216074
 20
-117.9902140004504
 10
87.60705564216074
 20
-117.9902140004504
 10
87.39001462659
 20
-117.9902140004504
 10
87.39001462659
 20
-117.9902140004504
 10
87.39897187485165
 20
-117.8653292891101
 10
87.42825518647628
 20
-117.4887803525722
 10
87.9167697262847
 20
-117.4887803525722
 10
88.15654837205808
 20
-117.4887803525722
 10
88.41424151435477
 20
-117.6157321212037
 10
88.41424151435477
 20
-117.9118380781609
 10
88.41424151435477
 20
-118.0980454891387
 10
88.31226668799138
 20
-118.1805555260104
 10
88.2061577470457
 20
-118.2418782256479
 10
88.27161456126544
 20
-118.2694389895299
 10
88.46626245618205
 20
-118.3498819691105
 10
88.46626245618205
 20
-118.6270399008988
 10
88.46626245618205
 20
-118.9655205323246
 10
88.20167912291487
 20
-119.1326076633592
 10
87.90540091118338
 20
-119.1326076633592
 97
        0
 97
        0
 75
     2
 76
     1
 98
        0
  0
SPLINE
  5
C1
330
BB
100
AcDbEntity
  8
_U+30EC_U+30A4_U+30E4_U+30FC 1
370
     0
100
AcDbSpline
210
0.0
220
0.0
230
1.0
 70
    11
 71
     3
 72
    53
 73
    49
 74
     0
 42
0.0000000001
 43
0.0000000001
 12
1.0
 22
0.0
 32
0.0
 13
1.0
 23
0.0
 33
0.0
 40
0.0
 40
0.0
 40
0.0
 40
0.0
 40
1.0
 40
1.0
 40
1.0
 40
2.0
 40
2.0
 40
2.0
 40
3.0
 40
3.0
 40
3.0
 40
4.0
 40
4.0
 40
4.0
 40
5.0
 40
5.0
 40
5.0
 40
6.0
 40
6.0
 40
6.0
 40
7.0
 40
7.0
 40
7.0
 40
8.0
 40
8.0
 40
8.0
 40
9.0
 40
9.0
 40
9.0
 40
10.0
 40
10.0
 40
10.0
 40
11.0
 40
11.0
 40
11.0
 40
12.0
 40
12.0
 40
12.0
 40
13.0
 40
13.0
 40
13.0
 40
14.0
 40
14.0
 40
14.0
 40
15.0
 40
15.0
 40
15.0
 40
16.0
 40
16.0
 40
16.0
 40
16.0
 10
89.15183645774677
 20
-119.1326076633592
 30
0.0
 10
89.06846514700372
 20
-119.1326076633592
 30
0.0
 10
88.95960012966982
 20
-119.1155544407072
 30
0.0
 10
88.85142413143298
 20
-119.0521646837786
 30
0.0
 10
88.66573348477802
 20
-118.9420938830249
 30
0.0
 10
88.64334036412389
 20
-118.8110079998111
 30
0.0
 10
88.62301430076091
 20
-118.7031765111228
 30
0.0
 10
88.62301430076091
 20
-118.7031765111228
 30
0.0
 10
88.86038137969463
 20
-118.7031765111228
 30
0.0
 10
88.86038137969463
 20
-118.7031765111228
 30
0.0
 10
88.91894800294388
 20
-118.9019585206217
 30
0.0
 10
89.05468476506272
 20
-118.9315863417949
 30
0.0
 10
89.15424802458644
 20
-118.9315863417949
 30
0.0
 10
89.30342065909775
 20
-118.9315863417949
 30
0.0
 10
89.46602916600155
 20
-118.8321953370454
 30
0.0
 10
89.46602916600155
 20
-118.5994791370168
 30
0.0
 10
89.46602916600155
 20
-118.3435085424627
 30
0.0
 10
89.27413734747314
 20
-118.2737453588864
 30
0.0
 10
89.1452907763248
 20
-118.2737453588864
 30
0.0
 10
89.11118433102082
 20
-118.2737453588864
 30
0.0
 10
88.95960012966982
 20
-118.2737453588864
 30
0.0
 10
88.86486000382546
 20
-118.402764184809
 30
0.0
 10
88.86486000382546
 20
-118.402764184809
 30
0.0
 10
88.67710229987934
 20
-118.3836439048659
 30
0.0
 10
88.67710229987934
 20
-118.3836439048659
 30
0.0
 10
88.67710229987934
 20
-118.3836439048659
 30
0.0
 10
88.80594887102768
 20
-117.5375284536885
 30
0.0
 10
88.80594887102768
 20
-117.5375284536885
 30
0.0
 10
88.80594887102768
 20
-117.5375284536885
 30
0.0
 10
89.63793943071552
 20
-117.5375284536885
 30
0.0
 10
89.63793943071552
 20
-117.5375284536885
 30
0.0
 10
89.63793943071552
 20
-117.5375284536885
 30
0.0
 10
89.63793943071552
 20
-117.7321763486052
 30
0.0
 10
89.63793943071552
 20
-117.7321763486052
 30
0.0
 10
89.63793943071552
 20
-117.7321763486052
 30
0.0
 10
88.98027070258132
 20
-117.7321763486052
 30
0.0
 10
88.98027070258132
 20
-117.7321763486052
 30
0.0
 10
88.98027070258132
 20
-117.7321763486052
 30
0.0
 10
88.90999075468223
 20
-118.1552340741938
 30
0.0
 10
88.90999075468223
 20
-118.1552340741938
 30
0.0
 10
88.97544756890197
 20
-118.1212998836641
 30
0.0
 10
89.06364201332437
 20
-118.081164521261
 30
0.0
 10
89.19042152718157
 20
-118.081164521261
 30
0.0
 10
89.46155054187072
 20
-118.081164521261
 30
0.0
 10
89.71476506003658
 20
-118.2673719322387
 30
0.0
 10
89.71476506003658
 20
-118.5803588570737
 30
0.0
 10
89.71476506003658
 20
-118.8978244060394
 30
0.0
 10
89.47533092381173
 20
-119.1326076633592
 30
0.0
 10
89.15183645774677
 20
-119.1326076633592
 30
0.0
  0
HATCH
  5
C2
330
BB
100
AcDbEntity
  8
_U+30EC_U+30A4_U+30E4_U+30FC 1
 62
     7
420
 16777215
100
AcDbHatch
 10
0.0
 20
0.0
 30
0.0
210
0.0
220
0.0
230
1.0
  2
SOLID
 70
     1
 71
     0
 91
        1
 92
        1
 93
        1
 72
     4
 94
        3
 73
     0
 74
     1
 95
       53
 96
       49
 40
0.0
 40
0.0
 40
0.0
 40
0.0
 40
1.0
 40
1.0
 40
1.0
 40
2.0
 40
2.0
 40
2.0
 40
3.0
 40
3.0
 40
3.0
 40
4.0
 40
4.0
 40
4.0
 40
5.0
 40
5.0
 40
5.0
 40
6.0
 40
6.0
 40
6.0
 40
7.0
 40
7.0
 40
7.0
 40
8.0
 40
8.0
 40
8.0
 40
9.0
 40
9.0
 40
9.0
 40
10.0
 40
10.0
 40
10.0
 40
11.0
 40
11.0
 40
11.0
 40
12.0
 40
12.0
 40
12.0
 40
13.0
 40
13.0
 40
13.0
 40
14.0
 40
14.0
 40
14.0
 40
15.0
 40
15.0
 40
15.0
 40
16.0
 40
16.0
 40
16.0
 40
16.0
 10
89.15183645774677
 20
-119.1326076633592
 10
89.06846514700372
 20
-119.1326076633592
 10
88.95960012966982
 20
-119.1155544407072
 10
88.85142413143298
 20
-119.0521646837786
 10
88.66573348477802
 20
-118.9420938830249
 10
88.64334036412389
 20
-118.8110079998111
 10
88.62301430076091
 20
-118.7031765111228
 10
88.62301430076091
 20
-118.7031765111228
 10
88.86038137969463
 20
-118.7031765111228
 10
88.86038137969463
 20
-118.7031765111228
 10
88.91894800294388
 20
-118.9019585206217
 10
89.05468476506272
 20
-118.9315863417949
 10
89.15424802458644
 20
-118.9315863417949
 10
89.30342065909775
 20
-118.9315863417949
 10
89.46602916600155
 20
-118.8321953370454
 10
89.46602916600155
 20
-118.5994791370168
 10
89.46602916600155
 20
-118.3435085424627
 10
89.27413734747314
 20
-118.2737453588864
 10
89.1452907763248
 20
-118.2737453588864
 10
89.11118433102082
 20
-118.2737453588864
 10
88.95960012966982
 20
-118.2737453588864
 10
88.86486000382546
 20
-118.402764184809
 10
88.86486000382546
 20
-118.402764184809
 10
88.67710229987934
 20
-118.3836439048659
 10
88.67710229987934
 20
-118.3836439048659
 10
88.67710229987934
 20
-118.3836439048659
 10
88.80594887102768
 20
-117.5375284536885
 10
88.80594887102768
 20
-117.5375284536885
 10
88.80594887102768
 20
-117.5375284536885
 10
89.63793943071552
 20
-117.5375284536885
 10
89.63793943071552
 20
-117.5375284536885
 10
89.63793943071552
 20
-117.5375284536885
 10
89.63793943071552
 20
-117.7321763486052
 10
89.63793943071552
 20
-117.7321763486052
 10
89.63793943071552
 20
-117.7321763486052
 10
88.98027070258132
 20
-117.7321763486052
 10
88.98027070258132
 20
-117.7321763486052
 10
88.98027070258132
 20
-117.7321763486052
 10
88.90999075468223
 20
-118.1552340741938
 10
88.90999075468223
 20
-118.1552340741938
 10
88.97544756890197
 20
-118.1212998836641
 10
89.06364201332437
 20
-118.081164521261
 10
89.19042152718157
 20
-118.081164521261
 10
89.46155054187072
 20
-118.081164521261
 10
89.71476506003658
 20
-118.2673719322387
 10
89.71476506003658
 20
-118.5803588570737
 10
89.71476506003658
 20
-118.8978244060394
 10
89.47533092381173
 20
-119.1326076633592
 10
89.15183645774677
 20
-119.1326076633592
 97
        0
 97
        0
 75
     2
 76
     1
 98
        0
  0
ENDBLK
  5
BE
330
BB
100
AcDbEntity
  8
0
100
AcDbBlockEnd
  0
BLOCK
  5
D1
330
CF
100
AcDbEntity
  8
0
100
AcDbBlockBegin
  2
block 7
 70
     0
 10
0.0
 20
0.0
 30
0.0
  3
block 7
  1

  0
SPLINE
  5
D3
330
CF
100
AcDbEntity
  8
_U+30EC_U+30A4_U+30E4_U+30FC 1
370
     0
100
AcDbSpline
210
0.0
220
0.0
230
1.0
 70
    11
 71
     3
 72
    29
 73
    25
 74
     0
 42
0.0000000001
 43
0.0000000001
 12
1.0
 22
0.0
 32
0.0
 13
1.0
 23
0.0
 33
0.0
 40
0.0
 40
0.0
 40
0.0
 40
0.0
 40
1.0
 40
1.0
 40
1.0
 40
2.0
 40
2.0
 40
2.0
 40
3.0
 40
3.0
 40
3.0
 40
4.0
 40
4.0
 40
4.0
 40
5.0
 40
5.0
 40
5.0
 40
6.0
 40
6.0
 40
6.0
 40
7.0
 40
7.0
 40
7.0
 40
8.0
 40
8.0
 40
8.0
 40
8.0
 10
108.3809814182173
 20
-129.8993923286363
 30
0.0
 10
108.3809814182173
 20
-130.1839572157179
 30
0.0
 10
108.2435221083558
 20
-130.4554307399556
 30
0.0
 10
107.8945339357
 20
-130.4554307399556
 30
0.0
 10
107.6385633411459
 20
-130.4554307399556
 30
0.0
 10
107.543478705753
 20
-130.3038465386046
 30
0.0
 10
107.4821560061156
 20
-130.1908474066884
 30
0.0
 10
107.4229003637693
 20
-130.3241726019676
 30
0.0
 10
107.308523193659
 20
-130.405821364968
 30
0.0
 10
107.1476372344978
 20
-130.405821364968
 30
0.0
 10
106.8727186147749
 20
-130.405821364968
 30
0.0
 10
106.7373263622046
 20
-130.1932589735281
 30
0.0
 10
106.7373263622046
 20
-129.8993923286363
 30
0.0
 10
106.7373263622046
 20
-129.5962239259343
 30
0.0
 10
106.881331353488
 20
-129.3929632923045
 30
0.0
 10
107.1476372344978
 20
-129.3929632923045
 30
0.0
 10
107.308523193659
 20
-129.3929632923045
 30
0.0
 10
107.4229003637693
 20
-129.4763346030476
 30
0.0
 10
107.4821560061156
 20
-129.6100043078753
 30
0.0
 10
107.5327989097487
 20
-129.5149196724824
 30
0.0
 10
107.6278835451416
 20
-129.3454209746081
 30
0.0
 10
107.8903998211177
 20
-129.3454209746081
 30
0.0
 10
108.2648817003643
 20
-129.3454209746081
 30
0.0
 10
108.3809814182173
 20
-129.6437662436307
 30
0.0
 10
108.3809814182173
 20
-129.8993923286363
 30
0.0
  0
SPLINE
  5
D4
330
CF
100
AcDbEntity
  8
_U+30EC_U+30A4_U+30E4_U+30FC 1
370
     0
100
AcDbSpline
210
0.0
220
0.0
230
1.0
 70
    11
 71
     3
 72
    17
 73
    13
 74
     0
 42
0.0000000001
 43
0.0000000001
 12
1.0
 22
0.0
 32
0.0
 13
1.0
 23
0.0
 33
0.0
 40
0.0
 40
0.0
 40
0.0
 40
0.0
 40
1.0
 40
1.0
 40
1.0
 40
2.0
 40
2.0
 40
2.0
 40
3.0
 40
3.0
 40
3.0
 40
4.0
 40
4.0
 40
4.0
 40
4.0
 10
106.92990719983
 20
-129.8993923286363
 30
0.0
 10
106.92990719983
 20
-130.0757812174811
 30
0.0
 10
107.0249918352229
 20
-130.1660427191946
 30
0.0
 10
107.1603840877932
 20
-130.1660427191946
 30
0.0
 10
107.2830294870681
 20
-130.1660427191946
 30
0.0
 10
107.4015407717607
 20
-130.0892170898735
 30
0.0
 10
107.4015407717607
 20
-129.8993923286363
 30
0.0
 10
107.4015407717607
 20
-129.7092230578505
 30
0.0
 10
107.2830294870681
 20
-129.6323974285294
 30
0.0
 10
107.1603840877932
 20
-129.6323974285294
 30
0.0
 10
107.0249918352229
 20
-129.6323974285294
 30
0.0
 10
106.92990719983
 20
-129.7250704970826
 30
0.0
 10
106.92990719983
 20
-129.8993923286363
 30
0.0
  0
SPLINE
  5
D5
330
CF
100
AcDbEntity
  8
_U+30EC_U+30A4_U+30E4_U+30FC 1
370
     0
100
AcDbSpline
210
0.0
220
0.0
230
1.0
 70
    11
 71
     3
 72
    17
 73
    13
 74
     0
 42
0.0000000001
 43
0.0000000001
 12
1.0
 22
0.0
 32
0.0
 13
1.0
 23
0.0
 33
0.0
 40
0.0
 40
0.0
 40
0.0
 40
0.0
 40
1.0
 40
1.0
 40
1.0
 40
2.0
 40
2.0
 40
2.0
 40
3.0
 40
3.0
 40
3.0
 40
4.0
 40
4.0
 40
4.0
 40
4.0
 10
107.5899874948039
 20
-129.8993923286363
 30
0.0
 10
107.5899874948039
 20
-130.0530435872784
 30
0.0
 10
107.6768039010322
 20
-130.2156520941822
 30
0.0
 10
107.8797200251134
 20
-130.2156520941822
 30
0.0
 10
108.0850477160343
 20
-130.2156520941822
 30
0.0
 10
108.1863335233006
 20
-130.0802598416119
 30
0.0
 10
108.1863335233006
 20
-129.8993923286363
 30
0.0
 10
108.1863335233006
 20
-129.7002658095888
 30
0.0
 10
108.0636881240257
 20
-129.5827880535418
 30
0.0
 10
107.8859211969869
 20
-129.5827880535418
 30
0.0
 10
107.6640570477368
 20
-129.5827880535418
 30
0.0
 10
107.5899874948039
 20
-129.7567653755469
 30
0.0
 10
107.5899874948039
 20
-129.8993923286363
 30
0.0
  0
HATCH
  5
D6
330
CF
100
AcDbEntity
  8
_U+30EC_U+30A4_U+30E4_U+30FC 1
 62
     7
420
 16777215
100
AcDbHatch
 10
0.0
 20
0.0
 30
0.0
210
0.0
220
0.0
230
1.0
  2
SOLID
 70
     1
 71
     0
 91
        3
 92
        1
 93
        1
 72
     4
 94
        3
 73
     0
 74
     1
 95
       29
 96
       25
 40
0.0
 40
0.0
 40
0.0
 40
0.0
 40
1.0
 40
1.0
 40
1.0
 40
2.0
 40
2.0
 40
2.0
 40
3.0
 40
3.0
 40
3.0
 40
4.0
 40
4.0
 40
4.0
 40
5.0
 40
5.0
 40
5.0
 40
6.0
 40
6.0
 40
6.0
 40
7.0
 40
7.0
 40
7.0
 40
8.0
 40
8.0
 40
8.0
 40
8.0
 10
108.3809814182173
 20
-129.8993923286363
 10
108.3809814182173
 20
-130.1839572157179
 10
108.2435221083558
 20
-130.4554307399556
 10
107.8945339357
 20
-130.4554307399556
 10
107.6385633411459
 20
-130.4554307399556
 10
107.543478705753
 20
-130.3038465386046
 10
107.4821560061156
 20
-130.1908474066884
 10
107.4229003637693
 20
-130.3241726019676
 10
107.308523193659
 20
-130.405821364968
 10
107.1476372344978
 20
-130.405821364968
 10
106.8727186147749
 20
-130.405821364968
 10
106.7373263622046
 20
-130.1932589735281
 10
106.7373263622046
 20
-129.8993923286363
 10
106.7373263622046
 20
-129.5962239259343
 10
106.881331353488
 20
-129.3929632923045
 10
107.1476372344978
 20
-129.3929632923045
 10
107.308523193659
 20
-129.3929632923045
 10
107.4229003637693
 20
-129.4763346030476
 10
107.4821560061156
 20
-129.6100043078753
 10
107.5327989097487
 20
-129.5149196724824
 10
107.6278835451416
 20
-129.3454209746081
 10
107.8903998211177
 20
-129.3454209746081
 10
108.2648817003643
 20
-129.3454209746081
 10
108.3809814182173
 20
-129.6437662436307
 10
108.3809814182173
 20
-129.8993923286363
 97
        0
 97
        0
 92
        1
 93
        1
 72
     4
 94
        3
 73
     0
 74
     1
 95
       17
 96
       13
 40
0.0
 40
0.0
 40
0.0
 40
0.0
 40
1.0
 40
1.0
 40
1.0
 40
2.0
 40
2.0
 40
2.0
 40
3.0
 40
3.0
 40
3.0
 40
4.0
 40
4.0
 40
4.0
 40
4.0
 10
106.92990719983
 20
-129.8993923286363
 10
106.92990719983
 20
-130.0757812174811
 10
107.0249918352229
 20
-130.1660427191946
 10
107.1603840877932
 20
-130.1660427191946
 10
107.2830294870681
 20
-130.1660427191946
 10
107.4015407717607
 20
-130.0892170898735
 10
107.4015407717607
 20
-129.8993923286363
 10
107.4015407717607
 20
-129.7092230578505
 10
107.2830294870681
 20
-129.6323974285294
 10
107.1603840877932
 20
-129.6323974285294
 10
107.0249918352229
 20
-129.6323974285294
 10
106.92990719983
 20
-129.7250704970826
 10
106.92990719983
 20
-129.8993923286363
 97
        0
 97
        0
 92
        1
 93
        1
 72
     4
 94
        3
 73
     0
 74
     1
 95
       17
 96
       13
 40
0.0
 40
0.0
 40
0.0
 40
0.0
 40
1.0
 40
1.0
 40
1.0
 40
2.0
 40
2.0
 40
2.0
 40
3.0
 40
3.0
 40
3.0
 40
4.0
 40
4.0
 40
4.0
 40
4.0
 10
107.5899874948039
 20
-129.8993923286363
 10
107.5899874948039
 20
-130.0530435872784
 10
107.6768039010322
 20
-130.2156520941822
 10
107.8797200251134
 20
-130.2156520941822
 10
108.0850477160343
 20
-130.2156520941822
 10
108.1863335233006
 20
-130.0802598416119
 10
108.1863335233006
 20
-129.8993923286363
 10
108.1863335233006
 20
-129.7002658095888
 10
108.0636881240257
 20
-129.5827880535418
 10
107.8859211969869
 20
-129.5827880535418
 10
107.6640570477368
 20
-129.5827880535418
 10
107.5899874948039
 20
-129.7567653755469
 10
107.5899874948039
 20
-129.8993923286363
 97
        0
 97
        0
 75
     2
 76
     1
 98
        0
  0
POLYLINE
  5
D7
330
CF
100
AcDbEntity
  8
_U+30EC_U+30A4_U+30E4_U+30FC 1
370
     0
100
AcDb2dPolyline
 66
     1
 10
0.0
 20
0.0
 30
0.0
  0
VERTEX
  5
D8
330
D7
100
AcDbEntity
  8
_U+30EC_U+30A4_U+30E4_U+30FC 1
370
     0
100
AcDbVertex
100
AcDb2dVertex
 10
108.3303385145841
 20
-129.1118435007081
 30
0.0
  0
VERTEX
  5
D9
330
D7
100
AcDbEntity
  8
_U+30EC_U+30A4_U+30E4_U+30FC 1
370
     0
100
AcDbVertex
100
AcDb2dVertex
 10
108.0785020346123
 20
-129.1118435007081
 30
0.0
  0
VERTEX
  5
DA
330
D7
100
AcDbEntity
  8
_U+30EC_U+30A4_U+30E4_U+30FC 1
370
     0
100
AcDbVertex
100
AcDb2dVertex
 10
108.0785020346123
 20
-128.8427815433101
 30
0.0
  0
VERTEX
  5
DB
330
D7
100
AcDbEntity
  8
_U+30EC_U+30A4_U+30E4_U+30FC 1
370
     0
100
AcDbVertex
100
AcDb2dVertex
 10
108.3303385145841
 20
-128.8427815433101
 30
0.0
  0
VERTEX
  5
DC
330
D7
100
AcDbEntity
  8
_U+30EC_U+30A4_U+30E4_U+30FC 1
370
     0
100
AcDbVertex
100
AcDb2dVertex
 10
108.3303385145841
 20
-129.1118435007081
 30
0.0
  0
SEQEND
  5
DD
330
D7
100
AcDbEntity
  8
_U+30EC_U+30A4_U+30E4_U+30FC 1
370
     0
  0
HATCH
  5
DE
330
CF
100
AcDbEntity
  8
_U+30EC_U+30A4_U+30E4_U+30FC 1
 62
     7
420
 16777215
100
AcDbHatch
 10
0.0
 20
0.0
 30
0.0
210
0.0
220
0.0
230
1.0
  2
SOLID
 70
     1
 71
     0
 91
        1
 92
        1
 93
        4
 72
     1
 10
108.3303385145841
 20
-129.1118435007081
 11
108.0785020346123
 21
-129.1118435007081
 72
     1
 10
108.0785020346123
 20
-129.1118435007081
 11
108.0785020346123
 21
-128.8427815433101
 72
     1
 10
108.0785020346123
 20
-128.8427815433101
 11
108.3303385145841
 21
-128.8427815433101
 72
     1
 10
108.3303385145841
 20
-128.8427815433101
 11
108.3303385145841
 21
-129.1118435007081
 97
        0
 75
     2
 76
     1
 98
        0
  0
SPLINE
  5
DF
330
CF
100
AcDbEntity
  8
_U+30EC_U+30A4_U+30E4_U+30FC 1
370
     0
100
AcDbSpline
210
0.0
220
0.0
230
1.0
 70
    11
 71
     3
 72
    53
 73
    49
 74
     0
 42
0.0000000001
 43
0.0000000001
 12
1.0
 22
0.0
 32
0.0
 13
1.0
 23
0.0
 33
0.0
 40
0.0
 40
0.0
 40
0.0
 40
0.0
 40
1.0
 40
1.0
 40
1.0
 40
2.0
 40
2.0
 40
2.0
 40
3.0
 40
3.0
 40
3.0
 40
4.0
 40
4.0
 40
4.0
 40
5.0
 40
5.0
 40
5.0
 40
6.0
 40
6.0
 40
6.0
 40
7.0
 40
7.0
 40
7.0
 40
8.0
 40
8.0
 40
8.0
 40
9.0
 40
9.0
 40
9.0
 40
10.0
 40
10.0
 40
10.0
 40
11.0
 40
11.0
 40
11.0
 40
12.0
 40
12.0
 40
12.0
 40
13.0
 40
13.0
 40
13.0
 40
14.0
 40
14.0
 40
14.0
 40
15.0
 40
15.0
 40
15.0
 40
16.0
 40
16.0
 40
16.0
 40
16.0
 10
108.3809814182173
 20
-128.0759032882935
 30
0.0
 10
108.3809814182173
 20
-128.1596191085851
 30
0.0
 10
108.3641004503395
 20
-128.2677951068219
 30
0.0
 10
108.3007106934109
 20
-128.3766601241558
 30
0.0
 10
108.1908121474315
 20
-128.5620062612623
 30
0.0
 10
108.0595540094434
 20
-128.5843993819164
 30
0.0
 10
107.9517225207551
 20
-128.6047254452794
 30
0.0
 10
107.9517225207551
 20
-128.6047254452794
 30
0.0
 10
107.9517225207551
 20
-128.3673583663457
 30
0.0
 10
107.9517225207551
 20
-128.3673583663457
 30
0.0
 10
108.150504530254
 20
-128.3087917430964
 30
0.0
 10
108.1801323514272
 20
-128.1730549809776
 30
0.0
 10
108.1801323514272
 20
-128.0734917214538
 30
0.0
 10
108.1801323514272
 20
-127.9243190869425
 30
0.0
 10
108.0805690919035
 20
-127.7613660704902
 30
0.0
 10
107.8480251466491
 20
-127.7613660704902
 30
0.0
 10
107.592054552095
 20
-127.7613660704902
 30
0.0
 10
107.5221191137445
 20
-127.9536023985672
 30
0.0
 10
107.5221191137445
 20
-128.0824489697155
 30
0.0
 10
107.5221191137445
 20
-128.1165554150195
 30
0.0
 10
107.5221191137445
 20
-128.2677951068219
 30
0.0
 10
107.6513101944414
 20
-128.3628797422148
 30
0.0
 10
107.6513101944414
 20
-128.3628797422148
 30
0.0
 10
107.6323621692725
 20
-128.5506374461609
 30
0.0
 10
107.6323621692725
 20
-128.5506374461609
 30
0.0
 10
107.6323621692725
 20
-128.5506374461609
 30
0.0
 10
106.7859022085466
 20
-128.4217908750126
 30
0.0
 10
106.7859022085466
 20
-128.4217908750126
 30
0.0
 10
106.7859022085466
 20
-128.4217908750126
 30
0.0
 10
106.7859022085466
 20
-127.5898003153248
 30
0.0
 10
106.7859022085466
 20
-127.5898003153248
 30
0.0
 10
106.7859022085466
 20
-127.5898003153248
 30
0.0
 10
106.9805501034632
 20
-127.5898003153248
 30
0.0
 10
106.9805501034632
 20
-127.5898003153248
 30
0.0
 10
106.9805501034632
 20
-127.5898003153248
 30
0.0
 10
106.9805501034632
 20
-128.247469043459
 30
0.0
 10
106.9805501034632
 20
-128.247469043459
 30
0.0
 10
106.9805501034632
 20
-128.247469043459
 30
0.0
 10
107.4036078290519
 20
-128.3177489913581
 30
0.0
 10
107.4036078290519
 20
-128.3177489913581
 30
0.0
 10
107.3698458932964
 20
-128.2522921771383
 30
0.0
 10
107.329538276119
 20
-128.1640977327159
 30
0.0
 10
107.329538276119
 20
-128.0373182188587
 30
0.0
 10
107.329538276119
 20
-127.7661892041696
 30
0.0
 10
107.515917941871
 20
-127.5129746860037
 30
0.0
 10
107.8290771214802
 20
-127.5129746860037
 30
0.0
 10
108.1463704156717
 20
-127.5129746860037
 30
0.0
 10
108.3809814182173
 20
-127.7524088222286
 30
0.0
 10
108.3809814182173
 20
-128.0759032882935
 30
0.0
  0
HATCH
  5
E0
330
CF
100
AcDbEntity
  8
_U+30EC_U+30A4_U+30E4_U+30FC 1
 62
     7
420
 16777215
100
AcDbHatch
 10
0.0
 20
0.0
 30
0.0
210
0.0
220
0.0
230
1.0
  2
SOLID
 70
     1
 71
     0
 91
        1
 92
        1
 93
        1
 72
     4
 94
        3
 73
     0
 74
     1
 95
       53
 96
       49
 40
0.0
 40
0.0
 40
0.0
 40
0.0
 40
1.0
 40
1.0
 40
1.0
 40
2.0
 40
2.0
 40
2.0
 40
3.0
 40
3.0
 40
3.0
 40
4.0
 40
4.0
 40
4.0
 40
5.0
 40
5.0
 40
5.0
 40
6.0
 40
6.0
 40
6.0
 40
7.0
 40
7.0
 40
7.0
 40
8.0
 40
8.0
 40
8.0
 40
9.0
 40
9.0
 40
9.0
 40
10.0
 40
10.0
 40
10.0
 40
11.0
 40
11.0
 40
11.0
 40
12.0
 40
12.0
 40
12.0
 40
13.0
 40
13.0
 40
13.0
 40
14.0
 40
14.0
 40
14.0
 40
15.0
 40
15.0
 40
15.0
 40
16.0
 40
16.0
 40
16.0
 40
16.0
 10
108.3809814182173
 20
-128.0759032882935
 10
108.3809814182173
 20
-128.1596191085851
 10
108.3641004503395
 20
-128.2677951068219
 10
108.3007106934109
 20
-128.3766601241558
 10
108.1908121474315
 20
-128.5620062612623
 10
108.0595540094434
 20
-128.5843993819164
 10
107.9517225207551
 20
-128.6047254452794
 10
107.9517225207551
 20
-128.6047254452794
 10
107.9517225207551
 20
-128.3673583663457
 10
107.9517225207551
 20
-128.3673583663457
 10
108.150504530254
 20
-128.3087917430964
 10
108.1801323514272
 20
-128.1730549809776
 10
108.1801323514272
 20
-128.0734917214538
 10
108.1801323514272
 20
-127.9243190869425
 10
108.0805690919035
 20
-127.7613660704902
 10
107.8480251466491
 20
-127.7613660704902
 10
107.592054552095
 20
-127.7613660704902
 10
107.5221191137445
 20
-127.9536023985672
 10
107.5221191137445
 20
-128.0824489697155
 10
107.5221191137445
 20
-128.1165554150195
 10
107.5221191137445
 20
-128.2677951068219
 10
107.6513101944414
 20
-128.3628797422148
 10
107.6513101944414
 20
-128.3628797422148
 10
107.6323621692725
 20
-128.5506374461609
 10
107.6323621692725
 20
-128.5506374461609
 10
107.6323621692725
 20
-128.5506374461609
 10
106.7859022085466
 20
-128.4217908750126
 10
106.7859022085466
 20
-128.4217908750126
 10
106.7859022085466
 20
-128.4217908750126
 10
106.7859022085466
 20
-127.5898003153248
 10
106.7859022085466
 20
-127.5898003153248
 10
106.7859022085466
 20
-127.5898003153248
 10
106.9805501034632
 20
-127.5898003153248
 10
106.9805501034632
 20
-127.5898003153248
 10
106.9805501034632
 20
-127.5898003153248
 10
106.9805501034632
 20
-128.247469043459
 10
106.9805501034632
 20
-128.247469043459
 10
106.9805501034632
 20
-128.247469043459
 10
107.4036078290519
 20
-128.3177489913581
 10
107.4036078290519
 20
-128.3177489913581
 10
107.3698458932964
 20
-128.2522921771383
 10
107.329538276119
 20
-128.1640977327159
 10
107.329538276119
 20
-128.0373182188587
 10
107.329538276119
 20
-127.7661892041696
 10
107.515917941871
 20
-127.5129746860037
 10
107.8290771214802
 20
-127.5129746860037
 10
108.1463704156717
 20
-127.5129746860037
 10
108.3809814182173
 20
-127.7524088222286
 10
108.3809814182173
 20
-128.0759032882935
 97
        0
 97
        0
 75
     2
 76
     1
 98
        0
  0
ENDBLK
  5
D2
330
CF
100
AcDbEntity
  8
0
100
AcDbBlockEnd
  0
ENDSEC
  0
SECTION
  2
ENTITIES
  0
POLYLINE
  5
41
330
1F
100
AcDbEntity
  8
_U+30EC_U+30A4_U+30E4_U+30FC 1
370
     0
100
AcDb2dPolyline
 66
     1
 10
0.0
 20
0.0
 30
0.0
  0
VERTEX
  5
42
330
41
100
AcDbEntity
  8
_U+30EC_U+30A4_U+30E4_U+30FC 1
370
     0
100
AcDbVertex
100
AcDb2dVertex
 10
71.04425679862112
 20
-124.7274408021515
 30
0.0
  0
VERTEX
  5
43
330
41
100
AcDbEntity
  8
_U+30EC_U+30A4_U+30E4_U+30FC 1
370
     0
100
AcDbVertex
100
AcDb2dVertex
 10
86.04521419369259
 20
-124.7274408021515
 30
0.0
  0
VERTEX
  5
44
330
41
100
AcDbEntity
  8
_U+30EC_U+30A4_U+30E4_U+30FC 1
370
     0
100
AcDbVertex
100
AcDb2dVertex
 10
86.04521419369259
 20
-136.2273613548323
 30
0.0
  0
VERTEX
  5
45
330
41
100
AcDbEntity
  8
_U+30EC_U+30A4_U+30E4_U+30FC 1
370
     0
100
AcDbVertex
100
AcDb2dVertex
 10
91.04474545503281
 20
-136.2273613548323
 30
0.0
  0
VERTEX
  5
46
330
41
100
AcDbEntity
  8
_U+30EC_U+30A4_U+30E4_U+30FC 1
370
     0
100
AcDbVertex
100
AcDb2dVertex
 10
91.04474545503281
 20
-133.2273391333597
 30
0.0
  0
VERTEX
  5
47
330
41
100
AcDbEntity
  8
_U+30EC_U+30A4_U+30E4_U+30FC 1
370
     0
100
AcDbVertex
100
AcDb2dVertex
 10
90.0449732583169
 20
-133.2273391333597
 30
0.0
  0
VERTEX
  5
48
330
41
100
AcDbEntity
  8
_U+30EC_U+30A4_U+30E4_U+30FC 1
370
     0
100
AcDbVertex
100
AcDb2dVertex
 10
90.0449732583169
 20
-135.2275891328597
 30
0.0
  0
VERTEX
  5
49
330
41
100
AcDbEntity
  8
_U+30EC_U+30A4_U+30E4_U+30FC 1
370
     0
100
AcDbVertex
100
AcDb2dVertex
 10
86.94507972629066
 20
-135.2275891328597
 30
0.0
  0
VERTEX
  5
4A
330
41
100
AcDbEntity
  8
_U+30EC_U+30A4_U+30E4_U+30FC 1
370
     0
100
AcDbVertex
100
AcDb2dVertex
 10
86.94507972629066
 20
-124.7274408021515
 30
0.0
  0
VERTEX
  5
4B
330
41
100
AcDbEntity
  8
_U+30EC_U+30A4_U+30E4_U+30FC 1
370
     0
100
AcDbVertex
100
AcDb2dVertex
 10
106.045208961228
 20
-124.7274408021515
 30
0.0
  0
VERTEX
  5
4C
330
41
100
AcDbEntity
  8
_U+30EC_U+30A4_U+30E4_U+30FC 1
370
     0
100
AcDbVertex
100
AcDb2dVertex
 10
106.045208961228
 20
-123.7276685801793
 30
0.0
  0
VERTEX
  5
4D
330
41
100
AcDbEntity
  8
_U+30EC_U+30A4_U+30E4_U+30FC 1
370
     0
100
AcDbVertex
100
AcDb2dVertex
 10
71.04425679862112
 20
-123.7276685801793
 30
0.0
  0
VERTEX
  5
4E
330
41
100
AcDbEntity
  8
_U+30EC_U+30A4_U+30E4_U+30FC 1
370
     0
100
AcDbVertex
100
AcDb2dVertex
 10
71.04425679862112
 20
-124.7274408021515
 30
0.0
  0
SEQEND
  5
50
330
41
100
AcDbEntity
  8
_U+30EC_U+30A4_U+30E4_U+30FC 1
370
     0
  0
HATCH
  5
4F
330
1F
100
AcDbEntity
  8
_U+30EC_U+30A4_U+30E4_U+30FC 1
 62
   253
420
 11711154
100
AcDbHatch
 10
0.0
 20
0.0
 30
0.0
210
0.0
220
0.0
230
1.0
  2
SOLID
 70
     1
 71
     0
 91
        1
 92
        1
 93
       12
 72
     1
 10
71.04425679862112
 20
-124.7274408021515
 11
86.04521419369259
 21
-124.7274408021515
 72
     1
 10
86.04521419369259
 20
-124.7274408021515
 11
86.04521419369259
 21
-136.2273613548323
 72
     1
 10
86.04521419369259
 20
-136.2273613548323
 11
91.04474545503281
 21
-136.2273613548323
 72
     1
 10
91.04474545503281
 20
-136.2273613548323
 11
91.04474545503281
 21
-133.2273391333597
 72
     1
 10
91.04474545503281
 20
-133.2273391333597
 11
90.0449732583169
 21
-133.2273391333597
 72
     1
 10
90.0449732583169
 20
-133.2273391333597
 11
90.0449732583169
 21
-135.2275891328597
 72
     1
 10
90.0449732583169
 20
-135.2275891328597
 11
86.94507972629066
 21
-135.2275891328597
 72
     1
 10
86.94507972629066
 20
-135.2275891328597
 11
86.94507972629066
 21
-124.7274408021515
 72
     1
 10
86.94507972629066
 20
-124.7274408021515
 11
106.045208961228
 21
-124.7274408021515
 72
     1
 10
106.045208961228
 20
-124.7274408021515
 11
106.045208961228
 21
-123.7276685801793
 72
     1
 10
106.045208961228
 20
-123.7276685801793
 11
71.04425679862112
 21
-123.7276685801793
 72
     1
 10
71.04425679862112
 20
-123.7276685801793
 11
71.04425679862112
 21
-124.7274408021515
 97
        0
 75
     2
 76
     1
 98
        0
  0
POLYLINE
  5
51
330
1F
100
AcDbEntity
  8
_U+30EC_U+30A4_U+30E4_U+30FC 1
 62
     7
420
 16777215
370
    25
100
AcDb2dPolyline
 66
     1
 10
0.0
 20
0.0
 30
0.0
  0
VERTEX
  5
52
330
51
100
AcDbEntity
  8
_U+30EC_U+30A4_U+30E4_U+30FC 1
 62
     7
420
 16777215
370
    25
100
AcDbVertex
100
AcDb2dVertex
 10
91.04474545503281
 20
-133.2273391333597
 30
0.0
  0
VERTEX
  5
53
330
51
100
AcDbEntity
  8
_U+30EC_U+30A4_U+30E4_U+30FC 1
 62
     7
420
 16777215
370
    25
100
AcDbVertex
100
AcDb2dVertex
 10
91.04474545503281
 20
-136.2273613548323
 30
0.0
  0
VERTEX
  5
54
330
51
100
AcDbEntity
  8
_U+30EC_U+30A4_U+30E4_U+30FC 1
 62
     7
420
 16777215
370
    25
100
AcDbVertex
100
AcDb2dVertex
 10
86.04521419369259
 20
-136.2273613548323
 30
0.0
  0
VERTEX
  5
55
330
51
100
AcDbEntity
  8
_U+30EC_U+30A4_U+30E4_U+30FC 1
 62
     7
420
 16777215
370
    25
100
AcDbVertex
100
AcDb2dVertex
 10
86.04521419369259
 20
-124.7274408021515
 30
0.0
  0
VERTEX
  5
56
330
51
100
AcDbEntity
  8
_U+30EC_U+30A4_U+30E4_U+30FC 1
 62
     7
420
 16777215
370
    25
100
AcDbVertex
100
AcDb2dVertex
 10
71.04425679862112
 20
-124.7274408021515
 30
0.0
  0
VERTEX
  5
57
330
51
100
AcDbEntity
  8
_U+30EC_U+30A4_U+30E4_U+30FC 1
 62
     7
420
 16777215
370
    25
100
AcDbVertex
100
AcDb2dVertex
 10
71.04425679862112
 20
-123.7276685801793
 30
0.0
  0
VERTEX
  5
58
330
51
100
AcDbEntity
  8
_U+30EC_U+30A4_U+30E4_U+30FC 1
 62
     7
420
 16777215
370
    25
100
AcDbVertex
100
AcDb2dVertex
 10
106.045208961228
 20
-123.7276685801793
 30
0.0
  0
VERTEX
  5
59
330
51
100
AcDbEntity
  8
_U+30EC_U+30A4_U+30E4_U+30FC 1
 62
     7
420
 16777215
370
    25
100
AcDbVertex
100
AcDb2dVertex
 10
106.045208961228
 20
-124.7274408021515
 30
0.0
  0
VERTEX
  5
5A
330
51
100
AcDbEntity
  8
_U+30EC_U+30A4_U+30E4_U+30FC 1
 62
     7
420
 16777215
370
    25
100
AcDbVertex
100
AcDb2dVertex
 10
86.94507972629066
 20
-124.7274408021515
 30
0.0
  0
VERTEX
  5
5B
330
51
100
AcDbEntity
  8
_U+30EC_U+30A4_U+30E4_U+30FC 1
 62
     7
420
 16777215
370
    25
100
AcDbVertex
100
AcDb2dVertex
 10
86.94507972629066
 20
-135.2275891328597
 30
0.0
  0
VERTEX
  5
5C
330
51
100
AcDbEntity
  8
_U+30EC_U+30A4_U+30E4_U+30FC 1
 62
     7
420
 16777215
370
    25
100
AcDbVertex
100
AcDb2dVertex
 10
90.0449732583169
 20
-135.2275891328597
 30
0.0
  0
VERTEX
  5
5D
330
51
100
AcDbEntity
  8
_U+30EC_U+30A4_U+30E4_U+30FC 1
 62
     7
420
 16777215
370
    25
100
AcDbVertex
100
AcDb2dVertex
 10
90.0449732583169
 20
-133.2273391333597
 30
0.0
  0
VERTEX
  5
5E
330
51
100
AcDbEntity
  8
_U+30EC_U+30A4_U+30E4_U+30FC 1
 62
     7
420
 16777215
370
    25
100
AcDbVertex
100
AcDb2dVertex
 10
91.04474545503281
 20
-133.2273391333597
 30
0.0
  0
SEQEND
  5
5F
330
51
100
AcDbEntity
  8
_U+30EC_U+30A4_U+30E4_U+30FC 1
 62
     7
420
 16777215
370
    25
  0
SPLINE
  5
60
330
1F
100
AcDbEntity
  8
_U+30EC_U+30A4_U+30E4_U+30FC 1
 62
     7
420
 16777215
370
     9
100
AcDbSpline
210
0.0
220
0.0
230
1.0
 70
    11
 71
     3
 72
    17
 73
    13
 74
     0
 42
0.0000000001
 43
0.0000000001
 12
1.0
 22
0.0
 32
0.0
 13
1.0
 23
0.0
 33
0.0
 40
0.0
 40
0.0
 40
0.0
 40
0.0
 40
1.0
 40
1.0
 40
1.0
 40
2.0
 40
2.0
 40
2.0
 40
3.0
 40
3.0
 40
3.0
 40
4.0
 40
4.0
 40
4.0
 40
4.0
 10
71.14416346273896
 20
-119.7275919145125
 30
0.0
 10
71.14416346273896
 20
-119.6724527478598
 30
0.0
 10
71.09936068610419
 20
-119.6276852478709
 30
0.0
 10
71.04425679862112
 20
-119.6276852478709
 30
0.0
 10
70.98911942669726
 20
-119.6276852478709
 30
0.0
 10
70.94435013450328
 20
-119.6724527478598
 30
0.0
 10
70.94435013450328
 20
-119.7275919145125
 30
0.0
 10
70.94435013450328
 20
-119.7828721922766
 30
0.0
 10
70.98911942669726
 20
-119.8276396922652
 30
0.0
 10
71.04425679862112
 20
-119.8276396922652
 30
0.0
 10
71.09936068610419
 20
-119.8276396922652
 30
0.0
 10
71.14416346273896
 20
-119.7828721922766
 30
0.0
 10
71.14416346273896
 20
-119.7275919145125
 30
0.0
  0
SPLINE
  5
61
330
1F
100
AcDbEntity
  8
_U+30EC_U+30A4_U+30E4_U+30FC 1
 62
     7
420
 16777215
370
     9
100
AcDbSpline
210
0.0
220
0.0
230
1.0
 70
    11
 71
     3
 72
    17
 73
    13
 74
     0
 42
0.0000000001
 43
0.0000000001
 12
1.0
 22
0.0
 32
0.0
 13
1.0
 23
0.0
 33
0.0
 40
0.0
 40
0.0
 40
0.0
 40
0.0
 40
1.0
 40
1.0
 40
1.0
 40
2.0
 40
2.0
 40
2.0
 40
3.0
 40
3.0
 40
3.0
 40
4.0
 40
4.0
 40
4.0
 40
4.0
 10
106.1457859031065
 20
-119.7275919145125
 30
0.0
 10
106.1457859031065
 20
-119.6724527478598
 30
0.0
 10
106.1010184042486
 20
-119.6276852478709
 30
0.0
 10
106.045208961228
 20
-119.6276852478709
 30
0.0
 10
105.990069795968
 20
-119.6276852478709
 30
0.0
 10
105.9453022971102
 20
-119.6724527478598
 30
0.0
 10
105.9453022971102
 20
-119.7275919145125
 30
0.0
 10
105.9453022971102
 20
-119.7828721922766
 30
0.0
 10
105.990069795968
 20
-119.8276396922652
 30
0.0
 10
106.045208961228
 20
-119.8276396922652
 30
0.0
 10
106.1010184042486
 20
-119.8276396922652
 30
0.0
 10
106.1457859031065
 20
-119.7828721922766
 30
0.0
 10
106.1457859031065
 20
-119.7275919145125
 30
0.0
  0
SPLINE
  5
62
330
1F
100
AcDbEntity
  8
_U+30EC_U+30A4_U+30E4_U+30FC 1
 62
     7
420
 16777215
370
     9
100
AcDbSpline
210
0.0
220
0.0
230
1.0
 70
    11
 71
     3
 72
    17
 73
    13
 74
     0
 42
0.0000000001
 43
0.0000000001
 12
1.0
 22
0.0
 32
0.0
 13
1.0
 23
0.0
 33
0.0
 40
0.0
 40
0.0
 40
0.0
 40
0.0
 40
1.0
 40
1.0
 40
1.0
 40
2.0
 40
2.0
 40
2.0
 40
3.0
 40
3.0
 40
3.0
 40
4.0
 40
4.0
 40
4.0
 40
4.0
 10
110.1455449677308
 20
-123.7276685801793
 30
0.0
 10
110.1455449677308
 20
-123.6725646913041
 30
0.0
 10
110.1007774688729
 20
-123.6277619135374
 30
0.0
 10
110.045638303613
 20
-123.6277619135374
 30
0.0
 10
109.9905344161299
 20
-123.6277619135374
 30
0.0
 10
109.9457316394952
 20
-123.6725646913041
 30
0.0
 10
109.9457316394952
 20
-123.7276685801793
 30
0.0
 10
109.9457316394952
 20
-123.7828077468321
 30
0.0
 10
109.9905344161299
 20
-123.827575246821
 30
0.0
 10
110.045638303613
 20
-123.827575246821
 30
0.0
 10
110.1007774688729
 20
-123.827575246821
 30
0.0
 10
110.1455449677308
 20
-123.7828077468321
 30
0.0
 10
110.1455449677308
 20
-123.7276685801793
 30
0.0
  0
SPLINE
  5
63
330
1F
100
AcDbEntity
  8
_U+30EC_U+30A4_U+30E4_U+30FC 1
 62
     7
420
 16777215
370
     9
100
AcDbSpline
210
0.0
220
0.0
230
1.0
 70
    11
 71
     3
 72
    17
 73
    13
 74
     0
 42
0.0000000001
 43
0.0000000001
 12
1.0
 22
0.0
 32
0.0
 13
1.0
 23
0.0
 33
0.0
 40
0.0
 40
0.0
 40
0.0
 40
0.0
 40
1.0
 40
1.0
 40
1.0
 40
2.0
 40
2.0
 40
2.0
 40
3.0
 40
3.0
 40
3.0
 40
4.0
 40
4.0
 40
4.0
 40
4.0
 10
110.1455449677308
 20
-124.7274408021515
 30
0.0
 10
110.1455449677308
 20
-124.6723369132763
 30
0.0
 10
110.1007774688729
 20
-124.6275341355099
 30
0.0
 10
110.045638303613
 20
-124.6275341355099
 30
0.0
 10
109.9905344161299
 20
-124.6275341355099
 30
0.0
 10
109.9457316394952
 20
-124.6723369132763
 30
0.0
 10
109.9457316394952
 20
-124.7274408021515
 30
0.0
 10
109.9457316394952
 20
-124.7828974688042
 30
0.0
 10
109.9905344161299
 20
-124.8277002465709
 30
0.0
 10
110.045638303613
 20
-124.8277002465709
 30
0.0
 10
110.1007774688729
 20
-124.8277002465709
 30
0.0
 10
110.1455449677308
 20
-124.7828974688042
 30
0.0
 10
110.1455449677308
 20
-124.7274408021515
 30
0.0
  0
SPLINE
  5
64
330
1F
100
AcDbEntity
  8
_U+30EC_U+30A4_U+30E4_U+30FC 1
 62
     7
420
 16777215
370
     9
100
AcDbSpline
210
0.0
220
0.0
230
1.0
 70
    11
 71
     3
 72
    17
 73
    13
 74
     0
 42
0.0000000001
 43
0.0000000001
 12
1.0
 22
0.0
 32
0.0
 13
1.0
 23
0.0
 33
0.0
 40
0.0
 40
0.0
 40
0.0
 40
0.0
 40
1.0
 40
1.0
 40
1.0
 40
2.0
 40
2.0
 40
2.0
 40
3.0
 40
3.0
 40
3.0
 40
4.0
 40
4.0
 40
4.0
 40
4.0
 10
110.1455449677308
 20
-133.2273391333597
 30
0.0
 10
110.1455449677308
 20
-133.1722352444848
 30
0.0
 10
110.1007774688729
 20
-133.1274324667181
 30
0.0
 10
110.045638303613
 20
-133.1274324667181
 30
0.0
 10
109.9905344161299
 20
-133.1274324667181
 30
0.0
 10
109.9457316394952
 20
-133.1722352444848
 30
0.0
 10
109.9457316394952
 20
-133.2273391333597
 30
0.0
 10
109.9457316394952
 20
-133.2824783000128
 30
0.0
 10
109.9905344161299
 20
-133.3272458000014
 30
0.0
 10
110.045638303613
 20
-133.3272458000014
 30
0.0
 10
110.1007774688729
 20
-133.3272458000014
 30
0.0
 10
110.1455449677308
 20
-133.2824783000128
 30
0.0
 10
110.1455449677308
 20
-133.2273391333597
 30
0.0
  0
SPLINE
  5
65
330
1F
100
AcDbEntity
  8
_U+30EC_U+30A4_U+30E4_U+30FC 1
 62
     7
420
 16777215
370
     9
100
AcDbSpline
210
0.0
220
0.0
230
1.0
 70
    11
 71
     3
 72
    17
 73
    13
 74
     0
 42
0.0000000001
 43
0.0000000001
 12
1.0
 22
0.0
 32
0.0
 13
1.0
 23
0.0
 33
0.0
 40
0.0
 40
0.0
 40
0.0
 40
0.0
 40
1.0
 40
1.0
 40
1.0
 40
2.0
 40
2.0
 40
2.0
 40
3.0
 40
3.0
 40
3.0
 40
4.0
 40
4.0
 40
4.0
 40
4.0
 10
110.1455449677308
 20
-136.2273613548323
 30
0.0
 10
110.1455449677308
 20
-136.1722221881792
 30
0.0
 10
110.1007774688729
 20
-136.1274194104124
 30
0.0
 10
110.045638303613
 20
-136.1274194104124
 30
0.0
 10
109.9905344161299
 20
-136.1274194104124
 30
0.0
 10
109.9457316394952
 20
-136.1722221881792
 30
0.0
 10
109.9457316394952
 20
-136.2273613548323
 30
0.0
 10
109.9457316394952
 20
-136.2824652437072
 30
0.0
 10
109.9905344161299
 20
-136.3272680214739
 30
0.0
 10
110.045638303613
 20
-136.3272680214739
 30
0.0
 10
110.1007774688729
 20
-136.3272680214739
 30
0.0
 10
110.1455449677308
 20
-136.2824652437072
 30
0.0
 10
110.1455449677308
 20
-136.2273613548323
 30
0.0
  0
SPLINE
  5
66
330
1F
100
AcDbEntity
  8
_U+30EC_U+30A4_U+30E4_U+30FC 1
 62
     7
420
 16777215
370
     9
100
AcDbSpline
210
0.0
220
0.0
230
1.0
 70
    11
 71
     3
 72
    17
 73
    13
 74
     0
 42
0.0000000001
 43
0.0000000001
 12
1.0
 22
0.0
 32
0.0
 13
1.0
 23
0.0
 33
0.0
 40
0.0
 40
0.0
 40
0.0
 40
0.0
 40
1.0
 40
1.0
 40
1.0
 40
2.0
 40
2.0
 40
2.0
 40
3.0
 40
3.0
 40
3.0
 40
4.0
 40
4.0
 40
4.0
 40
4.0
 10
86.14512085781043
 20
-140.227085242721
 30
0.0
 10
86.14512085781043
 20
-140.1719813538461
 30
0.0
 10
86.10035553403058
 20
-140.1271785760793
 30
0.0
 10
86.04521419369259
 20
-140.1271785760793
 30
0.0
 10
85.99011030620952
 20
-140.1271785760793
 30
0.0
 10
85.94530752957476
 20
-140.1719813538461
 30
0.0
 10
85.94530752957476
 20
-140.227085242721
 30
0.0
 10
85.94530752957476
 20
-140.2828946871514
 30
0.0
 10
85.99011030620952
 20
-140.3269919093626
 30
0.0
 10
86.04521419369259
 20
-140.3269919093626
 30
0.0
 10
86.10035553403058
 20
-140.3269919093626
 30
0.0
 10
86.14512085781043
 20
-140.2828946871514
 30
0.0
 10
86.14512085781043
 20
-140.227085242721
 30
0.0
  0
SPLINE
  5
67
330
1F
100
AcDbEntity
  8
_U+30EC_U+30A4_U+30E4_U+30FC 1
 62
     7
420
 16777215
370
     9
100
AcDbSpline
210
0.0
220
0.0
230
1.0
 70
    11
 71
     3
 72
    17
 73
    13
 74
     0
 42
0.0000000001
 43
0.0000000001
 12
1.0
 22
0.0
 32
0.0
 13
1.0
 23
0.0
 33
0.0
 40
0.0
 40
0.0
 40
0.0
 40
0.0
 40
1.0
 40
1.0
 40
1.0
 40
2.0
 40
2.0
 40
2.0
 40
3.0
 40
3.0
 40
3.0
 40
4.0
 40
4.0
 40
4.0
 40
4.0
 10
91.14465211915065
 20
-140.227085242721
 30
0.0
 10
91.14465211915065
 20
-140.1719813538461
 30
0.0
 10
91.09984934251588
 20
-140.1271785760793
 30
0.0
 10
91.04474545503281
 20
-140.1271785760793
 30
0.0
 10
90.98960628977287
 20
-140.1271785760793
 30
0.0
 10
90.94483879091497
 20
-140.1719813538461
 30
0.0
 10
90.94483879091497
 20
-140.227085242721
 30
0.0
 10
90.94483879091497
 20
-140.2828946871514
 30
0.0
 10
90.98960628977287
 20
-140.3269919093626
 30
0.0
 10
91.04474545503281
 20
-140.3269919093626
 30
0.0
 10
91.09984934251588
 20
-140.3269919093626
 30
0.0
 10
91.14465211915065
 20
-140.2828946871514
 30
0.0
 10
91.14465211915065
 20
-140.227085242721
 30
0.0
  0
SPLINE
  5
68
330
1F
100
AcDbEntity
  8
_U+30EC_U+30A4_U+30E4_U+30FC 1
 62
     7
420
 16777215
370
     9
100
AcDbSpline
210
0.0
220
0.0
230
1.0
 70
    11
 71
     3
 72
    17
 73
    13
 74
     0
 42
0.0000000001
 43
0.0000000001
 12
1.0
 22
0.0
 32
0.0
 13
1.0
 23
0.0
 33
0.0
 40
0.0
 40
0.0
 40
0.0
 40
0.0
 40
1.0
 40
1.0
 40
1.0
 40
2.0
 40
2.0
 40
2.0
 40
3.0
 40
3.0
 40
3.0
 40
4.0
 40
4.0
 40
4.0
 40
4.0
 10
71.14416346273896
 20
-140.227085242721
 30
0.0
 10
71.14416346273896
 20
-140.1719813538461
 30
0.0
 10
71.09936068610419
 20
-140.1271785760793
 30
0.0
 10
71.04425679862112
 20
-140.1271785760793
 30
0.0
 10
70.98911942669726
 20
-140.1271785760793
 30
0.0
 10
70.94435013450328
 20
-140.1719813538461
 30
0.0
 10
70.94435013450328
 20
-140.227085242721
 30
0.0
 10
70.94435013450328
 20
-140.2828946871514
 30
0.0
 10
70.98911942669726
 20
-140.3269919093626
 30
0.0
 10
71.04425679862112
 20
-140.3269919093626
 30
0.0
 10
71.09936068610419
 20
-140.3269919093626
 30
0.0
 10
71.14416346273896
 20
-140.2828946871514
 30
0.0
 10
71.14416346273896
 20
-140.227085242721
 30
0.0
  0
POLYLINE
  5
69
330
1F
100
AcDbEntity
  8
_U+30EC_U+30A4_U+30E4_U+30FC 1
 62
     7
420
 16777215
370
     9
100
AcDb2dPolyline
 66
     1
 10
0.0
 20
0.0
 30
0.0
  0
VERTEX
  5
6A
330
69
100
AcDbEntity
  8
_U+30EC_U+30A4_U+30E4_U+30FC 1
 62
     7
420
 16777215
370
     9
100
AcDbVertex
100
AcDb2dVertex
 10
110.045638303613
 20
-123.7276685801793
 30
0.0
  0
VERTEX
  5
6B
330
69
100
AcDbEntity
  8
_U+30EC_U+30A4_U+30E4_U+30FC 1
 62
     7
420
 16777215
370
     9
100
AcDbVertex
100
AcDb2dVertex
 10
110.045638303613
 20
-119.9573560811219
 30
0.0
  0
SEQEND
  5
6C
330
69
100
AcDbEntity
  8
_U+30EC_U+30A4_U+30E4_U+30FC 1
 62
     7
420
 16777215
370
     9
  0
POLYLINE
  5
6D
330
1F
100
AcDbEntity
  8
_U+30EC_U+30A4_U+30E4_U+30FC 1
 62
     7
420
 16777215
370
     9
100
AcDb2dPolyline
 66
     1
 10
0.0
 20
0.0
 30
0.0
  0
VERTEX
  5
6E
330
6D
100
AcDbEntity
  8
_U+30EC_U+30A4_U+30E4_U+30FC 1
 62
     7
420
 16777215
370
     9
100
AcDbVertex
100
AcDb2dVertex
 10
110.045638303613
 20
-123.7276685801793
 30
0.0
  0
VERTEX
  5
6F
330
6D
100
AcDbEntity
  8
_U+30EC_U+30A4_U+30E4_U+30FC 1
 62
     7
420
 16777215
370
     9
100
AcDbVertex
100
AcDb2dVertex
 10
110.045638303613
 20
-124.7274408021515
 30
0.0
  0
SEQEND
  5
70
330
6D
100
AcDbEntity
  8
_U+30EC_U+30A4_U+30E4_U+30FC 1
 62
     7
420
 16777215
370
     9
  0
POLYLINE
  5
71
330
1F
100
AcDbEntity
  8
_U+30EC_U+30A4_U+30E4_U+30FC 1
 62
     7
420
 16777215
370
     9
100
AcDb2dPolyline
 66
     1
 10
0.0
 20
0.0
 30
0.0
  0
VERTEX
  5
72
330
71
100
AcDbEntity
  8
_U+30EC_U+30A4_U+30E4_U+30FC 1
 62
     7
420
 16777215
370
     9
100
AcDbVertex
100
AcDb2dVertex
 10
108.5856322297497
 20
-123.7276685801793
 30
0.0
  0
VERTEX
  5
73
330
71
100
AcDbEntity
  8
_U+30EC_U+30A4_U+30E4_U+30FC 1
 62
     7
420
 16777215
370
     9
100
AcDbVertex
100
AcDb2dVertex
 10
111.0454105003289
 20
-123.7276685801793
 30
0.0
  0
SEQEND
  5
74
330
71
100
AcDbEntity
  8
_U+30EC_U+30A4_U+30E4_U+30FC 1
 62
     7
420
 16777215
370
     9
  0
POLYLINE
  5
75
330
1F
100
AcDbEntity
  8
_U+30EC_U+30A4_U+30E4_U+30FC 1
 62
     7
420
 16777215
370
     9
100
AcDb2dPolyline
 66
     1
 10
0.0
 20
0.0
 30
0.0
  0
VERTEX
  5
76
330
75
100
AcDbEntity
  8
_U+30EC_U+30A4_U+30E4_U+30FC 1
 62
     7
420
 16777215
370
     9
100
AcDbVertex
100
AcDb2dVertex
 10
108.5856322297497
 20
-124.7274408021515
 30
0.0
  0
VERTEX
  5
77
330
75
100
AcDbEntity
  8
_U+30EC_U+30A4_U+30E4_U+30FC 1
 62
     7
420
 16777215
370
     9
100
AcDbVertex
100
AcDb2dVertex
 10
111.0454105003289
 20
-124.7274408021515
 30
0.0
  0
SEQEND
  5
78
330
75
100
AcDbEntity
  8
_U+30EC_U+30A4_U+30E4_U+30FC 1
 62
     7
420
 16777215
370
     9
  0
INSERT
  5
7A
330
1F
100
AcDbEntity
  8
_U+30EC_U+30A4_U+30E4_U+30FC 1
100
AcDbBlockReference
  2
block 2
 10
0.0
 20
0.0
 30
0.0
  0
POLYLINE
  5
7F
330
1F
100
AcDbEntity
  8
_U+30EC_U+30A4_U+30E4_U+30FC 1
 62
     7
420
 16777215
370
     9
100
AcDb2dPolyline
 66
     1
 10
0.0
 20
0.0
 30
0.0
  0
VERTEX
  5
80
330
7F
100
AcDbEntity
  8
_U+30EC_U+30A4_U+30E4_U+30FC 1
 62
     7
420
 16777215
370
     9
100
AcDbVertex
100
AcDb2dVertex
 10
110.045638303613
 20
-136.2273613548323
 30
0.0
  0
VERTEX
  5
81
330
7F
100
AcDbEntity
  8
_U+30EC_U+30A4_U+30E4_U+30FC 1
 62
     7
420
 16777215
370
     9
100
AcDbVertex
100
AcDb2dVertex
 10
110.045638303613
 20
-133.2273391333597
 30
0.0
  0
SEQEND
  5
82
330
7F
100
AcDbEntity
  8
_U+30EC_U+30A4_U+30E4_U+30FC 1
 62
     7
420
 16777215
370
     9
  0
POLYLINE
  5
83
330
1F
100
AcDbEntity
  8
_U+30EC_U+30A4_U+30E4_U+30FC 1
 62
     7
420
 16777215
370
     9
100
AcDb2dPolyline
 66
     1
 10
0.0
 20
0.0
 30
0.0
  0
VERTEX
  5
84
330
83
100
AcDbEntity
  8
_U+30EC_U+30A4_U+30E4_U+30FC 1
 62
     7
420
 16777215
370
     9
100
AcDbVertex
100
AcDb2dVertex
 10
93.58534511243893
 20
-136.2273613548323
 30
0.0
  0
VERTEX
  5
85
330
83
100
AcDbEntity
  8
_U+30EC_U+30A4_U+30E4_U+30FC 1
 62
     7
420
 16777215
370
     9
100
AcDbVertex
100
AcDb2dVertex
 10
111.0454105003289
 20
-136.2273613548323
 30
0.0
  0
SEQEND
  5
86
330
83
100
AcDbEntity
  8
_U+30EC_U+30A4_U+30E4_U+30FC 1
 62
     7
420
 16777215
370
     9
  0
INSERT
  5
88
330
1F
100
AcDbEntity
  8
_U+30EC_U+30A4_U+30E4_U+30FC 1
100
AcDbBlockReference
  2
block 3
 10
0.0
 20
0.0
 30
0.0
  0
POLYLINE
  5
8D
330
1F
100
AcDbEntity
  8
_U+30EC_U+30A4_U+30E4_U+30FC 1
 62
     7
420
 16777215
370
     9
100
AcDb2dPolyline
 66
     1
 10
0.0
 20
0.0
 30
0.0
  0
VERTEX
  5
8E
330
8D
100
AcDbEntity
  8
_U+30EC_U+30A4_U+30E4_U+30FC 1
 62
     7
420
 16777215
370
     9
100
AcDbVertex
100
AcDb2dVertex
 10
71.04425679862112
 20
-140.227085242721
 30
0.0
  0
VERTEX
  5
8F
330
8D
100
AcDbEntity
  8
_U+30EC_U+30A4_U+30E4_U+30FC 1
 62
     7
420
 16777215
370
     9
100
AcDbVertex
100
AcDb2dVertex
 10
86.04521419369259
 20
-140.227085242721
 30
0.0
  0
SEQEND
  5
90
330
8D
100
AcDbEntity
  8
_U+30EC_U+30A4_U+30E4_U+30FC 1
 62
     7
420
 16777215
370
     9
  0
POLYLINE
  5
91
330
1F
100
AcDbEntity
  8
_U+30EC_U+30A4_U+30E4_U+30FC 1
 62
     7
420
 16777215
370
     9
100
AcDb2dPolyline
 66
     1
 10
0.0
 20
0.0
 30
0.0
  0
VERTEX
  5
92
330
91
100
AcDbEntity
  8
_U+30EC_U+30A4_U+30E4_U+30FC 1
 62
     7
420
 16777215
370
     9
100
AcDbVertex
100
AcDb2dVertex
 10
71.04425679862112
 20
-127.2678641348496
 30
0.0
  0
VERTEX
  5
93
330
91
100
AcDbEntity
  8
_U+30EC_U+30A4_U+30E4_U+30FC 1
 62
     7
420
 16777215
370
     9
100
AcDbVertex
100
AcDb2dVertex
 10
71.04425679862112
 20
-141.2275630202484
 30
0.0
  0
SEQEND
  5
94
330
91
100
AcDbEntity
  8
_U+30EC_U+30A4_U+30E4_U+30FC 1
 62
     7
420
 16777215
370
     9
  0
POLYLINE
  5
95
330
1F
100
AcDbEntity
  8
_U+30EC_U+30A4_U+30E4_U+30FC 1
 62
     7
420
 16777215
370
     9
100
AcDb2dPolyline
 66
     1
 10
0.0
 20
0.0
 30
0.0
  0
VERTEX
  5
96
330
95
100
AcDbEntity
  8
_U+30EC_U+30A4_U+30E4_U+30FC 1
 62
     7
420
 16777215
370
     9
100
AcDbVertex
100
AcDb2dVertex
 10
86.04521419369259
 20
-138.7670791319748
 30
0.0
  0
VERTEX
  5
97
330
95
100
AcDbEntity
  8
_U+30EC_U+30A4_U+30E4_U+30FC 1
 62
     7
420
 16777215
370
     9
100
AcDbVertex
100
AcDb2dVertex
 10
86.04521419369259
 20
-141.2275630202484
 30
0.0
  0
SEQEND
  5
98
330
95
100
AcDbEntity
  8
_U+30EC_U+30A4_U+30E4_U+30FC 1
 62
     7
420
 16777215
370
     9
  0
INSERT
  5
9A
330
1F
100
AcDbEntity
  8
_U+30EC_U+30A4_U+30E4_U+30FC 1
100
AcDbBlockReference
  2
block 4
 10
0.0
 20
0.0
 30
0.0
  0
POLYLINE
  5
A1
330
1F
100
AcDbEntity
  8
_U+30EC_U+30A4_U+30E4_U+30FC 1
 62
     7
420
 16777215
370
     9
100
AcDb2dPolyline
 66
     1
 10
0.0
 20
0.0
 30
0.0
  0
VERTEX
  5
A2
330
A1
100
AcDbEntity
  8
_U+30EC_U+30A4_U+30E4_U+30FC 1
 62
     7
420
 16777215
370
     9
100
AcDbVertex
100
AcDb2dVertex
 10
86.04521419369259
 20
-140.227085242721
 30
0.0
  0
VERTEX
  5
A3
330
A1
100
AcDbEntity
  8
_U+30EC_U+30A4_U+30E4_U+30FC 1
 62
     7
420
 16777215
370
     9
100
AcDbVertex
100
AcDb2dVertex
 10
91.04474545503281
 20
-140.227085242721
 30
0.0
  0
SEQEND
  5
A4
330
A1
100
AcDbEntity
  8
_U+30EC_U+30A4_U+30E4_U+30FC 1
 62
     7
420
 16777215
370
     9
  0
POLYLINE
  5
A5
330
1F
100
AcDbEntity
  8
_U+30EC_U+30A4_U+30E4_U+30FC 1
 62
     7
420
 16777215
370
     9
100
AcDb2dPolyline
 66
     1
 10
0.0
 20
0.0
 30
0.0
  0
VERTEX
  5
A6
330
A5
100
AcDbEntity
  8
_U+30EC_U+30A4_U+30E4_U+30FC 1
 62
     7
420
 16777215
370
     9
100
AcDbVertex
100
AcDb2dVertex
 10
91.04474545503281
 20
-138.7670791319748
 30
0.0
  0
VERTEX
  5
A7
330
A5
100
AcDbEntity
  8
_U+30EC_U+30A4_U+30E4_U+30FC 1
 62
     7
420
 16777215
370
     9
100
AcDbVertex
100
AcDb2dVertex
 10
91.04474545503281
 20
-141.2275630202484
 30
0.0
  0
SEQEND
  5
A8
330
A5
100
AcDbEntity
  8
_U+30EC_U+30A4_U+30E4_U+30FC 1
 62
     7
420
 16777215
370
     9
  0
INSERT
  5
AA
330
1F
100
AcDbEntity
  8
_U+30EC_U+30A4_U+30E4_U+30FC 1
100
AcDbBlockReference
  2
block 5
 10
0.0
 20
0.0
 30
0.0
  0
POLYLINE
  5
AF
330
1F
100
AcDbEntity
  8
_U+30EC_U+30A4_U+30E4_U+30FC 1
 62
     7
420
 16777215
370
     9
100
AcDb2dPolyline
 66
     1
 10
0.0
 20
0.0
 30
0.0
  0
VERTEX
  5
B0
330
AF
100
AcDbEntity
  8
_U+30EC_U+30A4_U+30E4_U+30FC 1
 62
     7
420
 16777215
370
     9
100
AcDbVertex
100
AcDb2dVertex
 10
71.04425679862112
 20
-119.7275919145125
 30
0.0
  0
VERTEX
  5
B1
330
AF
100
AcDbEntity
  8
_U+30EC_U+30A4_U+30E4_U+30FC 1
 62
     7
420
 16777215
370
     9
100
AcDbVertex
100
AcDb2dVertex
 10
106.045208961228
 20
-119.7275919145125
 30
0.0
  0
SEQEND
  5
B2
330
AF
100
AcDbEntity
  8
_U+30EC_U+30A4_U+30E4_U+30FC 1
 62
     7
420
 16777215
370
     9
  0
POLYLINE
  5
B3
330
1F
100
AcDbEntity
  8
_U+30EC_U+30A4_U+30E4_U+30FC 1
 62
     7
420
 16777215
370
     9
100
AcDb2dPolyline
 66
     1
 10
0.0
 20
0.0
 30
0.0
  0
VERTEX
  5
B4
330
B3
100
AcDbEntity
  8
_U+30EC_U+30A4_U+30E4_U+30FC 1
 62
     7
420
 16777215
370
     9
100
AcDbVertex
100
AcDb2dVertex
 10
71.04425679862112
 20
-121.1875980252587
 30
0.0
  0
VERTEX
  5
B5
330
B3
100
AcDbEntity
  8
_U+30EC_U+30A4_U+30E4_U+30FC 1
 62
     7
420
 16777215
370
     9
100
AcDbVertex
100
AcDb2dVertex
 10
71.04425679862112
 20
-118.7276433036514
 30
0.0
  0
SEQEND
  5
B6
330
B3
100
AcDbEntity
  8
_U+30EC_U+30A4_U+30E4_U+30FC 1
 62
     7
420
 16777215
370
     9
  0
POLYLINE
  5
B7
330
1F
100
AcDbEntity
  8
_U+30EC_U+30A4_U+30E4_U+30FC 1
 62
     7
420
 16777215
370
     9
100
AcDb2dPolyline
 66
     1
 10
0.0
 20
0.0
 30
0.0
  0
VERTEX
  5
B8
330
B7
100
AcDbEntity
  8
_U+30EC_U+30A4_U+30E4_U+30FC 1
 62
     7
420
 16777215
370
     9
100
AcDbVertex
100
AcDb2dVertex
 10
106.045208961228
 20
-121.1875980252587
 30
0.0
  0
VERTEX
  5
B9
330
B7
100
AcDbEntity
  8
_U+30EC_U+30A4_U+30E4_U+30FC 1
 62
     7
420
 16777215
370
     9
100
AcDbVertex
100
AcDb2dVertex
 10
106.045208961228
 20
-118.7276433036514
 30
0.0
  0
SEQEND
  5
BA
330
B7
100
AcDbEntity
  8
_U+30EC_U+30A4_U+30E4_U+30FC 1
 62
     7
420
 16777215
370
     9
  0
INSERT
  5
BC
330
1F
100
AcDbEntity
  8
_U+30EC_U+30A4_U+30E4_U+30FC 1
100
AcDbBlockReference
  2
block 6
 10
0.0
 20
0.0
 30
0.0
  0
POLYLINE
  5
C3
330
1F
100
AcDbEntity
  8
_U+30EC_U+30A4_U+30E4_U+30FC 1
 62
     7
420
 16777215
370
     9
100
AcDb2dPolyline
 66
     1
 10
0.0
 20
0.0
 30
0.0
  0
VERTEX
  5
C4
330
C3
100
AcDbEntity
  8
_U+30EC_U+30A4_U+30E4_U+30FC 1
 62
     7
420
 16777215
370
     9
100
AcDbVertex
100
AcDb2dVertex
 10
110.045638303613
 20
-133.2273391333597
 30
0.0
  0
VERTEX
  5
C5
330
C3
100
AcDbEntity
  8
_U+30EC_U+30A4_U+30E4_U+30FC 1
 62
     7
420
 16777215
370
     9
100
AcDbVertex
100
AcDb2dVertex
 10
110.045638303613
 20
-124.7274408021515
 30
0.0
  0
SEQEND
  5
C6
330
C3
100
AcDbEntity
  8
_U+30EC_U+30A4_U+30E4_U+30FC 1
 62
     7
420
 16777215
370
     9
  0
POLYLINE
  5
C7
330
1F
100
AcDbEntity
  8
_U+30EC_U+30A4_U+30E4_U+30FC 1
 62
     7
420
 16777215
370
     9
100
AcDb2dPolyline
 66
     1
 10
0.0
 20
0.0
 30
0.0
  0
VERTEX
  5
C8
330
C7
100
AcDbEntity
  8
_U+30EC_U+30A4_U+30E4_U+30FC 1
 62
     7
420
 16777215
370
     9
100
AcDbVertex
100
AcDb2dVertex
 10
93.58534511243893
 20
-133.2273391333597
 30
0.0
  0
VERTEX
  5
C9
330
C7
100
AcDbEntity
  8
_U+30EC_U+30A4_U+30E4_U+30FC 1
 62
     7
420
 16777215
370
     9
100
AcDbVertex
100
AcDb2dVertex
 10
111.0454105003289
 20
-133.2273391333597
 30
0.0
  0
SEQEND
  5
CA
330
C7
100
AcDbEntity
  8
_U+30EC_U+30A4_U+30E4_U+30FC 1
 62
     7
420
 16777215
370
     9
  0
POLYLINE
  5
CB
330
1F
100
AcDbEntity
  8
_U+30EC_U+30A4_U+30E4_U+30FC 1
 62
     7
420
 16777215
370
     9
100
AcDb2dPolyline
 66
     1
 10
0.0
 20
0.0
 30
0.0
  0
VERTEX
  5
CC
330
CB
100
AcDbEntity
  8
_U+30EC_U+30A4_U+30E4_U+30FC 1
 62
     7
420
 16777215
370
     9
100
AcDbVertex
100
AcDb2dVertex
 10
108.5856322297497
 20
-124.7274408021515
 30
0.0
  0
VERTEX
  5
CD
330
CB
100
AcDbEntity
  8
_U+30EC_U+30A4_U+30E4_U+30FC 1
 62
     7
420
 16777215
370
     9
100
AcDbVertex
100
AcDb2dVertex
 10
111.0454105003289
 20
-124.7274408021515
 30
0.0
  0
SEQEND
  5
CE
330
CB
100
AcDbEntity
  8
_U+30EC_U+30A4_U+30E4_U+30FC 1
 62
     7
420
 16777215
370
     9
  0
INSERT
  5
D0
330
1F
100
AcDbEntity
  8
_U+30EC_U+30A4_U+30E4_U+30FC 1
100
AcDbBlockReference
  2
block 7
 10
0.0
 20
0.0
 30
0.0
  0
ENDSEC
  0
SECTION
  2
OBJECTS
  0
DICTIONARY
  5
C
330
0
100
AcDbDictionary
281
     1
  3
ACAD_GROUP
350
D
  3
ACAD_LAYOUT
350
1A
  3
ACAD_MATERIAL
350
3B
  3
ACAD_MLEADERSTYLE
350
E2
  3
ACAD_MLINESTYLE
350
17
  3
ACAD_PLOTSETTINGS
350
19
  3
ACAD_PLOTSTYLENAME
350
E
  3
ACAD_TABLESTYLE
350
E1
  3
ACAD_VISUALSTYLE
350
2A
  0
SUN
  5
3F
330
29
100
AcDbSun
 90
        1
290
     0
 63
     7
421
 16777215
 40
1.0
291
     1
 91
  2455826
 92
 54000000
292
     0
 70
     2
 71
   256
280
     1
  0
DICTIONARY
  5
D
102
{ACAD_REACTORS
330
C
102
}
330
C
100
AcDbDictionary
281
     1
  0
DICTIONARY
  5
1A
102
{ACAD_REACTORS
330
C
102
}
330
C
100
AcDbDictionary
281
     1
  3
Layout1
350
1E
  3
Layout2
350
26
  3
Model
350
22
  0
DICTIONARY
  5
3B
102
{ACAD_REACTORS
330
C
102
}
330
C
100
AcDbDictionary
281
     1
  3
ByBlock
350
3D
  3
ByLayer
350
3C
  3
Global
350
3E
  0
DICTIONARY
  5
E2
102
{ACAD_REACTORS
330
C
102
}
330
C
100
AcDbDictionary
281
     1
  0
DICTIONARY
  5
17
102
{ACAD_REACTORS
330
C
102
}
330
C
100
AcDbDictionary
281
     1
  3
Standard
350
18
  0
DICTIONARY
  5
19
102
{ACAD_REACTORS
330
C
102
}
330
C
100
AcDbDictionary
281
     1
  0
ACDBDICTIONARYWDFLT
  5
E
102
{ACAD_REACTORS
330
C
102
}
330
C
100
AcDbDictionary
281
     1
  3
Normal
350
F
100
AcDbDictionaryWithDefault
340
F
  0
DICTIONARY
  5
E1
102
{ACAD_REACTORS
330
C
102
}
330
C
100
AcDbDictionary
281
     1
  0
DICTIONARY
  5
2A
102
{ACAD_REACTORS
330
C
102
}
330
C
100
AcDbDictionary
281
     1
  3
2dWireframe
350
2F
  3
3D Hidden
350
31
  3
3dWireframe
350
30
  3
Basic
350
32
  3
Brighten
350
36
  3
ColorChange
350
3A
  3
Conceptual
350
34
  3
Dim
350
35
  3
Facepattern
350
39
  3
Flat
350
2B
  3
FlatWithEdges
350
2C
  3
Gouraud
350
2D
  3
GouraudWithEdges
350
2E
  3
Linepattern
350
38
  3
Realistic
350
33
  3
Thicken
350
37
  0
LAYOUT
  5
1E
102
{ACAD_REACTORS
330
1A
102
}
330
1A
100
AcDbPlotSettings
  1

  2
none_device
  4

  6

 40
0.0
 41
0.0
 42
0.0
 43
0.0
 44
0.0
 45
0.0
 46
0.0
 47
0.0
 48
0.0
 49
0.0
140
0.0
141
0.0
142
1.0
143
1.0
 70
   688
 72
     0
 73
     0
 74
     5
  7

 75
    16
 76
     0
 77
     2
 78
   300
147
1.0
148
0.0
149
0.0
100
AcDbLayout
  1
Layout1
 70
     1
 71
     1
 10
0.0
 20
0.0
 11
12.0
 21
9.0
 12
0.0
 22
0.0
 32
0.0
 14
1.000000000000000E+20
 24
1.000000000000000E+20
 34
1.000000000000000E+20
 15
-1.000000000000000E+20
 25
-1.000000000000000E+20
 35
-1.000000000000000E+20
146
0.0
 13
0.0
 23
0.0
 33
0.0
 16
1.0
 26
0.0
 36
0.0
 17
0.0
 27
1.0
 37
0.0
 76
     0
330
1B
  0
LAYOUT
  5
26
102
{ACAD_REACTORS
330
1A
102
}
330
1A
100
AcDbPlotSettings
  1

  2
none_device
  4

  6

 40
0.0
 41
0.0
 42
0.0
 43
0.0
 44
0.0
 45
0.0
 46
0.0
 47
0.0
 48
0.0
 49
0.0
140
0.0
141
0.0
142
1.0
143
1.0
 70
   688
 72
     0
 73
     0
 74
     5
  7

 75
    16
 76
     0
 77
     2
 78
   300
147
1.0
148
0.0
149
0.0
100
AcDbLayout
  1
Layout2
 70
     1
 71
     2
 10
0.0
 20
0.0
 11
0.0
 21
0.0
 12
0.0
 22
0.0
 32
0.0
 14
0.0
 24
0.0
 34
0.0
 15
0.0
 25
0.0
 35
0.0
146
0.0
 13
0.0
 23
0.0
 33
0.0
 16
1.0
 26
0.0
 36
0.0
 17
0.0
 27
1.0
 37
0.0
 76
     0
330
23
  0
LAYOUT
  5
22
102
{ACAD_REACTORS
330
1A
102
}
330
1A
100
AcDbPlotSettings
  1

  2
none_device
  4

  6

 40
0.0
 41
0.0
 42
0.0
 43
0.0
 44
0.0
 45
0.0
 46
0.0
 47
0.0
 48
0.0
 49
0.0
140
0.0
141
0.0
142
1.0
143
1.0
 70
  1712
 72
     0
 73
     0
 74
     0
  7

 75
     0
 76
     0
 77
     2
 78
   300
147
1.0
148
0.0
149
0.0
100
AcDbLayout
  1
Model
 70
     1
 71
     0
 10
0.0
 20
0.0
 11
12.0
 21
9.0
 12
0.0
 22
0.0
 32
0.0
 14
1.000000000000000E+20
 24
1.000000000000000E+20
 34
1.000000000000000E+20
 15
-1.000000000000000E+20
 25
-1.000000000000000E+20
 35
-1.000000000000000E+20
146
0.0
 13
0.0
 23
0.0
 33
0.0
 16
1.0
 26
0.0
 36
0.0
 17
0.0
 27
1.0
 37
0.0
 76
     0
330
1F
331
29
  0
MATERIAL
  5
3D
102
{ACAD_REACTORS
330
3B
102
}
330
3B
100
AcDbMaterial
  1
ByBlock
 72
     1
 94
      127
  0
MATERIAL
  5
3C
102
{ACAD_REACTORS
330
3B
102
}
330
3B
100
AcDbMaterial
  1
ByLayer
 72
     1
 94
      127
  0
MATERIAL
  5
3E
102
{ACAD_REACTORS
330
3B
102
}
330
3B
100
AcDbMaterial
  1
Global
 72
     1
 94
      127
  0
MLINESTYLE
  5
18
102
{ACAD_REACTORS
330
17
102
}
330
17
100
AcDbMlineStyle
  2
Standard
 70
     0
  3

 62
   256
 51
90.0
 52
90.0
 71
     2
 49
0.5
 62
   256
  6
BYLAYER
 49
-0.5
 62
   256
  6
BYLAYER
  0
ACDBPLACEHOLDER
  5
F
102
{ACAD_REACTORS
330
E
102
}
330
E
  0
VISUALSTYLE
  5
2F
102
{ACAD_REACTORS
330
2A
102
}
330
2A
100
AcDbVisualStyle
  2
2dWireframe
 70
     4
177
     2
291
     0
 71
     0
176
     1
 72
     2
176
     1
 73
     0
176
     1
 90
        0
176
     1
 40
-0.6
176
     1
 41
-30.0
176
     1
 62
     5
 63
     7
421
 16777215
176
     1
 74
     1
176
     1
 91
        4
176
     1
 64
     7
176
     1
 65
   257
176
     1
 75
     1
176
     1
175
     1
176
     1
 42
1.0
176
     1
 92
        0
176
     1
 66
   257
176
     1
 43
1.0
176
     1
 76
     1
176
     1
 77
     6
176
     1
 78
     2
176
     1
 67
     7
176
     1
 79
     5
176
     1
170
     0
176
     1
171
     0
176
     1
290
     0
176
     1
 93
        1
176
     1
 44
0.0
176
     1
173
     0
176
     1
  0
VISUALSTYLE
  5
31
102
{ACAD_REACTORS
330
2A
102
}
330
2A
100
AcDbVisualStyle
  2
3D Hidden
 70
     6
177
     2
291
     0
 71
     1
176
     1
 72
     2
176
     1
 73
     2
176
     1
 90
        0
176
     1
 40
-0.6
176
     1
 41
-30.0
176
     1
 62
     5
 63
     7
421
 16777215
176
     1
 74
     2
176
     1
 91
        2
176
     1
 64
     7
176
     1
 65
   257
176
     1
 75
     2
176
     1
175
     1
176
     1
 42
40.0
176
     1
 92
        0
176
     1
 66
   257
176
     1
 43
1.0
176
     1
 76
     1
176
     1
 77
     6
176
     1
 78
     2
176
     1
 67
     7
176
     1
 79
     3
176
     1
170
     0
176
     1
171
     0
176
     1
290
     0
176
     1
 93
        1
176
     1
 44
0.0
176
     1
173
     0
176
     1
  0
VISUALSTYLE
  5
30
102
{ACAD_REACTORS
330
2A
102
}
330
2A
100
AcDbVisualStyle
  2
3dWireframe
 70
     5
177
     2
291
     0
 71
     0
176
     1
 72
     2
176
     1
 73
     0
176
     1
 90
        0
176
     1
 40
-0.6
176
     1
 41
-30.0
176
     1
 62
     5
 63
     7
421
 16777215
176
     1
 74
     1
176
     1
 91
        4
176
     1
 64
     7
176
     1
 65
   257
176
     1
 75
     1
176
     1
175
     1
176
     1
 42
1.0
176
     1
 92
        0
176
     1
 66
   257
176
     1
 43
1.0
176
     1
 76
     1
176
     1
 77
     6
176
     1
 78
     2
176
     1
 67
     7
176
     1
 79
     5
176
     1
170
     0
176
     1
171
     0
176
     1
290
     0
176
     1
 93
        1
176
     1
 44
0.0
176
     1
173
     0
176
     1
  0
VISUALSTYLE
  5
32
102
{ACAD_REACTORS
330
2A
102
}
330
2A
100
AcDbVisualStyle
  2
Basic
 70
     7
177
     2
291
     1
 71
     1
176
     1
 72
     0
176
     1
 73
     1
176
     1
 90
        0
176
     1
 40
-0.6
176
     1
 41
-30.0
176
     1
 62
     5
 63
     7
421
 16777215
176
     1
 74
     0
176
     1
 91
        4
176
     1
 64
     7
176
     1
 65
   257
176
     1
 75
     1
176
     1
175
     1
176
     1
 42
1.0
176
     1
 92
        8
176
     1
 66
     7
176
     1
 43
1.0
176
     1
 76
     1
176
     1
 77
     6
176
     1
 78
     2
176
     1
 67
     7
176
     1
 79
     5
176
     1
170
     0
176
     1
171
     0
176
     1
290
     0
176
     1
 93
        1
176
     1
 44
0.0
176
     1
173
     0
176
     1
  0
VISUALSTYLE
  5
36
102
{ACAD_REACTORS
330
2A
102
}
330
2A
100
AcDbVisualStyle
  2
Brighten
 70
    12
177
     2
291
     1
 71
     2
176
     1
 72
     2
176
     1
 73
     0
176
     1
 90
        0
176
     1
 40
-0.6
176
     1
 41
-30.0
176
     1
 62
     5
 63
     7
421
 16777215
176
     1
 74
     1
176
     1
 91
        4
176
     1
 64
     7
176
     1
 65
   257
176
     1
 75
     1
176
     1
175
     1
176
     1
 42
1.0
176
     1
 92
        8
176
     1
 66
     7
176
     1
 43
1.0
176
     1
 76
     1
176
     1
 77
     6
176
     1
 78
     2
176
     1
 67
     7
176
     1
 79
     5
176
     1
170
     0
176
     1
171
     0
176
     1
290
     0
176
     1
 93
        1
176
     1
 44
50.0
176
     1
173
     0
176
     1
  0
VISUALSTYLE
  5
3A
102
{ACAD_REACTORS
330
2A
102
}
330
2A
100
AcDbVisualStyle
  2
ColorChange
 70
    16
177
     2
291
     1
 71
     2
176
     1
 72
     2
176
     1
 73
     3
176
     1
 90
        0
176
     1
 40
-0.6
176
     1
 41
-30.0
176
     1
 62
     5
 63
     8
421
  8421504
176
     1
 74
     1
176
     1
 91
        4
176
     1
 64
     7
176
     1
 65
   257
176
     1
 75
     1
176
     1
175
     1
176
     1
 42
1.0
176
     1
 92
        8
176
     1
 66
     8
424
  8421504
176
     1
 43
1.0
176
     1
 76
     1
176
     1
 77
     6
176
     1
 78
     2
176
     1
 67
     7
176
     1
 79
     5
176
     1
170
     0
176
     1
171
     0
176
     1
290
     0
176
     1
 93
        1
176
     1
 44
0.0
176
     1
173
     0
176
     1
  0
VISUALSTYLE
  5
34
102
{ACAD_REACTORS
330
2A
102
}
330
2A
100
AcDbVisualStyle
  2
Conceptual
 70
     9
177
     2
291
     0
 71
     3
176
     1
 72
     2
176
     1
 73
     0
176
     1
 90
        0
176
     1
 40
-0.6
176
     1
 41
-30.0
176
     1
 62
     5
 63
     7
421
 16777215
176
     1
 74
     2
176
     1
 91
        2
176
     1
 64
     7
176
     1
 65
   257
176
     1
 75
     1
176
     1
175
     1
176
     1
 42
40.0
176
     1
 92
        8
176
     1
 66
     7
176
     1
 43
1.0
176
     1
 76
     1
176
     1
 77
     6
176
     1
 78
     2
176
     1
 67
     7
176
     1
 79
     3
176
     1
170
     0
176
     1
171
     0
176
     1
290
     0
176
     1
 93
        1
176
     1
 44
0.0
176
     1
173
     0
176
     1
  0
VISUALSTYLE
  5
35
102
{ACAD_REACTORS
330
2A
102
}
330
2A
100
AcDbVisualStyle
  2
Dim
 70
    11
177
     2
291
     1
 71
     2
176
     1
 72
     2
176
     1
 73
     0
176
     1
 90
        0
176
     1
 40
-0.6
176
     1
 41
-30.0
176
     1
 62
     5
 63
     7
421
 16777215
176
     1
 74
     1
176
     1
 91
        4
176
     1
 64
     7
176
     1
 65
   257
176
     1
 75
     1
176
     1
175
     1
176
     1
 42
1.0
176
     1
 92
        8
176
     1
 66
     7
176
     1
 43
1.0
176
     1
 76
     1
176
     1
 77
     6
176
     1
 78
     2
176
     1
 67
     7
176
     1
 79
     5
176
     1
170
     0
176
     1
171
     0
176
     1
290
     0
176
     1
 93
        1
176
     1
 44
-50.0
176
     1
173
     0
176
     1
  0
VISUALSTYLE
  5
39
102
{ACAD_REACTORS
330
2A
102
}
330
2A
100
AcDbVisualStyle
  2
Facepattern
 70
    15
177
     2
291
     1
 71
     2
176
     1
 72
     2
176
     1
 73
     0
176
     1
 90
        0
176
     1
 40
-0.6
176
     1
 41
-30.0
176
     1
 62
     5
 63
     7
421
 16777215
176
     1
 74
     1
176
     1
 91
        4
176
     1
 64
     7
176
     1
 65
   257
176
     1
 75
     1
176
     1
175
     1
176
     1
 42
1.0
176
     1
 92
        8
176
     1
 66
     7
176
     1
 43
1.0
176
     1
 76
     1
176
     1
 77
     6
176
     1
 78
     2
176
     1
 67
     7
176
     1
 79
     5
176
     1
170
     0
176
     1
171
     0
176
     1
290
     0
176
     1
 93
        1
176
     1
 44
0.0
176
     1
173
     0
176
     1
  0
VISUALSTYLE
  5
2B
102
{ACAD_REACTORS
330
2A
102
}
330
2A
100
AcDbVisualStyle
  2
Flat
 70
     0
177
     2
291
     1
 71
     2
176
     1
 72
     1
176
     1
 73
     1
176
     1
 90
        2
176
     1
 40
-0.6
176
     1
 41
30.0
176
     1
 62
     5
 63
     7
421
 16777215
176
     1
 74
     0
176
     1
 91
        4
176
     1
 64
     7
176
     1
 65
   257
176
     1
 75
     1
176
     1
175
     1
176
     1
 42
1.0
176
     1
 92
        8
176
     1
 66
     7
176
     1
 43
1.0
176
     1
 76
     1
176
     1
 77
     6
176
     1
 78
     2
176
     1
 67
     7
176
     1
 79
     5
176
     1
170
     0
176
     1
171
     0
176
     1
290
     0
176
     1
 93
       13
176
     1
 44
0.0
176
     1
173
     0
176
     1
  0
VISUALSTYLE
  5
2C
102
{ACAD_REACTORS
330
2A
102
}
330
2A
100
AcDbVisualStyle
  2
FlatWithEdges
 70
     1
177
     2
291
     1
 71
     2
176
     1
 72
     1
176
     1
 73
     1
176
     1
 90
        2
176
     1
 40
-0.6
176
     1
 41
30.0
176
     1
 62
     5
 63
     7
421
 16777215
176
     1
 74
     1
176
     1
 91
        4
176
     1
 64
     7
176
     1
 65
   257
176
     1
 75
     1
176
     1
175
     1
176
     1
 42
1.0
176
     1
 92
        0
176
     1
 66
   257
176
     1
 43
1.0
176
     1
 76
     1
176
     1
 77
     6
176
     1
 78
     2
176
     1
 67
     7
176
     1
 79
     5
176
     1
170
     0
176
     1
171
     0
176
     1
290
     0
176
     1
 93
       13
176
     1
 44
0.0
176
     1
173
     0
176
     1
  0
VISUALSTYLE
  5
2D
102
{ACAD_REACTORS
330
2A
102
}
330
2A
100
AcDbVisualStyle
  2
Gouraud
 70
     2
177
     2
291
     1
 71
     2
176
     1
 72
     2
176
     1
 73
     1
176
     1
 90
        2
176
     1
 40
-0.6
176
     1
 41
30.0
176
     1
 62
     5
 63
     7
421
 16777215
176
     1
 74
     0
176
     1
 91
        4
176
     1
 64
     7
176
     1
 65
   257
176
     1
 75
     1
176
     1
175
     1
176
     1
 42
1.0
176
     1
 92
        0
176
     1
 66
     7
176
     1
 43
1.0
176
     1
 76
     1
176
     1
 77
     6
176
     1
 78
     2
176
     1
 67
     7
176
     1
 79
     5
176
     1
170
     0
176
     1
171
     0
176
     1
290
     0
176
     1
 93
       13
176
     1
 44
0.0
176
     1
173
     0
176
     1
  0
VISUALSTYLE
  5
2E
102
{ACAD_REACTORS
330
2A
102
}
330
2A
100
AcDbVisualStyle
  2
GouraudWithEdges
 70
     3
177
     2
291
     1
 71
     2
176
     1
 72
     2
176
     1
 73
     1
176
     1
 90
        2
176
     1
 40
-0.6
176
     1
 41
30.0
176
     1
 62
     5
 63
     7
421
 16777215
176
     1
 74
     1
176
     1
 91
        4
176
     1
 64
     7
176
     1
 65
   257
176
     1
 75
     1
176
     1
175
     1
176
     1
 42
1.0
176
     1
 92
        0
176
     1
 66
   257
176
     1
 43
1.0
176
     1
 76
     1
176
     1
 77
     6
176
     1
 78
     2
176
     1
 67
     7
176
     1
 79
     5
176
     1
170
     0
176
     1
171
     0
176
     1
290
     0
176
     1
 93
       13
176
     1
 44
0.0
176
     1
173
     0
176
     1
  0
VISUALSTYLE
  5
38
102
{ACAD_REACTORS
330
2A
102
}
330
2A
100
AcDbVisualStyle
  2
Linepattern
 70
    14
177
     2
291
     1
 71
     2
176
     1
 72
     2
176
     1
 73
     0
176
     1
 90
        0
176
     1
 40
-0.6
176
     1
 41
-30.0
176
     1
 62
     5
 63
     7
421
 16777215
176
     1
 74
     1
176
     1
 91
        4
176
     1
 64
     7
176
     1
 65
   257
176
     1
 75
     7
176
     1
175
     7
176
     1
 42
1.0
176
     1
 92
        8
176
     1
 66
     7
176
     1
 43
1.0
176
     1
 76
     1
176
     1
 77
     6
176
     1
 78
     2
176
     1
 67
     7
176
     1
 79
     5
176
     1
170
     0
176
     1
171
     0
176
     1
290
     0
176
     1
 93
        1
176
     1
 44
0.0
176
     1
173
     0
176
     1
  0
VISUALSTYLE
  5
33
102
{ACAD_REACTORS
330
2A
102
}
330
2A
100
AcDbVisualStyle
  2
Realistic
 70
     8
177
     2
291
     0
 71
     2
176
     1
 72
     2
176
     1
 73
     0
176
     1
 90
        0
176
     1
 40
-0.6
176
     1
 41
-30.0
176
     1
 62
     5
 63
     7
421
 16777215
176
     1
 74
     1
176
     1
 91
        0
176
     1
 64
     7
176
     1
 65
   257
176
     1
 75
     1
176
     1
175
     1
176
     1
 42
1.0
176
     1
 92
        8
176
     1
 66
     8
424
  7895160
176
     1
 43
1.0
176
     1
 76
     1
176
     1
 77
     6
176
     1
 78
     2
176
     1
 67
     7
176
     1
 79
     5
176
     1
170
     0
176
     1
171
     0
176
     1
290
     0
176
     1
 93
       13
176
     1
 44
0.0
176
     1
173
     0
176
     1
  0
VISUALSTYLE
  5
37
102
{ACAD_REACTORS
330
2A
102
}
330
2A
100
AcDbVisualStyle
  2
Thicken
 70
    13
177
     2
291
     1
 71
     2
176
     1
 72
     2
176
     1
 73
     0
176
     1
 90
        0
176
     1
 40
-0.6
176
     1
 41
-30.0
176
     1
 62
     5
 63
     7
421
 16777215
176
     1
 74
     1
176
     1
 91
        4
176
     1
 64
     7
176
     1
 65
   257
176
     1
 75
     1
176
     1
175
     1
176
     1
 42
1.0
176
     1
 92
       12
176
     1
 66
     7
176
     1
 43
1.0
176
     1
 76
     1
176
     1
 77
     6
176
     1
 78
     2
176
     1
 67
     7
176
     1
 79
     5
176
     1
170
     0
176
     1
171
     0
176
     1
290
     0
176
     1
 93
        1
176
     1
 44
0.0
176
     1
173
     0
176
     1
  0
ENDSEC
  0
EOF
