  0
SECTION
  2
HEADER
  9
$ACADVER
  1
AC1024
  9
$ACADMAINTVER
 70
     6
  9
$DWGCODEPAGE
  3
UNDEFINED
  9
$INSBASE
 10
0.0
 20
0.0
 30
0.0
  9
$EXTMIN
 10
1.000000000000000E+20
 20
1.000000000000000E+20
 30
1.000000000000000E+20
  9
$EXTMAX
 10
-1.000000000000000E+20
 20
-1.000000000000000E+20
 30
-1.000000000000000E+20
  9
$LIMMIN
 10
0.0
 20
0.0
  9
$LIMMAX
 10
12.0
 20
9.0
  9
$ORTHOMODE
 70
     0
  9
$REGENMODE
 70
     1
  9
$FILLMODE
 70
     1
  9
$QTEXTMODE
 70
     0
  9
$MIRRTEXT
 70
     1
  9
$LTSCALE
 40
1.0
  9
$ATTMODE
 70
     1
  9
$TEXTSIZE
 40
0.2
  9
$TRACEWID
 40
0.05
  9
$TEXTSTYLE
  7
Standard
  9
$CLAYER
  8
0
  9
$CELTYPE
  6
ByLayer
  9
$CECOLOR
 62
   256
  9
$CELTSCALE
 40
1.0
  9
$DISPSILH
 70
     0
  9
$DIMSCALE
 40
1.0
  9
$DIMASZ
 40
0.18
  9
$DIMEXO
 40
0.0625
  9
$DIMDLI
 40
0.38
  9
$DIMRND
 40
0.0
  9
$DIMDLE
 40
0.0
  9
$DIMEXE
 40
0.18
  9
$DIMTP
 40
0.0
  9
$DIMTM
 40
0.0
  9
$DIMTXT
 40
0.18
  9
$DIMCEN
 40
0.09
  9
$DIMTSZ
 40
0.0
  9
$DIMTOL
 70
     0
  9
$DIMLIM
 70
     0
  9
$DIMTIH
 70
     1
  9
$DIMTOH
 70
     1
  9
$DIMSE1
 70
     0
  9
$DIMSE2
 70
     0
  9
$DIMTAD
 70
     0
  9
$DIMZIN
 70
     0
  9
$DIMBLK
  1

  9
$DIMASO
 70
     1
  9
$DIMSHO
 70
     1
  9
$DIMPOST
  1

  9
$DIMAPOST
  1

  9
$DIMALT
 70
     0
  9
$DIMALTD
 70
     2
  9
$DIMALTF
 40
25.4
  9
$DIMLFAC
 40
1.0
  9
$DIMTOFL
 70
     0
  9
$DIMTVP
 40
0.0
  9
$DIMTIX
 70
     0
  9
$DIMSOXD
 70
     0
  9
$DIMSAH
 70
     0
  9
$DIMBLK1
  1

  9
$DIMBLK2
  1

  9
$DIMSTYLE
  2
Standard
  9
$DIMCLRD
 70
     0
  9
$DIMCLRE
 70
     0
  9
$DIMCLRT
 70
     0
  9
$DIMTFAC
 40
1.0
  9
$DIMGAP
 40
0.09
  9
$DIMJUST
 70
     0
  9
$DIMSD1
 70
     0
  9
$DIMSD2
 70
     0
  9
$DIMTOLJ
 70
     1
  9
$DIMTZIN
 70
     0
  9
$DIMALTZ
 70
     0
  9
$DIMALTTZ
 70
     0
  9
$DIMUPT
 70
     0
  9
$DIMDEC
 70
     4
  9
$DIMTDEC
 70
     4
  9
$DIMALTU
 70
     2
  9
$DIMALTTD
 70
     2
  9
$DIMTXSTY
  7
Standard
  9
$DIMAUNIT
 70
     0
  9
$DIMADEC
 70
     0
  9
$DIMALTRND
 40
0.0
  9
$DIMAZIN
 70
     0
  9
$DIMDSEP
 70
    46
  9
$DIMATFIT
 70
     3
  9
$DIMFRAC
 70
     0
  9
$DIMLDRBLK
  1

  9
$DIMLUNIT
 70
     2
  9
$DIMLWD
 70
    -2
  9
$DIMLWE
 70
    -2
  9
$DIMTMOVE
 70
     0
  9
$DIMFXL
 40
1.0
  9
$DIMFXLON
 70
     0
  9
$DIMJOGANG
 40
0.7853981633974483
  9
$DIMTFILL
 70
     0
  9
$DIMTFILLCLR
 70
     0
  9
$DIMARCSYM
 70
     0
  9
$DIMLTYPE
  6

  9
$DIMLTEX1
  6

  9
$DIMLTEX2
  6

  9
$DIMTXTDIRECTION
 70
     0
  9
$LUNITS
 70
     2
  9
$LUPREC
 70
     4
  9
$SKETCHINC
 40
0.1
  9
$FILLETRAD
 40
0.5
  9
$AUNITS
 70
     0
  9
$AUPREC
 70
     0
  9
$MENU
  1
.
  9
$ELEVATION
 40
0.0
  9
$PELEVATION
 40
0.0
  9
$THICKNESS
 40
0.0
  9
$LIMCHECK
 70
     0
  9
$CHAMFERA
 40
0.5
  9
$CHAMFERB
 40
0.5
  9
$CHAMFERC
 40
1.0
  9
$CHAMFERD
 40
0.0
  9
$SKPOLY
 70
     0
  9
$TDCREATE
 40
2457917.614490741
  9
$TDUCREATE
 40
2457917.239490741
  9
$TDUPDATE
 40
2457917.614490741
  9
$TDUUPDATE
 40
2457917.239490741
  9
$TDINDWG
 40
0.0000000116
  9
$TDUSRTIMER
 40
0.0000000116
  9
$USRTIMER
 70
     1
  9
$ANGBASE
 50
0.0
  9
$ANGDIR
 70
     0
  9
$PDMODE
 70
     0
  9
$PDSIZE
 40
0.0
  9
$PLINEWID
 40
0.0
  9
$SPLFRAME
 70
     0
  9
$SPLINETYPE
 70
     6
  9
$SPLINESEGS
 70
     8
  9
$HANDSEED
  5
107
  9
$SURFTAB1
 70
     6
  9
$SURFTAB2
 70
     6
  9
$SURFTYPE
 70
     6
  9
$SURFU
 70
     6
  9
$SURFV
 70
     6
  9
$UCSBASE
  2

  9
$UCSNAME
  2

  9
$UCSORG
 10
0.0
 20
0.0
 30
0.0
  9
$UCSXDIR
 10
1.0
 20
0.0
 30
0.0
  9
$UCSYDIR
 10
0.0
 20
1.0
 30
0.0
  9
$UCSORTHOREF
  2

  9
$UCSORTHOVIEW
 70
     0
  9
$UCSORGTOP
 10
0.0
 20
0.0
 30
0.0
  9
$UCSORGBOTTOM
 10
0.0
 20
0.0
 30
0.0
  9
$UCSORGLEFT
 10
0.0
 20
0.0
 30
0.0
  9
$UCSORGRIGHT
 10
0.0
 20
0.0
 30
0.0
  9
$UCSORGFRONT
 10
0.0
 20
0.0
 30
0.0
  9
$UCSORGBACK
 10
0.0
 20
0.0
 30
0.0
  9
$PUCSBASE
  2

  9
$PUCSNAME
  2

  9
$PUCSORG
 10
0.0
 20
0.0
 30
0.0
  9
$PUCSXDIR
 10
1.0
 20
0.0
 30
0.0
  9
$PUCSYDIR
 10
0.0
 20
1.0
 30
0.0
  9
$PUCSORTHOREF
  2

  9
$PUCSORTHOVIEW
 70
     0
  9
$PUCSORGTOP
 10
0.0
 20
0.0
 30
0.0
  9
$PUCSORGBOTTOM
 10
0.0
 20
0.0
 30
0.0
  9
$PUCSORGLEFT
 10
0.0
 20
0.0
 30
0.0
  9
$PUCSORGRIGHT
 10
0.0
 20
0.0
 30
0.0
  9
$PUCSORGFRONT
 10
0.0
 20
0.0
 30
0.0
  9
$PUCSORGBACK
 10
0.0
 20
0.0
 30
0.0
  9
$USERI1
 70
     0
  9
$USERI2
 70
     0
  9
$USERI3
 70
     0
  9
$USERI4
 70
     0
  9
$USERI5
 70
     0
  9
$USERR1
 40
0.0
  9
$USERR2
 40
0.0
  9
$USERR3
 40
0.0
  9
$USERR4
 40
0.0
  9
$USERR5
 40
0.0
  9
$WORLDVIEW
 70
     1
  9
$SHADEDGE
 70
     3
  9
$SHADEDIF
 70
    70
  9
$TILEMODE
 70
     1
  9
$MAXACTVP
 70
    64
  9
$PINSBASE
 10
0.0
 20
0.0
 30
0.0
  9
$PLIMCHECK
 70
     0
  9
$PEXTMIN
 10
1.000000000000000E+20
 20
1.000000000000000E+20
 30
1.000000000000000E+20
  9
$PEXTMAX
 10
-1.000000000000000E+20
 20
-1.000000000000000E+20
 30
-1.000000000000000E+20
  9
$PLIMMIN
 10
0.0
 20
0.0
  9
$PLIMMAX
 10
12.0
 20
9.0
  9
$UNITMODE
 70
     0
  9
$VISRETAIN
 70
     1
  9
$PLINEGEN
 70
     0
  9
$PSLTSCALE
 70
     1
  9
$TREEDEPTH
 70
  3020
  9
$CMLSTYLE
  2
Standard
  9
$CMLJUST
 70
     0
  9
$CMLSCALE
 40
1.0
  9
$PROXYGRAPHICS
 70
     1
  9
$MEASUREMENT
 70
     0
  9
$CELWEIGHT
370
    -1
  9
$ENDCAPS
280
     0
  9
$JOINSTYLE
280
     0
  9
$LWDISPLAY
290
     1
  9
$INSUNITS
 70
     1
  9
$HYPERLINKBASE
  1

  9
$STYLESHEET
  1

  9
$XEDIT
290
     1
  9
$CEPSNTYPE
380
     0
  9
$PSTYLEMODE
290
     1
  9
$FINGERPRINTGUID
  2
{A99698E7-8671-9D0F-C327-F017670E718A}
  9
$VERSIONGUID
  2
{FAEB1C32-E019-11D5-929B-00C0DF256EC4}
  9
$EXTNAMES
290
     1
  9
$PSVPSCALE
 40
0.0
  9
$OLESTARTUP
290
     0
  9
$SORTENTS
280
   127
  9
$INDEXCTL
280
     0
  9
$HIDETEXT
280
     1
  9
$XCLIPFRAME
280
     2
  9
$HALOGAP
280
     0
  9
$OBSCOLOR
 70
   257
  9
$OBSLTYPE
280
     0
  9
$INTERSECTIONDISPLAY
280
     0
  9
$INTERSECTIONCOLOR
 70
   257
  9
$DIMASSOC
280
     2
  9
$PROJECTNAME
  1

  9
$CAMERADISPLAY
290
     0
  9
$LENSLENGTH
 40
50.0
  9
$CAMERAHEIGHT
 40
0.0
  9
$STEPSPERSEC
 40
2.0
  9
$STEPSIZE
 40
6.0
  9
$3DDWFPREC
 40
2.0
  9
$PSOLWIDTH
 40
0.25
  9
$PSOLHEIGHT
 40
4.0
  9
$LOFTANG1
 40
1.570796326794897
  9
$LOFTANG2
 40
1.570796326794897
  9
$LOFTMAG1
 40
0.0
  9
$LOFTMAG2
 40
0.0
  9
$LOFTPARAM
 70
     7
  9
$LOFTNORMALS
280
     1
  9
$LATITUDE
 40
37.795
  9
$LONGITUDE
 40
-122.394
  9
$NORTHDIRECTION
 40
0.0
  9
$TIMEZONE
 70
 -8000
  9
$LIGHTGLYPHDISPLAY
280
     1
  9
$TILEMODELIGHTSYNCH
280
     1
  9
$CMATERIAL
347
3C
  9
$SOLIDHIST
280
     1
  9
$SHOWHIST
280
     1
  9
$DWFFRAME
280
     2
  9
$DGNFRAME
280
     2
  9
$REALWORLDSCALE
290
     1
  9
$INTERFERECOLOR
 62
   256
  9
$CSHADOW
280
     0
  9
$SHADOWPLANELOCATION
 40
0.0
  0
ENDSEC
  0
SECTION
  2
CLASSES
  0
CLASS
  1
ACDBDICTIONARYWDFLT
  2
AcDbDictionaryWithDefault
  3
ObjectDBX Classes
 90
        0
 91
        4
280
     0
281
     0
  0
CLASS
  1
VISUALSTYLE
  2
AcDbVisualStyle
  3
ObjectDBX Classes
 90
     4095
 91
        4
280
     0
281
     0
  0
CLASS
  1
MATERIAL
  2
AcDbMaterial
  3
ObjectDBX Classes
 90
     1153
 91
        4
280
     0
281
     0
  0
CLASS
  1
SUN
  2
AcDbSun
  3
SCENEOE
 90
     1024
 91
        4
280
     0
281
     0
  0
ENDSEC
  0
SECTION
  2
TABLES
  0
TABLE
  2
VPORT
  5
8
330
0
100
AcDbSymbolTable
 70
     1
  0
VPORT
  5
29
330
8
100
AcDbSymbolTableRecord
100
AcDbViewportTableRecord
  2
*Active
 70
     0
 10
0.0
 20
0.0
 11
1.0
 21
1.0
 12
0.0
 22
0.0
 13
0.0
 23
0.0
 14
0.5
 24
0.5
 15
0.5
 25
0.5
 16
0.0
 26
0.0
 36
1.0
 17
91.00082462281999
 27
-128.4993055234307
 37
0.0
 40
256.9986110468615
 41
0.7081814508812795
 42
50.0
 43
0.0
 44
0.0
 50
0.0
 51
0.0
 71
     0
 72
   100
 73
     1
 74
     3
 75
     0
 76
     0
 77
     0
 78
     0
281
     0
 65
     1
110
0.0
120
0.0
130
0.0
111
1.0
121
0.0
131
0.0
112
0.0
122
1.0
132
0.0
 79
     0
146
0.0
 60
     3
 61
     5
292
     1
282
     1
141
0.0
142
0.0
 63
   250
361
3F
  0
ENDTAB
  0
TABLE
  2
LTYPE
  5
5
330
0
100
AcDbSymbolTable
 70
     1
  0
LTYPE
  5
14
330
5
100
AcDbSymbolTableRecord
100
AcDbLinetypeTableRecord
  2
ByBlock
 70
     0
  3

 72
    65
 73
     0
 40
0.0
  0
LTYPE
  5
15
330
5
100
AcDbSymbolTableRecord
100
AcDbLinetypeTableRecord
  2
ByLayer
 70
     0
  3

 72
    65
 73
     0
 40
0.0
  0
LTYPE
  5
16
330
5
100
AcDbSymbolTableRecord
100
AcDbLinetypeTableRecord
  2
Continuous
 70
     0
  3
Solid line
 72
    65
 73
     0
 40
0.0
  0
ENDTAB
  0
TABLE
  2
LAYER
  5
2
330
0
100
AcDbSymbolTable
 70
     2
  0
LAYER
  5
10
330
2
100
AcDbSymbolTableRecord
100
AcDbLayerTableRecord
  2
0
 70
     0
 62
     7
  6
Continuous
370
    -3
390
F
347
3E
  0
LAYER
  5
40
330
2
100
AcDbSymbolTableRecord
100
AcDbLayerTableRecord
  2
_U+30EC_U+30A4_U+30E4_U+30FC 1
 70
     0
 62
     7
  6
Continuous
370
    -3
390
F
347
3E
  0
ENDTAB
  0
TABLE
  2
STYLE
  5
3
330
0
100
AcDbSymbolTable
 70
     1
  0
STYLE
  5
11
330
3
100
AcDbSymbolTableRecord
100
AcDbTextStyleTableRecord
  2
Standard
 70
     0
 40
0.0
 41
1.0
 50
0.0
 71
     0
 42
0.2
  3
txt
  4

  0
ENDTAB
  0
TABLE
  2
VIEW
  5
6
330
0
100
AcDbSymbolTable
 70
     0
  0
ENDTAB
  0
TABLE
  2
UCS
  5
7
330
0
100
AcDbSymbolTable
 70
     0
  0
ENDTAB
  0
TABLE
  2
APPID
  5
9
330
0
100
AcDbSymbolTable
 70
     1
  0
APPID
  5
12
330
9
100
AcDbSymbolTableRecord
100
AcDbRegAppTableRecord
  2
ACAD
 70
     0
  0
ENDTAB
  0
TABLE
  2
DIMSTYLE
  5
A
330
0
100
AcDbSymbolTable
 70
     1
100
AcDbDimStyleTable
  0
DIMSTYLE
105
27
330
A
100
AcDbSymbolTableRecord
100
AcDbDimStyleTableRecord
  2
Standard
 70
     0
178
     0
340
11
  0
ENDTAB
  0
TABLE
  2
BLOCK_RECORD
  5
1
330
0
100
AcDbSymbolTable
 70
     8
  0
BLOCK_RECORD
  5
1F
330
1
100
AcDbSymbolTableRecord
100
AcDbBlockTableRecord
  2
*Model_Space
340
22
 70
     0
280
     1
281
     0
  0
BLOCK_RECORD
  5
1B
330
1
100
AcDbSymbolTableRecord
100
AcDbBlockTableRecord
  2
*Paper_Space
340
1E
 70
     0
280
     1
281
     0
  0
BLOCK_RECORD
  5
23
330
1
100
AcDbSymbolTableRecord
100
AcDbBlockTableRecord
  2
*Paper_Space0
340
26
 70
     0
280
     1
281
     0
  0
BLOCK_RECORD
  5
71
330
1
100
AcDbSymbolTableRecord
100
AcDbBlockTableRecord
  2
block 2
340
0
102
{BLKREFS
331
72
102
}
 70
     0
280
     1
281
     0
  0
BLOCK_RECORD
  5
94
330
1
100
AcDbSymbolTableRecord
100
AcDbBlockTableRecord
  2
block 3
340
0
102
{BLKREFS
331
95
102
}
 70
     0
280
     1
281
     0
  0
BLOCK_RECORD
  5
AD
330
1
100
AcDbSymbolTableRecord
100
AcDbBlockTableRecord
  2
block 4
340
0
102
{BLKREFS
331
AE
102
}
 70
     0
280
     1
281
     0
  0
BLOCK_RECORD
  5
C9
330
1
100
AcDbSymbolTableRecord
100
AcDbBlockTableRecord
  2
block 5
340
0
102
{BLKREFS
331
CA
102
}
 70
     0
280
     1
281
     0
  0
BLOCK_RECORD
  5
DD
330
1
100
AcDbSymbolTableRecord
100
AcDbBlockTableRecord
  2
block 6
340
0
102
{BLKREFS
331
DE
102
}
 70
     0
280
     1
281
     0
  0
BLOCK_RECORD
  5
F3
330
1
100
AcDbSymbolTableRecord
100
AcDbBlockTableRecord
  2
block 7
340
0
102
{BLKREFS
331
F4
102
}
 70
     0
280
     1
281
     0
  0
BLOCK_RECORD
  5
FD
330
1
100
AcDbSymbolTableRecord
100
AcDbBlockTableRecord
  2
block 8
340
0
102
{BLKREFS
331
FE
102
}
 70
     0
280
     1
281
     0
  0
ENDTAB
  0
ENDSEC
  0
SECTION
  2
BLOCKS
  0
BLOCK
  5
20
330
1F
100
AcDbEntity
  8
0
100
AcDbBlockBegin
  2
*Model_Space
 70
     0
 10
0.0
 20
0.0
 30
0.0
  3
*Model_Space
  1

  0
ENDBLK
  5
21
330
1F
100
AcDbEntity
  8
0
100
AcDbBlockEnd
  0
BLOCK
  5
1C
330
1B
100
AcDbEntity
 67
     1
  8
0
100
AcDbBlockBegin
  2
*Paper_Space
 70
     0
 10
0.0
 20
0.0
 30
0.0
  3
*Paper_Space
  1

  0
ENDBLK
  5
1D
330
1B
100
AcDbEntity
 67
     1
  8
0
100
AcDbBlockEnd
  0
BLOCK
  5
24
330
23
100
AcDbEntity
  8
0
100
AcDbBlockBegin
  2
*Paper_Space0
 70
     0
 10
0.0
 20
0.0
 30
0.0
  3
*Paper_Space0
  1

  0
ENDBLK
  5
25
330
23
100
AcDbEntity
  8
0
100
AcDbBlockEnd
  0
BLOCK
  5
73
330
71
100
AcDbEntity
  8
0
100
AcDbBlockBegin
  2
block 2
 70
     0
 10
0.0
 20
0.0
 30
0.0
  3
block 2
  1

  0
POLYLINE
  5
75
330
71
100
AcDbEntity
  8
_U+30EC_U+30A4_U+30E4_U+30FC 1
 62
     7
420
 16777215
370
    25
100
AcDb2dPolyline
 66
     1
 10
0.0
 20
0.0
 30
0.0
  0
VERTEX
  5
76
330
75
100
AcDbEntity
  8
_U+30EC_U+30A4_U+30E4_U+30FC 1
 62
     7
420
 16777215
370
    25
100
AcDbVertex
100
AcDb2dVertex
 10
94.05281093384622
 20
-135.2830457995124
 30
0.0
  0
VERTEX
  5
77
330
75
100
AcDbEntity
  8
_U+30EC_U+30A4_U+30E4_U+30FC 1
 62
     7
420
 16777215
370
    25
100
AcDbVertex
100
AcDb2dVertex
 10
95.05328868609969
 20
-135.2830457995124
 30
0.0
  0
SEQEND
  5
78
330
75
100
AcDbEntity
  8
_U+30EC_U+30A4_U+30E4_U+30FC 1
 62
     7
420
 16777215
370
    25
  0
POLYLINE
  5
79
330
71
100
AcDbEntity
  8
_U+30EC_U+30A4_U+30E4_U+30FC 1
 62
     7
420
 16777215
370
    25
100
AcDb2dPolyline
 66
     1
 10
0.0
 20
0.0
 30
0.0
  0
VERTEX
  5
7A
330
79
100
AcDbEntity
  8
_U+30EC_U+30A4_U+30E4_U+30FC 1
 62
     7
420
 16777215
370
    25
100
AcDbVertex
100
AcDb2dVertex
 10
95.05328868609969
 20
-138.2830327432067
 30
0.0
  0
VERTEX
  5
7B
330
79
100
AcDbEntity
  8
_U+30EC_U+30A4_U+30E4_U+30FC 1
 62
     7
420
 16777215
370
    25
100
AcDbVertex
100
AcDb2dVertex
 10
95.05328868609969
 20
-135.2830457995124
 30
0.0
  0
SEQEND
  5
7C
330
79
100
AcDbEntity
  8
_U+30EC_U+30A4_U+30E4_U+30FC 1
 62
     7
420
 16777215
370
    25
  0
POLYLINE
  5
7D
330
71
100
AcDbEntity
  8
_U+30EC_U+30A4_U+30E4_U+30FC 1
 62
     7
420
 16777215
370
    25
100
AcDb2dPolyline
 66
     1
 10
0.0
 20
0.0
 30
0.0
  0
VERTEX
  5
7E
330
7D
100
AcDbEntity
  8
_U+30EC_U+30A4_U+30E4_U+30FC 1
 62
     7
420
 16777215
370
    25
100
AcDbVertex
100
AcDb2dVertex
 10
93.95290426972839
 20
-137.1833538545932
 30
0.0
  0
VERTEX
  5
7F
330
7D
100
AcDbEntity
  8
_U+30EC_U+30A4_U+30E4_U+30FC 1
 62
     7
420
 16777215
370
    25
100
AcDbVertex
100
AcDb2dVertex
 10
93.95290426972839
 20
-135.2830457995124
 30
0.0
  0
SEQEND
  5
80
330
7D
100
AcDbEntity
  8
_U+30EC_U+30A4_U+30E4_U+30FC 1
 62
     7
420
 16777215
370
    25
  0
ENDBLK
  5
74
330
71
100
AcDbEntity
  8
0
100
AcDbBlockEnd
  0
BLOCK
  5
96
330
94
100
AcDbEntity
  8
0
100
AcDbBlockBegin
  2
block 3
 70
     0
 10
0.0
 20
0.0
 30
0.0
  3
block 3
  1

  0
SPLINE
  5
98
330
94
100
AcDbEntity
  8
_U+30EC_U+30A4_U+30E4_U+30FC 1
370
     0
100
AcDbSpline
210
0.0
220
0.0
230
1.0
 70
    11
 71
     3
 72
    26
 73
    22
 74
     0
 42
0.0000000001
 43
0.0000000001
 12
1.0
 22
0.0
 32
0.0
 13
1.0
 23
0.0
 33
0.0
 40
0.0
 40
0.0
 40
0.0
 40
0.0
 40
1.0
 40
1.0
 40
1.0
 40
2.0
 40
2.0
 40
2.0
 40
3.0
 40
3.0
 40
3.0
 40
4.0
 40
4.0
 40
4.0
 40
5.0
 40
5.0
 40
5.0
 40
6.0
 40
6.0
 40
6.0
 40
7.0
 40
7.0
 40
7.0
 40
7.0
 10
89.41073538346329
 20
-141.8624864011663
 30
0.0
 10
89.41073538346329
 20
-141.8624864011663
 30
0.0
 10
89.41073538346329
 20
-140.7583332981438
 30
0.0
 10
89.41073538346329
 20
-140.7583332981438
 30
0.0
 10
89.41073538346329
 20
-140.7583332981438
 30
0.0
 10
89.08069523597636
 20
-140.7583332981438
 30
0.0
 10
89.08069523597636
 20
-140.7583332981438
 30
0.0
 10
89.08069523597636
 20
-140.7583332981438
 30
0.0
 10
89.08069523597636
 20
-140.610194192278
 30
0.0
 10
89.08069523597636
 20
-140.610194192278
 30
0.0
 10
89.41280244075445
 20
-140.5953802816914
 30
0.0
 10
89.45931122980531
 20
-140.4324272652391
 30
0.0
 10
89.48893905097846
 20
-140.3180500951288
 30
0.0
 10
89.48893905097846
 20
-140.3180500951288
 30
0.0
 10
89.63501109955305
 20
-140.3180500951288
 30
0.0
 10
89.63501109955305
 20
-140.3180500951288
 30
0.0
 10
89.63501109955305
 20
-140.3180500951288
 30
0.0
 10
89.63501109955305
 20
-141.8624864011663
 30
0.0
 10
89.63501109955305
 20
-141.8624864011663
 30
0.0
 10
89.63501109955305
 20
-141.8624864011663
 30
0.0
 10
89.41073538346329
 20
-141.8624864011663
 30
0.0
 10
89.41073538346329
 20
-141.8624864011663
 30
0.0
  0
HATCH
  5
99
330
94
100
AcDbEntity
  8
_U+30EC_U+30A4_U+30E4_U+30FC 1
 62
     7
420
 16777215
100
AcDbHatch
 10
0.0
 20
0.0
 30
0.0
210
0.0
220
0.0
230
1.0
  2
SOLID
 70
     1
 71
     0
 91
        1
 92
        1
 93
        1
 72
     4
 94
        3
 73
     0
 74
     1
 95
       26
 96
       22
 40
0.0
 40
0.0
 40
0.0
 40
0.0
 40
1.0
 40
1.0
 40
1.0
 40
2.0
 40
2.0
 40
2.0
 40
3.0
 40
3.0
 40
3.0
 40
4.0
 40
4.0
 40
4.0
 40
5.0
 40
5.0
 40
5.0
 40
6.0
 40
6.0
 40
6.0
 40
7.0
 40
7.0
 40
7.0
 40
7.0
 10
89.41073538346329
 20
-141.8624864011663
 10
89.41073538346329
 20
-141.8624864011663
 10
89.41073538346329
 20
-140.7583332981438
 10
89.41073538346329
 20
-140.7583332981438
 10
89.41073538346329
 20
-140.7583332981438
 10
89.08069523597636
 20
-140.7583332981438
 10
89.08069523597636
 20
-140.7583332981438
 10
89.08069523597636
 20
-140.7583332981438
 10
89.08069523597636
 20
-140.610194192278
 10
89.08069523597636
 20
-140.610194192278
 10
89.41280244075445
 20
-140.5953802816914
 10
89.45931122980531
 20
-140.4324272652391
 10
89.48893905097846
 20
-140.3180500951288
 10
89.48893905097846
 20
-140.3180500951288
 10
89.63501109955305
 20
-140.3180500951288
 10
89.63501109955305
 20
-140.3180500951288
 10
89.63501109955305
 20
-140.3180500951288
 10
89.63501109955305
 20
-141.8624864011663
 10
89.63501109955305
 20
-141.8624864011663
 10
89.63501109955305
 20
-141.8624864011663
 10
89.41073538346329
 20
-141.8624864011663
 10
89.41073538346329
 20
-141.8624864011663
 97
        0
 97
        0
 75
     2
 76
     1
 98
        0
  0
SPLINE
  5
9A
330
94
100
AcDbEntity
  8
_U+30EC_U+30A4_U+30E4_U+30FC 1
370
     0
100
AcDbSpline
210
0.0
220
0.0
230
1.0
 70
    11
 71
     3
 72
    29
 73
    25
 74
     0
 42
0.0000000001
 43
0.0000000001
 12
1.0
 22
0.0
 32
0.0
 13
1.0
 23
0.0
 33
0.0
 40
0.0
 40
0.0
 40
0.0
 40
0.0
 40
1.0
 40
1.0
 40
1.0
 40
2.0
 40
2.0
 40
2.0
 40
3.0
 40
3.0
 40
3.0
 40
4.0
 40
4.0
 40
4.0
 40
5.0
 40
5.0
 40
5.0
 40
6.0
 40
6.0
 40
6.0
 40
7.0
 40
7.0
 40
7.0
 40
8.0
 40
8.0
 40
8.0
 40
8.0
 10
91.03406437611302
 20
-141.6847194741274
 30
0.0
 10
90.92588837787618
 20
-141.8941812796306
 30
0.0
 10
90.7526000749681
 20
-141.9131293047995
 30
0.0
 10
90.63615584756666
 20
-141.9131293047995
 30
0.0
 10
90.47526988840549
 20
-141.9131293047995
 30
0.0
 10
90.33367646396172
 20
-141.8666205157486
 30
0.0
 10
90.23859182856883
 20
-141.6847194741274
 30
0.0
 10
90.13489445446281
 20
-141.4900715792108
 30
0.0
 10
90.11594642929393
 20
-141.2533935193742
 30
0.0
 10
90.11594642929393
 20
-141.0904405029218
 30
0.0
 10
90.11594642929393
 20
-140.9464355116384
 30
0.0
 10
90.13282739717165
 20
-140.6945990316666
 30
0.0
 10
90.23859182856883
 20
-140.4958170221677
 30
0.0
 10
90.34642331725715
 20
-140.2929008980865
 30
0.0
 10
90.50730927641831
 20
-140.2694742487868
 30
0.0
 10
90.63615584756666
 20
-140.2694742487868
 30
0.0
 10
90.79497474943668
 20
-140.2694742487868
 30
0.0
 10
90.9386352311716
 20
-140.3139159805465
 30
0.0
 10
91.03406437611302
 20
-140.4958170221677
 30
0.0
 10
91.13328312608822
 20
-140.6883978597932
 30
0.0
 10
91.15670977538791
 20
-140.9168076904652
 30
0.0
 10
91.15670977538791
 20
-141.0904405029218
 30
0.0
 10
91.15670977538791
 20
-141.2616617485388
 30
0.0
 10
91.13535018337936
 20
-141.492138636502
 30
0.0
 10
91.03406437611302
 20
-141.6847194741274
 30
0.0
  0
SPLINE
  5
9B
330
94
100
AcDbEntity
  8
_U+30EC_U+30A4_U+30E4_U+30FC 1
370
     0
100
AcDbSpline
210
0.0
220
0.0
230
1.0
 70
    11
 71
     3
 72
    17
 73
    13
 74
     0
 42
0.0000000001
 43
0.0000000001
 12
1.0
 22
0.0
 32
0.0
 13
1.0
 23
0.0
 33
0.0
 40
0.0
 40
0.0
 40
0.0
 40
0.0
 40
1.0
 40
1.0
 40
1.0
 40
2.0
 40
2.0
 40
2.0
 40
3.0
 40
3.0
 40
3.0
 40
4.0
 40
4.0
 40
4.0
 40
4.0
 10
90.63615584756666
 20
-140.4620550864123
 30
0.0
 10
90.38673093443457
 20
-140.4620550864123
 30
0.0
 10
90.33987763583518
 20
-140.7455864448483
 30
0.0
 10
90.33987763583518
 20
-141.0904405029218
 30
0.0
 10
90.33987763583518
 20
-141.4098008544045
 30
0.0
 10
90.3760511384303
 20
-141.7184814098829
 30
0.0
 10
90.63615584756666
 20
-141.7184814098829
 30
0.0
 10
90.88385821295613
 20
-141.7184814098829
 30
0.0
 10
90.93243405929815
 20
-141.4373616182865
 30
0.0
 10
90.93243405929815
 20
-141.0904405029218
 30
0.0
 10
90.93243405929815
 20
-140.7707356418907
 30
0.0
 10
90.89419349941187
 20
-140.4620550864123
 30
0.0
 10
90.63615584756666
 20
-140.4620550864123
 30
0.0
  0
HATCH
  5
9C
330
94
100
AcDbEntity
  8
_U+30EC_U+30A4_U+30E4_U+30FC 1
 62
     7
420
 16777215
100
AcDbHatch
 10
0.0
 20
0.0
 30
0.0
210
0.0
220
0.0
230
1.0
  2
SOLID
 70
     1
 71
     0
 91
        2
 92
        1
 93
        1
 72
     4
 94
        3
 73
     0
 74
     1
 95
       29
 96
       25
 40
0.0
 40
0.0
 40
0.0
 40
0.0
 40
1.0
 40
1.0
 40
1.0
 40
2.0
 40
2.0
 40
2.0
 40
3.0
 40
3.0
 40
3.0
 40
4.0
 40
4.0
 40
4.0
 40
5.0
 40
5.0
 40
5.0
 40
6.0
 40
6.0
 40
6.0
 40
7.0
 40
7.0
 40
7.0
 40
8.0
 40
8.0
 40
8.0
 40
8.0
 10
91.03406437611302
 20
-141.6847194741274
 10
90.92588837787618
 20
-141.8941812796306
 10
90.7526000749681
 20
-141.9131293047995
 10
90.63615584756666
 20
-141.9131293047995
 10
90.47526988840549
 20
-141.9131293047995
 10
90.33367646396172
 20
-141.8666205157486
 10
90.23859182856883
 20
-141.6847194741274
 10
90.13489445446281
 20
-141.4900715792108
 10
90.11594642929393
 20
-141.2533935193742
 10
90.11594642929393
 20
-141.0904405029218
 10
90.11594642929393
 20
-140.9464355116384
 10
90.13282739717165
 20
-140.6945990316666
 10
90.23859182856883
 20
-140.4958170221677
 10
90.34642331725715
 20
-140.2929008980865
 10
90.50730927641831
 20
-140.2694742487868
 10
90.63615584756666
 20
-140.2694742487868
 10
90.79497474943668
 20
-140.2694742487868
 10
90.9386352311716
 20
-140.3139159805465
 10
91.03406437611302
 20
-140.4958170221677
 10
91.13328312608822
 20
-140.6883978597932
 10
91.15670977538791
 20
-140.9168076904652
 10
91.15670977538791
 20
-141.0904405029218
 10
91.15670977538791
 20
-141.2616617485388
 10
91.13535018337936
 20
-141.492138636502
 10
91.03406437611302
 20
-141.6847194741274
 97
        0
 97
        0
 92
        1
 93
        1
 72
     4
 94
        3
 73
     0
 74
     1
 95
       17
 96
       13
 40
0.0
 40
0.0
 40
0.0
 40
0.0
 40
1.0
 40
1.0
 40
1.0
 40
2.0
 40
2.0
 40
2.0
 40
3.0
 40
3.0
 40
3.0
 40
4.0
 40
4.0
 40
4.0
 40
4.0
 10
90.63615584756666
 20
-140.4620550864123
 10
90.38673093443457
 20
-140.4620550864123
 10
90.33987763583518
 20
-140.7455864448483
 10
90.33987763583518
 20
-141.0904405029218
 10
90.33987763583518
 20
-141.4098008544045
 10
90.3760511384303
 20
-141.7184814098829
 10
90.63615584756666
 20
-141.7184814098829
 10
90.88385821295613
 20
-141.7184814098829
 10
90.93243405929815
 20
-141.4373616182865
 10
90.93243405929815
 20
-141.0904405029218
 10
90.93243405929815
 20
-140.7707356418907
 10
90.89419349941187
 20
-140.4620550864123
 10
90.63615584756666
 20
-140.4620550864123
 97
        0
 97
        0
 75
     2
 76
     1
 98
        0
  0
ENDBLK
  5
97
330
94
100
AcDbEntity
  8
0
100
AcDbBlockEnd
  0
BLOCK
  5
AF
330
AD
100
AcDbEntity
  8
0
100
AcDbBlockBegin
  2
block 4
 70
     0
 10
0.0
 20
0.0
 30
0.0
  3
block 4
  1

  0
SPLINE
  5
B1
330
AD
100
AcDbEntity
  8
_U+30EC_U+30A4_U+30E4_U+30FC 1
370
     0
100
AcDbSpline
210
0.0
220
0.0
230
1.0
 70
    11
 71
     3
 72
    26
 73
    22
 74
     0
 42
0.0000000001
 43
0.0000000001
 12
1.0
 22
0.0
 32
0.0
 13
1.0
 23
0.0
 33
0.0
 40
0.0
 40
0.0
 40
0.0
 40
0.0
 40
1.0
 40
1.0
 40
1.0
 40
2.0
 40
2.0
 40
2.0
 40
3.0
 40
3.0
 40
3.0
 40
4.0
 40
4.0
 40
4.0
 40
5.0
 40
5.0
 40
5.0
 40
6.0
 40
6.0
 40
6.0
 40
7.0
 40
7.0
 40
7.0
 40
7.0
 10
109.1919568954451
 20
-122.5689181551217
 30
0.0
 10
109.1919568954451
 20
-122.5689181551217
 30
0.0
 10
108.0878037924225
 20
-122.5689181551217
 30
0.0
 10
108.0878037924225
 20
-122.5689181551217
 30
0.0
 10
108.0878037924225
 20
-122.5689181551217
 30
0.0
 10
108.0878037924225
 20
-122.8989583026086
 30
0.0
 10
108.0878037924225
 20
-122.8989583026086
 30
0.0
 10
108.0878037924225
 20
-122.8989583026086
 30
0.0
 10
107.9396646865568
 20
-122.8989583026086
 30
0.0
 10
107.9396646865568
 20
-122.8989583026086
 30
0.0
 10
107.9248507759702
 20
-122.5668510978305
 30
0.0
 10
107.7618977595179
 20
-122.5203423087796
 30
0.0
 10
107.6475205894076
 20
-122.4907144876065
 30
0.0
 10
107.6475205894076
 20
-122.4907144876065
 30
0.0
 10
107.6475205894076
 20
-122.3446424390319
 30
0.0
 10
107.6475205894076
 20
-122.3446424390319
 30
0.0
 10
107.6475205894076
 20
-122.3446424390319
 30
0.0
 10
109.1919568954451
 20
-122.3446424390319
 30
0.0
 10
109.1919568954451
 20
-122.3446424390319
 30
0.0
 10
109.1919568954451
 20
-122.3446424390319
 30
0.0
 10
109.1919568954451
 20
-122.5689181551217
 30
0.0
 10
109.1919568954451
 20
-122.5689181551217
 30
0.0
  0
HATCH
  5
B2
330
AD
100
AcDbEntity
  8
_U+30EC_U+30A4_U+30E4_U+30FC 1
 62
     7
420
 16777215
100
AcDbHatch
 10
0.0
 20
0.0
 30
0.0
210
0.0
220
0.0
230
1.0
  2
SOLID
 70
     1
 71
     0
 91
        1
 92
        1
 93
        1
 72
     4
 94
        3
 73
     0
 74
     1
 95
       26
 96
       22
 40
0.0
 40
0.0
 40
0.0
 40
0.0
 40
1.0
 40
1.0
 40
1.0
 40
2.0
 40
2.0
 40
2.0
 40
3.0
 40
3.0
 40
3.0
 40
4.0
 40
4.0
 40
4.0
 40
5.0
 40
5.0
 40
5.0
 40
6.0
 40
6.0
 40
6.0
 40
7.0
 40
7.0
 40
7.0
 40
7.0
 10
109.1919568954451
 20
-122.5689181551217
 10
109.1919568954451
 20
-122.5689181551217
 10
108.0878037924225
 20
-122.5689181551217
 10
108.0878037924225
 20
-122.5689181551217
 10
108.0878037924225
 20
-122.5689181551217
 10
108.0878037924225
 20
-122.8989583026086
 10
108.0878037924225
 20
-122.8989583026086
 10
108.0878037924225
 20
-122.8989583026086
 10
107.9396646865568
 20
-122.8989583026086
 10
107.9396646865568
 20
-122.8989583026086
 10
107.9248507759702
 20
-122.5668510978305
 10
107.7618977595179
 20
-122.5203423087796
 10
107.6475205894076
 20
-122.4907144876065
 10
107.6475205894076
 20
-122.4907144876065
 10
107.6475205894076
 20
-122.3446424390319
 10
107.6475205894076
 20
-122.3446424390319
 10
107.6475205894076
 20
-122.3446424390319
 10
109.1919568954451
 20
-122.3446424390319
 10
109.1919568954451
 20
-122.3446424390319
 10
109.1919568954451
 20
-122.3446424390319
 10
109.1919568954451
 20
-122.5689181551217
 10
109.1919568954451
 20
-122.5689181551217
 97
        0
 97
        0
 75
     2
 76
     1
 98
        0
  0
POLYLINE
  5
B3
330
AD
100
AcDbEntity
  8
_U+30EC_U+30A4_U+30E4_U+30FC 1
370
     0
100
AcDb2dPolyline
 66
     1
 10
0.0
 20
0.0
 30
0.0
  0
VERTEX
  5
B4
330
B3
100
AcDbEntity
  8
_U+30EC_U+30A4_U+30E4_U+30FC 1
370
     0
100
AcDbVertex
100
AcDb2dVertex
 10
109.1919568954451
 20
-121.7834363844847
 30
0.0
  0
VERTEX
  5
B5
330
B3
100
AcDbEntity
  8
_U+30EC_U+30A4_U+30E4_U+30FC 1
370
     0
100
AcDbVertex
100
AcDb2dVertex
 10
108.9401204154733
 20
-121.7834363844847
 30
0.0
  0
VERTEX
  5
B6
330
B3
100
AcDbEntity
  8
_U+30EC_U+30A4_U+30E4_U+30FC 1
370
     0
100
AcDbVertex
100
AcDb2dVertex
 10
108.9401204154733
 20
-121.5315999045129
 30
0.0
  0
VERTEX
  5
B7
330
B3
100
AcDbEntity
  8
_U+30EC_U+30A4_U+30E4_U+30FC 1
370
     0
100
AcDbVertex
100
AcDb2dVertex
 10
109.1919568954451
 20
-121.5315999045129
 30
0.0
  0
VERTEX
  5
B8
330
B3
100
AcDbEntity
  8
_U+30EC_U+30A4_U+30E4_U+30FC 1
370
     0
100
AcDbVertex
100
AcDb2dVertex
 10
109.1919568954451
 20
-121.7834363844847
 30
0.0
  0
SEQEND
  5
B9
330
B3
100
AcDbEntity
  8
_U+30EC_U+30A4_U+30E4_U+30FC 1
370
     0
  0
HATCH
  5
BA
330
AD
100
AcDbEntity
  8
_U+30EC_U+30A4_U+30E4_U+30FC 1
 62
     7
420
 16777215
100
AcDbHatch
 10
0.0
 20
0.0
 30
0.0
210
0.0
220
0.0
230
1.0
  2
SOLID
 70
     1
 71
     0
 91
        1
 92
        1
 93
        4
 72
     1
 10
109.1919568954451
 20
-121.7834363844847
 11
108.9401204154733
 21
-121.7834363844847
 72
     1
 10
108.9401204154733
 20
-121.7834363844847
 11
108.9401204154733
 21
-121.5315999045129
 72
     1
 10
108.9401204154733
 20
-121.5315999045129
 11
109.1919568954451
 21
-121.5315999045129
 72
     1
 10
109.1919568954451
 20
-121.5315999045129
 11
109.1919568954451
 21
-121.7834363844847
 97
        0
 75
     2
 76
     1
 98
        0
  0
SPLINE
  5
BB
330
AD
100
AcDbEntity
  8
_U+30EC_U+30A4_U+30E4_U+30FC 1
370
     0
100
AcDbSpline
210
0.0
220
0.0
230
1.0
 70
    11
 71
     3
 72
    26
 73
    22
 74
     0
 42
0.0000000001
 43
0.0000000001
 12
1.0
 22
0.0
 32
0.0
 13
1.0
 23
0.0
 33
0.0
 40
0.0
 40
0.0
 40
0.0
 40
0.0
 40
1.0
 40
1.0
 40
1.0
 40
2.0
 40
2.0
 40
2.0
 40
3.0
 40
3.0
 40
3.0
 40
4.0
 40
4.0
 40
4.0
 40
5.0
 40
5.0
 40
5.0
 40
6.0
 40
6.0
 40
6.0
 40
7.0
 40
7.0
 40
7.0
 40
7.0
 10
109.1919568954451
 20
-120.8439588456571
 30
0.0
 10
109.1919568954451
 20
-120.8439588456571
 30
0.0
 10
108.0878037924225
 20
-120.8439588456571
 30
0.0
 10
108.0878037924225
 20
-120.8439588456571
 30
0.0
 10
108.0878037924225
 20
-120.8439588456571
 30
0.0
 10
108.0878037924225
 20
-121.173998993144
 30
0.0
 10
108.0878037924225
 20
-121.173998993144
 30
0.0
 10
108.0878037924225
 20
-121.173998993144
 30
0.0
 10
107.9396646865568
 20
-121.173998993144
 30
0.0
 10
107.9396646865568
 20
-121.173998993144
 30
0.0
 10
107.9248507759702
 20
-120.8418917883659
 30
0.0
 10
107.7618977595179
 20
-120.7953829993151
 30
0.0
 10
107.6475205894076
 20
-120.7657551781419
 30
0.0
 10
107.6475205894076
 20
-120.7657551781419
 30
0.0
 10
107.6475205894076
 20
-120.6196831295673
 30
0.0
 10
107.6475205894076
 20
-120.6196831295673
 30
0.0
 10
107.6475205894076
 20
-120.6196831295673
 30
0.0
 10
109.1919568954451
 20
-120.6196831295673
 30
0.0
 10
109.1919568954451
 20
-120.6196831295673
 30
0.0
 10
109.1919568954451
 20
-120.6196831295673
 30
0.0
 10
109.1919568954451
 20
-120.8439588456571
 30
0.0
 10
109.1919568954451
 20
-120.8439588456571
 30
0.0
  0
HATCH
  5
BC
330
AD
100
AcDbEntity
  8
_U+30EC_U+30A4_U+30E4_U+30FC 1
 62
     7
420
 16777215
100
AcDbHatch
 10
0.0
 20
0.0
 30
0.0
210
0.0
220
0.0
230
1.0
  2
SOLID
 70
     1
 71
     0
 91
        1
 92
        1
 93
        1
 72
     4
 94
        3
 73
     0
 74
     1
 95
       26
 96
       22
 40
0.0
 40
0.0
 40
0.0
 40
0.0
 40
1.0
 40
1.0
 40
1.0
 40
2.0
 40
2.0
 40
2.0
 40
3.0
 40
3.0
 40
3.0
 40
4.0
 40
4.0
 40
4.0
 40
5.0
 40
5.0
 40
5.0
 40
6.0
 40
6.0
 40
6.0
 40
7.0
 40
7.0
 40
7.0
 40
7.0
 10
109.1919568954451
 20
-120.8439588456571
 10
109.1919568954451
 20
-120.8439588456571
 10
108.0878037924225
 20
-120.8439588456571
 10
108.0878037924225
 20
-120.8439588456571
 10
108.0878037924225
 20
-120.8439588456571
 10
108.0878037924225
 20
-121.173998993144
 10
108.0878037924225
 20
-121.173998993144
 10
108.0878037924225
 20
-121.173998993144
 10
107.9396646865568
 20
-121.173998993144
 10
107.9396646865568
 20
-121.173998993144
 10
107.9248507759702
 20
-120.8418917883659
 10
107.7618977595179
 20
-120.7953829993151
 10
107.6475205894076
 20
-120.7657551781419
 10
107.6475205894076
 20
-120.7657551781419
 10
107.6475205894076
 20
-120.6196831295673
 10
107.6475205894076
 20
-120.6196831295673
 10
107.6475205894076
 20
-120.6196831295673
 10
109.1919568954451
 20
-120.6196831295673
 10
109.1919568954451
 20
-120.6196831295673
 10
109.1919568954451
 20
-120.6196831295673
 10
109.1919568954451
 20
-120.8439588456571
 10
109.1919568954451
 20
-120.8439588456571
 97
        0
 97
        0
 75
     2
 76
     1
 98
        0
  0
ENDBLK
  5
B0
330
AD
100
AcDbEntity
  8
0
100
AcDbBlockEnd
  0
BLOCK
  5
CB
330
C9
100
AcDbEntity
  8
0
100
AcDbBlockBegin
  2
block 5
 70
     0
 10
0.0
 20
0.0
 30
0.0
  3
block 5
  1

  0
SPLINE
  5
CD
330
C9
100
AcDbEntity
  8
_U+30EC_U+30A4_U+30E4_U+30FC 1
370
     0
100
AcDbSpline
210
0.0
220
0.0
230
1.0
 70
    11
 71
     3
 72
    62
 73
    58
 74
     0
 42
0.0000000001
 43
0.0000000001
 12
1.0
 22
0.0
 32
0.0
 13
1.0
 23
0.0
 33
0.0
 40
0.0
 40
0.0
 40
0.0
 40
0.0
 40
1.0
 40
1.0
 40
1.0
 40
2.0
 40
2.0
 40
2.0
 40
3.0
 40
3.0
 40
3.0
 40
4.0
 40
4.0
 40
4.0
 40
5.0
 40
5.0
 40
5.0
 40
6.0
 40
6.0
 40
6.0
 40
7.0
 40
7.0
 40
7.0
 40
8.0
 40
8.0
 40
8.0
 40
9.0
 40
9.0
 40
9.0
 40
10.0
 40
10.0
 40
10.0
 40
11.0
 40
11.0
 40
11.0
 40
12.0
 40
12.0
 40
12.0
 40
13.0
 40
13.0
 40
13.0
 40
14.0
 40
14.0
 40
14.0
 40
15.0
 40
15.0
 40
15.0
 40
16.0
 40
16.0
 40
16.0
 40
17.0
 40
17.0
 40
17.0
 40
18.0
 40
18.0
 40
18.0
 40
19.0
 40
19.0
 40
19.0
 40
19.0
 10
86.13289928402233
 20
-116.4189059496279
 30
0.0
 10
86.03747013908091
 20
-116.4189059496279
 30
0.0
 10
85.81974010441313
 20
-116.3977186123936
 30
0.0
 10
85.69468313829856
 20
-116.2115112014159
 30
0.0
 10
85.62095809491422
 20
-116.099373343371
 30
0.0
 10
85.61647947078339
 20
-115.9999823386215
 30
0.0
 10
85.61234535620109
 20
-115.9154052444587
 30
0.0
 10
85.61234535620109
 20
-115.9154052444587
 30
0.0
 10
85.83248695770855
 20
-115.9154052444587
 30
0.0
 10
85.83248695770855
 20
-115.9154052444587
 30
0.0
 10
85.8345540149997
 20
-115.9894747973915
 30
0.0
 10
85.84488930145545
 20
-116.2242580547113
 30
0.0
 10
86.1284206598915
 20
-116.2242580547113
 30
0.0
 10
86.26587996975297
 20
-116.2242580547113
 30
0.0
 10
86.41849769974955
 20
-116.154494871135
 30
0.0
 10
86.41849769974955
 20
-115.9259127856887
 30
0.0
 10
86.41849769974955
 20
-115.8096408130615
 30
0.0
 10
86.38025713986328
 20
-115.7608927119452
 30
0.0
 10
86.34856226139897
 20
-115.7291978334809
 30
0.0
 10
86.2744927084661
 20
-115.655128280548
 30
0.0
 10
86.15804848106465
 20
-115.6425536820269
 30
0.0
 10
86.1032714628492
 20
-115.6425536820269
 30
0.0
 10
86.08397892813178
 20
-115.6425536820269
 30
0.0
 10
86.04814993508519
 20
-115.644620739318
 30
0.0
 10
86.02058917120318
 20
-115.6487548539003
 30
0.0
 10
86.02058917120318
 20
-115.6487548539003
 30
0.0
 10
86.02058917120318
 20
-115.4541069589837
 30
0.0
 10
86.02058917120318
 20
-115.4541069589837
 30
0.0
 10
86.05882973108946
 20
-115.4604803856314
 30
0.0
 10
86.10085989600951
 20
-115.4627196976968
 30
0.0
 10
86.10740557743149
 20
-115.4627196976968
 30
0.0
 10
86.17286239165124
 20
-115.4627196976968
 30
0.0
 10
86.37164440115015
 20
-115.4415323604625
 30
0.0
 10
86.37164440115015
 20
-115.2045097910774
 30
0.0
 10
86.37164440115015
 20
-115.0269151188127
 30
0.0
 10
86.24073077271065
 20
-114.9717935910487
 30
0.0
 10
86.13048771718266
 20
-114.9717935910487
 30
0.0
 10
85.866248893464
 20
-114.9717935910487
 30
0.0
 10
85.85763615475088
 20
-115.2045097910774
 30
0.0
 10
85.85350204016858
 20
-115.2765122867191
 30
0.0
 10
85.85350204016858
 20
-115.2765122867191
 30
0.0
 10
85.65024140653884
 20
-115.2765122867191
 30
0.0
 10
85.65024140653884
 20
-115.2765122867191
 30
0.0
 10
85.65885414525195
 20
-115.1516275753788
 30
0.0
 10
85.68641490913396
 20
-114.775078638841
 30
0.0
 10
86.14323457047809
 20
-114.775078638841
 30
0.0
 10
86.36751028656785
 20
-114.775078638841
 30
0.0
 10
86.60866697053534
 20
-114.9020304074724
 30
0.0
 10
86.60866697053534
 20
-115.1981363644296
 30
0.0
 10
86.60866697053534
 20
-115.3843437754074
 30
0.0
 10
86.51358233514244
 20
-115.4668538122791
 30
0.0
 10
86.41401907561873
 20
-115.5281765119166
 30
0.0
 10
86.47534177525617
 20
-115.5557372757986
 30
0.0
 10
86.65724281687736
 20
-115.6361802553792
 30
0.0
 10
86.65724281687736
 20
-115.9133381871675
 30
0.0
 10
86.65724281687736
 20
-116.2518188185933
 30
0.0
 10
86.40988496103643
 20
-116.4189059496279
 30
0.0
 10
86.13289928402233
 20
-116.4189059496279
 30
0.0
  0
HATCH
  5
CE
330
C9
100
AcDbEntity
  8
_U+30EC_U+30A4_U+30E4_U+30FC 1
 62
     7
420
 16777215
100
AcDbHatch
 10
0.0
 20
0.0
 30
0.0
210
0.0
220
0.0
230
1.0
  2
SOLID
 70
     1
 71
     0
 91
        1
 92
        1
 93
        1
 72
     4
 94
        3
 73
     0
 74
     1
 95
       62
 96
       58
 40
0.0
 40
0.0
 40
0.0
 40
0.0
 40
1.0
 40
1.0
 40
1.0
 40
2.0
 40
2.0
 40
2.0
 40
3.0
 40
3.0
 40
3.0
 40
4.0
 40
4.0
 40
4.0
 40
5.0
 40
5.0
 40
5.0
 40
6.0
 40
6.0
 40
6.0
 40
7.0
 40
7.0
 40
7.0
 40
8.0
 40
8.0
 40
8.0
 40
9.0
 40
9.0
 40
9.0
 40
10.0
 40
10.0
 40
10.0
 40
11.0
 40
11.0
 40
11.0
 40
12.0
 40
12.0
 40
12.0
 40
13.0
 40
13.0
 40
13.0
 40
14.0
 40
14.0
 40
14.0
 40
15.0
 40
15.0
 40
15.0
 40
16.0
 40
16.0
 40
16.0
 40
17.0
 40
17.0
 40
17.0
 40
18.0
 40
18.0
 40
18.0
 40
19.0
 40
19.0
 40
19.0
 40
19.0
 10
86.13289928402233
 20
-116.4189059496279
 10
86.03747013908091
 20
-116.4189059496279
 10
85.81974010441313
 20
-116.3977186123936
 10
85.69468313829856
 20
-116.2115112014159
 10
85.62095809491422
 20
-116.099373343371
 10
85.61647947078339
 20
-115.9999823386215
 10
85.61234535620109
 20
-115.9154052444587
 10
85.61234535620109
 20
-115.9154052444587
 10
85.83248695770855
 20
-115.9154052444587
 10
85.83248695770855
 20
-115.9154052444587
 10
85.8345540149997
 20
-115.9894747973915
 10
85.84488930145545
 20
-116.2242580547113
 10
86.1284206598915
 20
-116.2242580547113
 10
86.26587996975297
 20
-116.2242580547113
 10
86.41849769974955
 20
-116.154494871135
 10
86.41849769974955
 20
-115.9259127856887
 10
86.41849769974955
 20
-115.8096408130615
 10
86.38025713986328
 20
-115.7608927119452
 10
86.34856226139897
 20
-115.7291978334809
 10
86.2744927084661
 20
-115.655128280548
 10
86.15804848106465
 20
-115.6425536820269
 10
86.1032714628492
 20
-115.6425536820269
 10
86.08397892813178
 20
-115.6425536820269
 10
86.04814993508519
 20
-115.644620739318
 10
86.02058917120318
 20
-115.6487548539003
 10
86.02058917120318
 20
-115.6487548539003
 10
86.02058917120318
 20
-115.4541069589837
 10
86.02058917120318
 20
-115.4541069589837
 10
86.05882973108946
 20
-115.4604803856314
 10
86.10085989600951
 20
-115.4627196976968
 10
86.10740557743149
 20
-115.4627196976968
 10
86.17286239165124
 20
-115.4627196976968
 10
86.37164440115015
 20
-115.4415323604625
 10
86.37164440115015
 20
-115.2045097910774
 10
86.37164440115015
 20
-115.0269151188127
 10
86.24073077271065
 20
-114.9717935910487
 10
86.13048771718266
 20
-114.9717935910487
 10
85.866248893464
 20
-114.9717935910487
 10
85.85763615475088
 20
-115.2045097910774
 10
85.85350204016858
 20
-115.2765122867191
 10
85.85350204016858
 20
-115.2765122867191
 10
85.65024140653884
 20
-115.2765122867191
 10
85.65024140653884
 20
-115.2765122867191
 10
85.65885414525195
 20
-115.1516275753788
 10
85.68641490913396
 20
-114.775078638841
 10
86.14323457047809
 20
-114.775078638841
 10
86.36751028656785
 20
-114.775078638841
 10
86.60866697053534
 20
-114.9020304074724
 10
86.60866697053534
 20
-115.1981363644296
 10
86.60866697053534
 20
-115.3843437754074
 10
86.51358233514244
 20
-115.4668538122791
 10
86.41401907561873
 20
-115.5281765119166
 10
86.47534177525617
 20
-115.5557372757986
 10
86.65724281687736
 20
-115.6361802553792
 10
86.65724281687736
 20
-115.9133381871675
 10
86.65724281687736
 20
-116.2518188185933
 10
86.40988496103643
 20
-116.4189059496279
 10
86.13289928402233
 20
-116.4189059496279
 97
        0
 97
        0
 75
     2
 76
     1
 98
        0
  0
SPLINE
  5
CF
330
C9
100
AcDbEntity
  8
_U+30EC_U+30A4_U+30E4_U+30FC 1
370
     0
100
AcDbSpline
210
0.0
220
0.0
230
1.0
 70
    11
 71
     3
 72
    53
 73
    49
 74
     0
 42
0.0000000001
 43
0.0000000001
 12
1.0
 22
0.0
 32
0.0
 13
1.0
 23
0.0
 33
0.0
 40
0.0
 40
0.0
 40
0.0
 40
0.0
 40
1.0
 40
1.0
 40
1.0
 40
2.0
 40
2.0
 40
2.0
 40
3.0
 40
3.0
 40
3.0
 40
4.0
 40
4.0
 40
4.0
 40
5.0
 40
5.0
 40
5.0
 40
6.0
 40
6.0
 40
6.0
 40
7.0
 40
7.0
 40
7.0
 40
8.0
 40
8.0
 40
8.0
 40
9.0
 40
9.0
 40
9.0
 40
10.0
 40
10.0
 40
10.0
 40
11.0
 40
11.0
 40
11.0
 40
12.0
 40
12.0
 40
12.0
 40
13.0
 40
13.0
 40
13.0
 40
14.0
 40
14.0
 40
14.0
 40
15.0
 40
15.0
 40
15.0
 40
16.0
 40
16.0
 40
16.0
 40
16.0
 10
87.29906410577941
 20
-116.4189059496279
 30
0.0
 10
87.22086043826424
 20
-116.4189059496279
 30
0.0
 10
87.11923012144936
 20
-116.4018527269759
 30
0.0
 10
87.01759980463449
 20
-116.3384629700473
 30
0.0
 10
86.84431150172642
 20
-116.2283921692936
 30
0.0
 10
86.82295190971787
 20
-116.0973062860798
 30
0.0
 10
86.804003884549
 20
-115.9894747973915
 30
0.0
 10
86.804003884549
 20
-115.9894747973915
 30
0.0
 10
87.02621254334761
 20
-115.9894747973915
 30
0.0
 10
87.02621254334761
 20
-115.9894747973915
 30
0.0
 10
87.08098956156309
 20
-116.1882568068904
 30
0.0
 10
87.20811358496881
 20
-116.2178846280636
 30
0.0
 10
87.30113116307055
 20
-116.2178846280636
 30
0.0
 10
87.44065753022318
 20
-116.2178846280636
 30
0.0
 10
87.59293075067121
 20
-116.1184936233141
 30
0.0
 10
87.59293075067121
 20
-115.8857774232855
 30
0.0
 10
87.59293075067121
 20
-115.6298068287314
 30
0.0
 10
87.41309676634117
 20
-115.5600436451551
 30
0.0
 10
87.29251842435743
 20
-115.5600436451551
 30
0.0
 10
87.26082354589313
 20
-115.5600436451551
 30
0.0
 10
87.11923012144936
 20
-115.5600436451551
 30
0.0
 10
87.03034665792991
 20
-115.6890624710777
 30
0.0
 10
87.03034665792991
 20
-115.6890624710777
 30
0.0
 10
86.85464678818218
 20
-115.6699421911346
 30
0.0
 10
86.85464678818218
 20
-115.6699421911346
 30
0.0
 10
86.85464678818218
 20
-115.6699421911346
 30
0.0
 10
86.97522513016592
 20
-114.8238267399572
 30
0.0
 10
86.97522513016592
 20
-114.8238267399572
 30
0.0
 10
86.97522513016592
 20
-114.8238267399572
 30
0.0
 10
87.75381670983238
 20
-114.8238267399572
 30
0.0
 10
87.75381670983238
 20
-114.8238267399572
 30
0.0
 10
87.75381670983238
 20
-114.8238267399572
 30
0.0
 10
87.75381670983238
 20
-115.0184746348739
 30
0.0
 10
87.75381670983238
 20
-115.0184746348739
 30
0.0
 10
87.75381670983238
 20
-115.0184746348739
 30
0.0
 10
87.13817814661823
 20
-115.0184746348739
 30
0.0
 10
87.13817814661823
 20
-115.0184746348739
 30
0.0
 10
87.13817814661823
 20
-115.0184746348739
 30
0.0
 10
87.07272133239849
 20
-115.4415323604625
 30
0.0
 10
87.07272133239849
 20
-115.4415323604625
 30
0.0
 10
87.13404403203593
 20
-115.4075981699328
 30
0.0
 10
87.21638181413341
 20
-115.3674628075297
 30
0.0
 10
87.334893098826
 20
-115.3674628075297
 30
0.0
 10
87.58879663608892
 20
-115.3674628075297
 30
0.0
 10
87.8258192054741
 20
-115.5536702185074
 30
0.0
 10
87.8258192054741
 20
-115.8666571433424
 30
0.0
 10
87.8258192054741
 20
-116.1841226923081
 30
0.0
 10
87.60154348938434
 20
-116.4189059496279
 30
0.0
 10
87.29906410577941
 20
-116.4189059496279
 30
0.0
  0
HATCH
  5
D0
330
C9
100
AcDbEntity
  8
_U+30EC_U+30A4_U+30E4_U+30FC 1
 62
     7
420
 16777215
100
AcDbHatch
 10
0.0
 20
0.0
 30
0.0
210
0.0
220
0.0
230
1.0
  2
SOLID
 70
     1
 71
     0
 91
        1
 92
        1
 93
        1
 72
     4
 94
        3
 73
     0
 74
     1
 95
       53
 96
       49
 40
0.0
 40
0.0
 40
0.0
 40
0.0
 40
1.0
 40
1.0
 40
1.0
 40
2.0
 40
2.0
 40
2.0
 40
3.0
 40
3.0
 40
3.0
 40
4.0
 40
4.0
 40
4.0
 40
5.0
 40
5.0
 40
5.0
 40
6.0
 40
6.0
 40
6.0
 40
7.0
 40
7.0
 40
7.0
 40
8.0
 40
8.0
 40
8.0
 40
9.0
 40
9.0
 40
9.0
 40
10.0
 40
10.0
 40
10.0
 40
11.0
 40
11.0
 40
11.0
 40
12.0
 40
12.0
 40
12.0
 40
13.0
 40
13.0
 40
13.0
 40
14.0
 40
14.0
 40
14.0
 40
15.0
 40
15.0
 40
15.0
 40
16.0
 40
16.0
 40
16.0
 40
16.0
 10
87.29906410577941
 20
-116.4189059496279
 10
87.22086043826424
 20
-116.4189059496279
 10
87.11923012144936
 20
-116.4018527269759
 10
87.01759980463449
 20
-116.3384629700473
 10
86.84431150172642
 20
-116.2283921692936
 10
86.82295190971787
 20
-116.0973062860798
 10
86.804003884549
 20
-115.9894747973915
 10
86.804003884549
 20
-115.9894747973915
 10
87.02621254334761
 20
-115.9894747973915
 10
87.02621254334761
 20
-115.9894747973915
 10
87.08098956156309
 20
-116.1882568068904
 10
87.20811358496881
 20
-116.2178846280636
 10
87.30113116307055
 20
-116.2178846280636
 10
87.44065753022318
 20
-116.2178846280636
 10
87.59293075067121
 20
-116.1184936233141
 10
87.59293075067121
 20
-115.8857774232855
 10
87.59293075067121
 20
-115.6298068287314
 10
87.41309676634117
 20
-115.5600436451551
 10
87.29251842435743
 20
-115.5600436451551
 10
87.26082354589313
 20
-115.5600436451551
 10
87.11923012144936
 20
-115.5600436451551
 10
87.03034665792991
 20
-115.6890624710777
 10
87.03034665792991
 20
-115.6890624710777
 10
86.85464678818218
 20
-115.6699421911346
 10
86.85464678818218
 20
-115.6699421911346
 10
86.85464678818218
 20
-115.6699421911346
 10
86.97522513016592
 20
-114.8238267399572
 10
86.97522513016592
 20
-114.8238267399572
 10
86.97522513016592
 20
-114.8238267399572
 10
87.75381670983238
 20
-114.8238267399572
 10
87.75381670983238
 20
-114.8238267399572
 10
87.75381670983238
 20
-114.8238267399572
 10
87.75381670983238
 20
-115.0184746348739
 10
87.75381670983238
 20
-115.0184746348739
 10
87.75381670983238
 20
-115.0184746348739
 10
87.13817814661823
 20
-115.0184746348739
 10
87.13817814661823
 20
-115.0184746348739
 10
87.13817814661823
 20
-115.0184746348739
 10
87.07272133239849
 20
-115.4415323604625
 10
87.07272133239849
 20
-115.4415323604625
 10
87.13404403203593
 20
-115.4075981699328
 10
87.21638181413341
 20
-115.3674628075297
 10
87.334893098826
 20
-115.3674628075297
 10
87.58879663608892
 20
-115.3674628075297
 10
87.8258192054741
 20
-115.5536702185074
 10
87.8258192054741
 20
-115.8666571433424
 10
87.8258192054741
 20
-116.1841226923081
 10
87.60154348938434
 20
-116.4189059496279
 10
87.29906410577941
 20
-116.4189059496279
 97
        0
 97
        0
 75
     2
 76
     1
 98
        0
  0
ENDBLK
  5
CC
330
C9
100
AcDbEntity
  8
0
100
AcDbBlockEnd
  0
BLOCK
  5
DF
330
DD
100
AcDbEntity
  8
0
100
AcDbBlockBegin
  2
block 6
 70
     0
 10
0.0
 20
0.0
 30
0.0
  3
block 6
  1

  0
SPLINE
  5
E1
330
DD
100
AcDbEntity
  8
_U+30EC_U+30A4_U+30E4_U+30FC 1
370
     0
100
AcDbSpline
210
0.0
220
0.0
230
1.0
 70
    11
 71
     3
 72
    26
 73
    22
 74
     0
 42
0.0000000001
 43
0.0000000001
 12
1.0
 22
0.0
 32
0.0
 13
1.0
 23
0.0
 33
0.0
 40
0.0
 40
0.0
 40
0.0
 40
0.0
 40
1.0
 40
1.0
 40
1.0
 40
2.0
 40
2.0
 40
2.0
 40
3.0
 40
3.0
 40
3.0
 40
4.0
 40
4.0
 40
4.0
 40
5.0
 40
5.0
 40
5.0
 40
6.0
 40
6.0
 40
6.0
 40
7.0
 40
7.0
 40
7.0
 40
7.0
 10
76.57069225516288
 20
-141.8624864011663
 30
0.0
 10
76.57069225516288
 20
-141.8624864011663
 30
0.0
 10
76.57069225516288
 20
-140.7583332981438
 30
0.0
 10
76.57069225516288
 20
-140.7583332981438
 30
0.0
 10
76.57069225516288
 20
-140.7583332981438
 30
0.0
 10
76.24065210767596
 20
-140.7583332981438
 30
0.0
 10
76.24065210767596
 20
-140.7583332981438
 30
0.0
 10
76.24065210767596
 20
-140.7583332981438
 30
0.0
 10
76.24065210767596
 20
-140.610194192278
 30
0.0
 10
76.24065210767596
 20
-140.610194192278
 30
0.0
 10
76.57275931245404
 20
-140.5953802816914
 30
0.0
 10
76.61926810150491
 20
-140.4324272652391
 30
0.0
 10
76.64889592267805
 20
-140.3180500951288
 30
0.0
 10
76.64889592267805
 20
-140.3180500951288
 30
0.0
 10
76.79496797125265
 20
-140.3180500951288
 30
0.0
 10
76.79496797125265
 20
-140.3180500951288
 30
0.0
 10
76.79496797125265
 20
-140.3180500951288
 30
0.0
 10
76.79496797125265
 20
-141.8624864011663
 30
0.0
 10
76.79496797125265
 20
-141.8624864011663
 30
0.0
 10
76.79496797125265
 20
-141.8624864011663
 30
0.0
 10
76.57069225516288
 20
-141.8624864011663
 30
0.0
 10
76.57069225516288
 20
-141.8624864011663
 30
0.0
  0
HATCH
  5
E2
330
DD
100
AcDbEntity
  8
_U+30EC_U+30A4_U+30E4_U+30FC 1
 62
     7
420
 16777215
100
AcDbHatch
 10
0.0
 20
0.0
 30
0.0
210
0.0
220
0.0
230
1.0
  2
SOLID
 70
     1
 71
     0
 91
        1
 92
        1
 93
        1
 72
     4
 94
        3
 73
     0
 74
     1
 95
       26
 96
       22
 40
0.0
 40
0.0
 40
0.0
 40
0.0
 40
1.0
 40
1.0
 40
1.0
 40
2.0
 40
2.0
 40
2.0
 40
3.0
 40
3.0
 40
3.0
 40
4.0
 40
4.0
 40
4.0
 40
5.0
 40
5.0
 40
5.0
 40
6.0
 40
6.0
 40
6.0
 40
7.0
 40
7.0
 40
7.0
 40
7.0
 10
76.57069225516288
 20
-141.8624864011663
 10
76.57069225516288
 20
-141.8624864011663
 10
76.57069225516288
 20
-140.7583332981438
 10
76.57069225516288
 20
-140.7583332981438
 10
76.57069225516288
 20
-140.7583332981438
 10
76.24065210767596
 20
-140.7583332981438
 10
76.24065210767596
 20
-140.7583332981438
 10
76.24065210767596
 20
-140.7583332981438
 10
76.24065210767596
 20
-140.610194192278
 10
76.24065210767596
 20
-140.610194192278
 10
76.57275931245404
 20
-140.5953802816914
 10
76.61926810150491
 20
-140.4324272652391
 10
76.64889592267805
 20
-140.3180500951288
 10
76.64889592267805
 20
-140.3180500951288
 10
76.79496797125265
 20
-140.3180500951288
 10
76.79496797125265
 20
-140.3180500951288
 10
76.79496797125265
 20
-140.3180500951288
 10
76.79496797125265
 20
-141.8624864011663
 10
76.79496797125265
 20
-141.8624864011663
 10
76.79496797125265
 20
-141.8624864011663
 10
76.57069225516288
 20
-141.8624864011663
 10
76.57069225516288
 20
-141.8624864011663
 97
        0
 97
        0
 75
     2
 76
     1
 98
        0
  0
SPLINE
  5
E3
330
DD
100
AcDbEntity
  8
_U+30EC_U+30A4_U+30E4_U+30FC 1
370
     0
100
AcDbSpline
210
0.0
220
0.0
230
1.0
 70
    11
 71
     3
 72
    53
 73
    49
 74
     0
 42
0.0000000001
 43
0.0000000001
 12
1.0
 22
0.0
 32
0.0
 13
1.0
 23
0.0
 33
0.0
 40
0.0
 40
0.0
 40
0.0
 40
0.0
 40
1.0
 40
1.0
 40
1.0
 40
2.0
 40
2.0
 40
2.0
 40
3.0
 40
3.0
 40
3.0
 40
4.0
 40
4.0
 40
4.0
 40
5.0
 40
5.0
 40
5.0
 40
6.0
 40
6.0
 40
6.0
 40
7.0
 40
7.0
 40
7.0
 40
8.0
 40
8.0
 40
8.0
 40
9.0
 40
9.0
 40
9.0
 40
10.0
 40
10.0
 40
10.0
 40
11.0
 40
11.0
 40
11.0
 40
12.0
 40
12.0
 40
12.0
 40
13.0
 40
13.0
 40
13.0
 40
14.0
 40
14.0
 40
14.0
 40
15.0
 40
15.0
 40
15.0
 40
16.0
 40
16.0
 40
16.0
 40
16.0
 10
77.77716469409738
 20
-141.9131293047995
 30
0.0
 10
77.69878877180794
 20
-141.9131293047995
 30
0.0
 10
77.59733070976733
 20
-141.8962483369218
 30
0.0
 10
77.49570039295247
 20
-141.8328585799932
 30
0.0
 10
77.32223983527014
 20
-141.7229600340137
 30
0.0
 10
77.30105249803586
 20
-141.5917018960257
 30
0.0
 10
77.28210447286698
 20
-141.4838704073374
 30
0.0
 10
77.28210447286698
 20
-141.4838704073374
 30
0.0
 10
77.50414087689133
 20
-141.4838704073374
 30
0.0
 10
77.50414087689133
 20
-141.4838704073374
 30
0.0
 10
77.55926240465533
 20
-141.6826524168363
 30
0.0
 10
77.68621417328679
 20
-141.7122802380094
 30
0.0
 10
77.77923175138852
 20
-141.7122802380094
 30
0.0
 10
77.9189303733154
 20
-141.7122802380094
 30
0.0
 10
78.07120359376346
 20
-141.6127169784857
 30
0.0
 10
78.07120359376346
 20
-141.3801730332314
 30
0.0
 10
78.07120359376346
 20
-141.1242024386773
 30
0.0
 10
77.89136960943341
 20
-141.0542670003267
 30
0.0
 10
77.77079126744967
 20
-141.0542670003267
 30
0.0
 10
77.73909638898537
 20
-141.0542670003267
 30
0.0
 10
77.59733070976733
 20
-141.0542670003267
 30
0.0
 10
77.5084472462479
 20
-141.1834580810236
 30
0.0
 10
77.5084472462479
 20
-141.1834580810236
 30
0.0
 10
77.33291963127441
 20
-141.1645100558547
 30
0.0
 10
77.33291963127441
 20
-141.1645100558547
 30
0.0
 10
77.33291963127441
 20
-141.1645100558547
 30
0.0
 10
77.45349797325815
 20
-140.3180500951288
 30
0.0
 10
77.45349797325815
 20
-140.3180500951288
 30
0.0
 10
77.45349797325815
 20
-140.3180500951288
 30
0.0
 10
78.23191729815036
 20
-140.3180500951288
 30
0.0
 10
78.23191729815036
 20
-140.3180500951288
 30
0.0
 10
78.23191729815036
 20
-140.3180500951288
 30
0.0
 10
78.23191729815036
 20
-140.5126979900454
 30
0.0
 10
78.23191729815036
 20
-140.5126979900454
 30
0.0
 10
78.23191729815036
 20
-140.5126979900454
 30
0.0
 10
77.61627873493622
 20
-140.5126979900454
 30
0.0
 10
77.61627873493622
 20
-140.5126979900454
 30
0.0
 10
77.61627873493622
 20
-140.5126979900454
 30
0.0
 10
77.55082192071646
 20
-140.9357557156341
 30
0.0
 10
77.55082192071646
 20
-140.9357557156341
 30
0.0
 10
77.61214462035392
 20
-140.9019937798787
 30
0.0
 10
77.69465465722564
 20
-140.8616861627013
 30
0.0
 10
77.81299368714397
 20
-140.8616861627013
 30
0.0
 10
78.06689722440689
 20
-140.8616861627013
 30
0.0
 10
78.30391979379208
 20
-141.0480658284533
 30
0.0
 10
78.30391979379208
 20
-141.3612250080625
 30
0.0
 10
78.30391979379208
 20
-141.678518302254
 30
0.0
 10
78.07964407770231
 20
-141.9131293047995
 30
0.0
 10
77.77716469409738
 20
-141.9131293047995
 30
0.0
  0
HATCH
  5
E4
330
DD
100
AcDbEntity
  8
_U+30EC_U+30A4_U+30E4_U+30FC 1
 62
     7
420
 16777215
100
AcDbHatch
 10
0.0
 20
0.0
 30
0.0
210
0.0
220
0.0
230
1.0
  2
SOLID
 70
     1
 71
     0
 91
        1
 92
        1
 93
        1
 72
     4
 94
        3
 73
     0
 74
     1
 95
       53
 96
       49
 40
0.0
 40
0.0
 40
0.0
 40
0.0
 40
1.0
 40
1.0
 40
1.0
 40
2.0
 40
2.0
 40
2.0
 40
3.0
 40
3.0
 40
3.0
 40
4.0
 40
4.0
 40
4.0
 40
5.0
 40
5.0
 40
5.0
 40
6.0
 40
6.0
 40
6.0
 40
7.0
 40
7.0
 40
7.0
 40
8.0
 40
8.0
 40
8.0
 40
9.0
 40
9.0
 40
9.0
 40
10.0
 40
10.0
 40
10.0
 40
11.0
 40
11.0
 40
11.0
 40
12.0
 40
12.0
 40
12.0
 40
13.0
 40
13.0
 40
13.0
 40
14.0
 40
14.0
 40
14.0
 40
15.0
 40
15.0
 40
15.0
 40
16.0
 40
16.0
 40
16.0
 40
16.0
 10
77.77716469409738
 20
-141.9131293047995
 10
77.69878877180794
 20
-141.9131293047995
 10
77.59733070976733
 20
-141.8962483369218
 10
77.49570039295247
 20
-141.8328585799932
 10
77.32223983527014
 20
-141.7229600340137
 10
77.30105249803586
 20
-141.5917018960257
 10
77.28210447286698
 20
-141.4838704073374
 10
77.28210447286698
 20
-141.4838704073374
 10
77.50414087689133
 20
-141.4838704073374
 10
77.50414087689133
 20
-141.4838704073374
 10
77.55926240465533
 20
-141.6826524168363
 10
77.68621417328679
 20
-141.7122802380094
 10
77.77923175138852
 20
-141.7122802380094
 10
77.9189303733154
 20
-141.7122802380094
 10
78.07120359376346
 20
-141.6127169784857
 10
78.07120359376346
 20
-141.3801730332314
 10
78.07120359376346
 20
-141.1242024386773
 10
77.89136960943341
 20
-141.0542670003267
 10
77.77079126744967
 20
-141.0542670003267
 10
77.73909638898537
 20
-141.0542670003267
 10
77.59733070976733
 20
-141.0542670003267
 10
77.5084472462479
 20
-141.1834580810236
 10
77.5084472462479
 20
-141.1834580810236
 10
77.33291963127441
 20
-141.1645100558547
 10
77.33291963127441
 20
-141.1645100558547
 10
77.33291963127441
 20
-141.1645100558547
 10
77.45349797325815
 20
-140.3180500951288
 10
77.45349797325815
 20
-140.3180500951288
 10
77.45349797325815
 20
-140.3180500951288
 10
78.23191729815036
 20
-140.3180500951288
 10
78.23191729815036
 20
-140.3180500951288
 10
78.23191729815036
 20
-140.3180500951288
 10
78.23191729815036
 20
-140.5126979900454
 10
78.23191729815036
 20
-140.5126979900454
 10
78.23191729815036
 20
-140.5126979900454
 10
77.61627873493622
 20
-140.5126979900454
 10
77.61627873493622
 20
-140.5126979900454
 10
77.61627873493622
 20
-140.5126979900454
 10
77.55082192071646
 20
-140.9357557156341
 10
77.55082192071646
 20
-140.9357557156341
 10
77.61214462035392
 20
-140.9019937798787
 10
77.69465465722564
 20
-140.8616861627013
 10
77.81299368714397
 20
-140.8616861627013
 10
78.06689722440689
 20
-140.8616861627013
 10
78.30391979379208
 20
-141.0480658284533
 10
78.30391979379208
 20
-141.3612250080625
 10
78.30391979379208
 20
-141.678518302254
 10
78.07964407770231
 20
-141.9131293047995
 10
77.77716469409738
 20
-141.9131293047995
 97
        0
 97
        0
 75
     2
 76
     1
 98
        0
  0
ENDBLK
  5
E0
330
DD
100
AcDbEntity
  8
0
100
AcDbBlockEnd
  0
BLOCK
  5
F5
330
F3
100
AcDbEntity
  8
0
100
AcDbBlockBegin
  2
block 7
 70
     0
 10
0.0
 20
0.0
 30
0.0
  3
block 7
  1

  0
SPLINE
  5
F7
330
F3
100
AcDbEntity
  8
_U+30EC_U+30A4_U+30E4_U+30FC 1
370
     0
100
AcDbSpline
210
0.0
220
0.0
230
1.0
 70
    11
 71
     3
 72
    62
 73
    58
 74
     0
 42
0.0000000001
 43
0.0000000001
 12
1.0
 22
0.0
 32
0.0
 13
1.0
 23
0.0
 33
0.0
 40
0.0
 40
0.0
 40
0.0
 40
0.0
 40
1.0
 40
1.0
 40
1.0
 40
2.0
 40
2.0
 40
2.0
 40
3.0
 40
3.0
 40
3.0
 40
4.0
 40
4.0
 40
4.0
 40
5.0
 40
5.0
 40
5.0
 40
6.0
 40
6.0
 40
6.0
 40
7.0
 40
7.0
 40
7.0
 40
8.0
 40
8.0
 40
8.0
 40
9.0
 40
9.0
 40
9.0
 40
10.0
 40
10.0
 40
10.0
 40
11.0
 40
11.0
 40
11.0
 40
12.0
 40
12.0
 40
12.0
 40
13.0
 40
13.0
 40
13.0
 40
14.0
 40
14.0
 40
14.0
 40
15.0
 40
15.0
 40
15.0
 40
16.0
 40
16.0
 40
16.0
 40
17.0
 40
17.0
 40
17.0
 40
18.0
 40
18.0
 40
18.0
 40
19.0
 40
19.0
 40
19.0
 40
19.0
 10
109.2425997990782
 20
-136.6610812375361
 30
0.0
 10
109.2425997990782
 20
-136.7565103824776
 30
0.0
 10
109.2215847166182
 20
-136.9742404171453
 30
0.0
 10
109.0355495604147
 20
-137.0992973832599
 30
0.0
 10
108.9232394475956
 20
-137.1733669361928
 30
0.0
 10
108.8240206976204
 20
-137.1775010507751
 30
0.0
 10
108.7392713486832
 20
-137.1816351653574
 30
0.0
 10
108.7392713486832
 20
-137.1816351653574
 30
0.0
 10
108.7392713486832
 20
-136.9614935638499
 30
0.0
 10
108.7392713486832
 20
-136.9614935638499
 30
0.0
 10
108.8133409016161
 20
-136.9594265065588
 30
0.0
 10
109.0479519041616
 20
-136.949091220103
 30
0.0
 10
109.0479519041616
 20
-136.665559861667
 30
0.0
 10
109.0479519041616
 20
-136.5281005518055
 30
0.0
 10
108.9783609753596
 20
-136.3754828218089
 30
0.0
 10
108.7499511446875
 20
-136.3754828218089
 30
0.0
 10
108.6335069172861
 20
-136.3754828218089
 30
0.0
 10
108.5849310709441
 20
-136.4137233816952
 30
0.0
 10
108.5532361924798
 20
-136.4454182601595
 30
0.0
 10
108.4791666395469
 20
-136.5194878130924
 30
0.0
 10
108.4664197862514
 20
-136.6359320404938
 30
0.0
 10
108.4664197862514
 20
-136.6907090587093
 30
0.0
 10
108.4664197862514
 20
-136.7100015934267
 30
0.0
 10
108.4684868435426
 20
-136.7458305864733
 30
0.0
 10
108.4726209581249
 20
-136.7733913503553
 30
0.0
 10
108.4726209581249
 20
-136.7733913503553
 30
0.0
 10
108.2779730632083
 20
-136.7733913503553
 30
0.0
 10
108.2779730632083
 20
-136.7733913503553
 30
0.0
 10
108.2845187446303
 20
-136.735150790469
 30
0.0
 10
108.2865858019214
 20
-136.6931206255489
 30
0.0
 10
108.2865858019214
 20
-136.686574944127
 30
0.0
 10
108.2865858019214
 20
-136.6211181299072
 30
0.0
 10
108.2652262099129
 20
-136.4223361204083
 30
0.0
 10
108.0285481500762
 20
-136.4223361204083
 30
0.0
 10
107.8507812230373
 20
-136.4223361204083
 30
0.0
 10
107.7956596952733
 20
-136.5532497488478
 30
0.0
 10
107.7956596952733
 20
-136.6634928043758
 30
0.0
 10
107.7956596952733
 20
-136.9277316280944
 30
0.0
 10
108.0285481500762
 20
-136.9363443668076
 30
0.0
 10
108.1002061361694
 20
-136.9404784813899
 30
0.0
 10
108.1002061361694
 20
-136.9404784813899
 30
0.0
 10
108.1002061361694
 20
-137.1437391150196
 30
0.0
 10
108.1002061361694
 20
-137.1437391150196
 30
0.0
 10
107.9754936796034
 20
-137.1351263763065
 30
0.0
 10
107.5989447430655
 20
-137.1075656124245
 30
0.0
 10
107.5989447430655
 20
-136.6507459510804
 30
0.0
 10
107.5989447430655
 20
-136.4264702349906
 30
0.0
 10
107.7260687664713
 20
-136.1853135510231
 30
0.0
 10
108.0220024686542
 20
-136.1853135510231
 30
0.0
 10
108.2083821344062
 20
-136.1853135510231
 30
0.0
 10
108.2907199165037
 20
-136.280398186416
 30
0.0
 10
108.3520426161412
 20
-136.3799614459397
 30
0.0
 10
108.3796033800232
 20
-136.3186387463023
 30
0.0
 10
108.4598741048295
 20
-136.1367377046811
 30
0.0
 10
108.7372042913921
 20
-136.1367377046811
 30
0.0
 10
109.0755126680436
 20
-136.1367377046811
 30
0.0
 10
109.2425997990782
 20
-136.384095560522
 30
0.0
 10
109.2425997990782
 20
-136.6610812375361
 30
0.0
  0
HATCH
  5
F8
330
F3
100
AcDbEntity
  8
_U+30EC_U+30A4_U+30E4_U+30FC 1
 62
     7
420
 16777215
100
AcDbHatch
 10
0.0
 20
0.0
 30
0.0
210
0.0
220
0.0
230
1.0
  2
SOLID
 70
     1
 71
     0
 91
        1
 92
        1
 93
        1
 72
     4
 94
        3
 73
     0
 74
     1
 95
       62
 96
       58
 40
0.0
 40
0.0
 40
0.0
 40
0.0
 40
1.0
 40
1.0
 40
1.0
 40
2.0
 40
2.0
 40
2.0
 40
3.0
 40
3.0
 40
3.0
 40
4.0
 40
4.0
 40
4.0
 40
5.0
 40
5.0
 40
5.0
 40
6.0
 40
6.0
 40
6.0
 40
7.0
 40
7.0
 40
7.0
 40
8.0
 40
8.0
 40
8.0
 40
9.0
 40
9.0
 40
9.0
 40
10.0
 40
10.0
 40
10.0
 40
11.0
 40
11.0
 40
11.0
 40
12.0
 40
12.0
 40
12.0
 40
13.0
 40
13.0
 40
13.0
 40
14.0
 40
14.0
 40
14.0
 40
15.0
 40
15.0
 40
15.0
 40
16.0
 40
16.0
 40
16.0
 40
17.0
 40
17.0
 40
17.0
 40
18.0
 40
18.0
 40
18.0
 40
19.0
 40
19.0
 40
19.0
 40
19.0
 10
109.2425997990782
 20
-136.6610812375361
 10
109.2425997990782
 20
-136.7565103824776
 10
109.2215847166182
 20
-136.9742404171453
 10
109.0355495604147
 20
-137.0992973832599
 10
108.9232394475956
 20
-137.1733669361928
 10
108.8240206976204
 20
-137.1775010507751
 10
108.7392713486832
 20
-137.1816351653574
 10
108.7392713486832
 20
-137.1816351653574
 10
108.7392713486832
 20
-136.9614935638499
 10
108.7392713486832
 20
-136.9614935638499
 10
108.8133409016161
 20
-136.9594265065588
 10
109.0479519041616
 20
-136.949091220103
 10
109.0479519041616
 20
-136.665559861667
 10
109.0479519041616
 20
-136.5281005518055
 10
108.9783609753596
 20
-136.3754828218089
 10
108.7499511446875
 20
-136.3754828218089
 10
108.6335069172861
 20
-136.3754828218089
 10
108.5849310709441
 20
-136.4137233816952
 10
108.5532361924798
 20
-136.4454182601595
 10
108.4791666395469
 20
-136.5194878130924
 10
108.4664197862514
 20
-136.6359320404938
 10
108.4664197862514
 20
-136.6907090587093
 10
108.4664197862514
 20
-136.7100015934267
 10
108.4684868435426
 20
-136.7458305864733
 10
108.4726209581249
 20
-136.7733913503553
 10
108.4726209581249
 20
-136.7733913503553
 10
108.2779730632083
 20
-136.7733913503553
 10
108.2779730632083
 20
-136.7733913503553
 10
108.2845187446303
 20
-136.735150790469
 10
108.2865858019214
 20
-136.6931206255489
 10
108.2865858019214
 20
-136.686574944127
 10
108.2865858019214
 20
-136.6211181299072
 10
108.2652262099129
 20
-136.4223361204083
 10
108.0285481500762
 20
-136.4223361204083
 10
107.8507812230373
 20
-136.4223361204083
 10
107.7956596952733
 20
-136.5532497488478
 10
107.7956596952733
 20
-136.6634928043758
 10
107.7956596952733
 20
-136.9277316280944
 10
108.0285481500762
 20
-136.9363443668076
 10
108.1002061361694
 20
-136.9404784813899
 10
108.1002061361694
 20
-136.9404784813899
 10
108.1002061361694
 20
-137.1437391150196
 10
108.1002061361694
 20
-137.1437391150196
 10
107.9754936796034
 20
-137.1351263763065
 10
107.5989447430655
 20
-137.1075656124245
 10
107.5989447430655
 20
-136.6507459510804
 10
107.5989447430655
 20
-136.4264702349906
 10
107.7260687664713
 20
-136.1853135510231
 10
108.0220024686542
 20
-136.1853135510231
 10
108.2083821344062
 20
-136.1853135510231
 10
108.2907199165037
 20
-136.280398186416
 10
108.3520426161412
 20
-136.3799614459397
 10
108.3796033800232
 20
-136.3186387463023
 10
108.4598741048295
 20
-136.1367377046811
 10
108.7372042913921
 20
-136.1367377046811
 10
109.0755126680436
 20
-136.1367377046811
 10
109.2425997990782
 20
-136.384095560522
 10
109.2425997990782
 20
-136.6610812375361
 97
        0
 97
        0
 75
     2
 76
     1
 98
        0
  0
ENDBLK
  5
F6
330
F3
100
AcDbEntity
  8
0
100
AcDbBlockEnd
  0
BLOCK
  5
FF
330
FD
100
AcDbEntity
  8
0
100
AcDbBlockBegin
  2
block 8
 70
     0
 10
0.0
 20
0.0
 30
0.0
  3
block 8
  1

  0
SPLINE
  5
101
330
FD
100
AcDbEntity
  8
_U+30EC_U+30A4_U+30E4_U+30FC 1
370
     0
100
AcDbSpline
210
0.0
220
0.0
230
1.0
 70
    11
 71
     3
 72
    26
 73
    22
 74
     0
 42
0.0000000001
 43
0.0000000001
 12
1.0
 22
0.0
 32
0.0
 13
1.0
 23
0.0
 33
0.0
 40
0.0
 40
0.0
 40
0.0
 40
0.0
 40
1.0
 40
1.0
 40
1.0
 40
2.0
 40
2.0
 40
2.0
 40
3.0
 40
3.0
 40
3.0
 40
4.0
 40
4.0
 40
4.0
 40
5.0
 40
5.0
 40
5.0
 40
6.0
 40
6.0
 40
6.0
 40
7.0
 40
7.0
 40
7.0
 40
7.0
 10
109.1919568954451
 20
-129.6323974285294
 30
0.0
 10
109.1919568954451
 20
-129.6323974285294
 30
0.0
 10
108.0878037924225
 20
-129.6323974285294
 30
0.0
 10
108.0878037924225
 20
-129.6323974285294
 30
0.0
 10
108.0878037924225
 20
-129.6323974285294
 30
0.0
 10
108.0878037924225
 20
-129.9624375760163
 30
0.0
 10
108.0878037924225
 20
-129.9624375760163
 30
0.0
 10
108.0878037924225
 20
-129.9624375760163
 30
0.0
 10
107.9396646865568
 20
-129.9624375760163
 30
0.0
 10
107.9396646865568
 20
-129.9624375760163
 30
0.0
 10
107.9248507759702
 20
-129.6303303712382
 30
0.0
 10
107.7618977595179
 20
-129.5838215821874
 30
0.0
 10
107.6475205894076
 20
-129.5541937610142
 30
0.0
 10
107.6475205894076
 20
-129.5541937610142
 30
0.0
 10
107.6475205894076
 20
-129.4081217124397
 30
0.0
 10
107.6475205894076
 20
-129.4081217124397
 30
0.0
 10
107.6475205894076
 20
-129.4081217124397
 30
0.0
 10
109.1919568954451
 20
-129.4081217124397
 30
0.0
 10
109.1919568954451
 20
-129.4081217124397
 30
0.0
 10
109.1919568954451
 20
-129.4081217124397
 30
0.0
 10
109.1919568954451
 20
-129.6323974285294
 30
0.0
 10
109.1919568954451
 20
-129.6323974285294
 30
0.0
  0
HATCH
  5
102
330
FD
100
AcDbEntity
  8
_U+30EC_U+30A4_U+30E4_U+30FC 1
 62
     7
420
 16777215
100
AcDbHatch
 10
0.0
 20
0.0
 30
0.0
210
0.0
220
0.0
230
1.0
  2
SOLID
 70
     1
 71
     0
 91
        1
 92
        1
 93
        1
 72
     4
 94
        3
 73
     0
 74
     1
 95
       26
 96
       22
 40
0.0
 40
0.0
 40
0.0
 40
0.0
 40
1.0
 40
1.0
 40
1.0
 40
2.0
 40
2.0
 40
2.0
 40
3.0
 40
3.0
 40
3.0
 40
4.0
 40
4.0
 40
4.0
 40
5.0
 40
5.0
 40
5.0
 40
6.0
 40
6.0
 40
6.0
 40
7.0
 40
7.0
 40
7.0
 40
7.0
 10
109.1919568954451
 20
-129.6323974285294
 10
109.1919568954451
 20
-129.6323974285294
 10
108.0878037924225
 20
-129.6323974285294
 10
108.0878037924225
 20
-129.6323974285294
 10
108.0878037924225
 20
-129.6323974285294
 10
108.0878037924225
 20
-129.9624375760163
 10
108.0878037924225
 20
-129.9624375760163
 10
108.0878037924225
 20
-129.9624375760163
 10
107.9396646865568
 20
-129.9624375760163
 10
107.9396646865568
 20
-129.9624375760163
 10
107.9248507759702
 20
-129.6303303712382
 10
107.7618977595179
 20
-129.5838215821874
 10
107.6475205894076
 20
-129.5541937610142
 10
107.6475205894076
 20
-129.5541937610142
 10
107.6475205894076
 20
-129.4081217124397
 10
107.6475205894076
 20
-129.4081217124397
 10
107.6475205894076
 20
-129.4081217124397
 10
109.1919568954451
 20
-129.4081217124397
 10
109.1919568954451
 20
-129.4081217124397
 10
109.1919568954451
 20
-129.4081217124397
 10
109.1919568954451
 20
-129.6323974285294
 10
109.1919568954451
 20
-129.6323974285294
 97
        0
 97
        0
 75
     2
 76
     1
 98
        0
  0
SPLINE
  5
103
330
FD
100
AcDbEntity
  8
_U+30EC_U+30A4_U+30E4_U+30FC 1
370
     0
100
AcDbSpline
210
0.0
220
0.0
230
1.0
 70
    11
 71
     3
 72
    62
 73
    58
 74
     0
 42
0.0000000001
 43
0.0000000001
 12
1.0
 22
0.0
 32
0.0
 13
1.0
 23
0.0
 33
0.0
 40
0.0
 40
0.0
 40
0.0
 40
0.0
 40
1.0
 40
1.0
 40
1.0
 40
2.0
 40
2.0
 40
2.0
 40
3.0
 40
3.0
 40
3.0
 40
4.0
 40
4.0
 40
4.0
 40
5.0
 40
5.0
 40
5.0
 40
6.0
 40
6.0
 40
6.0
 40
7.0
 40
7.0
 40
7.0
 40
8.0
 40
8.0
 40
8.0
 40
9.0
 40
9.0
 40
9.0
 40
10.0
 40
10.0
 40
10.0
 40
11.0
 40
11.0
 40
11.0
 40
12.0
 40
12.0
 40
12.0
 40
13.0
 40
13.0
 40
13.0
 40
14.0
 40
14.0
 40
14.0
 40
15.0
 40
15.0
 40
15.0
 40
16.0
 40
16.0
 40
16.0
 40
17.0
 40
17.0
 40
17.0
 40
18.0
 40
18.0
 40
18.0
 40
19.0
 40
19.0
 40
19.0
 40
19.0
 10
109.2425997990782
 20
-128.4152451935906
 30
0.0
 10
109.2425997990782
 20
-128.5106743385321
 30
0.0
 10
109.2215847166182
 20
-128.7284043731999
 30
0.0
 10
109.0355495604147
 20
-128.8534613393144
 30
0.0
 10
108.9232394475956
 20
-128.9271863826988
 30
0.0
 10
108.8240206976204
 20
-128.9316650068296
 30
0.0
 10
108.7392713486832
 20
-128.9357991214119
 30
0.0
 10
108.7392713486832
 20
-128.9357991214119
 30
0.0
 10
108.7392713486832
 20
-128.7156575199044
 30
0.0
 10
108.7392713486832
 20
-128.7156575199044
 30
0.0
 10
108.8133409016161
 20
-128.7135904626133
 30
0.0
 10
109.0479519041616
 20
-128.7032551761575
 30
0.0
 10
109.0479519041616
 20
-128.4197238177215
 30
0.0
 10
109.0479519041616
 20
-128.28226450786
 30
0.0
 10
108.9783609753596
 20
-128.1296467778634
 30
0.0
 10
108.7499511446875
 20
-128.1296467778634
 30
0.0
 10
108.6335069172861
 20
-128.1296467778634
 30
0.0
 10
108.5849310709441
 20
-128.1678873377497
 30
0.0
 10
108.5532361924798
 20
-128.199582216214
 30
0.0
 10
108.4791666395469
 20
-128.2736517691469
 30
0.0
 10
108.4664197862514
 20
-128.3900959965483
 30
0.0
 10
108.4664197862514
 20
-128.4448730147638
 30
0.0
 10
108.4664197862514
 20
-128.4641655494812
 30
0.0
 10
108.4684868435426
 20
-128.4999945425278
 30
0.0
 10
108.4726209581249
 20
-128.5275553064098
 30
0.0
 10
108.4726209581249
 20
-128.5275553064098
 30
0.0
 10
108.2779730632083
 20
-128.5275553064098
 30
0.0
 10
108.2779730632083
 20
-128.5275553064098
 30
0.0
 10
108.2845187446303
 20
-128.4893147465235
 30
0.0
 10
108.2865858019214
 20
-128.4472845816035
 30
0.0
 10
108.2865858019214
 20
-128.4407389001815
 30
0.0
 10
108.2865858019214
 20
-128.3752820859617
 30
0.0
 10
108.2652262099129
 20
-128.1765000764628
 30
0.0
 10
108.0285481500762
 20
-128.1765000764628
 30
0.0
 10
107.8507812230373
 20
-128.1765000764628
 30
0.0
 10
107.7956596952733
 20
-128.3074137049023
 30
0.0
 10
107.7956596952733
 20
-128.4176567604303
 30
0.0
 10
107.7956596952733
 20
-128.681895584149
 30
0.0
 10
108.0285481500762
 20
-128.6905083228621
 30
0.0
 10
108.1002061361694
 20
-128.6946424374444
 30
0.0
 10
108.1002061361694
 20
-128.6946424374444
 30
0.0
 10
108.1002061361694
 20
-128.8979030710742
 30
0.0
 10
108.1002061361694
 20
-128.8979030710742
 30
0.0
 10
107.9754936796034
 20
-128.889290332361
 30
0.0
 10
107.5989447430655
 20
-128.861729568479
 30
0.0
 10
107.5989447430655
 20
-128.4049099071349
 30
0.0
 10
107.5989447430655
 20
-128.1806341910451
 30
0.0
 10
107.7260687664713
 20
-127.9394775070776
 30
0.0
 10
108.0220024686542
 20
-127.9394775070776
 30
0.0
 10
108.2083821344062
 20
-127.9394775070776
 30
0.0
 10
108.2907199165037
 20
-128.0345621424705
 30
0.0
 10
108.3520426161412
 20
-128.1341254019943
 30
0.0
 10
108.3796033800232
 20
-128.0728027023568
 30
0.0
 10
108.4598741048295
 20
-127.8909016607356
 30
0.0
 10
108.7372042913921
 20
-127.8909016607356
 30
0.0
 10
109.0755126680436
 20
-127.8909016607356
 30
0.0
 10
109.2425997990782
 20
-128.1382595165765
 30
0.0
 10
109.2425997990782
 20
-128.4152451935906
 30
0.0
  0
HATCH
  5
104
330
FD
100
AcDbEntity
  8
_U+30EC_U+30A4_U+30E4_U+30FC 1
 62
     7
420
 16777215
100
AcDbHatch
 10
0.0
 20
0.0
 30
0.0
210
0.0
220
0.0
230
1.0
  2
SOLID
 70
     1
 71
     0
 91
        1
 92
        1
 93
        1
 72
     4
 94
        3
 73
     0
 74
     1
 95
       62
 96
       58
 40
0.0
 40
0.0
 40
0.0
 40
0.0
 40
1.0
 40
1.0
 40
1.0
 40
2.0
 40
2.0
 40
2.0
 40
3.0
 40
3.0
 40
3.0
 40
4.0
 40
4.0
 40
4.0
 40
5.0
 40
5.0
 40
5.0
 40
6.0
 40
6.0
 40
6.0
 40
7.0
 40
7.0
 40
7.0
 40
8.0
 40
8.0
 40
8.0
 40
9.0
 40
9.0
 40
9.0
 40
10.0
 40
10.0
 40
10.0
 40
11.0
 40
11.0
 40
11.0
 40
12.0
 40
12.0
 40
12.0
 40
13.0
 40
13.0
 40
13.0
 40
14.0
 40
14.0
 40
14.0
 40
15.0
 40
15.0
 40
15.0
 40
16.0
 40
16.0
 40
16.0
 40
17.0
 40
17.0
 40
17.0
 40
18.0
 40
18.0
 40
18.0
 40
19.0
 40
19.0
 40
19.0
 40
19.0
 10
109.2425997990782
 20
-128.4152451935906
 10
109.2425997990782
 20
-128.5106743385321
 10
109.2215847166182
 20
-128.7284043731999
 10
109.0355495604147
 20
-128.8534613393144
 10
108.9232394475956
 20
-128.9271863826988
 10
108.8240206976204
 20
-128.9316650068296
 10
108.7392713486832
 20
-128.9357991214119
 10
108.7392713486832
 20
-128.9357991214119
 10
108.7392713486832
 20
-128.7156575199044
 10
108.7392713486832
 20
-128.7156575199044
 10
108.8133409016161
 20
-128.7135904626133
 10
109.0479519041616
 20
-128.7032551761575
 10
109.0479519041616
 20
-128.4197238177215
 10
109.0479519041616
 20
-128.28226450786
 10
108.9783609753596
 20
-128.1296467778634
 10
108.7499511446875
 20
-128.1296467778634
 10
108.6335069172861
 20
-128.1296467778634
 10
108.5849310709441
 20
-128.1678873377497
 10
108.5532361924798
 20
-128.199582216214
 10
108.4791666395469
 20
-128.2736517691469
 10
108.4664197862514
 20
-128.3900959965483
 10
108.4664197862514
 20
-128.4448730147638
 10
108.4664197862514
 20
-128.4641655494812
 10
108.4684868435426
 20
-128.4999945425278
 10
108.4726209581249
 20
-128.5275553064098
 10
108.4726209581249
 20
-128.5275553064098
 10
108.2779730632083
 20
-128.5275553064098
 10
108.2779730632083
 20
-128.5275553064098
 10
108.2845187446303
 20
-128.4893147465235
 10
108.2865858019214
 20
-128.4472845816035
 10
108.2865858019214
 20
-128.4407389001815
 10
108.2865858019214
 20
-128.3752820859617
 10
108.2652262099129
 20
-128.1765000764628
 10
108.0285481500762
 20
-128.1765000764628
 10
107.8507812230373
 20
-128.1765000764628
 10
107.7956596952733
 20
-128.3074137049023
 10
107.7956596952733
 20
-128.4176567604303
 10
107.7956596952733
 20
-128.681895584149
 10
108.0285481500762
 20
-128.6905083228621
 10
108.1002061361694
 20
-128.6946424374444
 10
108.1002061361694
 20
-128.6946424374444
 10
108.1002061361694
 20
-128.8979030710742
 10
108.1002061361694
 20
-128.8979030710742
 10
107.9754936796034
 20
-128.889290332361
 10
107.5989447430655
 20
-128.861729568479
 10
107.5989447430655
 20
-128.4049099071349
 10
107.5989447430655
 20
-128.1806341910451
 10
107.7260687664713
 20
-127.9394775070776
 10
108.0220024686542
 20
-127.9394775070776
 10
108.2083821344062
 20
-127.9394775070776
 10
108.2907199165037
 20
-128.0345621424705
 10
108.3520426161412
 20
-128.1341254019943
 10
108.3796033800232
 20
-128.0728027023568
 10
108.4598741048295
 20
-127.8909016607356
 10
108.7372042913921
 20
-127.8909016607356
 10
109.0755126680436
 20
-127.8909016607356
 10
109.2425997990782
 20
-128.1382595165765
 10
109.2425997990782
 20
-128.4152451935906
 97
        0
 97
        0
 75
     2
 76
     1
 98
        0
  0
ENDBLK
  5
100
330
FD
100
AcDbEntity
  8
0
100
AcDbBlockEnd
  0
ENDSEC
  0
SECTION
  2
ENTITIES
  0
POLYLINE
  5
41
330
1F
100
AcDbEntity
  8
_U+30EC_U+30A4_U+30E4_U+30FC 1
 62
   253
420
 11711154
370
     9
100
AcDb2dPolyline
 66
     1
 10
0.0
 20
0.0
 30
0.0
  0
VERTEX
  5
42
330
41
100
AcDbEntity
  8
_U+30EC_U+30A4_U+30E4_U+30FC 1
 62
   253
420
 11711154
370
     9
100
AcDbVertex
100
AcDb2dVertex
 10
69.97541071477855
 20
-121.0451463586276
 30
0.0
  0
VERTEX
  5
43
330
41
100
AcDbEntity
  8
_U+30EC_U+30A4_U+30E4_U+30FC 1
 62
   253
420
 11711154
370
     9
100
AcDbVertex
100
AcDb2dVertex
 10
69.97541071477855
 20
-122.0607583028181
 30
0.0
  0
VERTEX
  5
44
330
41
100
AcDbEntity
  8
_U+30EC_U+30A4_U+30E4_U+30FC 1
 62
   253
420
 11711154
370
     9
100
AcDbVertex
100
AcDb2dVertex
 10
84.87025255700169
 20
-122.0607583028181
 30
0.0
  0
VERTEX
  5
45
330
41
100
AcDbEntity
  8
_U+30EC_U+30A4_U+30E4_U+30FC 1
 62
   253
420
 11711154
370
     9
100
AcDbVertex
100
AcDb2dVertex
 10
84.87025255700169
 20
-138.1907107987857
 30
0.0
  0
VERTEX
  5
46
330
41
100
AcDbEntity
  8
_U+30EC_U+30A4_U+30E4_U+30FC 1
 62
   253
420
 11711154
370
     9
100
AcDbVertex
100
AcDb2dVertex
 10
95.08186368537068
 20
-138.1907107987857
 30
0.0
  0
VERTEX
  5
47
330
41
100
AcDbEntity
  8
_U+30EC_U+30A4_U+30E4_U+30FC 1
 62
   253
420
 11711154
370
     9
100
AcDbVertex
100
AcDb2dVertex
 10
95.08186368537068
 20
-135.2258605217491
 30
0.0
  0
VERTEX
  5
48
330
41
100
AcDbEntity
  8
_U+30EC_U+30A4_U+30E4_U+30FC 1
 62
   253
420
 11711154
370
     9
100
AcDbVertex
100
AcDb2dVertex
 10
93.95706942095488
 20
-135.2258605217491
 30
0.0
  0
VERTEX
  5
49
330
41
100
AcDbEntity
  8
_U+30EC_U+30A4_U+30E4_U+30FC 1
 62
   253
420
 11711154
370
     9
100
AcDbVertex
100
AcDb2dVertex
 10
93.95706942095488
 20
-137.139256632382
 30
0.0
  0
VERTEX
  5
4A
330
41
100
AcDbEntity
  8
_U+30EC_U+30A4_U+30E4_U+30FC 1
 62
   253
420
 11711154
370
     9
100
AcDbVertex
100
AcDb2dVertex
 10
85.99508447274928
 20
-137.139256632382
 30
0.0
  0
VERTEX
  5
4B
330
41
100
AcDbEntity
  8
_U+30EC_U+30A4_U+30E4_U+30FC 1
 62
   253
420
 11711154
370
     9
100
AcDbVertex
100
AcDb2dVertex
 10
85.99508447274928
 20
-122.097270802809
 30
0.0
  0
VERTEX
  5
4C
330
41
100
AcDbEntity
  8
_U+30EC_U+30A4_U+30E4_U+30FC 1
 62
   253
420
 11711154
370
     9
100
AcDbVertex
100
AcDb2dVertex
 10
105.0750700970894
 20
-122.097270802809
 30
0.0
  0
VERTEX
  5
4D
330
41
100
AcDbEntity
  8
_U+30EC_U+30A4_U+30E4_U+30FC 1
 62
   253
420
 11711154
370
     9
100
AcDbVertex
100
AcDb2dVertex
 10
105.0750700970894
 20
-121.0086338586367
 30
0.0
  0
VERTEX
  5
4E
330
41
100
AcDbEntity
  8
_U+30EC_U+30A4_U+30E4_U+30FC 1
 62
   253
420
 11711154
370
     9
100
AcDbVertex
100
AcDb2dVertex
 10
69.97541071477855
 20
-121.0451463586276
 30
0.0
  0
SEQEND
  5
50
330
41
100
AcDbEntity
  8
_U+30EC_U+30A4_U+30E4_U+30FC 1
 62
   253
420
 11711154
370
     9
  0
HATCH
  5
4F
330
1F
100
AcDbEntity
  8
_U+30EC_U+30A4_U+30E4_U+30FC 1
 62
   253
420
 11711154
100
AcDbHatch
 10
0.0
 20
0.0
 30
0.0
210
0.0
220
0.0
230
1.0
  2
SOLID
 70
     1
 71
     0
 91
        1
 92
        1
 93
       12
 72
     1
 10
69.97541071477855
 20
-121.0451463586276
 11
69.97541071477855
 21
-122.0607583028181
 72
     1
 10
69.97541071477855
 20
-122.0607583028181
 11
84.87025255700169
 21
-122.0607583028181
 72
     1
 10
84.87025255700169
 20
-122.0607583028181
 11
84.87025255700169
 21
-138.1907107987857
 72
     1
 10
84.87025255700169
 20
-138.1907107987857
 11
95.08186368537068
 21
-138.1907107987857
 72
     1
 10
95.08186368537068
 20
-138.1907107987857
 11
95.08186368537068
 21
-135.2258605217491
 72
     1
 10
95.08186368537068
 20
-135.2258605217491
 11
93.95706942095488
 21
-135.2258605217491
 72
     1
 10
93.95706942095488
 20
-135.2258605217491
 11
93.95706942095488
 21
-137.139256632382
 72
     1
 10
93.95706942095488
 20
-137.139256632382
 11
85.99508447274928
 21
-137.139256632382
 72
     1
 10
85.99508447274928
 20
-137.139256632382
 11
85.99508447274928
 21
-122.097270802809
 72
     1
 10
85.99508447274928
 20
-122.097270802809
 11
105.0750700970894
 21
-122.097270802809
 72
     1
 10
105.0750700970894
 20
-122.097270802809
 11
105.0750700970894
 21
-121.0086338586367
 72
     1
 10
105.0750700970894
 20
-121.0086338586367
 11
69.97541071477855
 21
-121.0451463586276
 97
        0
 75
     2
 76
     1
 98
        0
  0
POLYLINE
  5
51
330
1F
100
AcDbEntity
  8
_U+30EC_U+30A4_U+30E4_U+30FC 1
 62
     7
420
 16777215
370
    25
100
AcDb2dPolyline
 66
     1
 10
0.0
 20
0.0
 30
0.0
  0
VERTEX
  5
52
330
51
100
AcDbEntity
  8
_U+30EC_U+30A4_U+30E4_U+30FC 1
 62
     7
420
 16777215
370
    25
100
AcDbVertex
100
AcDb2dVertex
 10
69.98744043669386
 20
-121.0141371919686
 30
0.0
  0
VERTEX
  5
53
330
51
100
AcDbEntity
  8
_U+30EC_U+30A4_U+30E4_U+30FC 1
 62
     7
420
 16777215
370
    25
100
AcDbVertex
100
AcDb2dVertex
 10
104.9875459326557
 20
-121.0141371919686
 30
0.0
  0
SEQEND
  5
54
330
51
100
AcDbEntity
  8
_U+30EC_U+30A4_U+30E4_U+30FC 1
 62
     7
420
 16777215
370
    25
  0
POLYLINE
  5
55
330
1F
100
AcDbEntity
  8
_U+30EC_U+30A4_U+30E4_U+30FC 1
 62
     7
420
 16777215
370
    25
100
AcDb2dPolyline
 66
     1
 10
0.0
 20
0.0
 30
0.0
  0
VERTEX
  5
56
330
55
100
AcDbEntity
  8
_U+30EC_U+30A4_U+30E4_U+30FC 1
 62
     7
420
 16777215
370
    25
100
AcDbVertex
100
AcDb2dVertex
 10
69.98744043669386
 20
-122.1138160805828
 30
0.0
  0
VERTEX
  5
57
330
55
100
AcDbEntity
  8
_U+30EC_U+30A4_U+30E4_U+30FC 1
 62
     7
420
 16777215
370
    25
100
AcDbVertex
100
AcDb2dVertex
 10
84.98741005401276
 20
-122.1138160805828
 30
0.0
  0
SEQEND
  5
58
330
55
100
AcDbEntity
  8
_U+30EC_U+30A4_U+30E4_U+30FC 1
 62
     7
420
 16777215
370
    25
  0
POLYLINE
  5
59
330
1F
100
AcDbEntity
  8
_U+30EC_U+30A4_U+30E4_U+30FC 1
 62
     7
420
 16777215
370
    25
100
AcDb2dPolyline
 66
     1
 10
0.0
 20
0.0
 30
0.0
  0
VERTEX
  5
5A
330
59
100
AcDbEntity
  8
_U+30EC_U+30A4_U+30E4_U+30FC 1
 62
     7
420
 16777215
370
    25
100
AcDbVertex
100
AcDb2dVertex
 10
105.0388777515179
 20
-122.1138160805828
 30
0.0
  0
VERTEX
  5
5B
330
59
100
AcDbEntity
  8
_U+30EC_U+30A4_U+30E4_U+30FC 1
 62
     7
420
 16777215
370
    25
100
AcDbVertex
100
AcDb2dVertex
 10
105.0388777515179
 20
-121.0141371919686
 30
0.0
  0
SEQEND
  5
5C
330
59
100
AcDbEntity
  8
_U+30EC_U+30A4_U+30E4_U+30FC 1
 62
     7
420
 16777215
370
    25
  0
POLYLINE
  5
5D
330
1F
100
AcDbEntity
  8
_U+30EC_U+30A4_U+30E4_U+30FC 1
 62
     7
420
 16777215
370
    25
100
AcDb2dPolyline
 66
     1
 10
0.0
 20
0.0
 30
0.0
  0
VERTEX
  5
5E
330
5D
100
AcDbEntity
  8
_U+30EC_U+30A4_U+30E4_U+30FC 1
 62
     7
420
 16777215
370
    25
100
AcDbVertex
100
AcDb2dVertex
 10
85.98749975072056
 20
-122.1138160805828
 30
0.0
  0
VERTEX
  5
5F
330
5D
100
AcDbEntity
  8
_U+30EC_U+30A4_U+30E4_U+30FC 1
 62
     7
420
 16777215
370
    25
100
AcDbVertex
100
AcDb2dVertex
 10
105.0388777515179
 20
-122.1138160805828
 30
0.0
  0
SEQEND
  5
60
330
5D
100
AcDbEntity
  8
_U+30EC_U+30A4_U+30E4_U+30FC 1
 62
     7
420
 16777215
370
    25
  0
POLYLINE
  5
61
330
1F
100
AcDbEntity
  8
_U+30EC_U+30A4_U+30E4_U+30FC 1
 62
     7
420
 16777215
370
    25
100
AcDb2dPolyline
 66
     1
 10
0.0
 20
0.0
 30
0.0
  0
VERTEX
  5
62
330
61
100
AcDbEntity
  8
_U+30EC_U+30A4_U+30E4_U+30FC 1
 62
     7
420
 16777215
370
    25
100
AcDbVertex
100
AcDb2dVertex
 10
70.02811571343393
 20
-122.1138160805828
 30
0.0
  0
VERTEX
  5
63
330
61
100
AcDbEntity
  8
_U+30EC_U+30A4_U+30E4_U+30FC 1
 62
     7
420
 16777215
370
    25
100
AcDbVertex
100
AcDb2dVertex
 10
70.02811571343393
 20
-121.0141371919686
 30
0.0
  0
SEQEND
  5
64
330
61
100
AcDbEntity
  8
_U+30EC_U+30A4_U+30E4_U+30FC 1
 62
     7
420
 16777215
370
    25
  0
POLYLINE
  5
65
330
1F
100
AcDbEntity
  8
_U+30EC_U+30A4_U+30E4_U+30FC 1
 62
     7
420
 16777215
370
    25
100
AcDb2dPolyline
 66
     1
 10
0.0
 20
0.0
 30
0.0
  0
VERTEX
  5
66
330
65
100
AcDbEntity
  8
_U+30EC_U+30A4_U+30E4_U+30FC 1
 62
     7
420
 16777215
370
    25
100
AcDbVertex
100
AcDb2dVertex
 10
84.98741005401276
 20
-138.2830327432067
 30
0.0
  0
VERTEX
  5
67
330
65
100
AcDbEntity
  8
_U+30EC_U+30A4_U+30E4_U+30FC 1
 62
     7
420
 16777215
370
    25
100
AcDbVertex
100
AcDb2dVertex
 10
84.98741005401276
 20
-122.1138160805828
 30
0.0
  0
SEQEND
  5
68
330
65
100
AcDbEntity
  8
_U+30EC_U+30A4_U+30E4_U+30FC 1
 62
     7
420
 16777215
370
    25
  0
POLYLINE
  5
69
330
1F
100
AcDbEntity
  8
_U+30EC_U+30A4_U+30E4_U+30FC 1
 62
     7
420
 16777215
370
    25
100
AcDb2dPolyline
 66
     1
 10
0.0
 20
0.0
 30
0.0
  0
VERTEX
  5
6A
330
69
100
AcDbEntity
  8
_U+30EC_U+30A4_U+30E4_U+30FC 1
 62
     7
420
 16777215
370
    25
100
AcDbVertex
100
AcDb2dVertex
 10
84.98741005401276
 20
-138.2830327432067
 30
0.0
  0
VERTEX
  5
6B
330
69
100
AcDbEntity
  8
_U+30EC_U+30A4_U+30E4_U+30FC 1
 62
     7
420
 16777215
370
    25
100
AcDbVertex
100
AcDb2dVertex
 10
94.98749563222265
 20
-138.2830327432067
 30
0.0
  0
SEQEND
  5
6C
330
69
100
AcDbEntity
  8
_U+30EC_U+30A4_U+30E4_U+30FC 1
 62
     7
420
 16777215
370
    25
  0
POLYLINE
  5
6D
330
1F
100
AcDbEntity
  8
_U+30EC_U+30A4_U+30E4_U+30FC 1
 62
     7
420
 16777215
370
    25
100
AcDb2dPolyline
 66
     1
 10
0.0
 20
0.0
 30
0.0
  0
VERTEX
  5
6E
330
6D
100
AcDbEntity
  8
_U+30EC_U+30A4_U+30E4_U+30FC 1
 62
     7
420
 16777215
370
    25
100
AcDbVertex
100
AcDb2dVertex
 10
85.98749975072056
 20
-137.1833538545932
 30
0.0
  0
VERTEX
  5
6F
330
6D
100
AcDbEntity
  8
_U+30EC_U+30A4_U+30E4_U+30FC 1
 62
     7
420
 16777215
370
    25
100
AcDbVertex
100
AcDb2dVertex
 10
93.97773982465034
 20
-137.1833538545932
 30
0.0
  0
SEQEND
  5
70
330
6D
100
AcDbEntity
  8
_U+30EC_U+30A4_U+30E4_U+30FC 1
 62
     7
420
 16777215
370
    25
  0
INSERT
  5
72
330
1F
100
AcDbEntity
  8
_U+30EC_U+30A4_U+30E4_U+30FC 1
100
AcDbBlockReference
  2
block 2
 10
0.0
 20
0.0
 30
0.0
  0
POLYLINE
  5
81
330
1F
100
AcDbEntity
  8
_U+30EC_U+30A4_U+30E4_U+30FC 1
 62
     7
420
 16777215
370
    25
100
AcDb2dPolyline
 66
     1
 10
0.0
 20
0.0
 30
0.0
  0
VERTEX
  5
82
330
81
100
AcDbEntity
  8
_U+30EC_U+30A4_U+30E4_U+30FC 1
 62
     7
420
 16777215
370
    25
100
AcDbVertex
100
AcDb2dVertex
 10
85.98749975072056
 20
-137.1833538545932
 30
0.0
  0
VERTEX
  5
83
330
81
100
AcDbEntity
  8
_U+30EC_U+30A4_U+30E4_U+30FC 1
 62
     7
420
 16777215
370
    25
100
AcDbVertex
100
AcDb2dVertex
 10
85.98749975072056
 20
-122.1138160805828
 30
0.0
  0
SEQEND
  5
84
330
81
100
AcDbEntity
  8
_U+30EC_U+30A4_U+30E4_U+30FC 1
 62
     7
420
 16777215
370
    25
  0
SPLINE
  5
85
330
1F
100
AcDbEntity
  8
_U+30EC_U+30A4_U+30E4_U+30FC 1
 62
     7
420
 16777215
370
     9
100
AcDbSpline
210
0.0
220
0.0
230
1.0
 70
    11
 71
     3
 72
    17
 73
    13
 74
     0
 42
0.0000000001
 43
0.0000000001
 12
1.0
 22
0.0
 32
0.0
 13
1.0
 23
0.0
 33
0.0
 40
0.0
 40
0.0
 40
0.0
 40
0.0
 40
1.0
 40
1.0
 40
1.0
 40
2.0
 40
2.0
 40
2.0
 40
3.0
 40
3.0
 40
3.0
 40
4.0
 40
4.0
 40
4.0
 40
4.0
 10
70.0556694269304
 20
-117.0137077485243
 30
0.0
 10
70.0556694269304
 20
-116.9585685818716
 30
0.0
 10
70.01090015831758
 20
-116.9138010818827
 30
0.0
 10
69.95576099305762
 20
-116.9138010818827
 30
0.0
 10
69.90065710557455
 20
-116.9138010818827
 30
0.0
 10
69.8558543289398
 20
-116.9585685818716
 30
0.0
 10
69.8558543289398
 20
-117.0137077485243
 30
0.0
 10
69.8558543289398
 20
-117.0695171929548
 30
0.0
 10
69.90065710557455
 20
-117.1142846929436
 30
0.0
 10
69.95576099305762
 20
-117.1142846929436
 30
0.0
 10
70.01090015831758
 20
-117.1142846929436
 30
0.0
 10
70.0556694269304
 20
-117.0695171929548
 30
0.0
 10
70.0556694269304
 20
-117.0137077485243
 30
0.0
  0
SPLINE
  5
86
330
1F
100
AcDbEntity
  8
_U+30EC_U+30A4_U+30E4_U+30FC 1
 62
     7
420
 16777215
370
     9
100
AcDbSpline
210
0.0
220
0.0
230
1.0
 70
    11
 71
     3
 72
    17
 73
    13
 74
     0
 42
0.0000000001
 43
0.0000000001
 12
1.0
 22
0.0
 32
0.0
 13
1.0
 23
0.0
 33
0.0
 40
0.0
 40
0.0
 40
0.0
 40
0.0
 40
1.0
 40
1.0
 40
1.0
 40
2.0
 40
2.0
 40
2.0
 40
3.0
 40
3.0
 40
3.0
 40
4.0
 40
4.0
 40
4.0
 40
4.0
 10
104.9558664890194
 20
-117.0137077485243
 30
0.0
 10
104.9558664890194
 20
-116.9585685818716
 30
0.0
 10
104.9110637123847
 20
-116.9138010818827
 30
0.0
 10
104.8559598249016
 20
-116.9138010818827
 30
0.0
 10
104.8008206596416
 20
-116.9138010818827
 30
0.0
 10
104.7560531607838
 20
-116.9585685818716
 30
0.0
 10
104.7560531607838
 20
-117.0137077485243
 30
0.0
 10
104.7560531607838
 20
-117.0695171929548
 30
0.0
 10
104.8008206596416
 20
-117.1142846929436
 30
0.0
 10
104.8559598249016
 20
-117.1142846929436
 30
0.0
 10
104.9110637123847
 20
-117.1142846929436
 30
0.0
 10
104.9558664890194
 20
-117.0695171929548
 30
0.0
 10
104.9558664890194
 20
-117.0137077485243
 30
0.0
  0
SPLINE
  5
87
330
1F
100
AcDbEntity
  8
_U+30EC_U+30A4_U+30E4_U+30FC 1
 62
     7
420
 16777215
370
     9
100
AcDbSpline
210
0.0
220
0.0
230
1.0
 70
    11
 71
     3
 72
    17
 73
    13
 74
     0
 42
0.0000000001
 43
0.0000000001
 12
1.0
 22
0.0
 32
0.0
 13
1.0
 23
0.0
 33
0.0
 40
0.0
 40
0.0
 40
0.0
 40
0.0
 40
1.0
 40
1.0
 40
1.0
 40
2.0
 40
2.0
 40
2.0
 40
3.0
 40
3.0
 40
3.0
 40
4.0
 40
4.0
 40
4.0
 40
4.0
 10
111.1132849430417
 20
-121.0141371919686
 30
0.0
 10
111.1132849430417
 20
-120.9590333030936
 30
0.0
 10
111.068482166407
 20
-120.9142305253269
 30
0.0
 10
111.0133782789239
 20
-120.9142305253269
 30
0.0
 10
110.9582391136639
 20
-120.9142305253269
 30
0.0
 10
110.913471614806
 20
-120.9590333030936
 30
0.0
 10
110.913471614806
 20
-121.0141371919686
 30
0.0
 10
110.913471614806
 20
-121.0692763586217
 30
0.0
 10
110.9582391136639
 20
-121.1140438586105
 30
0.0
 10
111.0133782789239
 20
-121.1140438586105
 30
0.0
 10
111.068482166407
 20
-121.1140438586105
 30
0.0
 10
111.1132849430417
 20
-121.0692763586217
 30
0.0
 10
111.1132849430417
 20
-121.0141371919686
 30
0.0
  0
SPLINE
  5
88
330
1F
100
AcDbEntity
  8
_U+30EC_U+30A4_U+30E4_U+30FC 1
 62
     7
420
 16777215
370
     9
100
AcDbSpline
210
0.0
220
0.0
230
1.0
 70
    11
 71
     3
 72
    17
 73
    13
 74
     0
 42
0.0000000001
 43
0.0000000001
 12
1.0
 22
0.0
 32
0.0
 13
1.0
 23
0.0
 33
0.0
 40
0.0
 40
0.0
 40
0.0
 40
0.0
 40
1.0
 40
1.0
 40
1.0
 40
2.0
 40
2.0
 40
2.0
 40
3.0
 40
3.0
 40
3.0
 40
4.0
 40
4.0
 40
4.0
 40
4.0
 10
111.1132849430417
 20
-122.1138160805828
 30
0.0
 10
111.1132849430417
 20
-122.0587121917075
 30
0.0
 10
111.068482166407
 20
-122.0139094139411
 30
0.0
 10
111.0133782789239
 20
-122.0139094139411
 30
0.0
 10
110.9582391136639
 20
-122.0139094139411
 30
0.0
 10
110.913471614806
 20
-122.0587121917075
 30
0.0
 10
110.913471614806
 20
-122.1138160805828
 30
0.0
 10
110.913471614806
 20
-122.1696255250132
 30
0.0
 10
110.9582391136639
 20
-122.2144283027796
 30
0.0
 10
111.0133782789239
 20
-122.2144283027796
 30
0.0
 10
111.068482166407
 20
-122.2144283027796
 30
0.0
 10
111.1132849430417
 20
-122.1696255250132
 30
0.0
 10
111.1132849430417
 20
-122.1138160805828
 30
0.0
  0
SPLINE
  5
89
330
1F
100
AcDbEntity
  8
_U+30EC_U+30A4_U+30E4_U+30FC 1
 62
     7
420
 16777215
370
     9
100
AcDbSpline
210
0.0
220
0.0
230
1.0
 70
    11
 71
     3
 72
    17
 73
    13
 74
     0
 42
0.0000000001
 43
0.0000000001
 12
1.0
 22
0.0
 32
0.0
 13
1.0
 23
0.0
 33
0.0
 40
0.0
 40
0.0
 40
0.0
 40
0.0
 40
1.0
 40
1.0
 40
1.0
 40
2.0
 40
2.0
 40
2.0
 40
3.0
 40
3.0
 40
3.0
 40
4.0
 40
4.0
 40
4.0
 40
4.0
 10
84.89713422298256
 20
-142.5087813532618
 30
0.0
 10
84.89713422298256
 20
-142.4536774643869
 30
0.0
 10
84.85236672412466
 20
-142.4088746866202
 30
0.0
 10
84.79687478109594
 20
-142.4088746866202
 30
0.0
 10
84.74177089361287
 20
-142.4088746866202
 30
0.0
 10
84.6969681169781
 20
-142.4536774643869
 30
0.0
 10
84.6969681169781
 20
-142.5087813532618
 30
0.0
 10
84.6969681169781
 20
-142.5639205199149
 30
0.0
 10
84.74177089361287
 20
-142.6086880199034
 30
0.0
 10
84.79687478109594
 20
-142.6086880199034
 30
0.0
 10
84.85236672412466
 20
-142.6086880199034
 30
0.0
 10
84.89713422298256
 20
-142.5639205199149
 30
0.0
 10
84.89713422298256
 20
-142.5087813532618
 30
0.0
  0
SPLINE
  5
8A
330
1F
100
AcDbEntity
  8
_U+30EC_U+30A4_U+30E4_U+30FC 1
 62
     7
420
 16777215
370
     9
100
AcDbSpline
210
0.0
220
0.0
230
1.0
 70
    11
 71
     3
 72
    17
 73
    13
 74
     0
 42
0.0000000001
 43
0.0000000001
 12
1.0
 22
0.0
 32
0.0
 13
1.0
 23
0.0
 33
0.0
 40
0.0
 40
0.0
 40
0.0
 40
0.0
 40
1.0
 40
1.0
 40
1.0
 40
2.0
 40
2.0
 40
2.0
 40
3.0
 40
3.0
 40
3.0
 40
4.0
 40
4.0
 40
4.0
 40
4.0
 10
95.04810285289865
 20
-142.5087813532618
 30
0.0
 10
95.04810285289865
 20
-142.4536774643869
 30
0.0
 10
95.00333535404077
 20
-142.4088746866202
 30
0.0
 10
94.94819618878083
 20
-142.4088746866202
 30
0.0
 10
94.89309230129774
 20
-142.4088746866202
 30
0.0
 10
94.84828952466299
 20
-142.4536774643869
 30
0.0
 10
94.84828952466299
 20
-142.5087813532618
 30
0.0
 10
94.84828952466299
 20
-142.5639205199149
 30
0.0
 10
94.89309230129774
 20
-142.6086880199034
 30
0.0
 10
94.94819618878083
 20
-142.6086880199034
 30
0.0
 10
95.00333535404077
 20
-142.6086880199034
 30
0.0
 10
95.04810285289865
 20
-142.5639205199149
 30
0.0
 10
95.04810285289865
 20
-142.5087813532618
 30
0.0
  0
SPLINE
  5
8B
330
1F
100
AcDbEntity
  8
_U+30EC_U+30A4_U+30E4_U+30FC 1
 62
     7
420
 16777215
370
     9
100
AcDbSpline
210
0.0
220
0.0
230
1.0
 70
    11
 71
     3
 72
    17
 73
    13
 74
     0
 42
0.0000000001
 43
0.0000000001
 12
1.0
 22
0.0
 32
0.0
 13
1.0
 23
0.0
 33
0.0
 40
0.0
 40
0.0
 40
0.0
 40
0.0
 40
1.0
 40
1.0
 40
1.0
 40
2.0
 40
2.0
 40
2.0
 40
3.0
 40
3.0
 40
3.0
 40
4.0
 40
4.0
 40
4.0
 40
4.0
 10
70.01019460278002
 20
-142.5087813532618
 30
0.0
 10
70.01019460278002
 20
-142.4536774643869
 30
0.0
 10
69.96539182614526
 20
-142.4088746866202
 30
0.0
 10
69.9102879386622
 20
-142.4088746866202
 30
0.0
 10
69.85483127341034
 20
-142.4088746866202
 30
0.0
 10
69.81002849677557
 20
-142.4536774643869
 30
0.0
 10
69.81002849677557
 20
-142.5087813532618
 30
0.0
 10
69.81002849677557
 20
-142.5639205199149
 30
0.0
 10
69.85483127341034
 20
-142.6086880199034
 30
0.0
 10
69.9102879386622
 20
-142.6086880199034
 30
0.0
 10
69.96539182614526
 20
-142.6086880199034
 30
0.0
 10
70.01019460278002
 20
-142.5639205199149
 30
0.0
 10
70.01019460278002
 20
-142.5087813532618
 30
0.0
  0
POLYLINE
  5
8C
330
1F
100
AcDbEntity
  8
_U+30EC_U+30A4_U+30E4_U+30FC 1
 62
     7
420
 16777215
370
     9
100
AcDb2dPolyline
 66
     1
 10
0.0
 20
0.0
 30
0.0
  0
VERTEX
  5
8D
330
8C
100
AcDbEntity
  8
_U+30EC_U+30A4_U+30E4_U+30FC 1
 62
     7
420
 16777215
370
     9
100
AcDbVertex
100
AcDb2dVertex
 10
84.79687478109594
 20
-142.5087813532618
 30
0.0
  0
VERTEX
  5
8E
330
8C
100
AcDbEntity
  8
_U+30EC_U+30A4_U+30E4_U+30FC 1
 62
     7
420
 16777215
370
     9
100
AcDbVertex
100
AcDb2dVertex
 10
94.79696035930583
 20
-142.5087813532618
 30
0.0
  0
SEQEND
  5
8F
330
8C
100
AcDbEntity
  8
_U+30EC_U+30A4_U+30E4_U+30FC 1
 62
     7
420
 16777215
370
     9
  0
POLYLINE
  5
90
330
1F
100
AcDbEntity
  8
_U+30EC_U+30A4_U+30E4_U+30FC 1
 62
     7
420
 16777215
370
     9
100
AcDb2dPolyline
 66
     1
 10
0.0
 20
0.0
 30
0.0
  0
VERTEX
  5
91
330
90
100
AcDbEntity
  8
_U+30EC_U+30A4_U+30E4_U+30FC 1
 62
     7
420
 16777215
370
     9
100
AcDbVertex
100
AcDb2dVertex
 10
94.94819618878083
 20
-141.0487399647381
 30
0.0
  0
VERTEX
  5
92
330
90
100
AcDbEntity
  8
_U+30EC_U+30A4_U+30E4_U+30FC 1
 62
     7
420
 16777215
370
     9
100
AcDbVertex
100
AcDb2dVertex
 10
94.94819618878083
 20
-143.5085535752337
 30
0.0
  0
SEQEND
  5
93
330
90
100
AcDbEntity
  8
_U+30EC_U+30A4_U+30E4_U+30FC 1
 62
     7
420
 16777215
370
     9
  0
INSERT
  5
95
330
1F
100
AcDbEntity
  8
_U+30EC_U+30A4_U+30E4_U+30FC 1
100
AcDbBlockReference
  2
block 3
 10
0.0
 20
0.0
 30
0.0
  0
POLYLINE
  5
9D
330
1F
100
AcDbEntity
  8
_U+30EC_U+30A4_U+30E4_U+30FC 1
 62
     7
420
 16777215
370
     9
100
AcDb2dPolyline
 66
     1
 10
0.0
 20
0.0
 30
0.0
  0
VERTEX
  5
9E
330
9D
100
AcDbEntity
  8
_U+30EC_U+30A4_U+30E4_U+30FC 1
 62
     7
420
 16777215
370
     9
100
AcDbVertex
100
AcDb2dVertex
 10
111.0133782789239
 20
-121.0141371919686
 30
0.0
  0
VERTEX
  5
9F
330
9D
100
AcDbEntity
  8
_U+30EC_U+30A4_U+30E4_U+30FC 1
 62
     7
420
 16777215
370
     9
100
AcDbVertex
100
AcDb2dVertex
 10
111.0133782789239
 20
-117.2438246929111
 30
0.0
  0
SEQEND
  5
A0
330
9D
100
AcDbEntity
  8
_U+30EC_U+30A4_U+30E4_U+30FC 1
 62
     7
420
 16777215
370
     9
  0
POLYLINE
  5
A1
330
1F
100
AcDbEntity
  8
_U+30EC_U+30A4_U+30E4_U+30FC 1
 62
     7
420
 16777215
370
     9
100
AcDb2dPolyline
 66
     1
 10
0.0
 20
0.0
 30
0.0
  0
VERTEX
  5
A2
330
A1
100
AcDbEntity
  8
_U+30EC_U+30A4_U+30E4_U+30FC 1
 62
     7
420
 16777215
370
     9
100
AcDbVertex
100
AcDb2dVertex
 10
111.0133782789239
 20
-121.0141371919686
 30
0.0
  0
VERTEX
  5
A3
330
A1
100
AcDbEntity
  8
_U+30EC_U+30A4_U+30E4_U+30FC 1
 62
     7
420
 16777215
370
     9
100
AcDbVertex
100
AcDb2dVertex
 10
111.0133782789239
 20
-122.1138160805828
 30
0.0
  0
SEQEND
  5
A4
330
A1
100
AcDbEntity
  8
_U+30EC_U+30A4_U+30E4_U+30FC 1
 62
     7
420
 16777215
370
     9
  0
POLYLINE
  5
A5
330
1F
100
AcDbEntity
  8
_U+30EC_U+30A4_U+30E4_U+30FC 1
 62
     7
420
 16777215
370
     9
100
AcDb2dPolyline
 66
     1
 10
0.0
 20
0.0
 30
0.0
  0
VERTEX
  5
A6
330
A5
100
AcDbEntity
  8
_U+30EC_U+30A4_U+30E4_U+30FC 1
 62
     7
420
 16777215
370
     9
100
AcDbVertex
100
AcDb2dVertex
 10
109.5533369272838
 20
-121.0141371919686
 30
0.0
  0
VERTEX
  5
A7
330
A5
100
AcDbEntity
  8
_U+30EC_U+30A4_U+30E4_U+30FC 1
 62
     7
420
 16777215
370
     9
100
AcDbVertex
100
AcDb2dVertex
 10
112.0131504756398
 20
-121.0141371919686
 30
0.0
  0
SEQEND
  5
A8
330
A5
100
AcDbEntity
  8
_U+30EC_U+30A4_U+30E4_U+30FC 1
 62
     7
420
 16777215
370
     9
  0
POLYLINE
  5
A9
330
1F
100
AcDbEntity
  8
_U+30EC_U+30A4_U+30E4_U+30FC 1
 62
     7
420
 16777215
370
     9
100
AcDb2dPolyline
 66
     1
 10
0.0
 20
0.0
 30
0.0
  0
VERTEX
  5
AA
330
A9
100
AcDbEntity
  8
_U+30EC_U+30A4_U+30E4_U+30FC 1
 62
     7
420
 16777215
370
     9
100
AcDbVertex
100
AcDb2dVertex
 10
109.5533369272838
 20
-122.1138160805828
 30
0.0
  0
VERTEX
  5
AB
330
A9
100
AcDbEntity
  8
_U+30EC_U+30A4_U+30E4_U+30FC 1
 62
     7
420
 16777215
370
     9
100
AcDbVertex
100
AcDb2dVertex
 10
112.0131504756398
 20
-122.1138160805828
 30
0.0
  0
SEQEND
  5
AC
330
A9
100
AcDbEntity
  8
_U+30EC_U+30A4_U+30E4_U+30FC 1
 62
     7
420
 16777215
370
     9
  0
INSERT
  5
AE
330
1F
100
AcDbEntity
  8
_U+30EC_U+30A4_U+30E4_U+30FC 1
100
AcDbBlockReference
  2
block 4
 10
0.0
 20
0.0
 30
0.0
  0
POLYLINE
  5
BD
330
1F
100
AcDbEntity
  8
_U+30EC_U+30A4_U+30E4_U+30FC 1
 62
     7
420
 16777215
370
     9
100
AcDb2dPolyline
 66
     1
 10
0.0
 20
0.0
 30
0.0
  0
VERTEX
  5
BE
330
BD
100
AcDbEntity
  8
_U+30EC_U+30A4_U+30E4_U+30FC 1
 62
     7
420
 16777215
370
     9
100
AcDbVertex
100
AcDb2dVertex
 10
69.95576099305762
 20
-117.0137077485243
 30
0.0
  0
VERTEX
  5
BF
330
BD
100
AcDbEntity
  8
_U+30EC_U+30A4_U+30E4_U+30FC 1
 62
     7
420
 16777215
370
     9
100
AcDbVertex
100
AcDb2dVertex
 10
104.9558664890194
 20
-117.0137077485243
 30
0.0
  0
SEQEND
  5
C0
330
BD
100
AcDbEntity
  8
_U+30EC_U+30A4_U+30E4_U+30FC 1
 62
     7
420
 16777215
370
     9
  0
POLYLINE
  5
C1
330
1F
100
AcDbEntity
  8
_U+30EC_U+30A4_U+30E4_U+30FC 1
 62
     7
420
 16777215
370
     9
100
AcDb2dPolyline
 66
     1
 10
0.0
 20
0.0
 30
0.0
  0
VERTEX
  5
C2
330
C1
100
AcDbEntity
  8
_U+30EC_U+30A4_U+30E4_U+30FC 1
 62
     7
420
 16777215
370
     9
100
AcDbVertex
100
AcDb2dVertex
 10
69.95576099305762
 20
-118.4737491370484
 30
0.0
  0
VERTEX
  5
C3
330
C1
100
AcDbEntity
  8
_U+30EC_U+30A4_U+30E4_U+30FC 1
 62
     7
420
 16777215
370
     9
100
AcDbVertex
100
AcDb2dVertex
 10
69.95576099305762
 20
-116.0139355265521
 30
0.0
  0
SEQEND
  5
C4
330
C1
100
AcDbEntity
  8
_U+30EC_U+30A4_U+30E4_U+30FC 1
 62
     7
420
 16777215
370
     9
  0
POLYLINE
  5
C5
330
1F
100
AcDbEntity
  8
_U+30EC_U+30A4_U+30E4_U+30FC 1
 62
     7
420
 16777215
370
     9
100
AcDb2dPolyline
 66
     1
 10
0.0
 20
0.0
 30
0.0
  0
VERTEX
  5
C6
330
C5
100
AcDbEntity
  8
_U+30EC_U+30A4_U+30E4_U+30FC 1
 62
     7
420
 16777215
370
     9
100
AcDbVertex
100
AcDb2dVertex
 10
104.8559598249016
 20
-118.4737491370484
 30
0.0
  0
VERTEX
  5
C7
330
C5
100
AcDbEntity
  8
_U+30EC_U+30A4_U+30E4_U+30FC 1
 62
     7
420
 16777215
370
     9
100
AcDbVertex
100
AcDb2dVertex
 10
104.8559598249016
 20
-116.0139355265521
 30
0.0
  0
SEQEND
  5
C8
330
C5
100
AcDbEntity
  8
_U+30EC_U+30A4_U+30E4_U+30FC 1
 62
     7
420
 16777215
370
     9
  0
INSERT
  5
CA
330
1F
100
AcDbEntity
  8
_U+30EC_U+30A4_U+30E4_U+30FC 1
100
AcDbBlockReference
  2
block 5
 10
0.0
 20
0.0
 30
0.0
  0
POLYLINE
  5
D1
330
1F
100
AcDbEntity
  8
_U+30EC_U+30A4_U+30E4_U+30FC 1
 62
     7
420
 16777215
370
     9
100
AcDb2dPolyline
 66
     1
 10
0.0
 20
0.0
 30
0.0
  0
VERTEX
  5
D2
330
D1
100
AcDbEntity
  8
_U+30EC_U+30A4_U+30E4_U+30FC 1
 62
     7
420
 16777215
370
     9
100
AcDbVertex
100
AcDb2dVertex
 10
69.79694044155393
 20
-142.5087813532618
 30
0.0
  0
VERTEX
  5
D3
330
D1
100
AcDbEntity
  8
_U+30EC_U+30A4_U+30E4_U+30FC 1
 62
     7
420
 16777215
370
     9
100
AcDbVertex
100
AcDb2dVertex
 10
84.79687478109594
 20
-142.5087813532618
 30
0.0
  0
SEQEND
  5
D4
330
D1
100
AcDbEntity
  8
_U+30EC_U+30A4_U+30E4_U+30FC 1
 62
     7
420
 16777215
370
     9
  0
POLYLINE
  5
D5
330
1F
100
AcDbEntity
  8
_U+30EC_U+30A4_U+30E4_U+30FC 1
 62
     7
420
 16777215
370
     9
100
AcDb2dPolyline
 66
     1
 10
0.0
 20
0.0
 30
0.0
  0
VERTEX
  5
D6
330
D5
100
AcDbEntity
  8
_U+30EC_U+30A4_U+30E4_U+30FC 1
 62
     7
420
 16777215
370
     9
100
AcDbVertex
100
AcDb2dVertex
 10
69.9102879386622
 20
-125.0659310798447
 30
0.0
  0
VERTEX
  5
D7
330
D5
100
AcDbEntity
  8
_U+30EC_U+30A4_U+30E4_U+30FC 1
 62
     7
420
 16777215
370
     9
100
AcDbVertex
100
AcDb2dVertex
 10
69.9102879386622
 20
-143.5085535752337
 30
0.0
  0
SEQEND
  5
D8
330
D5
100
AcDbEntity
  8
_U+30EC_U+30A4_U+30E4_U+30FC 1
 62
     7
420
 16777215
370
     9
  0
POLYLINE
  5
D9
330
1F
100
AcDbEntity
  8
_U+30EC_U+30A4_U+30E4_U+30FC 1
 62
     7
420
 16777215
370
     9
100
AcDb2dPolyline
 66
     1
 10
0.0
 20
0.0
 30
0.0
  0
VERTEX
  5
DA
330
D9
100
AcDbEntity
  8
_U+30EC_U+30A4_U+30E4_U+30FC 1
 62
     7
420
 16777215
370
     9
100
AcDbVertex
100
AcDb2dVertex
 10
84.79687478109594
 20
-141.0487399647381
 30
0.0
  0
VERTEX
  5
DB
330
D9
100
AcDbEntity
  8
_U+30EC_U+30A4_U+30E4_U+30FC 1
 62
     7
420
 16777215
370
     9
100
AcDbVertex
100
AcDb2dVertex
 10
84.79687478109594
 20
-143.5085535752337
 30
0.0
  0
SEQEND
  5
DC
330
D9
100
AcDbEntity
  8
_U+30EC_U+30A4_U+30E4_U+30FC 1
 62
     7
420
 16777215
370
     9
  0
INSERT
  5
DE
330
1F
100
AcDbEntity
  8
_U+30EC_U+30A4_U+30E4_U+30FC 1
100
AcDbBlockReference
  2
block 6
 10
0.0
 20
0.0
 30
0.0
  0
POLYLINE
  5
E5
330
1F
100
AcDbEntity
  8
_U+30EC_U+30A4_U+30E4_U+30FC 1
 62
     7
420
 16777215
370
     9
100
AcDb2dPolyline
 66
     1
 10
0.0
 20
0.0
 30
0.0
  0
VERTEX
  5
E6
330
E5
100
AcDbEntity
  8
_U+30EC_U+30A4_U+30E4_U+30FC 1
 62
     7
420
 16777215
370
     9
100
AcDbVertex
100
AcDb2dVertex
 10
111.0133782789239
 20
-135.1149119106655
 30
0.0
  0
VERTEX
  5
E7
330
E5
100
AcDbEntity
  8
_U+30EC_U+30A4_U+30E4_U+30FC 1
 62
     7
420
 16777215
370
     9
100
AcDbVertex
100
AcDb2dVertex
 10
111.0133782789239
 20
-122.1138160805828
 30
0.0
  0
SEQEND
  5
E8
330
E5
100
AcDbEntity
  8
_U+30EC_U+30A4_U+30E4_U+30FC 1
 62
     7
420
 16777215
370
     9
  0
SPLINE
  5
E9
330
1F
100
AcDbEntity
  8
_U+30EC_U+30A4_U+30E4_U+30FC 1
 62
     7
420
 16777215
370
     9
100
AcDbSpline
210
0.0
220
0.0
230
1.0
 70
    11
 71
     3
 72
    17
 73
    13
 74
     0
 42
0.0000000001
 43
0.0000000001
 12
1.0
 22
0.0
 32
0.0
 13
1.0
 23
0.0
 33
0.0
 40
0.0
 40
0.0
 40
0.0
 40
0.0
 40
1.0
 40
1.0
 40
1.0
 40
2.0
 40
2.0
 40
2.0
 40
3.0
 40
3.0
 40
3.0
 40
4.0
 40
4.0
 40
4.0
 40
4.0
 10
111.1132849430417
 20
-135.1548816328781
 30
0.0
 10
111.1132849430417
 20
-135.0990721884476
 30
0.0
 10
111.068482166407
 20
-135.0543046884584
 30
0.0
 10
111.0133782789239
 20
-135.0543046884584
 30
0.0
 10
110.9582391136639
 20
-135.0543046884584
 30
0.0
 10
110.913471614806
 20
-135.0990721884476
 30
0.0
 10
110.913471614806
 20
-135.1548816328781
 30
0.0
 10
110.913471614806
 20
-135.2100207995305
 30
0.0
 10
110.9582391136639
 20
-135.2547882995197
 30
0.0
 10
111.0133782789239
 20
-135.2547882995197
 30
0.0
 10
111.068482166407
 20
-135.2547882995197
 30
0.0
 10
111.1132849430417
 20
-135.2100207995305
 30
0.0
 10
111.1132849430417
 20
-135.1548816328781
 30
0.0
  0
SPLINE
  5
EA
330
1F
100
AcDbEntity
  8
_U+30EC_U+30A4_U+30E4_U+30FC 1
 62
     7
420
 16777215
370
     9
100
AcDbSpline
210
0.0
220
0.0
230
1.0
 70
    11
 71
     3
 72
    17
 73
    13
 74
     0
 42
0.0000000001
 43
0.0000000001
 12
1.0
 22
0.0
 32
0.0
 13
1.0
 23
0.0
 33
0.0
 40
0.0
 40
0.0
 40
0.0
 40
0.0
 40
1.0
 40
1.0
 40
1.0
 40
2.0
 40
2.0
 40
2.0
 40
3.0
 40
3.0
 40
3.0
 40
4.0
 40
4.0
 40
4.0
 40
4.0
 10
111.1132849430417
 20
-138.1548685765724
 30
0.0
 10
111.1132849430417
 20
-138.099059132142
 30
0.0
 10
111.068482166407
 20
-138.0542916321528
 30
0.0
 10
111.0133782789239
 20
-138.0542916321528
 30
0.0
 10
110.9582391136639
 20
-138.0542916321528
 30
0.0
 10
110.913471614806
 20
-138.099059132142
 30
0.0
 10
110.913471614806
 20
-138.1548685765724
 30
0.0
 10
110.913471614806
 20
-138.2100077432255
 30
0.0
 10
110.9582391136639
 20
-138.2547752432141
 30
0.0
 10
111.0133782789239
 20
-138.2547752432141
 30
0.0
 10
111.068482166407
 20
-138.2547752432141
 30
0.0
 10
111.1132849430417
 20
-138.2100077432255
 30
0.0
 10
111.1132849430417
 20
-138.1548685765724
 30
0.0
  0
POLYLINE
  5
EB
330
1F
100
AcDbEntity
  8
_U+30EC_U+30A4_U+30E4_U+30FC 1
 62
     7
420
 16777215
370
     9
100
AcDb2dPolyline
 66
     1
 10
0.0
 20
0.0
 30
0.0
  0
VERTEX
  5
EC
330
EB
100
AcDbEntity
  8
_U+30EC_U+30A4_U+30E4_U+30FC 1
 62
     7
420
 16777215
370
     9
100
AcDbVertex
100
AcDb2dVertex
 10
111.0133782789239
 20
-138.1548685765724
 30
0.0
  0
VERTEX
  5
ED
330
EB
100
AcDbEntity
  8
_U+30EC_U+30A4_U+30E4_U+30FC 1
 62
     7
420
 16777215
370
     9
100
AcDbVertex
100
AcDb2dVertex
 10
111.0133782789239
 20
-135.1548816328781
 30
0.0
  0
SEQEND
  5
EE
330
EB
100
AcDbEntity
  8
_U+30EC_U+30A4_U+30E4_U+30FC 1
 62
     7
420
 16777215
370
     9
  0
POLYLINE
  5
EF
330
1F
100
AcDbEntity
  8
_U+30EC_U+30A4_U+30E4_U+30FC 1
 62
     7
420
 16777215
370
     9
100
AcDb2dPolyline
 66
     1
 10
0.0
 20
0.0
 30
0.0
  0
VERTEX
  5
F0
330
EF
100
AcDbEntity
  8
_U+30EC_U+30A4_U+30E4_U+30FC 1
 62
     7
420
 16777215
370
     9
100
AcDbVertex
100
AcDb2dVertex
 10
97.55338945565013
 20
-138.1548685765724
 30
0.0
  0
VERTEX
  5
F1
330
EF
100
AcDbEntity
  8
_U+30EC_U+30A4_U+30E4_U+30FC 1
 62
     7
420
 16777215
370
     9
100
AcDbVertex
100
AcDb2dVertex
 10
112.0131504756398
 20
-138.1548685765724
 30
0.0
  0
SEQEND
  5
F2
330
EF
100
AcDbEntity
  8
_U+30EC_U+30A4_U+30E4_U+30FC 1
 62
     7
420
 16777215
370
     9
  0
INSERT
  5
F4
330
1F
100
AcDbEntity
  8
_U+30EC_U+30A4_U+30E4_U+30FC 1
100
AcDbBlockReference
  2
block 7
 10
0.0
 20
0.0
 30
0.0
  0
POLYLINE
  5
F9
330
1F
100
AcDbEntity
  8
_U+30EC_U+30A4_U+30E4_U+30FC 1
 62
     7
420
 16777215
370
     9
100
AcDb2dPolyline
 66
     1
 10
0.0
 20
0.0
 30
0.0
  0
VERTEX
  5
FA
330
F9
100
AcDbEntity
  8
_U+30EC_U+30A4_U+30E4_U+30FC 1
 62
     7
420
 16777215
370
     9
100
AcDbVertex
100
AcDb2dVertex
 10
97.55338945565013
 20
-135.1548816328781
 30
0.0
  0
VERTEX
  5
FB
330
F9
100
AcDbEntity
  8
_U+30EC_U+30A4_U+30E4_U+30FC 1
 62
     7
420
 16777215
370
     9
100
AcDbVertex
100
AcDb2dVertex
 10
112.0131504756398
 20
-135.1548816328781
 30
0.0
  0
SEQEND
  5
FC
330
F9
100
AcDbEntity
  8
_U+30EC_U+30A4_U+30E4_U+30FC 1
 62
     7
420
 16777215
370
     9
  0
INSERT
  5
FE
330
1F
100
AcDbEntity
  8
_U+30EC_U+30A4_U+30E4_U+30FC 1
100
AcDbBlockReference
  2
block 8
 10
0.0
 20
0.0
 30
0.0
  0
ENDSEC
  0
SECTION
  2
OBJECTS
  0
DICTIONARY
  5
C
330
0
100
AcDbDictionary
281
     1
  3
ACAD_GROUP
350
D
  3
ACAD_LAYOUT
350
1A
  3
ACAD_MATERIAL
350
3B
  3
ACAD_MLEADERSTYLE
350
106
  3
ACAD_MLINESTYLE
350
17
  3
ACAD_PLOTSETTINGS
350
19
  3
ACAD_PLOTSTYLENAME
350
E
  3
ACAD_TABLESTYLE
350
105
  3
ACAD_VISUALSTYLE
350
2A
  0
SUN
  5
3F
330
29
100
AcDbSun
 90
        1
290
     0
 63
     7
421
 16777215
 40
1.0
291
     1
 91
  2455826
 92
 54000000
292
     0
 70
     2
 71
   256
280
     1
  0
DICTIONARY
  5
D
102
{ACAD_REACTORS
330
C
102
}
330
C
100
AcDbDictionary
281
     1
  0
DICTIONARY
  5
1A
102
{ACAD_REACTORS
330
C
102
}
330
C
100
AcDbDictionary
281
     1
  3
Layout1
350
1E
  3
Layout2
350
26
  3
Model
350
22
  0
DICTIONARY
  5
3B
102
{ACAD_REACTORS
330
C
102
}
330
C
100
AcDbDictionary
281
     1
  3
ByBlock
350
3D
  3
ByLayer
350
3C
  3
Global
350
3E
  0
DICTIONARY
  5
106
102
{ACAD_REACTORS
330
C
102
}
330
C
100
AcDbDictionary
281
     1
  0
DICTIONARY
  5
17
102
{ACAD_REACTORS
330
C
102
}
330
C
100
AcDbDictionary
281
     1
  3
Standard
350
18
  0
DICTIONARY
  5
19
102
{ACAD_REACTORS
330
C
102
}
330
C
100
AcDbDictionary
281
     1
  0
ACDBDICTIONARYWDFLT
  5
E
102
{ACAD_REACTORS
330
C
102
}
330
C
100
AcDbDictionary
281
     1
  3
Normal
350
F
100
AcDbDictionaryWithDefault
340
F
  0
DICTIONARY
  5
105
102
{ACAD_REACTORS
330
C
102
}
330
C
100
AcDbDictionary
281
     1
  0
DICTIONARY
  5
2A
102
{ACAD_REACTORS
330
C
102
}
330
C
100
AcDbDictionary
281
     1
  3
2dWireframe
350
2F
  3
3D Hidden
350
31
  3
3dWireframe
350
30
  3
Basic
350
32
  3
Brighten
350
36
  3
ColorChange
350
3A
  3
Conceptual
350
34
  3
Dim
350
35
  3
Facepattern
350
39
  3
Flat
350
2B
  3
FlatWithEdges
350
2C
  3
Gouraud
350
2D
  3
GouraudWithEdges
350
2E
  3
Linepattern
350
38
  3
Realistic
350
33
  3
Thicken
350
37
  0
LAYOUT
  5
1E
102
{ACAD_REACTORS
330
1A
102
}
330
1A
100
AcDbPlotSettings
  1

  2
none_device
  4

  6

 40
0.0
 41
0.0
 42
0.0
 43
0.0
 44
0.0
 45
0.0
 46
0.0
 47
0.0
 48
0.0
 49
0.0
140
0.0
141
0.0
142
1.0
143
1.0
 70
   688
 72
     0
 73
     0
 74
     5
  7

 75
    16
 76
     0
 77
     2
 78
   300
147
1.0
148
0.0
149
0.0
100
AcDbLayout
  1
Layout1
 70
     1
 71
     1
 10
0.0
 20
0.0
 11
12.0
 21
9.0
 12
0.0
 22
0.0
 32
0.0
 14
1.000000000000000E+20
 24
1.000000000000000E+20
 34
1.000000000000000E+20
 15
-1.000000000000000E+20
 25
-1.000000000000000E+20
 35
-1.000000000000000E+20
146
0.0
 13
0.0
 23
0.0
 33
0.0
 16
1.0
 26
0.0
 36
0.0
 17
0.0
 27
1.0
 37
0.0
 76
     0
330
1B
  0
LAYOUT
  5
26
102
{ACAD_REACTORS
330
1A
102
}
330
1A
100
AcDbPlotSettings
  1

  2
none_device
  4

  6

 40
0.0
 41
0.0
 42
0.0
 43
0.0
 44
0.0
 45
0.0
 46
0.0
 47
0.0
 48
0.0
 49
0.0
140
0.0
141
0.0
142
1.0
143
1.0
 70
   688
 72
     0
 73
     0
 74
     5
  7

 75
    16
 76
     0
 77
     2
 78
   300
147
1.0
148
0.0
149
0.0
100
AcDbLayout
  1
Layout2
 70
     1
 71
     2
 10
0.0
 20
0.0
 11
0.0
 21
0.0
 12
0.0
 22
0.0
 32
0.0
 14
0.0
 24
0.0
 34
0.0
 15
0.0
 25
0.0
 35
0.0
146
0.0
 13
0.0
 23
0.0
 33
0.0
 16
1.0
 26
0.0
 36
0.0
 17
0.0
 27
1.0
 37
0.0
 76
     0
330
23
  0
LAYOUT
  5
22
102
{ACAD_REACTORS
330
1A
102
}
330
1A
100
AcDbPlotSettings
  1

  2
none_device
  4

  6

 40
0.0
 41
0.0
 42
0.0
 43
0.0
 44
0.0
 45
0.0
 46
0.0
 47
0.0
 48
0.0
 49
0.0
140
0.0
141
0.0
142
1.0
143
1.0
 70
  1712
 72
     0
 73
     0
 74
     0
  7

 75
     0
 76
     0
 77
     2
 78
   300
147
1.0
148
0.0
149
0.0
100
AcDbLayout
  1
Model
 70
     1
 71
     0
 10
0.0
 20
0.0
 11
12.0
 21
9.0
 12
0.0
 22
0.0
 32
0.0
 14
1.000000000000000E+20
 24
1.000000000000000E+20
 34
1.000000000000000E+20
 15
-1.000000000000000E+20
 25
-1.000000000000000E+20
 35
-1.000000000000000E+20
146
0.0
 13
0.0
 23
0.0
 33
0.0
 16
1.0
 26
0.0
 36
0.0
 17
0.0
 27
1.0
 37
0.0
 76
     0
330
1F
331
29
  0
MATERIAL
  5
3D
102
{ACAD_REACTORS
330
3B
102
}
330
3B
100
AcDbMaterial
  1
ByBlock
 72
     1
 94
      127
  0
MATERIAL
  5
3C
102
{ACAD_REACTORS
330
3B
102
}
330
3B
100
AcDbMaterial
  1
ByLayer
 72
     1
 94
      127
  0
MATERIAL
  5
3E
102
{ACAD_REACTORS
330
3B
102
}
330
3B
100
AcDbMaterial
  1
Global
 72
     1
 94
      127
  0
MLINESTYLE
  5
18
102
{ACAD_REACTORS
330
17
102
}
330
17
100
AcDbMlineStyle
  2
Standard
 70
     0
  3

 62
   256
 51
90.0
 52
90.0
 71
     2
 49
0.5
 62
   256
  6
BYLAYER
 49
-0.5
 62
   256
  6
BYLAYER
  0
ACDBPLACEHOLDER
  5
F
102
{ACAD_REACTORS
330
E
102
}
330
E
  0
VISUALSTYLE
  5
2F
102
{ACAD_REACTORS
330
2A
102
}
330
2A
100
AcDbVisualStyle
  2
2dWireframe
 70
     4
177
     2
291
     0
 71
     0
176
     1
 72
     2
176
     1
 73
     0
176
     1
 90
        0
176
     1
 40
-0.6
176
     1
 41
-30.0
176
     1
 62
     5
 63
     7
421
 16777215
176
     1
 74
     1
176
     1
 91
        4
176
     1
 64
     7
176
     1
 65
   257
176
     1
 75
     1
176
     1
175
     1
176
     1
 42
1.0
176
     1
 92
        0
176
     1
 66
   257
176
     1
 43
1.0
176
     1
 76
     1
176
     1
 77
     6
176
     1
 78
     2
176
     1
 67
     7
176
     1
 79
     5
176
     1
170
     0
176
     1
171
     0
176
     1
290
     0
176
     1
 93
        1
176
     1
 44
0.0
176
     1
173
     0
176
     1
  0
VISUALSTYLE
  5
31
102
{ACAD_REACTORS
330
2A
102
}
330
2A
100
AcDbVisualStyle
  2
3D Hidden
 70
     6
177
     2
291
     0
 71
     1
176
     1
 72
     2
176
     1
 73
     2
176
     1
 90
        0
176
     1
 40
-0.6
176
     1
 41
-30.0
176
     1
 62
     5
 63
     7
421
 16777215
176
     1
 74
     2
176
     1
 91
        2
176
     1
 64
     7
176
     1
 65
   257
176
     1
 75
     2
176
     1
175
     1
176
     1
 42
40.0
176
     1
 92
        0
176
     1
 66
   257
176
     1
 43
1.0
176
     1
 76
     1
176
     1
 77
     6
176
     1
 78
     2
176
     1
 67
     7
176
     1
 79
     3
176
     1
170
     0
176
     1
171
     0
176
     1
290
     0
176
     1
 93
        1
176
     1
 44
0.0
176
     1
173
     0
176
     1
  0
VISUALSTYLE
  5
30
102
{ACAD_REACTORS
330
2A
102
}
330
2A
100
AcDbVisualStyle
  2
3dWireframe
 70
     5
177
     2
291
     0
 71
     0
176
     1
 72
     2
176
     1
 73
     0
176
     1
 90
        0
176
     1
 40
-0.6
176
     1
 41
-30.0
176
     1
 62
     5
 63
     7
421
 16777215
176
     1
 74
     1
176
     1
 91
        4
176
     1
 64
     7
176
     1
 65
   257
176
     1
 75
     1
176
     1
175
     1
176
     1
 42
1.0
176
     1
 92
        0
176
     1
 66
   257
176
     1
 43
1.0
176
     1
 76
     1
176
     1
 77
     6
176
     1
 78
     2
176
     1
 67
     7
176
     1
 79
     5
176
     1
170
     0
176
     1
171
     0
176
     1
290
     0
176
     1
 93
        1
176
     1
 44
0.0
176
     1
173
     0
176
     1
  0
VISUALSTYLE
  5
32
102
{ACAD_REACTORS
330
2A
102
}
330
2A
100
AcDbVisualStyle
  2
Basic
 70
     7
177
     2
291
     1
 71
     1
176
     1
 72
     0
176
     1
 73
     1
176
     1
 90
        0
176
     1
 40
-0.6
176
     1
 41
-30.0
176
     1
 62
     5
 63
     7
421
 16777215
176
     1
 74
     0
176
     1
 91
        4
176
     1
 64
     7
176
     1
 65
   257
176
     1
 75
     1
176
     1
175
     1
176
     1
 42
1.0
176
     1
 92
        8
176
     1
 66
     7
176
     1
 43
1.0
176
     1
 76
     1
176
     1
 77
     6
176
     1
 78
     2
176
     1
 67
     7
176
     1
 79
     5
176
     1
170
     0
176
     1
171
     0
176
     1
290
     0
176
     1
 93
        1
176
     1
 44
0.0
176
     1
173
     0
176
     1
  0
VISUALSTYLE
  5
36
102
{ACAD_REACTORS
330
2A
102
}
330
2A
100
AcDbVisualStyle
  2
Brighten
 70
    12
177
     2
291
     1
 71
     2
176
     1
 72
     2
176
     1
 73
     0
176
     1
 90
        0
176
     1
 40
-0.6
176
     1
 41
-30.0
176
     1
 62
     5
 63
     7
421
 16777215
176
     1
 74
     1
176
     1
 91
        4
176
     1
 64
     7
176
     1
 65
   257
176
     1
 75
     1
176
     1
175
     1
176
     1
 42
1.0
176
     1
 92
        8
176
     1
 66
     7
176
     1
 43
1.0
176
     1
 76
     1
176
     1
 77
     6
176
     1
 78
     2
176
     1
 67
     7
176
     1
 79
     5
176
     1
170
     0
176
     1
171
     0
176
     1
290
     0
176
     1
 93
        1
176
     1
 44
50.0
176
     1
173
     0
176
     1
  0
VISUALSTYLE
  5
3A
102
{ACAD_REACTORS
330
2A
102
}
330
2A
100
AcDbVisualStyle
  2
ColorChange
 70
    16
177
     2
291
     1
 71
     2
176
     1
 72
     2
176
     1
 73
     3
176
     1
 90
        0
176
     1
 40
-0.6
176
     1
 41
-30.0
176
     1
 62
     5
 63
     8
421
  8421504
176
     1
 74
     1
176
     1
 91
        4
176
     1
 64
     7
176
     1
 65
   257
176
     1
 75
     1
176
     1
175
     1
176
     1
 42
1.0
176
     1
 92
        8
176
     1
 66
     8
424
  8421504
176
     1
 43
1.0
176
     1
 76
     1
176
     1
 77
     6
176
     1
 78
     2
176
     1
 67
     7
176
     1
 79
     5
176
     1
170
     0
176
     1
171
     0
176
     1
290
     0
176
     1
 93
        1
176
     1
 44
0.0
176
     1
173
     0
176
     1
  0
VISUALSTYLE
  5
34
102
{ACAD_REACTORS
330
2A
102
}
330
2A
100
AcDbVisualStyle
  2
Conceptual
 70
     9
177
     2
291
     0
 71
     3
176
     1
 72
     2
176
     1
 73
     0
176
     1
 90
        0
176
     1
 40
-0.6
176
     1
 41
-30.0
176
     1
 62
     5
 63
     7
421
 16777215
176
     1
 74
     2
176
     1
 91
        2
176
     1
 64
     7
176
     1
 65
   257
176
     1
 75
     1
176
     1
175
     1
176
     1
 42
40.0
176
     1
 92
        8
176
     1
 66
     7
176
     1
 43
1.0
176
     1
 76
     1
176
     1
 77
     6
176
     1
 78
     2
176
     1
 67
     7
176
     1
 79
     3
176
     1
170
     0
176
     1
171
     0
176
     1
290
     0
176
     1
 93
        1
176
     1
 44
0.0
176
     1
173
     0
176
     1
  0
VISUALSTYLE
  5
35
102
{ACAD_REACTORS
330
2A
102
}
330
2A
100
AcDbVisualStyle
  2
Dim
 70
    11
177
     2
291
     1
 71
     2
176
     1
 72
     2
176
     1
 73
     0
176
     1
 90
        0
176
     1
 40
-0.6
176
     1
 41
-30.0
176
     1
 62
     5
 63
     7
421
 16777215
176
     1
 74
     1
176
     1
 91
        4
176
     1
 64
     7
176
     1
 65
   257
176
     1
 75
     1
176
     1
175
     1
176
     1
 42
1.0
176
     1
 92
        8
176
     1
 66
     7
176
     1
 43
1.0
176
     1
 76
     1
176
     1
 77
     6
176
     1
 78
     2
176
     1
 67
     7
176
     1
 79
     5
176
     1
170
     0
176
     1
171
     0
176
     1
290
     0
176
     1
 93
        1
176
     1
 44
-50.0
176
     1
173
     0
176
     1
  0
VISUALSTYLE
  5
39
102
{ACAD_REACTORS
330
2A
102
}
330
2A
100
AcDbVisualStyle
  2
Facepattern
 70
    15
177
     2
291
     1
 71
     2
176
     1
 72
     2
176
     1
 73
     0
176
     1
 90
        0
176
     1
 40
-0.6
176
     1
 41
-30.0
176
     1
 62
     5
 63
     7
421
 16777215
176
     1
 74
     1
176
     1
 91
        4
176
     1
 64
     7
176
     1
 65
   257
176
     1
 75
     1
176
     1
175
     1
176
     1
 42
1.0
176
     1
 92
        8
176
     1
 66
     7
176
     1
 43
1.0
176
     1
 76
     1
176
     1
 77
     6
176
     1
 78
     2
176
     1
 67
     7
176
     1
 79
     5
176
     1
170
     0
176
     1
171
     0
176
     1
290
     0
176
     1
 93
        1
176
     1
 44
0.0
176
     1
173
     0
176
     1
  0
VISUALSTYLE
  5
2B
102
{ACAD_REACTORS
330
2A
102
}
330
2A
100
AcDbVisualStyle
  2
Flat
 70
     0
177
     2
291
     1
 71
     2
176
     1
 72
     1
176
     1
 73
     1
176
     1
 90
        2
176
     1
 40
-0.6
176
     1
 41
30.0
176
     1
 62
     5
 63
     7
421
 16777215
176
     1
 74
     0
176
     1
 91
        4
176
     1
 64
     7
176
     1
 65
   257
176
     1
 75
     1
176
     1
175
     1
176
     1
 42
1.0
176
     1
 92
        8
176
     1
 66
     7
176
     1
 43
1.0
176
     1
 76
     1
176
     1
 77
     6
176
     1
 78
     2
176
     1
 67
     7
176
     1
 79
     5
176
     1
170
     0
176
     1
171
     0
176
     1
290
     0
176
     1
 93
       13
176
     1
 44
0.0
176
     1
173
     0
176
     1
  0
VISUALSTYLE
  5
2C
102
{ACAD_REACTORS
330
2A
102
}
330
2A
100
AcDbVisualStyle
  2
FlatWithEdges
 70
     1
177
     2
291
     1
 71
     2
176
     1
 72
     1
176
     1
 73
     1
176
     1
 90
        2
176
     1
 40
-0.6
176
     1
 41
30.0
176
     1
 62
     5
 63
     7
421
 16777215
176
     1
 74
     1
176
     1
 91
        4
176
     1
 64
     7
176
     1
 65
   257
176
     1
 75
     1
176
     1
175
     1
176
     1
 42
1.0
176
     1
 92
        0
176
     1
 66
   257
176
     1
 43
1.0
176
     1
 76
     1
176
     1
 77
     6
176
     1
 78
     2
176
     1
 67
     7
176
     1
 79
     5
176
     1
170
     0
176
     1
171
     0
176
     1
290
     0
176
     1
 93
       13
176
     1
 44
0.0
176
     1
173
     0
176
     1
  0
VISUALSTYLE
  5
2D
102
{ACAD_REACTORS
330
2A
102
}
330
2A
100
AcDbVisualStyle
  2
Gouraud
 70
     2
177
     2
291
     1
 71
     2
176
     1
 72
     2
176
     1
 73
     1
176
     1
 90
        2
176
     1
 40
-0.6
176
     1
 41
30.0
176
     1
 62
     5
 63
     7
421
 16777215
176
     1
 74
     0
176
     1
 91
        4
176
     1
 64
     7
176
     1
 65
   257
176
     1
 75
     1
176
     1
175
     1
176
     1
 42
1.0
176
     1
 92
        0
176
     1
 66
     7
176
     1
 43
1.0
176
     1
 76
     1
176
     1
 77
     6
176
     1
 78
     2
176
     1
 67
     7
176
     1
 79
     5
176
     1
170
     0
176
     1
171
     0
176
     1
290
     0
176
     1
 93
       13
176
     1
 44
0.0
176
     1
173
     0
176
     1
  0
VISUALSTYLE
  5
2E
102
{ACAD_REACTORS
330
2A
102
}
330
2A
100
AcDbVisualStyle
  2
GouraudWithEdges
 70
     3
177
     2
291
     1
 71
     2
176
     1
 72
     2
176
     1
 73
     1
176
     1
 90
        2
176
     1
 40
-0.6
176
     1
 41
30.0
176
     1
 62
     5
 63
     7
421
 16777215
176
     1
 74
     1
176
     1
 91
        4
176
     1
 64
     7
176
     1
 65
   257
176
     1
 75
     1
176
     1
175
     1
176
     1
 42
1.0
176
     1
 92
        0
176
     1
 66
   257
176
     1
 43
1.0
176
     1
 76
     1
176
     1
 77
     6
176
     1
 78
     2
176
     1
 67
     7
176
     1
 79
     5
176
     1
170
     0
176
     1
171
     0
176
     1
290
     0
176
     1
 93
       13
176
     1
 44
0.0
176
     1
173
     0
176
     1
  0
VISUALSTYLE
  5
38
102
{ACAD_REACTORS
330
2A
102
}
330
2A
100
AcDbVisualStyle
  2
Linepattern
 70
    14
177
     2
291
     1
 71
     2
176
     1
 72
     2
176
     1
 73
     0
176
     1
 90
        0
176
     1
 40
-0.6
176
     1
 41
-30.0
176
     1
 62
     5
 63
     7
421
 16777215
176
     1
 74
     1
176
     1
 91
        4
176
     1
 64
     7
176
     1
 65
   257
176
     1
 75
     7
176
     1
175
     7
176
     1
 42
1.0
176
     1
 92
        8
176
     1
 66
     7
176
     1
 43
1.0
176
     1
 76
     1
176
     1
 77
     6
176
     1
 78
     2
176
     1
 67
     7
176
     1
 79
     5
176
     1
170
     0
176
     1
171
     0
176
     1
290
     0
176
     1
 93
        1
176
     1
 44
0.0
176
     1
173
     0
176
     1
  0
VISUALSTYLE
  5
33
102
{ACAD_REACTORS
330
2A
102
}
330
2A
100
AcDbVisualStyle
  2
Realistic
 70
     8
177
     2
291
     0
 71
     2
176
     1
 72
     2
176
     1
 73
     0
176
     1
 90
        0
176
     1
 40
-0.6
176
     1
 41
-30.0
176
     1
 62
     5
 63
     7
421
 16777215
176
     1
 74
     1
176
     1
 91
        0
176
     1
 64
     7
176
     1
 65
   257
176
     1
 75
     1
176
     1
175
     1
176
     1
 42
1.0
176
     1
 92
        8
176
     1
 66
     8
424
  7895160
176
     1
 43
1.0
176
     1
 76
     1
176
     1
 77
     6
176
     1
 78
     2
176
     1
 67
     7
176
     1
 79
     5
176
     1
170
     0
176
     1
171
     0
176
     1
290
     0
176
     1
 93
       13
176
     1
 44
0.0
176
     1
173
     0
176
     1
  0
VISUALSTYLE
  5
37
102
{ACAD_REACTORS
330
2A
102
}
330
2A
100
AcDbVisualStyle
  2
Thicken
 70
    13
177
     2
291
     1
 71
     2
176
     1
 72
     2
176
     1
 73
     0
176
     1
 90
        0
176
     1
 40
-0.6
176
     1
 41
-30.0
176
     1
 62
     5
 63
     7
421
 16777215
176
     1
 74
     1
176
     1
 91
        4
176
     1
 64
     7
176
     1
 65
   257
176
     1
 75
     1
176
     1
175
     1
176
     1
 42
1.0
176
     1
 92
       12
176
     1
 66
     7
176
     1
 43
1.0
176
     1
 76
     1
176
     1
 77
     6
176
     1
 78
     2
176
     1
 67
     7
176
     1
 79
     5
176
     1
170
     0
176
     1
171
     0
176
     1
290
     0
176
     1
 93
        1
176
     1
 44
0.0
176
     1
173
     0
176
     1
  0
ENDSEC
  0
EOF
