  0
SECTION
  2
HEADER
  9
$ACADVER
  1
AC1024
  9
$ACADMAINTVER
 70
     6
  9
$DWGCODEPAGE
  3
UNDEFINED
  9
$INSBASE
 10
0.0
 20
0.0
 30
0.0
  9
$EXTMIN
 10
1.000000000000000E+20
 20
1.000000000000000E+20
 30
1.000000000000000E+20
  9
$EXTMAX
 10
-1.000000000000000E+20
 20
-1.000000000000000E+20
 30
-1.000000000000000E+20
  9
$LIMMIN
 10
0.0
 20
0.0
  9
$LIMMAX
 10
12.0
 20
9.0
  9
$ORTHOMODE
 70
     0
  9
$REGENMODE
 70
     1
  9
$FILLMODE
 70
     1
  9
$QTEXTMODE
 70
     0
  9
$MIRRTEXT
 70
     1
  9
$LTSCALE
 40
1.0
  9
$ATTMODE
 70
     1
  9
$TEXTSIZE
 40
0.2
  9
$TRACEWID
 40
0.05
  9
$TEXTSTYLE
  7
Standard
  9
$CLAYER
  8
0
  9
$CELTYPE
  6
ByLayer
  9
$CECOLOR
 62
   256
  9
$CELTSCALE
 40
1.0
  9
$DISPSILH
 70
     0
  9
$DIMSCALE
 40
1.0
  9
$DIMASZ
 40
0.18
  9
$DIMEXO
 40
0.0625
  9
$DIMDLI
 40
0.38
  9
$DIMRND
 40
0.0
  9
$DIMDLE
 40
0.0
  9
$DIMEXE
 40
0.18
  9
$DIMTP
 40
0.0
  9
$DIMTM
 40
0.0
  9
$DIMTXT
 40
0.18
  9
$DIMCEN
 40
0.09
  9
$DIMTSZ
 40
0.0
  9
$DIMTOL
 70
     0
  9
$DIMLIM
 70
     0
  9
$DIMTIH
 70
     1
  9
$DIMTOH
 70
     1
  9
$DIMSE1
 70
     0
  9
$DIMSE2
 70
     0
  9
$DIMTAD
 70
     0
  9
$DIMZIN
 70
     0
  9
$DIMBLK
  1

  9
$DIMASO
 70
     1
  9
$DIMSHO
 70
     1
  9
$DIMPOST
  1

  9
$DIMAPOST
  1

  9
$DIMALT
 70
     0
  9
$DIMALTD
 70
     2
  9
$DIMALTF
 40
25.4
  9
$DIMLFAC
 40
1.0
  9
$DIMTOFL
 70
     0
  9
$DIMTVP
 40
0.0
  9
$DIMTIX
 70
     0
  9
$DIMSOXD
 70
     0
  9
$DIMSAH
 70
     0
  9
$DIMBLK1
  1

  9
$DIMBLK2
  1

  9
$DIMSTYLE
  2
Standard
  9
$DIMCLRD
 70
     0
  9
$DIMCLRE
 70
     0
  9
$DIMCLRT
 70
     0
  9
$DIMTFAC
 40
1.0
  9
$DIMGAP
 40
0.09
  9
$DIMJUST
 70
     0
  9
$DIMSD1
 70
     0
  9
$DIMSD2
 70
     0
  9
$DIMTOLJ
 70
     1
  9
$DIMTZIN
 70
     0
  9
$DIMALTZ
 70
     0
  9
$DIMALTTZ
 70
     0
  9
$DIMUPT
 70
     0
  9
$DIMDEC
 70
     4
  9
$DIMTDEC
 70
     4
  9
$DIMALTU
 70
     2
  9
$DIMALTTD
 70
     2
  9
$DIMTXSTY
  7
Standard
  9
$DIMAUNIT
 70
     0
  9
$DIMADEC
 70
     0
  9
$DIMALTRND
 40
0.0
  9
$DIMAZIN
 70
     0
  9
$DIMDSEP
 70
    46
  9
$DIMATFIT
 70
     3
  9
$DIMFRAC
 70
     0
  9
$DIMLDRBLK
  1

  9
$DIMLUNIT
 70
     2
  9
$DIMLWD
 70
    -2
  9
$DIMLWE
 70
    -2
  9
$DIMTMOVE
 70
     0
  9
$DIMFXL
 40
1.0
  9
$DIMFXLON
 70
     0
  9
$DIMJOGANG
 40
0.7853981633974483
  9
$DIMTFILL
 70
     0
  9
$DIMTFILLCLR
 70
     0
  9
$DIMARCSYM
 70
     0
  9
$DIMLTYPE
  6

  9
$DIMLTEX1
  6

  9
$DIMLTEX2
  6

  9
$DIMTXTDIRECTION
 70
     0
  9
$LUNITS
 70
     2
  9
$LUPREC
 70
     4
  9
$SKETCHINC
 40
0.1
  9
$FILLETRAD
 40
0.5
  9
$AUNITS
 70
     0
  9
$AUPREC
 70
     0
  9
$MENU
  1
.
  9
$ELEVATION
 40
0.0
  9
$PELEVATION
 40
0.0
  9
$THICKNESS
 40
0.0
  9
$LIMCHECK
 70
     0
  9
$CHAMFERA
 40
0.5
  9
$CHAMFERB
 40
0.5
  9
$CHAMFERC
 40
1.0
  9
$CHAMFERD
 40
0.0
  9
$SKPOLY
 70
     0
  9
$TDCREATE
 40
2457917.614479155
  9
$TDUCREATE
 40
2457917.239479166
  9
$TDUPDATE
 40
2457917.614479155
  9
$TDUUPDATE
 40
2457917.239479166
  9
$TDINDWG
 40
0.0000000116
  9
$TDUSRTIMER
 40
0.0000000116
  9
$USRTIMER
 70
     1
  9
$ANGBASE
 50
0.0
  9
$ANGDIR
 70
     0
  9
$PDMODE
 70
     0
  9
$PDSIZE
 40
0.0
  9
$PLINEWID
 40
0.0
  9
$SPLFRAME
 70
     0
  9
$SPLINETYPE
 70
     6
  9
$SPLINESEGS
 70
     8
  9
$HANDSEED
  5
108
  9
$SURFTAB1
 70
     6
  9
$SURFTAB2
 70
     6
  9
$SURFTYPE
 70
     6
  9
$SURFU
 70
     6
  9
$SURFV
 70
     6
  9
$UCSBASE
  2

  9
$UCSNAME
  2

  9
$UCSORG
 10
0.0
 20
0.0
 30
0.0
  9
$UCSXDIR
 10
1.0
 20
0.0
 30
0.0
  9
$UCSYDIR
 10
0.0
 20
1.0
 30
0.0
  9
$UCSORTHOREF
  2

  9
$UCSORTHOVIEW
 70
     0
  9
$UCSORGTOP
 10
0.0
 20
0.0
 30
0.0
  9
$UCSORGBOTTOM
 10
0.0
 20
0.0
 30
0.0
  9
$UCSORGLEFT
 10
0.0
 20
0.0
 30
0.0
  9
$UCSORGRIGHT
 10
0.0
 20
0.0
 30
0.0
  9
$UCSORGFRONT
 10
0.0
 20
0.0
 30
0.0
  9
$UCSORGBACK
 10
0.0
 20
0.0
 30
0.0
  9
$PUCSBASE
  2

  9
$PUCSNAME
  2

  9
$PUCSORG
 10
0.0
 20
0.0
 30
0.0
  9
$PUCSXDIR
 10
1.0
 20
0.0
 30
0.0
  9
$PUCSYDIR
 10
0.0
 20
1.0
 30
0.0
  9
$PUCSORTHOREF
  2

  9
$PUCSORTHOVIEW
 70
     0
  9
$PUCSORGTOP
 10
0.0
 20
0.0
 30
0.0
  9
$PUCSORGBOTTOM
 10
0.0
 20
0.0
 30
0.0
  9
$PUCSORGLEFT
 10
0.0
 20
0.0
 30
0.0
  9
$PUCSORGRIGHT
 10
0.0
 20
0.0
 30
0.0
  9
$PUCSORGFRONT
 10
0.0
 20
0.0
 30
0.0
  9
$PUCSORGBACK
 10
0.0
 20
0.0
 30
0.0
  9
$USERI1
 70
     0
  9
$USERI2
 70
     0
  9
$USERI3
 70
     0
  9
$USERI4
 70
     0
  9
$USERI5
 70
     0
  9
$USERR1
 40
0.0
  9
$USERR2
 40
0.0
  9
$USERR3
 40
0.0
  9
$USERR4
 40
0.0
  9
$USERR5
 40
0.0
  9
$WORLDVIEW
 70
     1
  9
$SHADEDGE
 70
     3
  9
$SHADEDIF
 70
    70
  9
$TILEMODE
 70
     1
  9
$MAXACTVP
 70
    64
  9
$PINSBASE
 10
0.0
 20
0.0
 30
0.0
  9
$PLIMCHECK
 70
     0
  9
$PEXTMIN
 10
1.000000000000000E+20
 20
1.000000000000000E+20
 30
1.000000000000000E+20
  9
$PEXTMAX
 10
-1.000000000000000E+20
 20
-1.000000000000000E+20
 30
-1.000000000000000E+20
  9
$PLIMMIN
 10
0.0
 20
0.0
  9
$PLIMMAX
 10
12.0
 20
9.0
  9
$UNITMODE
 70
     0
  9
$VISRETAIN
 70
     1
  9
$PLINEGEN
 70
     0
  9
$PSLTSCALE
 70
     1
  9
$TREEDEPTH
 70
  3020
  9
$CMLSTYLE
  2
Standard
  9
$CMLJUST
 70
     0
  9
$CMLSCALE
 40
1.0
  9
$PROXYGRAPHICS
 70
     1
  9
$MEASUREMENT
 70
     0
  9
$CELWEIGHT
370
    -1
  9
$ENDCAPS
280
     0
  9
$JOINSTYLE
280
     0
  9
$LWDISPLAY
290
     1
  9
$INSUNITS
 70
     1
  9
$HYPERLINKBASE
  1

  9
$STYLESHEET
  1

  9
$XEDIT
290
     1
  9
$CEPSNTYPE
380
     0
  9
$PSTYLEMODE
290
     1
  9
$FINGERPRINTGUID
  2
{EEC19C03-9A7C-5B00-248B-1C5CCC35502C}
  9
$VERSIONGUID
  2
{FAEB1C32-E019-11D5-929B-00C0DF256EC4}
  9
$EXTNAMES
290
     1
  9
$PSVPSCALE
 40
0.0
  9
$OLESTARTUP
290
     0
  9
$SORTENTS
280
   127
  9
$INDEXCTL
280
     0
  9
$HIDETEXT
280
     1
  9
$XCLIPFRAME
280
     2
  9
$HALOGAP
280
     0
  9
$OBSCOLOR
 70
   257
  9
$OBSLTYPE
280
     0
  9
$INTERSECTIONDISPLAY
280
     0
  9
$INTERSECTIONCOLOR
 70
   257
  9
$DIMASSOC
280
     2
  9
$PROJECTNAME
  1

  9
$CAMERADISPLAY
290
     0
  9
$LENSLENGTH
 40
50.0
  9
$CAMERAHEIGHT
 40
0.0
  9
$STEPSPERSEC
 40
2.0
  9
$STEPSIZE
 40
6.0
  9
$3DDWFPREC
 40
2.0
  9
$PSOLWIDTH
 40
0.25
  9
$PSOLHEIGHT
 40
4.0
  9
$LOFTANG1
 40
1.570796326794897
  9
$LOFTANG2
 40
1.570796326794897
  9
$LOFTMAG1
 40
0.0
  9
$LOFTMAG2
 40
0.0
  9
$LOFTPARAM
 70
     7
  9
$LOFTNORMALS
280
     1
  9
$LATITUDE
 40
37.795
  9
$LONGITUDE
 40
-122.394
  9
$NORTHDIRECTION
 40
0.0
  9
$TIMEZONE
 70
 -8000
  9
$LIGHTGLYPHDISPLAY
280
     1
  9
$TILEMODELIGHTSYNCH
280
     1
  9
$CMATERIAL
347
3C
  9
$SOLIDHIST
280
     1
  9
$SHOWHIST
280
     1
  9
$DWFFRAME
280
     2
  9
$DGNFRAME
280
     2
  9
$REALWORLDSCALE
290
     1
  9
$INTERFERECOLOR
 62
   256
  9
$CSHADOW
280
     0
  9
$SHADOWPLANELOCATION
 40
0.0
  0
ENDSEC
  0
SECTION
  2
CLASSES
  0
CLASS
  1
ACDBDICTIONARYWDFLT
  2
AcDbDictionaryWithDefault
  3
ObjectDBX Classes
 90
        0
 91
        4
280
     0
281
     0
  0
CLASS
  1
VISUALSTYLE
  2
AcDbVisualStyle
  3
ObjectDBX Classes
 90
     4095
 91
        4
280
     0
281
     0
  0
CLASS
  1
MATERIAL
  2
AcDbMaterial
  3
ObjectDBX Classes
 90
     1153
 91
        4
280
     0
281
     0
  0
CLASS
  1
SUN
  2
AcDbSun
  3
SCENEOE
 90
     1024
 91
        4
280
     0
281
     0
  0
ENDSEC
  0
SECTION
  2
TABLES
  0
TABLE
  2
VPORT
  5
8
330
0
100
AcDbSymbolTable
 70
     1
  0
VPORT
  5
29
330
8
100
AcDbSymbolTableRecord
100
AcDbViewportTableRecord
  2
*Active
 70
     0
 10
0.0
 20
0.0
 11
1.0
 21
1.0
 12
0.0
 22
0.0
 13
0.0
 23
0.0
 14
0.5
 24
0.5
 15
0.5
 25
0.5
 16
0.0
 26
0.0
 36
1.0
 17
91.00082462281999
 27
-128.4993055234307
 37
0.0
 40
256.9986110468615
 41
0.7081814508812795
 42
50.0
 43
0.0
 44
0.0
 50
0.0
 51
0.0
 71
     0
 72
   100
 73
     1
 74
     3
 75
     0
 76
     0
 77
     0
 78
     0
281
     0
 65
     1
110
0.0
120
0.0
130
0.0
111
1.0
121
0.0
131
0.0
112
0.0
122
1.0
132
0.0
 79
     0
146
0.0
 60
     3
 61
     5
292
     1
282
     1
141
0.0
142
0.0
 63
   250
361
3F
  0
ENDTAB
  0
TABLE
  2
LTYPE
  5
5
330
0
100
AcDbSymbolTable
 70
     1
  0
LTYPE
  5
14
330
5
100
AcDbSymbolTableRecord
100
AcDbLinetypeTableRecord
  2
ByBlock
 70
     0
  3

 72
    65
 73
     0
 40
0.0
  0
LTYPE
  5
15
330
5
100
AcDbSymbolTableRecord
100
AcDbLinetypeTableRecord
  2
ByLayer
 70
     0
  3

 72
    65
 73
     0
 40
0.0
  0
LTYPE
  5
16
330
5
100
AcDbSymbolTableRecord
100
AcDbLinetypeTableRecord
  2
Continuous
 70
     0
  3
Solid line
 72
    65
 73
     0
 40
0.0
  0
ENDTAB
  0
TABLE
  2
LAYER
  5
2
330
0
100
AcDbSymbolTable
 70
     2
  0
LAYER
  5
10
330
2
100
AcDbSymbolTableRecord
100
AcDbLayerTableRecord
  2
0
 70
     0
 62
     7
  6
Continuous
370
    -3
390
F
347
3E
  0
LAYER
  5
40
330
2
100
AcDbSymbolTableRecord
100
AcDbLayerTableRecord
  2
_U+30EC_U+30A4_U+30E4_U+30FC 1
 70
     0
 62
     7
  6
Continuous
370
    -3
390
F
347
3E
  0
ENDTAB
  0
TABLE
  2
STYLE
  5
3
330
0
100
AcDbSymbolTable
 70
     1
  0
STYLE
  5
11
330
3
100
AcDbSymbolTableRecord
100
AcDbTextStyleTableRecord
  2
Standard
 70
     0
 40
0.0
 41
1.0
 50
0.0
 71
     0
 42
0.2
  3
txt
  4

  0
ENDTAB
  0
TABLE
  2
VIEW
  5
6
330
0
100
AcDbSymbolTable
 70
     0
  0
ENDTAB
  0
TABLE
  2
UCS
  5
7
330
0
100
AcDbSymbolTable
 70
     0
  0
ENDTAB
  0
TABLE
  2
APPID
  5
9
330
0
100
AcDbSymbolTable
 70
     1
  0
APPID
  5
12
330
9
100
AcDbSymbolTableRecord
100
AcDbRegAppTableRecord
  2
ACAD
 70
     0
  0
ENDTAB
  0
TABLE
  2
DIMSTYLE
  5
A
330
0
100
AcDbSymbolTable
 70
     1
100
AcDbDimStyleTable
  0
DIMSTYLE
105
27
330
A
100
AcDbSymbolTableRecord
100
AcDbDimStyleTableRecord
  2
Standard
 70
     0
178
     0
340
11
  0
ENDTAB
  0
TABLE
  2
BLOCK_RECORD
  5
1
330
0
100
AcDbSymbolTable
 70
     8
  0
BLOCK_RECORD
  5
1F
330
1
100
AcDbSymbolTableRecord
100
AcDbBlockTableRecord
  2
*Model_Space
340
22
 70
     0
280
     1
281
     0
  0
BLOCK_RECORD
  5
1B
330
1
100
AcDbSymbolTableRecord
100
AcDbBlockTableRecord
  2
*Paper_Space
340
1E
 70
     0
280
     1
281
     0
  0
BLOCK_RECORD
  5
23
330
1
100
AcDbSymbolTableRecord
100
AcDbBlockTableRecord
  2
*Paper_Space0
340
26
 70
     0
280
     1
281
     0
  0
BLOCK_RECORD
  5
71
330
1
100
AcDbSymbolTableRecord
100
AcDbBlockTableRecord
  2
block 2
340
0
102
{BLKREFS
331
72
102
}
 70
     0
280
     1
281
     0
  0
BLOCK_RECORD
  5
94
330
1
100
AcDbSymbolTableRecord
100
AcDbBlockTableRecord
  2
block 3
340
0
102
{BLKREFS
331
95
102
}
 70
     0
280
     1
281
     0
  0
BLOCK_RECORD
  5
AD
330
1
100
AcDbSymbolTableRecord
100
AcDbBlockTableRecord
  2
block 4
340
0
102
{BLKREFS
331
AE
102
}
 70
     0
280
     1
281
     0
  0
BLOCK_RECORD
  5
C9
330
1
100
AcDbSymbolTableRecord
100
AcDbBlockTableRecord
  2
block 5
340
0
102
{BLKREFS
331
CA
102
}
 70
     0
280
     1
281
     0
  0
BLOCK_RECORD
  5
DD
330
1
100
AcDbSymbolTableRecord
100
AcDbBlockTableRecord
  2
block 6
340
0
102
{BLKREFS
331
DE
102
}
 70
     0
280
     1
281
     0
  0
BLOCK_RECORD
  5
F3
330
1
100
AcDbSymbolTableRecord
100
AcDbBlockTableRecord
  2
block 7
340
0
102
{BLKREFS
331
F4
102
}
 70
     0
280
     1
281
     0
  0
BLOCK_RECORD
  5
FD
330
1
100
AcDbSymbolTableRecord
100
AcDbBlockTableRecord
  2
block 8
340
0
102
{BLKREFS
331
FE
102
}
 70
     0
280
     1
281
     0
  0
ENDTAB
  0
ENDSEC
  0
SECTION
  2
BLOCKS
  0
BLOCK
  5
20
330
1F
100
AcDbEntity
  8
0
100
AcDbBlockBegin
  2
*Model_Space
 70
     0
 10
0.0
 20
0.0
 30
0.0
  3
*Model_Space
  1

  0
ENDBLK
  5
21
330
1F
100
AcDbEntity
  8
0
100
AcDbBlockEnd
  0
BLOCK
  5
1C
330
1B
100
AcDbEntity
 67
     1
  8
0
100
AcDbBlockBegin
  2
*Paper_Space
 70
     0
 10
0.0
 20
0.0
 30
0.0
  3
*Paper_Space
  1

  0
ENDBLK
  5
1D
330
1B
100
AcDbEntity
 67
     1
  8
0
100
AcDbBlockEnd
  0
BLOCK
  5
24
330
23
100
AcDbEntity
  8
0
100
AcDbBlockBegin
  2
*Paper_Space0
 70
     0
 10
0.0
 20
0.0
 30
0.0
  3
*Paper_Space0
  1

  0
ENDBLK
  5
25
330
23
100
AcDbEntity
  8
0
100
AcDbBlockEnd
  0
BLOCK
  5
73
330
71
100
AcDbEntity
  8
0
100
AcDbBlockBegin
  2
block 2
 70
     0
 10
0.0
 20
0.0
 30
0.0
  3
block 2
  1

  0
POLYLINE
  5
75
330
71
100
AcDbEntity
  8
_U+30EC_U+30A4_U+30E4_U+30FC 1
 62
     7
420
 16777215
370
    25
100
AcDb2dPolyline
 66
     1
 10
0.0
 20
0.0
 30
0.0
  0
VERTEX
  5
76
330
75
100
AcDbEntity
  8
_U+30EC_U+30A4_U+30E4_U+30FC 1
 62
     7
420
 16777215
370
    25
100
AcDbVertex
100
AcDb2dVertex
 10
94.08350259972988
 20
-133.8719346887541
 30
0.0
  0
VERTEX
  5
77
330
75
100
AcDbEntity
  8
_U+30EC_U+30A4_U+30E4_U+30FC 1
 62
     7
420
 16777215
370
    25
100
AcDbVertex
100
AcDb2dVertex
 10
95.08394507420647
 20
-133.8719346887541
 30
0.0
  0
SEQEND
  5
78
330
75
100
AcDbEntity
  8
_U+30EC_U+30A4_U+30E4_U+30FC 1
 62
     7
420
 16777215
370
    25
  0
POLYLINE
  5
79
330
71
100
AcDbEntity
  8
_U+30EC_U+30A4_U+30E4_U+30FC 1
 62
     7
420
 16777215
370
    25
100
AcDb2dPolyline
 66
     1
 10
0.0
 20
0.0
 30
0.0
  0
VERTEX
  5
7A
330
79
100
AcDbEntity
  8
_U+30EC_U+30A4_U+30E4_U+30FC 1
 62
     7
420
 16777215
370
    25
100
AcDbVertex
100
AcDb2dVertex
 10
95.08394507420647
 20
-136.8719216324484
 30
0.0
  0
VERTEX
  5
7B
330
79
100
AcDbEntity
  8
_U+30EC_U+30A4_U+30E4_U+30FC 1
 62
     7
420
 16777215
370
    25
100
AcDbVertex
100
AcDb2dVertex
 10
95.08394507420647
 20
-133.8719346887541
 30
0.0
  0
SEQEND
  5
7C
330
79
100
AcDbEntity
  8
_U+30EC_U+30A4_U+30E4_U+30FC 1
 62
     7
420
 16777215
370
    25
  0
POLYLINE
  5
7D
330
71
100
AcDbEntity
  8
_U+30EC_U+30A4_U+30E4_U+30FC 1
 62
     7
420
 16777215
370
    25
100
AcDb2dPolyline
 66
     1
 10
0.0
 20
0.0
 30
0.0
  0
VERTEX
  5
7E
330
7D
100
AcDbEntity
  8
_U+30EC_U+30A4_U+30E4_U+30FC 1
 62
     7
420
 16777215
370
    25
100
AcDbVertex
100
AcDb2dVertex
 10
93.98359593561204
 20
-135.7722427438349
 30
0.0
  0
VERTEX
  5
7F
330
7D
100
AcDbEntity
  8
_U+30EC_U+30A4_U+30E4_U+30FC 1
 62
     7
420
 16777215
370
    25
100
AcDbVertex
100
AcDb2dVertex
 10
93.98359593561204
 20
-133.8719346887541
 30
0.0
  0
SEQEND
  5
80
330
7D
100
AcDbEntity
  8
_U+30EC_U+30A4_U+30E4_U+30FC 1
 62
     7
420
 16777215
370
    25
  0
ENDBLK
  5
74
330
71
100
AcDbEntity
  8
0
100
AcDbBlockEnd
  0
BLOCK
  5
96
330
94
100
AcDbEntity
  8
0
100
AcDbBlockBegin
  2
block 3
 70
     0
 10
0.0
 20
0.0
 30
0.0
  3
block 3
  1

  0
SPLINE
  5
98
330
94
100
AcDbEntity
  8
_U+30EC_U+30A4_U+30E4_U+30FC 1
370
     0
100
AcDbSpline
210
0.0
220
0.0
230
1.0
 70
    11
 71
     3
 72
    26
 73
    22
 74
     0
 42
0.0000000001
 43
0.0000000001
 12
1.0
 22
0.0
 32
0.0
 13
1.0
 23
0.0
 33
0.0
 40
0.0
 40
0.0
 40
0.0
 40
0.0
 40
1.0
 40
1.0
 40
1.0
 40
2.0
 40
2.0
 40
2.0
 40
3.0
 40
3.0
 40
3.0
 40
4.0
 40
4.0
 40
4.0
 40
5.0
 40
5.0
 40
5.0
 40
6.0
 40
6.0
 40
6.0
 40
7.0
 40
7.0
 40
7.0
 40
7.0
 10
89.55818547023199
 20
-140.451375290408
 30
0.0
 10
89.55818547023199
 20
-140.451375290408
 30
0.0
 10
89.55818547023199
 20
-139.3472221873854
 30
0.0
 10
89.55818547023199
 20
-139.3472221873854
 30
0.0
 10
89.55818547023199
 20
-139.3472221873854
 30
0.0
 10
89.22814532274505
 20
-139.3472221873854
 30
0.0
 10
89.22814532274505
 20
-139.3472221873854
 30
0.0
 10
89.22814532274505
 20
-139.3472221873854
 30
0.0
 10
89.22814532274505
 20
-139.1990830815197
 30
0.0
 10
89.22814532274505
 20
-139.1990830815197
 30
0.0
 10
89.56025252752313
 20
-139.1842691709331
 30
0.0
 10
89.60676131657401
 20
-139.0213161544808
 30
0.0
 10
89.63638913774716
 20
-138.9069389843705
 30
0.0
 10
89.63638913774716
 20
-138.9069389843705
 30
0.0
 10
89.78246118632175
 20
-138.9069389843705
 30
0.0
 10
89.78246118632175
 20
-138.9069389843705
 30
0.0
 10
89.78246118632175
 20
-138.9069389843705
 30
0.0
 10
89.78246118632175
 20
-140.451375290408
 30
0.0
 10
89.78246118632175
 20
-140.451375290408
 30
0.0
 10
89.78246118632175
 20
-140.451375290408
 30
0.0
 10
89.55818547023199
 20
-140.451375290408
 30
0.0
 10
89.55818547023199
 20
-140.451375290408
 30
0.0
  0
HATCH
  5
99
330
94
100
AcDbEntity
  8
_U+30EC_U+30A4_U+30E4_U+30FC 1
 62
     7
420
 16777215
100
AcDbHatch
 10
0.0
 20
0.0
 30
0.0
210
0.0
220
0.0
230
1.0
  2
SOLID
 70
     1
 71
     0
 91
        1
 92
        1
 93
        1
 72
     4
 94
        3
 73
     0
 74
     1
 95
       26
 96
       22
 40
0.0
 40
0.0
 40
0.0
 40
0.0
 40
1.0
 40
1.0
 40
1.0
 40
2.0
 40
2.0
 40
2.0
 40
3.0
 40
3.0
 40
3.0
 40
4.0
 40
4.0
 40
4.0
 40
5.0
 40
5.0
 40
5.0
 40
6.0
 40
6.0
 40
6.0
 40
7.0
 40
7.0
 40
7.0
 40
7.0
 10
89.55818547023199
 20
-140.451375290408
 10
89.55818547023199
 20
-140.451375290408
 10
89.55818547023199
 20
-139.3472221873854
 10
89.55818547023199
 20
-139.3472221873854
 10
89.55818547023199
 20
-139.3472221873854
 10
89.22814532274505
 20
-139.3472221873854
 10
89.22814532274505
 20
-139.3472221873854
 10
89.22814532274505
 20
-139.3472221873854
 10
89.22814532274505
 20
-139.1990830815197
 10
89.22814532274505
 20
-139.1990830815197
 10
89.56025252752313
 20
-139.1842691709331
 10
89.60676131657401
 20
-139.0213161544808
 10
89.63638913774716
 20
-138.9069389843705
 10
89.63638913774716
 20
-138.9069389843705
 10
89.78246118632175
 20
-138.9069389843705
 10
89.78246118632175
 20
-138.9069389843705
 10
89.78246118632175
 20
-138.9069389843705
 10
89.78246118632175
 20
-140.451375290408
 10
89.78246118632175
 20
-140.451375290408
 10
89.78246118632175
 20
-140.451375290408
 10
89.55818547023199
 20
-140.451375290408
 10
89.55818547023199
 20
-140.451375290408
 97
        0
 97
        0
 75
     2
 76
     1
 98
        0
  0
SPLINE
  5
9A
330
94
100
AcDbEntity
  8
_U+30EC_U+30A4_U+30E4_U+30FC 1
370
     0
100
AcDbSpline
210
0.0
220
0.0
230
1.0
 70
    11
 71
     3
 72
    29
 73
    25
 74
     0
 42
0.0000000001
 43
0.0000000001
 12
1.0
 22
0.0
 32
0.0
 13
1.0
 23
0.0
 33
0.0
 40
0.0
 40
0.0
 40
0.0
 40
0.0
 40
1.0
 40
1.0
 40
1.0
 40
2.0
 40
2.0
 40
2.0
 40
3.0
 40
3.0
 40
3.0
 40
4.0
 40
4.0
 40
4.0
 40
5.0
 40
5.0
 40
5.0
 40
6.0
 40
6.0
 40
6.0
 40
7.0
 40
7.0
 40
7.0
 40
8.0
 40
8.0
 40
8.0
 40
8.0
 10
91.18151446288171
 20
-140.2736083633691
 30
0.0
 10
91.07333846464486
 20
-140.4830701688723
 30
0.0
 10
90.9000501617368
 20
-140.5020181940412
 30
0.0
 10
90.78360593433536
 20
-140.5020181940412
 30
0.0
 10
90.62271997517419
 20
-140.5020181940412
 30
0.0
 10
90.48112655073042
 20
-140.4555094049903
 30
0.0
 10
90.38604191533751
 20
-140.2736083633691
 30
0.0
 10
90.2823445412315
 20
-140.0789604684525
 30
0.0
 10
90.2630520065141
 20
-139.8422824086158
 30
0.0
 10
90.2630520065141
 20
-139.6793293921635
 30
0.0
 10
90.2630520065141
 20
-139.5353244008801
 30
0.0
 10
90.28027748394035
 20
-139.2834879209083
 30
0.0
 10
90.38604191533751
 20
-139.0847059114094
 30
0.0
 10
90.49387340402585
 20
-138.8817897873282
 30
0.0
 10
90.65475936318701
 20
-138.8583631380285
 30
0.0
 10
90.78360593433536
 20
-138.8583631380285
 30
0.0
 10
90.94242483620538
 20
-138.8583631380285
 30
0.0
 10
91.08608531794029
 20
-138.9028048697882
 30
0.0
 10
91.18151446288171
 20
-139.0847059114094
 30
0.0
 10
91.2807332128569
 20
-139.2772867490349
 30
0.0
 10
91.30415986215661
 20
-139.5056965797069
 30
0.0
 10
91.30415986215661
 20
-139.6793293921635
 30
0.0
 10
91.30415986215661
 20
-139.8505506377804
 30
0.0
 10
91.28280027014806
 20
-140.0810275257437
 30
0.0
 10
91.18151446288171
 20
-140.2736083633691
 30
0.0
  0
SPLINE
  5
9B
330
94
100
AcDbEntity
  8
_U+30EC_U+30A4_U+30E4_U+30FC 1
370
     0
100
AcDbSpline
210
0.0
220
0.0
230
1.0
 70
    11
 71
     3
 72
    17
 73
    13
 74
     0
 42
0.0000000001
 43
0.0000000001
 12
1.0
 22
0.0
 32
0.0
 13
1.0
 23
0.0
 33
0.0
 40
0.0
 40
0.0
 40
0.0
 40
0.0
 40
1.0
 40
1.0
 40
1.0
 40
2.0
 40
2.0
 40
2.0
 40
3.0
 40
3.0
 40
3.0
 40
4.0
 40
4.0
 40
4.0
 40
4.0
 10
90.78360593433536
 20
-139.050943975654
 30
0.0
 10
90.53383651165474
 20
-139.050943975654
 30
0.0
 10
90.48732772260387
 20
-139.33447533409
 30
0.0
 10
90.48732772260387
 20
-139.6793293921635
 30
0.0
 10
90.48732772260387
 20
-139.9986897436462
 30
0.0
 10
90.52350122519898
 20
-140.3073702991246
 30
0.0
 10
90.78360593433536
 20
-140.3073702991246
 30
0.0
 10
91.03130829972481
 20
-140.3073702991246
 30
0.0
 10
91.07988414606685
 20
-140.0262505075282
 30
0.0
 10
91.07988414606685
 20
-139.6793293921635
 30
0.0
 10
91.07988414606685
 20
-139.3596245311323
 30
0.0
 10
91.04164358618057
 20
-139.050943975654
 30
0.0
 10
90.78360593433536
 20
-139.050943975654
 30
0.0
  0
HATCH
  5
9C
330
94
100
AcDbEntity
  8
_U+30EC_U+30A4_U+30E4_U+30FC 1
 62
     7
420
 16777215
100
AcDbHatch
 10
0.0
 20
0.0
 30
0.0
210
0.0
220
0.0
230
1.0
  2
SOLID
 70
     1
 71
     0
 91
        2
 92
        1
 93
        1
 72
     4
 94
        3
 73
     0
 74
     1
 95
       29
 96
       25
 40
0.0
 40
0.0
 40
0.0
 40
0.0
 40
1.0
 40
1.0
 40
1.0
 40
2.0
 40
2.0
 40
2.0
 40
3.0
 40
3.0
 40
3.0
 40
4.0
 40
4.0
 40
4.0
 40
5.0
 40
5.0
 40
5.0
 40
6.0
 40
6.0
 40
6.0
 40
7.0
 40
7.0
 40
7.0
 40
8.0
 40
8.0
 40
8.0
 40
8.0
 10
91.18151446288171
 20
-140.2736083633691
 10
91.07333846464486
 20
-140.4830701688723
 10
90.9000501617368
 20
-140.5020181940412
 10
90.78360593433536
 20
-140.5020181940412
 10
90.62271997517419
 20
-140.5020181940412
 10
90.48112655073042
 20
-140.4555094049903
 10
90.38604191533751
 20
-140.2736083633691
 10
90.2823445412315
 20
-140.0789604684525
 10
90.2630520065141
 20
-139.8422824086158
 10
90.2630520065141
 20
-139.6793293921635
 10
90.2630520065141
 20
-139.5353244008801
 10
90.28027748394035
 20
-139.2834879209083
 10
90.38604191533751
 20
-139.0847059114094
 10
90.49387340402585
 20
-138.8817897873282
 10
90.65475936318701
 20
-138.8583631380285
 10
90.78360593433536
 20
-138.8583631380285
 10
90.94242483620538
 20
-138.8583631380285
 10
91.08608531794029
 20
-138.9028048697882
 10
91.18151446288171
 20
-139.0847059114094
 10
91.2807332128569
 20
-139.2772867490349
 10
91.30415986215661
 20
-139.5056965797069
 10
91.30415986215661
 20
-139.6793293921635
 10
91.30415986215661
 20
-139.8505506377804
 10
91.28280027014806
 20
-140.0810275257437
 10
91.18151446288171
 20
-140.2736083633691
 97
        0
 97
        0
 92
        1
 93
        1
 72
     4
 94
        3
 73
     0
 74
     1
 95
       17
 96
       13
 40
0.0
 40
0.0
 40
0.0
 40
0.0
 40
1.0
 40
1.0
 40
1.0
 40
2.0
 40
2.0
 40
2.0
 40
3.0
 40
3.0
 40
3.0
 40
4.0
 40
4.0
 40
4.0
 40
4.0
 10
90.78360593433536
 20
-139.050943975654
 10
90.53383651165474
 20
-139.050943975654
 10
90.48732772260387
 20
-139.33447533409
 10
90.48732772260387
 20
-139.6793293921635
 10
90.48732772260387
 20
-139.9986897436462
 10
90.52350122519898
 20
-140.3073702991246
 10
90.78360593433536
 20
-140.3073702991246
 10
91.03130829972481
 20
-140.3073702991246
 10
91.07988414606685
 20
-140.0262505075282
 10
91.07988414606685
 20
-139.6793293921635
 10
91.07988414606685
 20
-139.3596245311323
 10
91.04164358618057
 20
-139.050943975654
 10
90.78360593433536
 20
-139.050943975654
 97
        0
 97
        0
 75
     2
 76
     1
 98
        0
  0
ENDBLK
  5
97
330
94
100
AcDbEntity
  8
0
100
AcDbBlockEnd
  0
BLOCK
  5
AF
330
AD
100
AcDbEntity
  8
0
100
AcDbBlockBegin
  2
block 4
 70
     0
 10
0.0
 20
0.0
 30
0.0
  3
block 4
  1

  0
SPLINE
  5
B1
330
AD
100
AcDbEntity
  8
_U+30EC_U+30A4_U+30E4_U+30FC 1
370
     0
100
AcDbSpline
210
0.0
220
0.0
230
1.0
 70
    11
 71
     3
 72
    26
 73
    22
 74
     0
 42
0.0000000001
 43
0.0000000001
 12
1.0
 22
0.0
 32
0.0
 13
1.0
 23
0.0
 33
0.0
 40
0.0
 40
0.0
 40
0.0
 40
0.0
 40
1.0
 40
1.0
 40
1.0
 40
2.0
 40
2.0
 40
2.0
 40
3.0
 40
3.0
 40
3.0
 40
4.0
 40
4.0
 40
4.0
 40
5.0
 40
5.0
 40
5.0
 40
6.0
 40
6.0
 40
6.0
 40
7.0
 40
7.0
 40
7.0
 40
7.0
 10
109.2215847166182
 20
-124.1581407024674
 30
0.0
 10
109.2215847166182
 20
-124.1581407024674
 30
0.0
 10
108.1174316135956
 20
-124.1581407024674
 30
0.0
 10
108.1174316135956
 20
-124.1581407024674
 30
0.0
 10
108.1174316135956
 20
-124.1581407024674
 30
0.0
 10
108.1174316135956
 20
-124.4881808499543
 30
0.0
 10
108.1174316135956
 20
-124.4881808499543
 30
0.0
 10
108.1174316135956
 20
-124.4881808499543
 30
0.0
 10
107.9692925077299
 20
-124.4881808499543
 30
0.0
 10
107.9692925077299
 20
-124.4881808499543
 30
0.0
 10
107.9544785971433
 20
-124.1560736451763
 30
0.0
 10
107.791525580691
 20
-124.1095648561254
 30
0.0
 10
107.6771484105807
 20
-124.0799370349522
 30
0.0
 10
107.6771484105807
 20
-124.0799370349522
 30
0.0
 10
107.6771484105807
 20
-123.9338649863777
 30
0.0
 10
107.6771484105807
 20
-123.9338649863777
 30
0.0
 10
107.6771484105807
 20
-123.9338649863777
 30
0.0
 10
109.2215847166182
 20
-123.9338649863777
 30
0.0
 10
109.2215847166182
 20
-123.9338649863777
 30
0.0
 10
109.2215847166182
 20
-123.9338649863777
 30
0.0
 10
109.2215847166182
 20
-124.1581407024674
 30
0.0
 10
109.2215847166182
 20
-124.1581407024674
 30
0.0
  0
HATCH
  5
B2
330
AD
100
AcDbEntity
  8
_U+30EC_U+30A4_U+30E4_U+30FC 1
 62
     7
420
 16777215
100
AcDbHatch
 10
0.0
 20
0.0
 30
0.0
210
0.0
220
0.0
230
1.0
  2
SOLID
 70
     1
 71
     0
 91
        1
 92
        1
 93
        1
 72
     4
 94
        3
 73
     0
 74
     1
 95
       26
 96
       22
 40
0.0
 40
0.0
 40
0.0
 40
0.0
 40
1.0
 40
1.0
 40
1.0
 40
2.0
 40
2.0
 40
2.0
 40
3.0
 40
3.0
 40
3.0
 40
4.0
 40
4.0
 40
4.0
 40
5.0
 40
5.0
 40
5.0
 40
6.0
 40
6.0
 40
6.0
 40
7.0
 40
7.0
 40
7.0
 40
7.0
 10
109.2215847166182
 20
-124.1581407024674
 10
109.2215847166182
 20
-124.1581407024674
 10
108.1174316135956
 20
-124.1581407024674
 10
108.1174316135956
 20
-124.1581407024674
 10
108.1174316135956
 20
-124.1581407024674
 10
108.1174316135956
 20
-124.4881808499543
 10
108.1174316135956
 20
-124.4881808499543
 10
108.1174316135956
 20
-124.4881808499543
 10
107.9692925077299
 20
-124.4881808499543
 10
107.9692925077299
 20
-124.4881808499543
 10
107.9544785971433
 20
-124.1560736451763
 10
107.791525580691
 20
-124.1095648561254
 10
107.6771484105807
 20
-124.0799370349522
 10
107.6771484105807
 20
-124.0799370349522
 10
107.6771484105807
 20
-123.9338649863777
 10
107.6771484105807
 20
-123.9338649863777
 10
107.6771484105807
 20
-123.9338649863777
 10
109.2215847166182
 20
-123.9338649863777
 10
109.2215847166182
 20
-123.9338649863777
 10
109.2215847166182
 20
-123.9338649863777
 10
109.2215847166182
 20
-124.1581407024674
 10
109.2215847166182
 20
-124.1581407024674
 97
        0
 97
        0
 75
     2
 76
     1
 98
        0
  0
POLYLINE
  5
B3
330
AD
100
AcDbEntity
  8
_U+30EC_U+30A4_U+30E4_U+30FC 1
370
     0
100
AcDb2dPolyline
 66
     1
 10
0.0
 20
0.0
 30
0.0
  0
VERTEX
  5
B4
330
B3
100
AcDbEntity
  8
_U+30EC_U+30A4_U+30E4_U+30FC 1
370
     0
100
AcDbVertex
100
AcDb2dVertex
 10
109.2215847166182
 20
-123.3726589318305
 30
0.0
  0
VERTEX
  5
B5
330
B3
100
AcDbEntity
  8
_U+30EC_U+30A4_U+30E4_U+30FC 1
370
     0
100
AcDbVertex
100
AcDb2dVertex
 10
108.9697482366465
 20
-123.3726589318305
 30
0.0
  0
VERTEX
  5
B6
330
B3
100
AcDbEntity
  8
_U+30EC_U+30A4_U+30E4_U+30FC 1
370
     0
100
AcDbVertex
100
AcDb2dVertex
 10
108.9697482366465
 20
-123.1208224518587
 30
0.0
  0
VERTEX
  5
B7
330
B3
100
AcDbEntity
  8
_U+30EC_U+30A4_U+30E4_U+30FC 1
370
     0
100
AcDbVertex
100
AcDb2dVertex
 10
109.2215847166182
 20
-123.1208224518587
 30
0.0
  0
VERTEX
  5
B8
330
B3
100
AcDbEntity
  8
_U+30EC_U+30A4_U+30E4_U+30FC 1
370
     0
100
AcDbVertex
100
AcDb2dVertex
 10
109.2215847166182
 20
-123.3726589318305
 30
0.0
  0
SEQEND
  5
B9
330
B3
100
AcDbEntity
  8
_U+30EC_U+30A4_U+30E4_U+30FC 1
370
     0
  0
HATCH
  5
BA
330
AD
100
AcDbEntity
  8
_U+30EC_U+30A4_U+30E4_U+30FC 1
 62
     7
420
 16777215
100
AcDbHatch
 10
0.0
 20
0.0
 30
0.0
210
0.0
220
0.0
230
1.0
  2
SOLID
 70
     1
 71
     0
 91
        1
 92
        1
 93
        4
 72
     1
 10
109.2215847166182
 20
-123.3726589318305
 11
108.9697482366465
 21
-123.3726589318305
 72
     1
 10
108.9697482366465
 20
-123.3726589318305
 11
108.9697482366465
 21
-123.1208224518587
 72
     1
 10
108.9697482366465
 20
-123.1208224518587
 11
109.2215847166182
 21
-123.1208224518587
 72
     1
 10
109.2215847166182
 20
-123.1208224518587
 11
109.2215847166182
 21
-123.3726589318305
 97
        0
 75
     2
 76
     1
 98
        0
  0
SPLINE
  5
BB
330
AD
100
AcDbEntity
  8
_U+30EC_U+30A4_U+30E4_U+30FC 1
370
     0
100
AcDbSpline
210
0.0
220
0.0
230
1.0
 70
    11
 71
     3
 72
    26
 73
    22
 74
     0
 42
0.0000000001
 43
0.0000000001
 12
1.0
 22
0.0
 32
0.0
 13
1.0
 23
0.0
 33
0.0
 40
0.0
 40
0.0
 40
0.0
 40
0.0
 40
1.0
 40
1.0
 40
1.0
 40
2.0
 40
2.0
 40
2.0
 40
3.0
 40
3.0
 40
3.0
 40
4.0
 40
4.0
 40
4.0
 40
5.0
 40
5.0
 40
5.0
 40
6.0
 40
6.0
 40
6.0
 40
7.0
 40
7.0
 40
7.0
 40
7.0
 10
109.2215847166182
 20
-122.4331813930028
 30
0.0
 10
109.2215847166182
 20
-122.4331813930028
 30
0.0
 10
108.1174316135956
 20
-122.4331813930028
 30
0.0
 10
108.1174316135956
 20
-122.4331813930028
 30
0.0
 10
108.1174316135956
 20
-122.4331813930028
 30
0.0
 10
108.1174316135956
 20
-122.7632215404898
 30
0.0
 10
108.1174316135956
 20
-122.7632215404898
 30
0.0
 10
108.1174316135956
 20
-122.7632215404898
 30
0.0
 10
107.9692925077299
 20
-122.7632215404898
 30
0.0
 10
107.9692925077299
 20
-122.7632215404898
 30
0.0
 10
107.9544785971433
 20
-122.4311143357117
 30
0.0
 10
107.791525580691
 20
-122.3846055466608
 30
0.0
 10
107.6771484105807
 20
-122.3549777254876
 30
0.0
 10
107.6771484105807
 20
-122.3549777254876
 30
0.0
 10
107.6771484105807
 20
-122.2089056769131
 30
0.0
 10
107.6771484105807
 20
-122.2089056769131
 30
0.0
 10
107.6771484105807
 20
-122.2089056769131
 30
0.0
 10
109.2215847166182
 20
-122.2089056769131
 30
0.0
 10
109.2215847166182
 20
-122.2089056769131
 30
0.0
 10
109.2215847166182
 20
-122.2089056769131
 30
0.0
 10
109.2215847166182
 20
-122.4331813930028
 30
0.0
 10
109.2215847166182
 20
-122.4331813930028
 30
0.0
  0
HATCH
  5
BC
330
AD
100
AcDbEntity
  8
_U+30EC_U+30A4_U+30E4_U+30FC 1
 62
     7
420
 16777215
100
AcDbHatch
 10
0.0
 20
0.0
 30
0.0
210
0.0
220
0.0
230
1.0
  2
SOLID
 70
     1
 71
     0
 91
        1
 92
        1
 93
        1
 72
     4
 94
        3
 73
     0
 74
     1
 95
       26
 96
       22
 40
0.0
 40
0.0
 40
0.0
 40
0.0
 40
1.0
 40
1.0
 40
1.0
 40
2.0
 40
2.0
 40
2.0
 40
3.0
 40
3.0
 40
3.0
 40
4.0
 40
4.0
 40
4.0
 40
5.0
 40
5.0
 40
5.0
 40
6.0
 40
6.0
 40
6.0
 40
7.0
 40
7.0
 40
7.0
 40
7.0
 10
109.2215847166182
 20
-122.4331813930028
 10
109.2215847166182
 20
-122.4331813930028
 10
108.1174316135956
 20
-122.4331813930028
 10
108.1174316135956
 20
-122.4331813930028
 10
108.1174316135956
 20
-122.4331813930028
 10
108.1174316135956
 20
-122.7632215404898
 10
108.1174316135956
 20
-122.7632215404898
 10
108.1174316135956
 20
-122.7632215404898
 10
107.9692925077299
 20
-122.7632215404898
 10
107.9692925077299
 20
-122.7632215404898
 10
107.9544785971433
 20
-122.4311143357117
 10
107.791525580691
 20
-122.3846055466608
 10
107.6771484105807
 20
-122.3549777254876
 10
107.6771484105807
 20
-122.3549777254876
 10
107.6771484105807
 20
-122.2089056769131
 10
107.6771484105807
 20
-122.2089056769131
 10
107.6771484105807
 20
-122.2089056769131
 10
109.2215847166182
 20
-122.2089056769131
 10
109.2215847166182
 20
-122.2089056769131
 10
109.2215847166182
 20
-122.2089056769131
 10
109.2215847166182
 20
-122.4331813930028
 10
109.2215847166182
 20
-122.4331813930028
 97
        0
 97
        0
 75
     2
 76
     1
 98
        0
  0
ENDBLK
  5
B0
330
AD
100
AcDbEntity
  8
0
100
AcDbBlockEnd
  0
BLOCK
  5
CB
330
C9
100
AcDbEntity
  8
0
100
AcDbBlockBegin
  2
block 5
 70
     0
 10
0.0
 20
0.0
 30
0.0
  3
block 5
  1

  0
SPLINE
  5
CD
330
C9
100
AcDbEntity
  8
_U+30EC_U+30A4_U+30E4_U+30FC 1
370
     0
100
AcDbSpline
210
0.0
220
0.0
230
1.0
 70
    11
 71
     3
 72
    62
 73
    58
 74
     0
 42
0.0000000001
 43
0.0000000001
 12
1.0
 22
0.0
 32
0.0
 13
1.0
 23
0.0
 33
0.0
 40
0.0
 40
0.0
 40
0.0
 40
0.0
 40
1.0
 40
1.0
 40
1.0
 40
2.0
 40
2.0
 40
2.0
 40
3.0
 40
3.0
 40
3.0
 40
4.0
 40
4.0
 40
4.0
 40
5.0
 40
5.0
 40
5.0
 40
6.0
 40
6.0
 40
6.0
 40
7.0
 40
7.0
 40
7.0
 40
8.0
 40
8.0
 40
8.0
 40
9.0
 40
9.0
 40
9.0
 40
10.0
 40
10.0
 40
10.0
 40
11.0
 40
11.0
 40
11.0
 40
12.0
 40
12.0
 40
12.0
 40
13.0
 40
13.0
 40
13.0
 40
14.0
 40
14.0
 40
14.0
 40
15.0
 40
15.0
 40
15.0
 40
16.0
 40
16.0
 40
16.0
 40
17.0
 40
17.0
 40
17.0
 40
18.0
 40
18.0
 40
18.0
 40
19.0
 40
19.0
 40
19.0
 40
19.0
 10
86.16252710519548
 20
-118.0081284969737
 30
0.0
 10
86.06709796025406
 20
-118.0081284969737
 30
0.0
 10
85.84936792558628
 20
-117.9869411597394
 30
0.0
 10
85.72431095947171
 20
-117.8007337487616
 30
0.0
 10
85.65024140653884
 20
-117.6885958907167
 30
0.0
 10
85.64610729195654
 20
-117.5892048859673
 30
0.0
 10
85.64197317737424
 20
-117.5046277918044
 30
0.0
 10
85.64197317737424
 20
-117.5046277918044
 30
0.0
 10
85.8621147788817
 20
-117.5046277918044
 30
0.0
 10
85.8621147788817
 20
-117.5046277918044
 30
0.0
 10
85.86418183617285
 20
-117.5786973447373
 30
0.0
 10
85.8745171226286
 20
-117.8134806020571
 30
0.0
 10
86.15804848106465
 20
-117.8134806020571
 30
0.0
 10
86.29550779092612
 20
-117.8134806020571
 30
0.0
 10
86.4481255209227
 20
-117.7437174184807
 30
0.0
 10
86.4481255209227
 20
-117.5151353330344
 30
0.0
 10
86.4481255209227
 20
-117.3988633604072
 30
0.0
 10
86.40988496103643
 20
-117.3501152592909
 30
0.0
 10
86.37819008257212
 20
-117.3184203808267
 30
0.0
 10
86.30412052963925
 20
-117.2443508278938
 30
0.0
 10
86.1876763022378
 20
-117.2317762293726
 30
0.0
 10
86.13289928402233
 20
-117.2317762293726
 30
0.0
 10
86.11360674930494
 20
-117.2317762293726
 30
0.0
 10
86.07777775625834
 20
-117.2338432866638
 30
0.0
 10
86.05021699237633
 20
-117.2379774012461
 30
0.0
 10
86.05021699237633
 20
-117.2379774012461
 30
0.0
 10
86.05021699237633
 20
-117.0433295063295
 30
0.0
 10
86.05021699237633
 20
-117.0433295063295
 30
0.0
 10
86.08845755226261
 20
-117.0497029329772
 30
0.0
 10
86.13048771718266
 20
-117.0519422450426
 30
0.0
 10
86.13703339860463
 20
-117.0519422450426
 30
0.0
 10
86.20249021282439
 20
-117.0519422450426
 30
0.0
 10
86.4012722223233
 20
-117.0307549078083
 30
0.0
 10
86.4012722223233
 20
-116.7937323384231
 30
0.0
 10
86.4012722223233
 20
-116.6161376661585
 30
0.0
 10
86.2703585938838
 20
-116.5610161383945
 30
0.0
 10
86.16011553835581
 20
-116.5610161383945
 30
0.0
 10
85.89587671463714
 20
-116.5610161383945
 30
0.0
 10
85.88726397592401
 20
-116.7937323384231
 30
0.0
 10
85.88312986134171
 20
-116.8657348340648
 30
0.0
 10
85.88312986134171
 20
-116.8657348340648
 30
0.0
 10
85.67986922771198
 20
-116.8657348340648
 30
0.0
 10
85.67986922771198
 20
-116.8657348340648
 30
0.0
 10
85.6884819664251
 20
-116.7408501227245
 30
0.0
 10
85.71604273030711
 20
-116.3643011861867
 30
0.0
 10
86.17286239165124
 20
-116.3643011861867
 30
0.0
 10
86.397138107741
 20
-116.3643011861867
 30
0.0
 10
86.63829479170849
 20
-116.4912529548182
 30
0.0
 10
86.63829479170849
 20
-116.7873589117754
 30
0.0
 10
86.63829479170849
 20
-116.9735663227531
 30
0.0
 10
86.5432101563156
 20
-117.0560763596249
 30
0.0
 10
86.44364689679188
 20
-117.1173990592623
 30
0.0
 10
86.50496959642932
 20
-117.1449598231443
 30
0.0
 10
86.68687063805051
 20
-117.2254028027249
 30
0.0
 10
86.68687063805051
 20
-117.5025607345133
 30
0.0
 10
86.68687063805051
 20
-117.841041365939
 30
0.0
 10
86.43951278220958
 20
-118.0081284969737
 30
0.0
 10
86.16252710519548
 20
-118.0081284969737
 30
0.0
  0
HATCH
  5
CE
330
C9
100
AcDbEntity
  8
_U+30EC_U+30A4_U+30E4_U+30FC 1
 62
     7
420
 16777215
100
AcDbHatch
 10
0.0
 20
0.0
 30
0.0
210
0.0
220
0.0
230
1.0
  2
SOLID
 70
     1
 71
     0
 91
        1
 92
        1
 93
        1
 72
     4
 94
        3
 73
     0
 74
     1
 95
       62
 96
       58
 40
0.0
 40
0.0
 40
0.0
 40
0.0
 40
1.0
 40
1.0
 40
1.0
 40
2.0
 40
2.0
 40
2.0
 40
3.0
 40
3.0
 40
3.0
 40
4.0
 40
4.0
 40
4.0
 40
5.0
 40
5.0
 40
5.0
 40
6.0
 40
6.0
 40
6.0
 40
7.0
 40
7.0
 40
7.0
 40
8.0
 40
8.0
 40
8.0
 40
9.0
 40
9.0
 40
9.0
 40
10.0
 40
10.0
 40
10.0
 40
11.0
 40
11.0
 40
11.0
 40
12.0
 40
12.0
 40
12.0
 40
13.0
 40
13.0
 40
13.0
 40
14.0
 40
14.0
 40
14.0
 40
15.0
 40
15.0
 40
15.0
 40
16.0
 40
16.0
 40
16.0
 40
17.0
 40
17.0
 40
17.0
 40
18.0
 40
18.0
 40
18.0
 40
19.0
 40
19.0
 40
19.0
 40
19.0
 10
86.16252710519548
 20
-118.0081284969737
 10
86.06709796025406
 20
-118.0081284969737
 10
85.84936792558628
 20
-117.9869411597394
 10
85.72431095947171
 20
-117.8007337487616
 10
85.65024140653884
 20
-117.6885958907167
 10
85.64610729195654
 20
-117.5892048859673
 10
85.64197317737424
 20
-117.5046277918044
 10
85.64197317737424
 20
-117.5046277918044
 10
85.8621147788817
 20
-117.5046277918044
 10
85.8621147788817
 20
-117.5046277918044
 10
85.86418183617285
 20
-117.5786973447373
 10
85.8745171226286
 20
-117.8134806020571
 10
86.15804848106465
 20
-117.8134806020571
 10
86.29550779092612
 20
-117.8134806020571
 10
86.4481255209227
 20
-117.7437174184807
 10
86.4481255209227
 20
-117.5151353330344
 10
86.4481255209227
 20
-117.3988633604072
 10
86.40988496103643
 20
-117.3501152592909
 10
86.37819008257212
 20
-117.3184203808267
 10
86.30412052963925
 20
-117.2443508278938
 10
86.1876763022378
 20
-117.2317762293726
 10
86.13289928402233
 20
-117.2317762293726
 10
86.11360674930494
 20
-117.2317762293726
 10
86.07777775625834
 20
-117.2338432866638
 10
86.05021699237633
 20
-117.2379774012461
 10
86.05021699237633
 20
-117.2379774012461
 10
86.05021699237633
 20
-117.0433295063295
 10
86.05021699237633
 20
-117.0433295063295
 10
86.08845755226261
 20
-117.0497029329772
 10
86.13048771718266
 20
-117.0519422450426
 10
86.13703339860463
 20
-117.0519422450426
 10
86.20249021282439
 20
-117.0519422450426
 10
86.4012722223233
 20
-117.0307549078083
 10
86.4012722223233
 20
-116.7937323384231
 10
86.4012722223233
 20
-116.6161376661585
 10
86.2703585938838
 20
-116.5610161383945
 10
86.16011553835581
 20
-116.5610161383945
 10
85.89587671463714
 20
-116.5610161383945
 10
85.88726397592401
 20
-116.7937323384231
 10
85.88312986134171
 20
-116.8657348340648
 10
85.88312986134171
 20
-116.8657348340648
 10
85.67986922771198
 20
-116.8657348340648
 10
85.67986922771198
 20
-116.8657348340648
 10
85.6884819664251
 20
-116.7408501227245
 10
85.71604273030711
 20
-116.3643011861867
 10
86.17286239165124
 20
-116.3643011861867
 10
86.397138107741
 20
-116.3643011861867
 10
86.63829479170849
 20
-116.4912529548182
 10
86.63829479170849
 20
-116.7873589117754
 10
86.63829479170849
 20
-116.9735663227531
 10
86.5432101563156
 20
-117.0560763596249
 10
86.44364689679188
 20
-117.1173990592623
 10
86.50496959642932
 20
-117.1449598231443
 10
86.68687063805051
 20
-117.2254028027249
 10
86.68687063805051
 20
-117.5025607345133
 10
86.68687063805051
 20
-117.841041365939
 10
86.43951278220958
 20
-118.0081284969737
 10
86.16252710519548
 20
-118.0081284969737
 97
        0
 97
        0
 75
     2
 76
     1
 98
        0
  0
SPLINE
  5
CF
330
C9
100
AcDbEntity
  8
_U+30EC_U+30A4_U+30E4_U+30FC 1
370
     0
100
AcDbSpline
210
0.0
220
0.0
230
1.0
 70
    11
 71
     3
 72
    53
 73
    49
 74
     0
 42
0.0000000001
 43
0.0000000001
 12
1.0
 22
0.0
 32
0.0
 13
1.0
 23
0.0
 33
0.0
 40
0.0
 40
0.0
 40
0.0
 40
0.0
 40
1.0
 40
1.0
 40
1.0
 40
2.0
 40
2.0
 40
2.0
 40
3.0
 40
3.0
 40
3.0
 40
4.0
 40
4.0
 40
4.0
 40
5.0
 40
5.0
 40
5.0
 40
6.0
 40
6.0
 40
6.0
 40
7.0
 40
7.0
 40
7.0
 40
8.0
 40
8.0
 40
8.0
 40
9.0
 40
9.0
 40
9.0
 40
10.0
 40
10.0
 40
10.0
 40
11.0
 40
11.0
 40
11.0
 40
12.0
 40
12.0
 40
12.0
 40
13.0
 40
13.0
 40
13.0
 40
14.0
 40
14.0
 40
14.0
 40
15.0
 40
15.0
 40
15.0
 40
16.0
 40
16.0
 40
16.0
 40
16.0
 10
87.32869192695256
 20
-118.0081284969737
 30
0.0
 10
87.25048825943738
 20
-118.0081284969737
 30
0.0
 10
87.14885794262251
 20
-117.9910752743217
 30
0.0
 10
87.04722762580764
 20
-117.9276855173931
 30
0.0
 10
86.87393932289957
 20
-117.8176147166394
 30
0.0
 10
86.85257973089102
 20
-117.6865288334256
 30
0.0
 10
86.83363170572215
 20
-117.5786973447373
 30
0.0
 10
86.83363170572215
 20
-117.5786973447373
 30
0.0
 10
87.05584036452076
 20
-117.5786973447373
 30
0.0
 10
87.05584036452076
 20
-117.5786973447373
 30
0.0
 10
87.11061738273624
 20
-117.7774793542362
 30
0.0
 10
87.23774140614196
 20
-117.8071071754093
 30
0.0
 10
87.3307589842437
 20
-117.8071071754093
 30
0.0
 10
87.47028535139633
 20
-117.8071071754093
 30
0.0
 10
87.62255857184437
 20
-117.7077161706599
 30
0.0
 10
87.62255857184437
 20
-117.4749999706313
 30
0.0
 10
87.62255857184437
 20
-117.2190293760772
 30
0.0
 10
87.44272458751432
 20
-117.1492661925009
 30
0.0
 10
87.32214624553058
 20
-117.1492661925009
 30
0.0
 10
87.29045136706628
 20
-117.1492661925009
 30
0.0
 10
87.14885794262251
 20
-117.1492661925009
 30
0.0
 10
87.05997447910306
 20
-117.2782850184235
 30
0.0
 10
87.05997447910306
 20
-117.2782850184235
 30
0.0
 10
86.88427460935533
 20
-117.2591647384804
 30
0.0
 10
86.88427460935533
 20
-117.2591647384804
 30
0.0
 10
86.88427460935533
 20
-117.2591647384804
 30
0.0
 10
87.00485295133907
 20
-116.413049287303
 30
0.0
 10
87.00485295133907
 20
-116.413049287303
 30
0.0
 10
87.00485295133907
 20
-116.413049287303
 30
0.0
 10
87.78344453100553
 20
-116.413049287303
 30
0.0
 10
87.78344453100553
 20
-116.413049287303
 30
0.0
 10
87.78344453100553
 20
-116.413049287303
 30
0.0
 10
87.78344453100553
 20
-116.6076971822196
 30
0.0
 10
87.78344453100553
 20
-116.6076971822196
 30
0.0
 10
87.78344453100553
 20
-116.6076971822196
 30
0.0
 10
87.16780596779138
 20
-116.6076971822196
 30
0.0
 10
87.16780596779138
 20
-116.6076971822196
 30
0.0
 10
87.16780596779138
 20
-116.6076971822196
 30
0.0
 10
87.10234915357164
 20
-117.0307549078083
 30
0.0
 10
87.10234915357164
 20
-117.0307549078083
 30
0.0
 10
87.16367185320908
 20
-116.9968207172786
 30
0.0
 10
87.24600963530656
 20
-116.9566853548754
 30
0.0
 10
87.36452091999915
 20
-116.9566853548754
 30
0.0
 10
87.61842445726207
 20
-116.9566853548754
 30
0.0
 10
87.85544702664725
 20
-117.1428927658532
 30
0.0
 10
87.85544702664725
 20
-117.4558796906881
 30
0.0
 10
87.85544702664725
 20
-117.7733452396539
 30
0.0
 10
87.63117131055749
 20
-118.0081284969737
 30
0.0
 10
87.32869192695256
 20
-118.0081284969737
 30
0.0
  0
HATCH
  5
D0
330
C9
100
AcDbEntity
  8
_U+30EC_U+30A4_U+30E4_U+30FC 1
 62
     7
420
 16777215
100
AcDbHatch
 10
0.0
 20
0.0
 30
0.0
210
0.0
220
0.0
230
1.0
  2
SOLID
 70
     1
 71
     0
 91
        1
 92
        1
 93
        1
 72
     4
 94
        3
 73
     0
 74
     1
 95
       53
 96
       49
 40
0.0
 40
0.0
 40
0.0
 40
0.0
 40
1.0
 40
1.0
 40
1.0
 40
2.0
 40
2.0
 40
2.0
 40
3.0
 40
3.0
 40
3.0
 40
4.0
 40
4.0
 40
4.0
 40
5.0
 40
5.0
 40
5.0
 40
6.0
 40
6.0
 40
6.0
 40
7.0
 40
7.0
 40
7.0
 40
8.0
 40
8.0
 40
8.0
 40
9.0
 40
9.0
 40
9.0
 40
10.0
 40
10.0
 40
10.0
 40
11.0
 40
11.0
 40
11.0
 40
12.0
 40
12.0
 40
12.0
 40
13.0
 40
13.0
 40
13.0
 40
14.0
 40
14.0
 40
14.0
 40
15.0
 40
15.0
 40
15.0
 40
16.0
 40
16.0
 40
16.0
 40
16.0
 10
87.32869192695256
 20
-118.0081284969737
 10
87.25048825943738
 20
-118.0081284969737
 10
87.14885794262251
 20
-117.9910752743217
 10
87.04722762580764
 20
-117.9276855173931
 10
86.87393932289957
 20
-117.8176147166394
 10
86.85257973089102
 20
-117.6865288334256
 10
86.83363170572215
 20
-117.5786973447373
 10
86.83363170572215
 20
-117.5786973447373
 10
87.05584036452076
 20
-117.5786973447373
 10
87.05584036452076
 20
-117.5786973447373
 10
87.11061738273624
 20
-117.7774793542362
 10
87.23774140614196
 20
-117.8071071754093
 10
87.3307589842437
 20
-117.8071071754093
 10
87.47028535139633
 20
-117.8071071754093
 10
87.62255857184437
 20
-117.7077161706599
 10
87.62255857184437
 20
-117.4749999706313
 10
87.62255857184437
 20
-117.2190293760772
 10
87.44272458751432
 20
-117.1492661925009
 10
87.32214624553058
 20
-117.1492661925009
 10
87.29045136706628
 20
-117.1492661925009
 10
87.14885794262251
 20
-117.1492661925009
 10
87.05997447910306
 20
-117.2782850184235
 10
87.05997447910306
 20
-117.2782850184235
 10
86.88427460935533
 20
-117.2591647384804
 10
86.88427460935533
 20
-117.2591647384804
 10
86.88427460935533
 20
-117.2591647384804
 10
87.00485295133907
 20
-116.413049287303
 10
87.00485295133907
 20
-116.413049287303
 10
87.00485295133907
 20
-116.413049287303
 10
87.78344453100553
 20
-116.413049287303
 10
87.78344453100553
 20
-116.413049287303
 10
87.78344453100553
 20
-116.413049287303
 10
87.78344453100553
 20
-116.6076971822196
 10
87.78344453100553
 20
-116.6076971822196
 10
87.78344453100553
 20
-116.6076971822196
 10
87.16780596779138
 20
-116.6076971822196
 10
87.16780596779138
 20
-116.6076971822196
 10
87.16780596779138
 20
-116.6076971822196
 10
87.10234915357164
 20
-117.0307549078083
 10
87.10234915357164
 20
-117.0307549078083
 10
87.16367185320908
 20
-116.9968207172786
 10
87.24600963530656
 20
-116.9566853548754
 10
87.36452091999915
 20
-116.9566853548754
 10
87.61842445726207
 20
-116.9566853548754
 10
87.85544702664725
 20
-117.1428927658532
 10
87.85544702664725
 20
-117.4558796906881
 10
87.85544702664725
 20
-117.7733452396539
 10
87.63117131055749
 20
-118.0081284969737
 10
87.32869192695256
 20
-118.0081284969737
 97
        0
 97
        0
 75
     2
 76
     1
 98
        0
  0
ENDBLK
  5
CC
330
C9
100
AcDbEntity
  8
0
100
AcDbBlockEnd
  0
BLOCK
  5
DF
330
DD
100
AcDbEntity
  8
0
100
AcDbBlockBegin
  2
block 6
 70
     0
 10
0.0
 20
0.0
 30
0.0
  3
block 6
  1

  0
SPLINE
  5
E1
330
DD
100
AcDbEntity
  8
_U+30EC_U+30A4_U+30E4_U+30FC 1
370
     0
100
AcDbSpline
210
0.0
220
0.0
230
1.0
 70
    11
 71
     3
 72
    26
 73
    22
 74
     0
 42
0.0000000001
 43
0.0000000001
 12
1.0
 22
0.0
 32
0.0
 13
1.0
 23
0.0
 33
0.0
 40
0.0
 40
0.0
 40
0.0
 40
0.0
 40
1.0
 40
1.0
 40
1.0
 40
2.0
 40
2.0
 40
2.0
 40
3.0
 40
3.0
 40
3.0
 40
4.0
 40
4.0
 40
4.0
 40
5.0
 40
5.0
 40
5.0
 40
6.0
 40
6.0
 40
6.0
 40
7.0
 40
7.0
 40
7.0
 40
7.0
 10
76.71831459670584
 20
-140.451375290408
 30
0.0
 10
76.71831459670584
 20
-140.451375290408
 30
0.0
 10
76.71831459670584
 20
-139.3472221873854
 30
0.0
 10
76.71831459670584
 20
-139.3472221873854
 30
0.0
 10
76.71831459670584
 20
-139.3472221873854
 30
0.0
 10
76.38827444921891
 20
-139.3472221873854
 30
0.0
 10
76.38827444921891
 20
-139.3472221873854
 30
0.0
 10
76.38827444921891
 20
-139.3472221873854
 30
0.0
 10
76.38827444921891
 20
-139.1990830815197
 30
0.0
 10
76.38827444921891
 20
-139.1990830815197
 30
0.0
 10
76.720381653997
 20
-139.1842691709331
 30
0.0
 10
76.76689044304787
 20
-139.0213161544808
 30
0.0
 10
76.796518264221
 20
-138.9069389843705
 30
0.0
 10
76.796518264221
 20
-138.9069389843705
 30
0.0
 10
76.9425903127956
 20
-138.9069389843705
 30
0.0
 10
76.9425903127956
 20
-138.9069389843705
 30
0.0
 10
76.9425903127956
 20
-138.9069389843705
 30
0.0
 10
76.9425903127956
 20
-140.451375290408
 30
0.0
 10
76.9425903127956
 20
-140.451375290408
 30
0.0
 10
76.9425903127956
 20
-140.451375290408
 30
0.0
 10
76.71831459670584
 20
-140.451375290408
 30
0.0
 10
76.71831459670584
 20
-140.451375290408
 30
0.0
  0
HATCH
  5
E2
330
DD
100
AcDbEntity
  8
_U+30EC_U+30A4_U+30E4_U+30FC 1
 62
     7
420
 16777215
100
AcDbHatch
 10
0.0
 20
0.0
 30
0.0
210
0.0
220
0.0
230
1.0
  2
SOLID
 70
     1
 71
     0
 91
        1
 92
        1
 93
        1
 72
     4
 94
        3
 73
     0
 74
     1
 95
       26
 96
       22
 40
0.0
 40
0.0
 40
0.0
 40
0.0
 40
1.0
 40
1.0
 40
1.0
 40
2.0
 40
2.0
 40
2.0
 40
3.0
 40
3.0
 40
3.0
 40
4.0
 40
4.0
 40
4.0
 40
5.0
 40
5.0
 40
5.0
 40
6.0
 40
6.0
 40
6.0
 40
7.0
 40
7.0
 40
7.0
 40
7.0
 10
76.71831459670584
 20
-140.451375290408
 10
76.71831459670584
 20
-140.451375290408
 10
76.71831459670584
 20
-139.3472221873854
 10
76.71831459670584
 20
-139.3472221873854
 10
76.71831459670584
 20
-139.3472221873854
 10
76.38827444921891
 20
-139.3472221873854
 10
76.38827444921891
 20
-139.3472221873854
 10
76.38827444921891
 20
-139.3472221873854
 10
76.38827444921891
 20
-139.1990830815197
 10
76.38827444921891
 20
-139.1990830815197
 10
76.720381653997
 20
-139.1842691709331
 10
76.76689044304787
 20
-139.0213161544808
 10
76.796518264221
 20
-138.9069389843705
 10
76.796518264221
 20
-138.9069389843705
 10
76.9425903127956
 20
-138.9069389843705
 10
76.9425903127956
 20
-138.9069389843705
 10
76.9425903127956
 20
-138.9069389843705
 10
76.9425903127956
 20
-140.451375290408
 10
76.9425903127956
 20
-140.451375290408
 10
76.9425903127956
 20
-140.451375290408
 10
76.71831459670584
 20
-140.451375290408
 10
76.71831459670584
 20
-140.451375290408
 97
        0
 97
        0
 75
     2
 76
     1
 98
        0
  0
SPLINE
  5
E3
330
DD
100
AcDbEntity
  8
_U+30EC_U+30A4_U+30E4_U+30FC 1
370
     0
100
AcDbSpline
210
0.0
220
0.0
230
1.0
 70
    11
 71
     3
 72
    53
 73
    49
 74
     0
 42
0.0000000001
 43
0.0000000001
 12
1.0
 22
0.0
 32
0.0
 13
1.0
 23
0.0
 33
0.0
 40
0.0
 40
0.0
 40
0.0
 40
0.0
 40
1.0
 40
1.0
 40
1.0
 40
2.0
 40
2.0
 40
2.0
 40
3.0
 40
3.0
 40
3.0
 40
4.0
 40
4.0
 40
4.0
 40
5.0
 40
5.0
 40
5.0
 40
6.0
 40
6.0
 40
6.0
 40
7.0
 40
7.0
 40
7.0
 40
8.0
 40
8.0
 40
8.0
 40
9.0
 40
9.0
 40
9.0
 40
10.0
 40
10.0
 40
10.0
 40
11.0
 40
11.0
 40
11.0
 40
12.0
 40
12.0
 40
12.0
 40
13.0
 40
13.0
 40
13.0
 40
14.0
 40
14.0
 40
14.0
 40
15.0
 40
15.0
 40
15.0
 40
16.0
 40
16.0
 40
16.0
 40
16.0
 10
77.92478703564034
 20
-140.5020181940412
 30
0.0
 10
77.8464111133509
 20
-140.5020181940412
 30
0.0
 10
77.74495305131029
 20
-140.4851372261634
 30
0.0
 10
77.64332273449543
 20
-140.4217474692348
 30
0.0
 10
77.4698621768131
 20
-140.3118489232554
 30
0.0
 10
77.44867483957881
 20
-140.1805907852674
 30
0.0
 10
77.42972681440993
 20
-140.0727592965791
 30
0.0
 10
77.42972681440993
 20
-140.0727592965791
 30
0.0
 10
77.65176321843428
 20
-140.0727592965791
 30
0.0
 10
77.65176321843428
 20
-140.0727592965791
 30
0.0
 10
77.70688474619828
 20
-140.2715413060779
 30
0.0
 10
77.83383651482974
 20
-140.3011691272511
 30
0.0
 10
77.92685409293148
 20
-140.3011691272511
 30
0.0
 10
78.0663804600841
 20
-140.3011691272511
 30
0.0
 10
78.21882593530641
 20
-140.2016058677274
 30
0.0
 10
78.21882593530641
 20
-139.969061922473
 30
0.0
 10
78.21882593530641
 20
-139.713091327919
 30
0.0
 10
78.03899195097637
 20
-139.6431558895684
 30
0.0
 10
77.91841360899262
 20
-139.6431558895684
 30
0.0
 10
77.88671873052833
 20
-139.6431558895684
 30
0.0
 10
77.74495305131029
 20
-139.6431558895684
 30
0.0
 10
77.65606958779085
 20
-139.7723469702653
 30
0.0
 10
77.65606958779085
 20
-139.7723469702653
 30
0.0
 10
77.48054197281736
 20
-139.7533989450964
 30
0.0
 10
77.48054197281736
 20
-139.7533989450964
 30
0.0
 10
77.48054197281736
 20
-139.7533989450964
 30
0.0
 10
77.60112031480111
 20
-138.9069389843705
 30
0.0
 10
77.60112031480111
 20
-138.9069389843705
 30
0.0
 10
77.60112031480111
 20
-138.9069389843705
 30
0.0
 10
78.37953963969332
 20
-138.9069389843705
 30
0.0
 10
78.37953963969332
 20
-138.9069389843705
 30
0.0
 10
78.37953963969332
 20
-138.9069389843705
 30
0.0
 10
78.37953963969332
 20
-139.1015868792871
 30
0.0
 10
78.37953963969332
 20
-139.1015868792871
 30
0.0
 10
78.37953963969332
 20
-139.1015868792871
 30
0.0
 10
77.76390107647917
 20
-139.1015868792871
 30
0.0
 10
77.76390107647917
 20
-139.1015868792871
 30
0.0
 10
77.76390107647917
 20
-139.1015868792871
 30
0.0
 10
77.69844426225941
 20
-139.5246446048758
 30
0.0
 10
77.69844426225941
 20
-139.5246446048758
 30
0.0
 10
77.75976696189687
 20
-139.4908826691203
 30
0.0
 10
77.8422769987686
 20
-139.4505750519429
 30
0.0
 10
77.96061602868693
 20
-139.4505750519429
 30
0.0
 10
78.21451956594984
 20
-139.4505750519429
 30
0.0
 10
78.45154213533503
 20
-139.6369547176949
 30
0.0
 10
78.45154213533503
 20
-139.9501138973041
 30
0.0
 10
78.45154213533503
 20
-140.2674071914957
 30
0.0
 10
78.22726641924527
 20
-140.5020181940412
 30
0.0
 10
77.92478703564034
 20
-140.5020181940412
 30
0.0
  0
HATCH
  5
E4
330
DD
100
AcDbEntity
  8
_U+30EC_U+30A4_U+30E4_U+30FC 1
 62
     7
420
 16777215
100
AcDbHatch
 10
0.0
 20
0.0
 30
0.0
210
0.0
220
0.0
230
1.0
  2
SOLID
 70
     1
 71
     0
 91
        1
 92
        1
 93
        1
 72
     4
 94
        3
 73
     0
 74
     1
 95
       53
 96
       49
 40
0.0
 40
0.0
 40
0.0
 40
0.0
 40
1.0
 40
1.0
 40
1.0
 40
2.0
 40
2.0
 40
2.0
 40
3.0
 40
3.0
 40
3.0
 40
4.0
 40
4.0
 40
4.0
 40
5.0
 40
5.0
 40
5.0
 40
6.0
 40
6.0
 40
6.0
 40
7.0
 40
7.0
 40
7.0
 40
8.0
 40
8.0
 40
8.0
 40
9.0
 40
9.0
 40
9.0
 40
10.0
 40
10.0
 40
10.0
 40
11.0
 40
11.0
 40
11.0
 40
12.0
 40
12.0
 40
12.0
 40
13.0
 40
13.0
 40
13.0
 40
14.0
 40
14.0
 40
14.0
 40
15.0
 40
15.0
 40
15.0
 40
16.0
 40
16.0
 40
16.0
 40
16.0
 10
77.92478703564034
 20
-140.5020181940412
 10
77.8464111133509
 20
-140.5020181940412
 10
77.74495305131029
 20
-140.4851372261634
 10
77.64332273449543
 20
-140.4217474692348
 10
77.4698621768131
 20
-140.3118489232554
 10
77.44867483957881
 20
-140.1805907852674
 10
77.42972681440993
 20
-140.0727592965791
 10
77.42972681440993
 20
-140.0727592965791
 10
77.65176321843428
 20
-140.0727592965791
 10
77.65176321843428
 20
-140.0727592965791
 10
77.70688474619828
 20
-140.2715413060779
 10
77.83383651482974
 20
-140.3011691272511
 10
77.92685409293148
 20
-140.3011691272511
 10
78.0663804600841
 20
-140.3011691272511
 10
78.21882593530641
 20
-140.2016058677274
 10
78.21882593530641
 20
-139.969061922473
 10
78.21882593530641
 20
-139.713091327919
 10
78.03899195097637
 20
-139.6431558895684
 10
77.91841360899262
 20
-139.6431558895684
 10
77.88671873052833
 20
-139.6431558895684
 10
77.74495305131029
 20
-139.6431558895684
 10
77.65606958779085
 20
-139.7723469702653
 10
77.65606958779085
 20
-139.7723469702653
 10
77.48054197281736
 20
-139.7533989450964
 10
77.48054197281736
 20
-139.7533989450964
 10
77.48054197281736
 20
-139.7533989450964
 10
77.60112031480111
 20
-138.9069389843705
 10
77.60112031480111
 20
-138.9069389843705
 10
77.60112031480111
 20
-138.9069389843705
 10
78.37953963969332
 20
-138.9069389843705
 10
78.37953963969332
 20
-138.9069389843705
 10
78.37953963969332
 20
-138.9069389843705
 10
78.37953963969332
 20
-139.1015868792871
 10
78.37953963969332
 20
-139.1015868792871
 10
78.37953963969332
 20
-139.1015868792871
 10
77.76390107647917
 20
-139.1015868792871
 10
77.76390107647917
 20
-139.1015868792871
 10
77.76390107647917
 20
-139.1015868792871
 10
77.69844426225941
 20
-139.5246446048758
 10
77.69844426225941
 20
-139.5246446048758
 10
77.75976696189687
 20
-139.4908826691203
 10
77.8422769987686
 20
-139.4505750519429
 10
77.96061602868693
 20
-139.4505750519429
 10
78.21451956594984
 20
-139.4505750519429
 10
78.45154213533503
 20
-139.6369547176949
 10
78.45154213533503
 20
-139.9501138973041
 10
78.45154213533503
 20
-140.2674071914957
 10
78.22726641924527
 20
-140.5020181940412
 10
77.92478703564034
 20
-140.5020181940412
 97
        0
 97
        0
 75
     2
 76
     1
 98
        0
  0
ENDBLK
  5
E0
330
DD
100
AcDbEntity
  8
0
100
AcDbBlockEnd
  0
BLOCK
  5
F5
330
F3
100
AcDbEntity
  8
0
100
AcDbBlockBegin
  2
block 7
 70
     0
 10
0.0
 20
0.0
 30
0.0
  3
block 7
  1

  0
SPLINE
  5
F7
330
F3
100
AcDbEntity
  8
_U+30EC_U+30A4_U+30E4_U+30FC 1
370
     0
100
AcDbSpline
210
0.0
220
0.0
230
1.0
 70
    11
 71
     3
 72
    62
 73
    58
 74
     0
 42
0.0000000001
 43
0.0000000001
 12
1.0
 22
0.0
 32
0.0
 13
1.0
 23
0.0
 33
0.0
 40
0.0
 40
0.0
 40
0.0
 40
0.0
 40
1.0
 40
1.0
 40
1.0
 40
2.0
 40
2.0
 40
2.0
 40
3.0
 40
3.0
 40
3.0
 40
4.0
 40
4.0
 40
4.0
 40
5.0
 40
5.0
 40
5.0
 40
6.0
 40
6.0
 40
6.0
 40
7.0
 40
7.0
 40
7.0
 40
8.0
 40
8.0
 40
8.0
 40
9.0
 40
9.0
 40
9.0
 40
10.0
 40
10.0
 40
10.0
 40
11.0
 40
11.0
 40
11.0
 40
12.0
 40
12.0
 40
12.0
 40
13.0
 40
13.0
 40
13.0
 40
14.0
 40
14.0
 40
14.0
 40
15.0
 40
15.0
 40
15.0
 40
16.0
 40
16.0
 40
16.0
 40
17.0
 40
17.0
 40
17.0
 40
18.0
 40
18.0
 40
18.0
 40
19.0
 40
19.0
 40
19.0
 40
19.0
 10
109.2722276202514
 20
-135.2499701267778
 30
0.0
 10
109.2722276202514
 20
-135.3453992717192
 30
0.0
 10
109.2512125377914
 20
-135.563129306387
 30
0.0
 10
109.0651773815879
 20
-135.6881862725016
 30
0.0
 10
108.9528672687687
 20
-135.7622558254344
 30
0.0
 10
108.8536485187935
 20
-135.7663899400168
 30
0.0
 10
108.7688991698564
 20
-135.770524054599
 30
0.0
 10
108.7688991698564
 20
-135.770524054599
 30
0.0
 10
108.7688991698564
 20
-135.5503824530916
 30
0.0
 10
108.7688991698564
 20
-135.5503824530916
 30
0.0
 10
108.8429687227893
 20
-135.5483153958004
 30
0.0
 10
109.0775797253348
 20
-135.5379801093447
 30
0.0
 10
109.0775797253348
 20
-135.2544487509086
 30
0.0
 10
109.0775797253348
 20
-135.1169894410471
 30
0.0
 10
109.0079887965327
 20
-134.9643717110506
 30
0.0
 10
108.7795789658607
 20
-134.9643717110506
 30
0.0
 10
108.6631347384592
 20
-134.9643717110506
 30
0.0
 10
108.6145588921172
 20
-135.0026122709369
 30
0.0
 10
108.5828640136529
 20
-135.0343071494011
 30
0.0
 10
108.50879446072
 20
-135.108376702334
 30
0.0
 10
108.4960476074246
 20
-135.2248209297355
 30
0.0
 10
108.4960476074246
 20
-135.2795979479509
 30
0.0
 10
108.4960476074246
 20
-135.2988904826683
 30
0.0
 10
108.4981146647158
 20
-135.3347194757149
 30
0.0
 10
108.5022487792981
 20
-135.3622802395969
 30
0.0
 10
108.5022487792981
 20
-135.3622802395969
 30
0.0
 10
108.3076008843814
 20
-135.3622802395969
 30
0.0
 10
108.3076008843814
 20
-135.3622802395969
 30
0.0
 10
108.3141465658034
 20
-135.3240396797107
 30
0.0
 10
108.3162136230946
 20
-135.2820095147906
 30
0.0
 10
108.3162136230946
 20
-135.2754638333686
 30
0.0
 10
108.3162136230946
 20
-135.2100070191489
 30
0.0
 10
108.294854031086
 20
-135.01122500965
 30
0.0
 10
108.0581759712494
 20
-135.01122500965
 30
0.0
 10
107.8804090442105
 20
-135.01122500965
 30
0.0
 10
107.8252875164465
 20
-135.1421386380895
 30
0.0
 10
107.8252875164465
 20
-135.2523816936175
 30
0.0
 10
107.8252875164465
 20
-135.5166205173361
 30
0.0
 10
108.0581759712494
 20
-135.5252332560493
 30
0.0
 10
108.1298339573425
 20
-135.5293673706315
 30
0.0
 10
108.1298339573425
 20
-135.5293673706315
 30
0.0
 10
108.1298339573425
 20
-135.7326280042613
 30
0.0
 10
108.1298339573425
 20
-135.7326280042613
 30
0.0
 10
108.0051215007765
 20
-135.7240152655482
 30
0.0
 10
107.6285725642387
 20
-135.6964545016662
 30
0.0
 10
107.6285725642387
 20
-135.2396348403221
 30
0.0
 10
107.6285725642387
 20
-135.0153591242323
 30
0.0
 10
107.7556965876444
 20
-134.7742024402648
 30
0.0
 10
108.0516302898274
 20
-134.7742024402648
 30
0.0
 10
108.2380099555794
 20
-134.7742024402648
 30
0.0
 10
108.3203477376769
 20
-134.8692870756577
 30
0.0
 10
108.3816704373143
 20
-134.9688503351814
 30
0.0
 10
108.4092312011963
 20
-134.907527635544
 30
0.0
 10
108.4895019260026
 20
-134.7256265939228
 30
0.0
 10
108.7668321125652
 20
-134.7256265939228
 30
0.0
 10
109.1051404892168
 20
-134.7256265939228
 30
0.0
 10
109.2722276202514
 20
-134.9729844497637
 30
0.0
 10
109.2722276202514
 20
-135.2499701267778
 30
0.0
  0
HATCH
  5
F8
330
F3
100
AcDbEntity
  8
_U+30EC_U+30A4_U+30E4_U+30FC 1
 62
     7
420
 16777215
100
AcDbHatch
 10
0.0
 20
0.0
 30
0.0
210
0.0
220
0.0
230
1.0
  2
SOLID
 70
     1
 71
     0
 91
        1
 92
        1
 93
        1
 72
     4
 94
        3
 73
     0
 74
     1
 95
       62
 96
       58
 40
0.0
 40
0.0
 40
0.0
 40
0.0
 40
1.0
 40
1.0
 40
1.0
 40
2.0
 40
2.0
 40
2.0
 40
3.0
 40
3.0
 40
3.0
 40
4.0
 40
4.0
 40
4.0
 40
5.0
 40
5.0
 40
5.0
 40
6.0
 40
6.0
 40
6.0
 40
7.0
 40
7.0
 40
7.0
 40
8.0
 40
8.0
 40
8.0
 40
9.0
 40
9.0
 40
9.0
 40
10.0
 40
10.0
 40
10.0
 40
11.0
 40
11.0
 40
11.0
 40
12.0
 40
12.0
 40
12.0
 40
13.0
 40
13.0
 40
13.0
 40
14.0
 40
14.0
 40
14.0
 40
15.0
 40
15.0
 40
15.0
 40
16.0
 40
16.0
 40
16.0
 40
17.0
 40
17.0
 40
17.0
 40
18.0
 40
18.0
 40
18.0
 40
19.0
 40
19.0
 40
19.0
 40
19.0
 10
109.2722276202514
 20
-135.2499701267778
 10
109.2722276202514
 20
-135.3453992717192
 10
109.2512125377914
 20
-135.563129306387
 10
109.0651773815879
 20
-135.6881862725016
 10
108.9528672687687
 20
-135.7622558254344
 10
108.8536485187935
 20
-135.7663899400168
 10
108.7688991698564
 20
-135.770524054599
 10
108.7688991698564
 20
-135.770524054599
 10
108.7688991698564
 20
-135.5503824530916
 10
108.7688991698564
 20
-135.5503824530916
 10
108.8429687227893
 20
-135.5483153958004
 10
109.0775797253348
 20
-135.5379801093447
 10
109.0775797253348
 20
-135.2544487509086
 10
109.0775797253348
 20
-135.1169894410471
 10
109.0079887965327
 20
-134.9643717110506
 10
108.7795789658607
 20
-134.9643717110506
 10
108.6631347384592
 20
-134.9643717110506
 10
108.6145588921172
 20
-135.0026122709369
 10
108.5828640136529
 20
-135.0343071494011
 10
108.50879446072
 20
-135.108376702334
 10
108.4960476074246
 20
-135.2248209297355
 10
108.4960476074246
 20
-135.2795979479509
 10
108.4960476074246
 20
-135.2988904826683
 10
108.4981146647158
 20
-135.3347194757149
 10
108.5022487792981
 20
-135.3622802395969
 10
108.5022487792981
 20
-135.3622802395969
 10
108.3076008843814
 20
-135.3622802395969
 10
108.3076008843814
 20
-135.3622802395969
 10
108.3141465658034
 20
-135.3240396797107
 10
108.3162136230946
 20
-135.2820095147906
 10
108.3162136230946
 20
-135.2754638333686
 10
108.3162136230946
 20
-135.2100070191489
 10
108.294854031086
 20
-135.01122500965
 10
108.0581759712494
 20
-135.01122500965
 10
107.8804090442105
 20
-135.01122500965
 10
107.8252875164465
 20
-135.1421386380895
 10
107.8252875164465
 20
-135.2523816936175
 10
107.8252875164465
 20
-135.5166205173361
 10
108.0581759712494
 20
-135.5252332560493
 10
108.1298339573425
 20
-135.5293673706315
 10
108.1298339573425
 20
-135.5293673706315
 10
108.1298339573425
 20
-135.7326280042613
 10
108.1298339573425
 20
-135.7326280042613
 10
108.0051215007765
 20
-135.7240152655482
 10
107.6285725642387
 20
-135.6964545016662
 10
107.6285725642387
 20
-135.2396348403221
 10
107.6285725642387
 20
-135.0153591242323
 10
107.7556965876444
 20
-134.7742024402648
 10
108.0516302898274
 20
-134.7742024402648
 10
108.2380099555794
 20
-134.7742024402648
 10
108.3203477376769
 20
-134.8692870756577
 10
108.3816704373143
 20
-134.9688503351814
 10
108.4092312011963
 20
-134.907527635544
 10
108.4895019260026
 20
-134.7256265939228
 10
108.7668321125652
 20
-134.7256265939228
 10
109.1051404892168
 20
-134.7256265939228
 10
109.2722276202514
 20
-134.9729844497637
 10
109.2722276202514
 20
-135.2499701267778
 97
        0
 97
        0
 75
     2
 76
     1
 98
        0
  0
ENDBLK
  5
F6
330
F3
100
AcDbEntity
  8
0
100
AcDbBlockEnd
  0
BLOCK
  5
FF
330
FD
100
AcDbEntity
  8
0
100
AcDbBlockBegin
  2
block 8
 70
     0
 10
0.0
 20
0.0
 30
0.0
  3
block 8
  1

  0
SPLINE
  5
101
330
FD
100
AcDbEntity
  8
_U+30EC_U+30A4_U+30E4_U+30FC 1
370
     0
100
AcDbSpline
210
0.0
220
0.0
230
1.0
 70
    11
 71
     3
 72
    26
 73
    22
 74
     0
 42
0.0000000001
 43
0.0000000001
 12
1.0
 22
0.0
 32
0.0
 13
1.0
 23
0.0
 33
0.0
 40
0.0
 40
0.0
 40
0.0
 40
0.0
 40
1.0
 40
1.0
 40
1.0
 40
2.0
 40
2.0
 40
2.0
 40
3.0
 40
3.0
 40
3.0
 40
4.0
 40
4.0
 40
4.0
 40
5.0
 40
5.0
 40
5.0
 40
6.0
 40
6.0
 40
6.0
 40
7.0
 40
7.0
 40
7.0
 40
7.0
 10
109.2215847166182
 20
-129.7212808920488
 30
0.0
 10
109.2215847166182
 20
-129.7212808920488
 30
0.0
 10
108.1174316135956
 20
-129.7212808920488
 30
0.0
 10
108.1174316135956
 20
-129.7212808920488
 30
0.0
 10
108.1174316135956
 20
-129.7212808920488
 30
0.0
 10
108.1174316135956
 20
-130.0513210395358
 30
0.0
 10
108.1174316135956
 20
-130.0513210395358
 30
0.0
 10
108.1174316135956
 20
-130.0513210395358
 30
0.0
 10
107.9692925077299
 20
-130.0513210395358
 30
0.0
 10
107.9692925077299
 20
-130.0513210395358
 30
0.0
 10
107.9544785971433
 20
-129.7192138347577
 30
0.0
 10
107.791525580691
 20
-129.6727050457068
 30
0.0
 10
107.6771484105807
 20
-129.6430772245337
 30
0.0
 10
107.6771484105807
 20
-129.6430772245337
 30
0.0
 10
107.6771484105807
 20
-129.4970051759591
 30
0.0
 10
107.6771484105807
 20
-129.4970051759591
 30
0.0
 10
107.6771484105807
 20
-129.4970051759591
 30
0.0
 10
109.2215847166182
 20
-129.4970051759591
 30
0.0
 10
109.2215847166182
 20
-129.4970051759591
 30
0.0
 10
109.2215847166182
 20
-129.4970051759591
 30
0.0
 10
109.2215847166182
 20
-129.7212808920488
 30
0.0
 10
109.2215847166182
 20
-129.7212808920488
 30
0.0
  0
HATCH
  5
102
330
FD
100
AcDbEntity
  8
_U+30EC_U+30A4_U+30E4_U+30FC 1
 62
     7
420
 16777215
100
AcDbHatch
 10
0.0
 20
0.0
 30
0.0
210
0.0
220
0.0
230
1.0
  2
SOLID
 70
     1
 71
     0
 91
        1
 92
        1
 93
        1
 72
     4
 94
        3
 73
     0
 74
     1
 95
       26
 96
       22
 40
0.0
 40
0.0
 40
0.0
 40
0.0
 40
1.0
 40
1.0
 40
1.0
 40
2.0
 40
2.0
 40
2.0
 40
3.0
 40
3.0
 40
3.0
 40
4.0
 40
4.0
 40
4.0
 40
5.0
 40
5.0
 40
5.0
 40
6.0
 40
6.0
 40
6.0
 40
7.0
 40
7.0
 40
7.0
 40
7.0
 10
109.2215847166182
 20
-129.7212808920488
 10
109.2215847166182
 20
-129.7212808920488
 10
108.1174316135956
 20
-129.7212808920488
 10
108.1174316135956
 20
-129.7212808920488
 10
108.1174316135956
 20
-129.7212808920488
 10
108.1174316135956
 20
-130.0513210395358
 10
108.1174316135956
 20
-130.0513210395358
 10
108.1174316135956
 20
-130.0513210395358
 10
107.9692925077299
 20
-130.0513210395358
 10
107.9692925077299
 20
-130.0513210395358
 10
107.9544785971433
 20
-129.7192138347577
 10
107.791525580691
 20
-129.6727050457068
 10
107.6771484105807
 20
-129.6430772245337
 10
107.6771484105807
 20
-129.6430772245337
 10
107.6771484105807
 20
-129.4970051759591
 10
107.6771484105807
 20
-129.4970051759591
 10
107.6771484105807
 20
-129.4970051759591
 10
109.2215847166182
 20
-129.4970051759591
 10
109.2215847166182
 20
-129.4970051759591
 10
109.2215847166182
 20
-129.4970051759591
 10
109.2215847166182
 20
-129.7212808920488
 10
109.2215847166182
 20
-129.7212808920488
 97
        0
 97
        0
 75
     2
 76
     1
 98
        0
  0
SPLINE
  5
103
330
FD
100
AcDbEntity
  8
_U+30EC_U+30A4_U+30E4_U+30FC 1
370
     0
100
AcDbSpline
210
0.0
220
0.0
230
1.0
 70
    11
 71
     3
 72
    29
 73
    25
 74
     0
 42
0.0000000001
 43
0.0000000001
 12
1.0
 22
0.0
 32
0.0
 13
1.0
 23
0.0
 33
0.0
 40
0.0
 40
0.0
 40
0.0
 40
0.0
 40
1.0
 40
1.0
 40
1.0
 40
2.0
 40
2.0
 40
2.0
 40
3.0
 40
3.0
 40
3.0
 40
4.0
 40
4.0
 40
4.0
 40
5.0
 40
5.0
 40
5.0
 40
6.0
 40
6.0
 40
6.0
 40
7.0
 40
7.0
 40
7.0
 40
8.0
 40
8.0
 40
8.0
 40
8.0
 10
109.0438177895793
 20
-128.0979518993991
 30
0.0
 10
109.2532795950825
 20
-128.206127897636
 30
0.0
 10
109.2722276202514
 20
-128.379416200544
 30
0.0
 10
109.2722276202514
 20
-128.4958604279455
 30
0.0
 10
109.2722276202514
 20
-128.6567463871067
 30
0.0
 10
109.2257188312005
 20
-128.7983398115504
 30
0.0
 10
109.0438177895793
 20
-128.8934244469433
 30
0.0
 10
108.8491698946627
 20
-128.9971218210493
 30
0.0
 10
108.6121473252775
 20
-129.0160698462182
 30
0.0
 10
108.4495388183737
 20
-129.0160698462182
 30
0.0
 10
108.3055338270903
 20
-129.0160698462182
 30
0.0
 10
108.0536973471185
 20
-128.9991888783405
 30
0.0
 10
107.8549153376196
 20
-128.8934244469433
 30
0.0
 10
107.6519992135384
 20
-128.785592958255
 30
0.0
 10
107.6285725642387
 20
-128.6247069990938
 30
0.0
 10
107.6285725642387
 20
-128.4958604279455
 30
0.0
 10
107.6285725642387
 20
-128.3370415260755
 30
0.0
 10
107.6730142959984
 20
-128.1933810443406
 30
0.0
 10
107.8549153376196
 20
-128.0979518993991
 30
0.0
 10
108.0474961752451
 20
-127.9987331494239
 30
0.0
 10
108.2759060059171
 20
-127.9753065001242
 30
0.0
 10
108.4495388183737
 20
-127.9753065001242
 30
0.0
 10
108.6207600639906
 20
-127.9753065001242
 30
0.0
 10
108.8512369519539
 20
-127.9966660921328
 30
0.0
 10
109.0438177895793
 20
-128.0979518993991
 30
0.0
  0
SPLINE
  5
104
330
FD
100
AcDbEntity
  8
_U+30EC_U+30A4_U+30E4_U+30FC 1
370
     0
100
AcDbSpline
210
0.0
220
0.0
230
1.0
 70
    11
 71
     3
 72
    17
 73
    13
 74
     0
 42
0.0000000001
 43
0.0000000001
 12
1.0
 22
0.0
 32
0.0
 13
1.0
 23
0.0
 33
0.0
 40
0.0
 40
0.0
 40
0.0
 40
0.0
 40
1.0
 40
1.0
 40
1.0
 40
2.0
 40
2.0
 40
2.0
 40
3.0
 40
3.0
 40
3.0
 40
4.0
 40
4.0
 40
4.0
 40
4.0
 10
107.8211534018642
 20
-128.4958604279455
 30
0.0
 10
107.8211534018642
 20
-128.7452853410776
 30
0.0
 10
108.1046847603002
 20
-128.792138639677
 30
0.0
 10
108.4495388183737
 20
-128.792138639677
 30
0.0
 10
108.7688991698564
 20
-128.792138639677
 30
0.0
 10
109.0775797253348
 20
-128.7559651370819
 30
0.0
 10
109.0775797253348
 20
-128.4958604279455
 30
0.0
 10
109.0775797253348
 20
-128.248158062556
 30
0.0
 10
108.7964599337384
 20
-128.199582216214
 30
0.0
 10
108.4495388183737
 20
-128.199582216214
 30
0.0
 10
108.1298339573425
 20
-128.199582216214
 30
0.0
 10
107.8211534018642
 20
-128.2378227761003
 30
0.0
 10
107.8211534018642
 20
-128.4958604279455
 30
0.0
  0
HATCH
  5
105
330
FD
100
AcDbEntity
  8
_U+30EC_U+30A4_U+30E4_U+30FC 1
 62
     7
420
 16777215
100
AcDbHatch
 10
0.0
 20
0.0
 30
0.0
210
0.0
220
0.0
230
1.0
  2
SOLID
 70
     1
 71
     0
 91
        2
 92
        1
 93
        1
 72
     4
 94
        3
 73
     0
 74
     1
 95
       29
 96
       25
 40
0.0
 40
0.0
 40
0.0
 40
0.0
 40
1.0
 40
1.0
 40
1.0
 40
2.0
 40
2.0
 40
2.0
 40
3.0
 40
3.0
 40
3.0
 40
4.0
 40
4.0
 40
4.0
 40
5.0
 40
5.0
 40
5.0
 40
6.0
 40
6.0
 40
6.0
 40
7.0
 40
7.0
 40
7.0
 40
8.0
 40
8.0
 40
8.0
 40
8.0
 10
109.0438177895793
 20
-128.0979518993991
 10
109.2532795950825
 20
-128.206127897636
 10
109.2722276202514
 20
-128.379416200544
 10
109.2722276202514
 20
-128.4958604279455
 10
109.2722276202514
 20
-128.6567463871067
 10
109.2257188312005
 20
-128.7983398115504
 10
109.0438177895793
 20
-128.8934244469433
 10
108.8491698946627
 20
-128.9971218210493
 10
108.6121473252775
 20
-129.0160698462182
 10
108.4495388183737
 20
-129.0160698462182
 10
108.3055338270903
 20
-129.0160698462182
 10
108.0536973471185
 20
-128.9991888783405
 10
107.8549153376196
 20
-128.8934244469433
 10
107.6519992135384
 20
-128.785592958255
 10
107.6285725642387
 20
-128.6247069990938
 10
107.6285725642387
 20
-128.4958604279455
 10
107.6285725642387
 20
-128.3370415260755
 10
107.6730142959984
 20
-128.1933810443406
 10
107.8549153376196
 20
-128.0979518993991
 10
108.0474961752451
 20
-127.9987331494239
 10
108.2759060059171
 20
-127.9753065001242
 10
108.4495388183737
 20
-127.9753065001242
 10
108.6207600639906
 20
-127.9753065001242
 10
108.8512369519539
 20
-127.9966660921328
 10
109.0438177895793
 20
-128.0979518993991
 97
        0
 97
        0
 92
        1
 93
        1
 72
     4
 94
        3
 73
     0
 74
     1
 95
       17
 96
       13
 40
0.0
 40
0.0
 40
0.0
 40
0.0
 40
1.0
 40
1.0
 40
1.0
 40
2.0
 40
2.0
 40
2.0
 40
3.0
 40
3.0
 40
3.0
 40
4.0
 40
4.0
 40
4.0
 40
4.0
 10
107.8211534018642
 20
-128.4958604279455
 10
107.8211534018642
 20
-128.7452853410776
 10
108.1046847603002
 20
-128.792138639677
 10
108.4495388183737
 20
-128.792138639677
 10
108.7688991698564
 20
-128.792138639677
 10
109.0775797253348
 20
-128.7559651370819
 10
109.0775797253348
 20
-128.4958604279455
 10
109.0775797253348
 20
-128.248158062556
 10
108.7964599337384
 20
-128.199582216214
 10
108.4495388183737
 20
-128.199582216214
 10
108.1298339573425
 20
-128.199582216214
 10
107.8211534018642
 20
-128.2378227761003
 10
107.8211534018642
 20
-128.4958604279455
 97
        0
 97
        0
 75
     2
 76
     1
 98
        0
  0
ENDBLK
  5
100
330
FD
100
AcDbEntity
  8
0
100
AcDbBlockEnd
  0
ENDSEC
  0
SECTION
  2
ENTITIES
  0
POLYLINE
  5
41
330
1F
100
AcDbEntity
  8
_U+30EC_U+30A4_U+30E4_U+30FC 1
 62
   253
420
 11711154
370
     9
100
AcDb2dPolyline
 66
     1
 10
0.0
 20
0.0
 30
0.0
  0
VERTEX
  5
42
330
41
100
AcDbEntity
  8
_U+30EC_U+30A4_U+30E4_U+30FC 1
 62
   253
420
 11711154
370
     9
100
AcDbVertex
100
AcDb2dVertex
 10
70.00553793623216
 20
-122.6343749693414
 30
0.0
  0
VERTEX
  5
43
330
41
100
AcDbEntity
  8
_U+30EC_U+30A4_U+30E4_U+30FC 1
 62
   253
420
 11711154
370
     9
100
AcDbVertex
100
AcDb2dVertex
 10
70.00553793623216
 20
-123.6499869135318
 30
0.0
  0
VERTEX
  5
44
330
41
100
AcDbEntity
  8
_U+30EC_U+30A4_U+30E4_U+30FC 1
 62
   253
420
 11711154
370
     9
100
AcDbVertex
100
AcDb2dVertex
 10
84.90041505623218
 20
-123.6499869135318
 30
0.0
  0
VERTEX
  5
45
330
41
100
AcDbEntity
  8
_U+30EC_U+30A4_U+30E4_U+30FC 1
 62
   253
420
 11711154
370
     9
100
AcDbVertex
100
AcDb2dVertex
 10
84.90041505623218
 20
-136.7795996880274
 30
0.0
  0
VERTEX
  5
46
330
41
100
AcDbEntity
  8
_U+30EC_U+30A4_U+30E4_U+30FC 1
 62
   253
420
 11711154
370
     9
100
AcDbVertex
100
AcDb2dVertex
 10
95.11220257348556
 20
-136.7795996880274
 30
0.0
  0
VERTEX
  5
47
330
41
100
AcDbEntity
  8
_U+30EC_U+30A4_U+30E4_U+30FC 1
 62
   253
420
 11711154
370
     9
100
AcDbVertex
100
AcDb2dVertex
 10
95.11220257348556
 20
-133.8147494109907
 30
0.0
  0
VERTEX
  5
48
330
41
100
AcDbEntity
  8
_U+30EC_U+30A4_U+30E4_U+30FC 1
 62
   253
420
 11711154
370
     9
100
AcDbVertex
100
AcDb2dVertex
 10
93.98772343550674
 20
-133.8147494109907
 30
0.0
  0
VERTEX
  5
49
330
41
100
AcDbEntity
  8
_U+30EC_U+30A4_U+30E4_U+30FC 1
 62
   253
420
 11711154
370
     9
100
AcDbVertex
100
AcDb2dVertex
 10
93.98772343550674
 20
-135.7281455216237
 30
0.0
  0
VERTEX
  5
4A
330
41
100
AcDbEntity
  8
_U+30EC_U+30A4_U+30E4_U+30FC 1
 62
   253
420
 11711154
370
     9
100
AcDbVertex
100
AcDb2dVertex
 10
86.02524697197977
 20
-135.7281455216237
 30
0.0
  0
VERTEX
  5
4B
330
41
100
AcDbEntity
  8
_U+30EC_U+30A4_U+30E4_U+30FC 1
 62
   253
420
 11711154
370
     9
100
AcDbVertex
100
AcDb2dVertex
 10
86.02524697197977
 20
-123.6868521913005
 30
0.0
  0
VERTEX
  5
4C
330
41
100
AcDbEntity
  8
_U+30EC_U+30A4_U+30E4_U+30FC 1
 62
   253
420
 11711154
370
     9
100
AcDbVertex
100
AcDb2dVertex
 10
105.1057264851962
 20
-123.6868521913005
 30
0.0
  0
VERTEX
  5
4D
330
41
100
AcDbEntity
  8
_U+30EC_U+30A4_U+30E4_U+30FC 1
 62
   253
420
 11711154
370
     9
100
AcDbVertex
100
AcDb2dVertex
 10
105.1057264851962
 20
-122.5978624693505
 30
0.0
  0
VERTEX
  5
4E
330
41
100
AcDbEntity
  8
_U+30EC_U+30A4_U+30E4_U+30FC 1
 62
   253
420
 11711154
370
     9
100
AcDbVertex
100
AcDb2dVertex
 10
70.00553793623216
 20
-122.6343749693414
 30
0.0
  0
SEQEND
  5
50
330
41
100
AcDbEntity
  8
_U+30EC_U+30A4_U+30E4_U+30FC 1
 62
   253
420
 11711154
370
     9
  0
HATCH
  5
4F
330
1F
100
AcDbEntity
  8
_U+30EC_U+30A4_U+30E4_U+30FC 1
 62
   253
420
 11711154
100
AcDbHatch
 10
0.0
 20
0.0
 30
0.0
210
0.0
220
0.0
230
1.0
  2
SOLID
 70
     1
 71
     0
 91
        1
 92
        1
 93
       12
 72
     1
 10
70.00553793623216
 20
-122.6343749693414
 11
70.00553793623216
 21
-123.6499869135318
 72
     1
 10
70.00553793623216
 20
-123.6499869135318
 11
84.90041505623218
 21
-123.6499869135318
 72
     1
 10
84.90041505623218
 20
-123.6499869135318
 11
84.90041505623218
 21
-136.7795996880274
 72
     1
 10
84.90041505623218
 20
-136.7795996880274
 11
95.11220257348556
 21
-136.7795996880274
 72
     1
 10
95.11220257348556
 20
-136.7795996880274
 11
95.11220257348556
 21
-133.8147494109907
 72
     1
 10
95.11220257348556
 20
-133.8147494109907
 11
93.98772343550674
 21
-133.8147494109907
 72
     1
 10
93.98772343550674
 20
-133.8147494109907
 11
93.98772343550674
 21
-135.7281455216237
 72
     1
 10
93.98772343550674
 20
-135.7281455216237
 11
86.02524697197977
 21
-135.7281455216237
 72
     1
 10
86.02524697197977
 20
-135.7281455216237
 11
86.02524697197977
 21
-123.6868521913005
 72
     1
 10
86.02524697197977
 20
-123.6868521913005
 11
105.1057264851962
 21
-123.6868521913005
 72
     1
 10
105.1057264851962
 20
-123.6868521913005
 11
105.1057264851962
 21
-122.5978624693505
 72
     1
 10
105.1057264851962
 20
-122.5978624693505
 11
70.00553793623216
 21
-122.6343749693414
 97
        0
 75
     2
 76
     1
 98
        0
  0
POLYLINE
  5
51
330
1F
100
AcDbEntity
  8
_U+30EC_U+30A4_U+30E4_U+30FC 1
 62
     7
420
 16777215
370
    25
100
AcDb2dPolyline
 66
     1
 10
0.0
 20
0.0
 30
0.0
  0
VERTEX
  5
52
330
51
100
AcDbEntity
  8
_U+30EC_U+30A4_U+30E4_U+30FC 1
 62
     7
420
 16777215
370
    25
100
AcDbVertex
100
AcDb2dVertex
 10
70.01760293592436
 20
-122.6033658026823
 30
0.0
  0
VERTEX
  5
53
330
51
100
AcDbEntity
  8
_U+30EC_U+30A4_U+30E4_U+30FC 1
 62
     7
420
 16777215
370
    25
100
AcDbVertex
100
AcDb2dVertex
 10
105.0182375985393
 20
-122.6033658026823
 30
0.0
  0
SEQEND
  5
54
330
51
100
AcDbEntity
  8
_U+30EC_U+30A4_U+30E4_U+30FC 1
 62
     7
420
 16777215
370
    25
  0
POLYLINE
  5
55
330
1F
100
AcDbEntity
  8
_U+30EC_U+30A4_U+30E4_U+30FC 1
 62
     7
420
 16777215
370
    25
100
AcDb2dPolyline
 66
     1
 10
0.0
 20
0.0
 30
0.0
  0
VERTEX
  5
56
330
55
100
AcDbEntity
  8
_U+30EC_U+30A4_U+30E4_U+30FC 1
 62
     7
420
 16777215
370
    25
100
AcDbVertex
100
AcDb2dVertex
 10
70.01760293592436
 20
-123.7033974690743
 30
0.0
  0
VERTEX
  5
57
330
55
100
AcDbEntity
  8
_U+30EC_U+30A4_U+30E4_U+30FC 1
 62
     7
420
 16777215
370
    25
100
AcDbVertex
100
AcDb2dVertex
 10
85.01753727546637
 20
-123.7033974690743
 30
0.0
  0
SEQEND
  5
58
330
55
100
AcDbEntity
  8
_U+30EC_U+30A4_U+30E4_U+30FC 1
 62
     7
420
 16777215
370
    25
  0
POLYLINE
  5
59
330
1F
100
AcDbEntity
  8
_U+30EC_U+30A4_U+30E4_U+30FC 1
 62
     7
420
 16777215
370
    25
100
AcDb2dPolyline
 66
     1
 10
0.0
 20
0.0
 30
0.0
  0
VERTEX
  5
5A
330
59
100
AcDbEntity
  8
_U+30EC_U+30A4_U+30E4_U+30FC 1
 62
     7
420
 16777215
370
    25
100
AcDbVertex
100
AcDb2dVertex
 10
105.0692166403996
 20
-123.7033974690743
 30
0.0
  0
VERTEX
  5
5B
330
59
100
AcDbEntity
  8
_U+30EC_U+30A4_U+30E4_U+30FC 1
 62
     7
420
 16777215
370
    25
100
AcDbVertex
100
AcDb2dVertex
 10
105.0692166403996
 20
-122.6033658026823
 30
0.0
  0
SEQEND
  5
5C
330
59
100
AcDbEntity
  8
_U+30EC_U+30A4_U+30E4_U+30FC 1
 62
     7
420
 16777215
370
    25
  0
POLYLINE
  5
5D
330
1F
100
AcDbEntity
  8
_U+30EC_U+30A4_U+30E4_U+30FC 1
 62
     7
420
 16777215
370
    25
100
AcDb2dPolyline
 66
     1
 10
0.0
 20
0.0
 30
0.0
  0
VERTEX
  5
5E
330
5D
100
AcDbEntity
  8
_U+30EC_U+30A4_U+30E4_U+30FC 1
 62
     7
420
 16777215
370
    25
100
AcDbVertex
100
AcDb2dVertex
 10
86.01766224995106
 20
-123.7033974690743
 30
0.0
  0
VERTEX
  5
5F
330
5D
100
AcDbEntity
  8
_U+30EC_U+30A4_U+30E4_U+30FC 1
 62
     7
420
 16777215
370
    25
100
AcDbVertex
100
AcDb2dVertex
 10
105.0692166403996
 20
-123.7033974690743
 30
0.0
  0
SEQEND
  5
60
330
5D
100
AcDbEntity
  8
_U+30EC_U+30A4_U+30E4_U+30FC 1
 62
     7
420
 16777215
370
    25
  0
POLYLINE
  5
61
330
1F
100
AcDbEntity
  8
_U+30EC_U+30A4_U+30E4_U+30FC 1
 62
     7
420
 16777215
370
    25
100
AcDb2dPolyline
 66
     1
 10
0.0
 20
0.0
 30
0.0
  0
VERTEX
  5
62
330
61
100
AcDbEntity
  8
_U+30EC_U+30A4_U+30E4_U+30FC 1
 62
     7
420
 16777215
370
    25
100
AcDbVertex
100
AcDb2dVertex
 10
70.05824293488755
 20
-123.7033974690743
 30
0.0
  0
VERTEX
  5
63
330
61
100
AcDbEntity
  8
_U+30EC_U+30A4_U+30E4_U+30FC 1
 62
     7
420
 16777215
370
    25
100
AcDbVertex
100
AcDb2dVertex
 10
70.05824293488755
 20
-122.6033658026823
 30
0.0
  0
SEQEND
  5
64
330
61
100
AcDbEntity
  8
_U+30EC_U+30A4_U+30E4_U+30FC 1
 62
     7
420
 16777215
370
    25
  0
POLYLINE
  5
65
330
1F
100
AcDbEntity
  8
_U+30EC_U+30A4_U+30E4_U+30FC 1
 62
     7
420
 16777215
370
    25
100
AcDb2dPolyline
 66
     1
 10
0.0
 20
0.0
 30
0.0
  0
VERTEX
  5
66
330
65
100
AcDbEntity
  8
_U+30EC_U+30A4_U+30E4_U+30FC 1
 62
     7
420
 16777215
370
    25
100
AcDbVertex
100
AcDb2dVertex
 10
85.01753727546637
 20
-136.8719216324484
 30
0.0
  0
VERTEX
  5
67
330
65
100
AcDbEntity
  8
_U+30EC_U+30A4_U+30E4_U+30FC 1
 62
     7
420
 16777215
370
    25
100
AcDbVertex
100
AcDb2dVertex
 10
85.01753727546637
 20
-123.7033974690743
 30
0.0
  0
SEQEND
  5
68
330
65
100
AcDbEntity
  8
_U+30EC_U+30A4_U+30E4_U+30FC 1
 62
     7
420
 16777215
370
    25
  0
POLYLINE
  5
69
330
1F
100
AcDbEntity
  8
_U+30EC_U+30A4_U+30E4_U+30FC 1
 62
     7
420
 16777215
370
    25
100
AcDb2dPolyline
 66
     1
 10
0.0
 20
0.0
 30
0.0
  0
VERTEX
  5
6A
330
69
100
AcDbEntity
  8
_U+30EC_U+30A4_U+30E4_U+30FC 1
 62
     7
420
 16777215
370
    25
100
AcDbVertex
100
AcDb2dVertex
 10
85.05235644124473
 20
-136.8719216324484
 30
0.0
  0
VERTEX
  5
6B
330
69
100
AcDbEntity
  8
_U+30EC_U+30A4_U+30E4_U+30FC 1
 62
     7
420
 16777215
370
    25
100
AcDbVertex
100
AcDb2dVertex
 10
95.05226563057023
 20
-136.8719216324484
 30
0.0
  0
SEQEND
  5
6C
330
69
100
AcDbEntity
  8
_U+30EC_U+30A4_U+30E4_U+30FC 1
 62
     7
420
 16777215
370
    25
  0
POLYLINE
  5
6D
330
1F
100
AcDbEntity
  8
_U+30EC_U+30A4_U+30E4_U+30FC 1
 62
     7
420
 16777215
370
    25
100
AcDb2dPolyline
 66
     1
 10
0.0
 20
0.0
 30
0.0
  0
VERTEX
  5
6E
330
6D
100
AcDbEntity
  8
_U+30EC_U+30A4_U+30E4_U+30FC 1
 62
     7
420
 16777215
370
    25
100
AcDbVertex
100
AcDb2dVertex
 10
86.01766224995106
 20
-135.7722427438349
 30
0.0
  0
VERTEX
  5
6F
330
6D
100
AcDbEntity
  8
_U+30EC_U+30A4_U+30E4_U+30FC 1
 62
     7
420
 16777215
370
    25
100
AcDbVertex
100
AcDb2dVertex
 10
94.00839621275712
 20
-135.7722427438349
 30
0.0
  0
SEQEND
  5
70
330
6D
100
AcDbEntity
  8
_U+30EC_U+30A4_U+30E4_U+30FC 1
 62
     7
420
 16777215
370
    25
  0
INSERT
  5
72
330
1F
100
AcDbEntity
  8
_U+30EC_U+30A4_U+30E4_U+30FC 1
100
AcDbBlockReference
  2
block 2
 10
0.0
 20
0.0
 30
0.0
  0
POLYLINE
  5
81
330
1F
100
AcDbEntity
  8
_U+30EC_U+30A4_U+30E4_U+30FC 1
 62
     7
420
 16777215
370
    25
100
AcDb2dPolyline
 66
     1
 10
0.0
 20
0.0
 30
0.0
  0
VERTEX
  5
82
330
81
100
AcDbEntity
  8
_U+30EC_U+30A4_U+30E4_U+30FC 1
 62
     7
420
 16777215
370
    25
100
AcDbVertex
100
AcDb2dVertex
 10
86.01766224995106
 20
-135.7722427438349
 30
0.0
  0
VERTEX
  5
83
330
81
100
AcDbEntity
  8
_U+30EC_U+30A4_U+30E4_U+30FC 1
 62
     7
420
 16777215
370
    25
100
AcDbVertex
100
AcDb2dVertex
 10
86.01766224995106
 20
-123.7033974690743
 30
0.0
  0
SEQEND
  5
84
330
81
100
AcDbEntity
  8
_U+30EC_U+30A4_U+30E4_U+30FC 1
 62
     7
420
 16777215
370
    25
  0
SPLINE
  5
85
330
1F
100
AcDbEntity
  8
_U+30EC_U+30A4_U+30E4_U+30FC 1
 62
     7
420
 16777215
370
     9
100
AcDbSpline
210
0.0
220
0.0
230
1.0
 70
    11
 71
     3
 72
    17
 73
    13
 74
     0
 42
0.0000000001
 43
0.0000000001
 12
1.0
 22
0.0
 32
0.0
 13
1.0
 23
0.0
 33
0.0
 40
0.0
 40
0.0
 40
0.0
 40
0.0
 40
1.0
 40
1.0
 40
1.0
 40
2.0
 40
2.0
 40
2.0
 40
3.0
 40
3.0
 40
3.0
 40
4.0
 40
4.0
 40
4.0
 40
4.0
 10
70.08583015640595
 20
-118.6025835814603
 30
0.0
 10
70.08583015640595
 20
-118.5474444148076
 30
0.0
 10
70.0410273797712
 20
-118.5026769148187
 30
0.0
 10
69.98592349228812
 20
-118.5026769148187
 30
0.0
 10
69.93078609362851
 20
-118.5026769148187
 30
0.0
 10
69.88601682817028
 20
-118.5474444148076
 30
0.0
 10
69.88601682817028
 20
-118.6025835814603
 30
0.0
 10
69.88601682817028
 20
-118.6583930258911
 30
0.0
 10
69.93078609362851
 20
-118.7031605258797
 30
0.0
 10
69.98592349228812
 20
-118.7031605258797
 30
0.0
 10
70.0410273797712
 20
-118.7031605258797
 30
0.0
 10
70.08583015640595
 20
-118.6583930258911
 30
0.0
 10
70.08583015640595
 20
-118.6025835814603
 30
0.0
  0
SPLINE
  5
86
330
1F
100
AcDbEntity
  8
_U+30EC_U+30A4_U+30E4_U+30FC 1
 62
     7
420
 16777215
370
     9
100
AcDbSpline
210
0.0
220
0.0
230
1.0
 70
    11
 71
     3
 72
    17
 73
    13
 74
     0
 42
0.0000000001
 43
0.0000000001
 12
1.0
 22
0.0
 32
0.0
 13
1.0
 23
0.0
 33
0.0
 40
0.0
 40
0.0
 40
0.0
 40
0.0
 40
1.0
 40
1.0
 40
1.0
 40
2.0
 40
2.0
 40
2.0
 40
3.0
 40
3.0
 40
3.0
 40
4.0
 40
4.0
 40
4.0
 40
4.0
 10
104.9865228771262
 20
-118.6025835814603
 30
0.0
 10
104.9865228771262
 20
-118.5474444148076
 30
0.0
 10
104.9417553782683
 20
-118.5026769148187
 30
0.0
 10
104.8866162130084
 20
-118.5026769148187
 30
0.0
 10
104.8315123255253
 20
-118.5026769148187
 30
0.0
 10
104.7867095488905
 20
-118.5474444148076
 30
0.0
 10
104.7867095488905
 20
-118.6025835814603
 30
0.0
 10
104.7867095488905
 20
-118.6583930258911
 30
0.0
 10
104.8315123255253
 20
-118.7031605258797
 30
0.0
 10
104.8866162130084
 20
-118.7031605258797
 30
0.0
 10
104.9417553782683
 20
-118.7031605258797
 30
0.0
 10
104.9865228771262
 20
-118.6583930258911
 30
0.0
 10
104.9865228771262
 20
-118.6025835814603
 30
0.0
  0
SPLINE
  5
87
330
1F
100
AcDbEntity
  8
_U+30EC_U+30A4_U+30E4_U+30FC 1
 62
     7
420
 16777215
370
     9
100
AcDbSpline
210
0.0
220
0.0
230
1.0
 70
    11
 71
     3
 72
    17
 73
    13
 74
     0
 42
0.0000000001
 43
0.0000000001
 12
1.0
 22
0.0
 32
0.0
 13
1.0
 23
0.0
 33
0.0
 40
0.0
 40
0.0
 40
0.0
 40
0.0
 40
1.0
 40
1.0
 40
1.0
 40
2.0
 40
2.0
 40
2.0
 40
3.0
 40
3.0
 40
3.0
 40
4.0
 40
4.0
 40
4.0
 40
4.0
 10
111.1439413311485
 20
-122.6033658026823
 30
0.0
 10
111.1439413311485
 20
-122.5482619138074
 30
0.0
 10
111.0991738322906
 20
-122.5034591360407
 30
0.0
 10
111.0440346670307
 20
-122.5034591360407
 30
0.0
 10
110.9889307795476
 20
-122.5034591360407
 30
0.0
 10
110.9441280029128
 20
-122.5482619138074
 30
0.0
 10
110.9441280029128
 20
-122.6033658026823
 30
0.0
 10
110.9441280029128
 20
-122.6585049693354
 30
0.0
 10
110.9889307795476
 20
-122.7032724693243
 30
0.0
 10
111.0440346670307
 20
-122.7032724693243
 30
0.0
 10
111.0991738322906
 20
-122.7032724693243
 30
0.0
 10
111.1439413311485
 20
-122.6585049693354
 30
0.0
 10
111.1439413311485
 20
-122.6033658026823
 30
0.0
  0
SPLINE
  5
88
330
1F
100
AcDbEntity
  8
_U+30EC_U+30A4_U+30E4_U+30FC 1
 62
     7
420
 16777215
370
     9
100
AcDbSpline
210
0.0
220
0.0
230
1.0
 70
    11
 71
     3
 72
    17
 73
    13
 74
     0
 42
0.0000000001
 43
0.0000000001
 12
1.0
 22
0.0
 32
0.0
 13
1.0
 23
0.0
 33
0.0
 40
0.0
 40
0.0
 40
0.0
 40
0.0
 40
1.0
 40
1.0
 40
1.0
 40
2.0
 40
2.0
 40
2.0
 40
3.0
 40
3.0
 40
3.0
 40
4.0
 40
4.0
 40
4.0
 40
4.0
 10
111.1439413311485
 20
-123.7033974690743
 30
0.0
 10
111.1439413311485
 20
-123.6482583024212
 30
0.0
 10
111.0991738322906
 20
-123.6034908024323
 30
0.0
 10
111.0440346670307
 20
-123.6034908024323
 30
0.0
 10
110.9889307795476
 20
-123.6034908024323
 30
0.0
 10
110.9441280029128
 20
-123.6482583024212
 30
0.0
 10
110.9441280029128
 20
-123.7033974690743
 30
0.0
 10
110.9441280029128
 20
-123.758854135727
 30
0.0
 10
110.9889307795476
 20
-123.8036569134937
 30
0.0
 10
111.0440346670307
 20
-123.8036569134937
 30
0.0
 10
111.0991738322906
 20
-123.8036569134937
 30
0.0
 10
111.1439413311485
 20
-123.758854135727
 30
0.0
 10
111.1439413311485
 20
-123.7033974690743
 30
0.0
  0
SPLINE
  5
89
330
1F
100
AcDbEntity
  8
_U+30EC_U+30A4_U+30E4_U+30FC 1
 62
     7
420
 16777215
370
     9
100
AcDbSpline
210
0.0
220
0.0
230
1.0
 70
    11
 71
     3
 72
    17
 73
    13
 74
     0
 42
0.0000000001
 43
0.0000000001
 12
1.0
 22
0.0
 32
0.0
 13
1.0
 23
0.0
 33
0.0
 40
0.0
 40
0.0
 40
0.0
 40
0.0
 40
1.0
 40
1.0
 40
1.0
 40
2.0
 40
2.0
 40
2.0
 40
3.0
 40
3.0
 40
3.0
 40
4.0
 40
4.0
 40
4.0
 40
4.0
 10
85.04512449698478
 20
-141.0976702425035
 30
0.0
 10
85.04512449698478
 20
-141.0425663536285
 30
0.0
 10
85.00032172035002
 20
-140.9977635758618
 30
0.0
 10
84.94486505509818
 20
-140.9977635758618
 30
0.0
 10
84.88972588983822
 20
-140.9977635758618
 30
0.0
 10
84.84495839098034
 20
-141.0425663536285
 30
0.0
 10
84.84495839098034
 20
-141.0976702425035
 30
0.0
 10
84.84495839098034
 20
-141.1528094091565
 30
0.0
 10
84.88972588983822
 20
-141.1975769091451
 30
0.0
 10
84.94486505509818
 20
-141.1975769091451
 30
0.0
 10
85.00032172035002
 20
-141.1975769091451
 30
0.0
 10
85.04512449698478
 20
-141.1528094091565
 30
0.0
 10
85.04512449698478
 20
-141.0976702425035
 30
0.0
  0
SPLINE
  5
8A
330
1F
100
AcDbEntity
  8
_U+30EC_U+30A4_U+30E4_U+30FC 1
 62
     7
420
 16777215
370
     9
100
AcDbSpline
210
0.0
220
0.0
230
1.0
 70
    11
 71
     3
 72
    17
 73
    13
 74
     0
 42
0.0000000001
 43
0.0000000001
 12
1.0
 22
0.0
 32
0.0
 13
1.0
 23
0.0
 33
0.0
 40
0.0
 40
0.0
 40
0.0
 40
0.0
 40
1.0
 40
1.0
 40
1.0
 40
2.0
 40
2.0
 40
2.0
 40
3.0
 40
3.0
 40
3.0
 40
4.0
 40
4.0
 40
4.0
 40
4.0
 10
95.19626951578527
 20
-141.0976702425035
 30
0.0
 10
95.19626951578527
 20
-141.0425663536285
 30
0.0
 10
95.15146673915051
 20
-140.9977635758618
 30
0.0
 10
95.09636285166744
 20
-140.9977635758618
 30
0.0
 10
95.04122368640749
 20
-140.9977635758618
 30
0.0
 10
94.99645618754961
 20
-141.0425663536285
 30
0.0
 10
94.99645618754961
 20
-141.0976702425035
 30
0.0
 10
94.99645618754961
 20
-141.1528094091565
 30
0.0
 10
95.04122368640749
 20
-141.1975769091451
 30
0.0
 10
95.09636285166744
 20
-141.1975769091451
 30
0.0
 10
95.15146673915051
 20
-141.1975769091451
 30
0.0
 10
95.19626951578527
 20
-141.1528094091565
 30
0.0
 10
95.19626951578527
 20
-141.0976702425035
 30
0.0
  0
SPLINE
  5
8B
330
1F
100
AcDbEntity
  8
_U+30EC_U+30A4_U+30E4_U+30FC 1
 62
     7
420
 16777215
370
     9
100
AcDbSpline
210
0.0
220
0.0
230
1.0
 70
    11
 71
     3
 72
    17
 73
    13
 74
     0
 42
0.0000000001
 43
0.0000000001
 12
1.0
 22
0.0
 32
0.0
 13
1.0
 23
0.0
 33
0.0
 40
0.0
 40
0.0
 40
0.0
 40
0.0
 40
1.0
 40
1.0
 40
1.0
 40
2.0
 40
2.0
 40
2.0
 40
3.0
 40
3.0
 40
3.0
 40
4.0
 40
4.0
 40
4.0
 40
4.0
 10
70.15814959900537
 20
-141.0976702425035
 30
0.0
 10
70.15814959900537
 20
-141.0425663536285
 30
0.0
 10
70.11338210014749
 20
-140.9977635758618
 30
0.0
 10
70.05824293488755
 20
-140.9977635758618
 30
0.0
 10
70.00278626963569
 20
-140.9977635758618
 30
0.0
 10
69.95801877077781
 20
-141.0425663536285
 30
0.0
 10
69.95801877077781
 20
-141.0976702425035
 30
0.0
 10
69.95801877077781
 20
-141.1528094091565
 30
0.0
 10
70.00278626963569
 20
-141.1975769091451
 30
0.0
 10
70.05824293488755
 20
-141.1975769091451
 30
0.0
 10
70.11338210014749
 20
-141.1975769091451
 30
0.0
 10
70.15814959900537
 20
-141.1528094091565
 30
0.0
 10
70.15814959900537
 20
-141.0976702425035
 30
0.0
  0
POLYLINE
  5
8C
330
1F
100
AcDbEntity
  8
_U+30EC_U+30A4_U+30E4_U+30FC 1
 62
     7
420
 16777215
370
     9
100
AcDb2dPolyline
 66
     1
 10
0.0
 20
0.0
 30
0.0
  0
VERTEX
  5
8D
330
8C
100
AcDbEntity
  8
_U+30EC_U+30A4_U+30E4_U+30FC 1
 62
     7
420
 16777215
370
     9
100
AcDbVertex
100
AcDb2dVertex
 10
84.94486505509818
 20
-141.0976702425035
 30
0.0
  0
VERTEX
  5
8E
330
8C
100
AcDbEntity
  8
_U+30EC_U+30A4_U+30E4_U+30FC 1
 62
     7
420
 16777215
370
     9
100
AcDbVertex
100
AcDb2dVertex
 10
94.94477424442368
 20
-141.0976702425035
 30
0.0
  0
SEQEND
  5
8F
330
8C
100
AcDbEntity
  8
_U+30EC_U+30A4_U+30E4_U+30FC 1
 62
     7
420
 16777215
370
     9
  0
POLYLINE
  5
90
330
1F
100
AcDbEntity
  8
_U+30EC_U+30A4_U+30E4_U+30FC 1
 62
     7
420
 16777215
370
     9
100
AcDb2dPolyline
 66
     1
 10
0.0
 20
0.0
 30
0.0
  0
VERTEX
  5
91
330
90
100
AcDbEntity
  8
_U+30EC_U+30A4_U+30E4_U+30FC 1
 62
     7
420
 16777215
370
     9
100
AcDbVertex
100
AcDb2dVertex
 10
95.09636285166744
 20
-139.6376288539797
 30
0.0
  0
VERTEX
  5
92
330
90
100
AcDbEntity
  8
_U+30EC_U+30A4_U+30E4_U+30FC 1
 62
     7
420
 16777215
370
     9
100
AcDbVertex
100
AcDb2dVertex
 10
95.09636285166744
 20
-142.0974424644754
 30
0.0
  0
SEQEND
  5
93
330
90
100
AcDbEntity
  8
_U+30EC_U+30A4_U+30E4_U+30FC 1
 62
     7
420
 16777215
370
     9
  0
INSERT
  5
95
330
1F
100
AcDbEntity
  8
_U+30EC_U+30A4_U+30E4_U+30FC 1
100
AcDbBlockReference
  2
block 3
 10
0.0
 20
0.0
 30
0.0
  0
POLYLINE
  5
9D
330
1F
100
AcDbEntity
  8
_U+30EC_U+30A4_U+30E4_U+30FC 1
 62
     7
420
 16777215
370
     9
100
AcDb2dPolyline
 66
     1
 10
0.0
 20
0.0
 30
0.0
  0
VERTEX
  5
9E
330
9D
100
AcDbEntity
  8
_U+30EC_U+30A4_U+30E4_U+30FC 1
 62
     7
420
 16777215
370
     9
100
AcDbVertex
100
AcDb2dVertex
 10
111.0440346670307
 20
-122.6033658026823
 30
0.0
  0
VERTEX
  5
9F
330
9D
100
AcDbEntity
  8
_U+30EC_U+30A4_U+30E4_U+30FC 1
 62
     7
420
 16777215
370
     9
100
AcDbVertex
100
AcDb2dVertex
 10
111.0440346670307
 20
-118.8327005258475
 30
0.0
  0
SEQEND
  5
A0
330
9D
100
AcDbEntity
  8
_U+30EC_U+30A4_U+30E4_U+30FC 1
 62
     7
420
 16777215
370
     9
  0
POLYLINE
  5
A1
330
1F
100
AcDbEntity
  8
_U+30EC_U+30A4_U+30E4_U+30FC 1
 62
     7
420
 16777215
370
     9
100
AcDb2dPolyline
 66
     1
 10
0.0
 20
0.0
 30
0.0
  0
VERTEX
  5
A2
330
A1
100
AcDbEntity
  8
_U+30EC_U+30A4_U+30E4_U+30FC 1
 62
     7
420
 16777215
370
     9
100
AcDbVertex
100
AcDb2dVertex
 10
111.0440346670307
 20
-122.6033658026823
 30
0.0
  0
VERTEX
  5
A3
330
A1
100
AcDbEntity
  8
_U+30EC_U+30A4_U+30E4_U+30FC 1
 62
     7
420
 16777215
370
     9
100
AcDbVertex
100
AcDb2dVertex
 10
111.0440346670307
 20
-123.7033974690743
 30
0.0
  0
SEQEND
  5
A4
330
A1
100
AcDbEntity
  8
_U+30EC_U+30A4_U+30E4_U+30FC 1
 62
     7
420
 16777215
370
     9
  0
POLYLINE
  5
A5
330
1F
100
AcDbEntity
  8
_U+30EC_U+30A4_U+30E4_U+30FC 1
 62
     7
420
 16777215
370
     9
100
AcDb2dPolyline
 66
     1
 10
0.0
 20
0.0
 30
0.0
  0
VERTEX
  5
A6
330
A5
100
AcDbEntity
  8
_U+30EC_U+30A4_U+30E4_U+30FC 1
 62
     7
420
 16777215
370
     9
100
AcDbVertex
100
AcDb2dVertex
 10
109.5839933153905
 20
-122.6033658026823
 30
0.0
  0
VERTEX
  5
A7
330
A5
100
AcDbEntity
  8
_U+30EC_U+30A4_U+30E4_U+30FC 1
 62
     7
420
 16777215
370
     9
100
AcDbVertex
100
AcDb2dVertex
 10
112.0438068637466
 20
-122.6033658026823
 30
0.0
  0
SEQEND
  5
A8
330
A5
100
AcDbEntity
  8
_U+30EC_U+30A4_U+30E4_U+30FC 1
 62
     7
420
 16777215
370
     9
  0
POLYLINE
  5
A9
330
1F
100
AcDbEntity
  8
_U+30EC_U+30A4_U+30E4_U+30FC 1
 62
     7
420
 16777215
370
     9
100
AcDb2dPolyline
 66
     1
 10
0.0
 20
0.0
 30
0.0
  0
VERTEX
  5
AA
330
A9
100
AcDbEntity
  8
_U+30EC_U+30A4_U+30E4_U+30FC 1
 62
     7
420
 16777215
370
     9
100
AcDbVertex
100
AcDb2dVertex
 10
109.5839933153905
 20
-123.7033974690743
 30
0.0
  0
VERTEX
  5
AB
330
A9
100
AcDbEntity
  8
_U+30EC_U+30A4_U+30E4_U+30FC 1
 62
     7
420
 16777215
370
     9
100
AcDbVertex
100
AcDb2dVertex
 10
112.0438068637466
 20
-123.7033974690743
 30
0.0
  0
SEQEND
  5
AC
330
A9
100
AcDbEntity
  8
_U+30EC_U+30A4_U+30E4_U+30FC 1
 62
     7
420
 16777215
370
     9
  0
INSERT
  5
AE
330
1F
100
AcDbEntity
  8
_U+30EC_U+30A4_U+30E4_U+30FC 1
100
AcDbBlockReference
  2
block 4
 10
0.0
 20
0.0
 30
0.0
  0
POLYLINE
  5
BD
330
1F
100
AcDbEntity
  8
_U+30EC_U+30A4_U+30E4_U+30FC 1
 62
     7
420
 16777215
370
     9
100
AcDb2dPolyline
 66
     1
 10
0.0
 20
0.0
 30
0.0
  0
VERTEX
  5
BE
330
BD
100
AcDbEntity
  8
_U+30EC_U+30A4_U+30E4_U+30FC 1
 62
     7
420
 16777215
370
     9
100
AcDbVertex
100
AcDb2dVertex
 10
69.98592349228812
 20
-118.6025835814603
 30
0.0
  0
VERTEX
  5
BF
330
BD
100
AcDbEntity
  8
_U+30EC_U+30A4_U+30E4_U+30FC 1
 62
     7
420
 16777215
370
     9
100
AcDbVertex
100
AcDb2dVertex
 10
104.9865228771262
 20
-118.6025835814603
 30
0.0
  0
SEQEND
  5
C0
330
BD
100
AcDbEntity
  8
_U+30EC_U+30A4_U+30E4_U+30FC 1
 62
     7
420
 16777215
370
     9
  0
POLYLINE
  5
C1
330
1F
100
AcDbEntity
  8
_U+30EC_U+30A4_U+30E4_U+30FC 1
 62
     7
420
 16777215
370
     9
100
AcDb2dPolyline
 66
     1
 10
0.0
 20
0.0
 30
0.0
  0
VERTEX
  5
C2
330
C1
100
AcDbEntity
  8
_U+30EC_U+30A4_U+30E4_U+30FC 1
 62
     7
420
 16777215
370
     9
100
AcDbVertex
100
AcDb2dVertex
 10
69.98592349228812
 20
-120.0626249699844
 30
0.0
  0
VERTEX
  5
C3
330
C1
100
AcDbEntity
  8
_U+30EC_U+30A4_U+30E4_U+30FC 1
 62
     7
420
 16777215
370
     9
100
AcDbVertex
100
AcDb2dVertex
 10
69.98592349228812
 20
-117.6028113594881
 30
0.0
  0
SEQEND
  5
C4
330
C1
100
AcDbEntity
  8
_U+30EC_U+30A4_U+30E4_U+30FC 1
 62
     7
420
 16777215
370
     9
  0
POLYLINE
  5
C5
330
1F
100
AcDbEntity
  8
_U+30EC_U+30A4_U+30E4_U+30FC 1
 62
     7
420
 16777215
370
     9
100
AcDb2dPolyline
 66
     1
 10
0.0
 20
0.0
 30
0.0
  0
VERTEX
  5
C6
330
C5
100
AcDbEntity
  8
_U+30EC_U+30A4_U+30E4_U+30FC 1
 62
     7
420
 16777215
370
     9
100
AcDbVertex
100
AcDb2dVertex
 10
104.8866162130084
 20
-120.0626249699844
 30
0.0
  0
VERTEX
  5
C7
330
C5
100
AcDbEntity
  8
_U+30EC_U+30A4_U+30E4_U+30FC 1
 62
     7
420
 16777215
370
     9
100
AcDbVertex
100
AcDb2dVertex
 10
104.8866162130084
 20
-117.6028113594881
 30
0.0
  0
SEQEND
  5
C8
330
C5
100
AcDbEntity
  8
_U+30EC_U+30A4_U+30E4_U+30FC 1
 62
     7
420
 16777215
370
     9
  0
INSERT
  5
CA
330
1F
100
AcDbEntity
  8
_U+30EC_U+30A4_U+30E4_U+30FC 1
100
AcDbBlockReference
  2
block 5
 10
0.0
 20
0.0
 30
0.0
  0
POLYLINE
  5
D1
330
1F
100
AcDbEntity
  8
_U+30EC_U+30A4_U+30E4_U+30FC 1
 62
     7
420
 16777215
370
     9
100
AcDb2dPolyline
 66
     1
 10
0.0
 20
0.0
 30
0.0
  0
VERTEX
  5
D2
330
D1
100
AcDbEntity
  8
_U+30EC_U+30A4_U+30E4_U+30FC 1
 62
     7
420
 16777215
370
     9
100
AcDbVertex
100
AcDb2dVertex
 10
69.94489720473608
 20
-141.0976702425035
 30
0.0
  0
VERTEX
  5
D3
330
D1
100
AcDbEntity
  8
_U+30EC_U+30A4_U+30E4_U+30FC 1
 62
     7
420
 16777215
370
     9
100
AcDbVertex
100
AcDb2dVertex
 10
84.94486505509818
 20
-141.0976702425035
 30
0.0
  0
SEQEND
  5
D4
330
D1
100
AcDbEntity
  8
_U+30EC_U+30A4_U+30E4_U+30FC 1
 62
     7
420
 16777215
370
     9
  0
POLYLINE
  5
D5
330
1F
100
AcDbEntity
  8
_U+30EC_U+30A4_U+30E4_U+30FC 1
 62
     7
420
 16777215
370
     9
100
AcDb2dPolyline
 66
     1
 10
0.0
 20
0.0
 30
0.0
  0
VERTEX
  5
D6
330
D5
100
AcDbEntity
  8
_U+30EC_U+30A4_U+30E4_U+30FC 1
 62
     7
420
 16777215
370
     9
100
AcDbVertex
100
AcDb2dVertex
 10
70.05824293488755
 20
-126.6548069127807
 30
0.0
  0
VERTEX
  5
D7
330
D5
100
AcDbEntity
  8
_U+30EC_U+30A4_U+30E4_U+30FC 1
 62
     7
420
 16777215
370
     9
100
AcDbVertex
100
AcDb2dVertex
 10
70.05824293488755
 20
-142.0974424644754
 30
0.0
  0
SEQEND
  5
D8
330
D5
100
AcDbEntity
  8
_U+30EC_U+30A4_U+30E4_U+30FC 1
 62
     7
420
 16777215
370
     9
  0
POLYLINE
  5
D9
330
1F
100
AcDbEntity
  8
_U+30EC_U+30A4_U+30E4_U+30FC 1
 62
     7
420
 16777215
370
     9
100
AcDb2dPolyline
 66
     1
 10
0.0
 20
0.0
 30
0.0
  0
VERTEX
  5
DA
330
D9
100
AcDbEntity
  8
_U+30EC_U+30A4_U+30E4_U+30FC 1
 62
     7
420
 16777215
370
     9
100
AcDbVertex
100
AcDb2dVertex
 10
84.94486505509818
 20
-139.6376288539797
 30
0.0
  0
VERTEX
  5
DB
330
D9
100
AcDbEntity
  8
_U+30EC_U+30A4_U+30E4_U+30FC 1
 62
     7
420
 16777215
370
     9
100
AcDbVertex
100
AcDb2dVertex
 10
84.94486505509818
 20
-142.0974424644754
 30
0.0
  0
SEQEND
  5
DC
330
D9
100
AcDbEntity
  8
_U+30EC_U+30A4_U+30E4_U+30FC 1
 62
     7
420
 16777215
370
     9
  0
INSERT
  5
DE
330
1F
100
AcDbEntity
  8
_U+30EC_U+30A4_U+30E4_U+30FC 1
100
AcDbBlockReference
  2
block 6
 10
0.0
 20
0.0
 30
0.0
  0
POLYLINE
  5
E5
330
1F
100
AcDbEntity
  8
_U+30EC_U+30A4_U+30E4_U+30FC 1
 62
     7
420
 16777215
370
     9
100
AcDb2dPolyline
 66
     1
 10
0.0
 20
0.0
 30
0.0
  0
VERTEX
  5
E6
330
E5
100
AcDbEntity
  8
_U+30EC_U+30A4_U+30E4_U+30FC 1
 62
     7
420
 16777215
370
     9
100
AcDbVertex
100
AcDb2dVertex
 10
111.0440346670307
 20
-133.7038007999072
 30
0.0
  0
VERTEX
  5
E7
330
E5
100
AcDbEntity
  8
_U+30EC_U+30A4_U+30E4_U+30FC 1
 62
     7
420
 16777215
370
     9
100
AcDbVertex
100
AcDb2dVertex
 10
111.0440346670307
 20
-123.7033974690743
 30
0.0
  0
SEQEND
  5
E8
330
E5
100
AcDbEntity
  8
_U+30EC_U+30A4_U+30E4_U+30FC 1
 62
     7
420
 16777215
370
     9
  0
SPLINE
  5
E9
330
1F
100
AcDbEntity
  8
_U+30EC_U+30A4_U+30E4_U+30FC 1
 62
     7
420
 16777215
370
     9
100
AcDbSpline
210
0.0
220
0.0
230
1.0
 70
    11
 71
     3
 72
    17
 73
    13
 74
     0
 42
0.0000000001
 43
0.0000000001
 12
1.0
 22
0.0
 32
0.0
 13
1.0
 23
0.0
 33
0.0
 40
0.0
 40
0.0
 40
0.0
 40
0.0
 40
1.0
 40
1.0
 40
1.0
 40
2.0
 40
2.0
 40
2.0
 40
3.0
 40
3.0
 40
3.0
 40
4.0
 40
4.0
 40
4.0
 40
4.0
 10
111.1439413311485
 20
-133.7437705221197
 30
0.0
 10
111.1439413311485
 20
-133.6879610776893
 30
0.0
 10
111.0991738322906
 20
-133.6431935777001
 30
0.0
 10
111.0440346670307
 20
-133.6431935777001
 30
0.0
 10
110.9889307795476
 20
-133.6431935777001
 30
0.0
 10
110.9441280029128
 20
-133.6879610776893
 30
0.0
 10
110.9441280029128
 20
-133.7437705221197
 30
0.0
 10
110.9441280029128
 20
-133.7989096887722
 30
0.0
 10
110.9889307795476
 20
-133.8436771887614
 30
0.0
 10
111.0440346670307
 20
-133.8436771887614
 30
0.0
 10
111.0991738322906
 20
-133.8436771887614
 30
0.0
 10
111.1439413311485
 20
-133.7989096887722
 30
0.0
 10
111.1439413311485
 20
-133.7437705221197
 30
0.0
  0
SPLINE
  5
EA
330
1F
100
AcDbEntity
  8
_U+30EC_U+30A4_U+30E4_U+30FC 1
 62
     7
420
 16777215
370
     9
100
AcDbSpline
210
0.0
220
0.0
230
1.0
 70
    11
 71
     3
 72
    17
 73
    13
 74
     0
 42
0.0000000001
 43
0.0000000001
 12
1.0
 22
0.0
 32
0.0
 13
1.0
 23
0.0
 33
0.0
 40
0.0
 40
0.0
 40
0.0
 40
0.0
 40
1.0
 40
1.0
 40
1.0
 40
2.0
 40
2.0
 40
2.0
 40
3.0
 40
3.0
 40
3.0
 40
4.0
 40
4.0
 40
4.0
 40
4.0
 10
111.1439413311485
 20
-136.7437574658141
 30
0.0
 10
111.1439413311485
 20
-136.6879480213836
 30
0.0
 10
111.0991738322906
 20
-136.6431805213945
 30
0.0
 10
111.0440346670307
 20
-136.6431805213945
 30
0.0
 10
110.9889307795476
 20
-136.6431805213945
 30
0.0
 10
110.9441280029128
 20
-136.6879480213836
 30
0.0
 10
110.9441280029128
 20
-136.7437574658141
 30
0.0
 10
110.9441280029128
 20
-136.7988966324672
 30
0.0
 10
110.9889307795476
 20
-136.8436641324557
 30
0.0
 10
111.0440346670307
 20
-136.8436641324557
 30
0.0
 10
111.0991738322906
 20
-136.8436641324557
 30
0.0
 10
111.1439413311485
 20
-136.7988966324672
 30
0.0
 10
111.1439413311485
 20
-136.7437574658141
 30
0.0
  0
POLYLINE
  5
EB
330
1F
100
AcDbEntity
  8
_U+30EC_U+30A4_U+30E4_U+30FC 1
 62
     7
420
 16777215
370
     9
100
AcDb2dPolyline
 66
     1
 10
0.0
 20
0.0
 30
0.0
  0
VERTEX
  5
EC
330
EB
100
AcDbEntity
  8
_U+30EC_U+30A4_U+30E4_U+30FC 1
 62
     7
420
 16777215
370
     9
100
AcDbVertex
100
AcDb2dVertex
 10
111.0440346670307
 20
-136.7437574658141
 30
0.0
  0
VERTEX
  5
ED
330
EB
100
AcDbEntity
  8
_U+30EC_U+30A4_U+30E4_U+30FC 1
 62
     7
420
 16777215
370
     9
100
AcDbVertex
100
AcDb2dVertex
 10
111.0440346670307
 20
-133.7437705221197
 30
0.0
  0
SEQEND
  5
EE
330
EB
100
AcDbEntity
  8
_U+30EC_U+30A4_U+30E4_U+30FC 1
 62
     7
420
 16777215
370
     9
  0
POLYLINE
  5
EF
330
1F
100
AcDbEntity
  8
_U+30EC_U+30A4_U+30E4_U+30FC 1
 62
     7
420
 16777215
370
     9
100
AcDb2dPolyline
 66
     1
 10
0.0
 20
0.0
 30
0.0
  0
VERTEX
  5
F0
330
EF
100
AcDbEntity
  8
_U+30EC_U+30A4_U+30E4_U+30FC 1
 62
     7
420
 16777215
370
     9
100
AcDbVertex
100
AcDb2dVertex
 10
97.58369306598814
 20
-136.7437574658141
 30
0.0
  0
VERTEX
  5
F1
330
EF
100
AcDbEntity
  8
_U+30EC_U+30A4_U+30E4_U+30FC 1
 62
     7
420
 16777215
370
     9
100
AcDbVertex
100
AcDb2dVertex
 10
112.0438068637466
 20
-136.7437574658141
 30
0.0
  0
SEQEND
  5
F2
330
EF
100
AcDbEntity
  8
_U+30EC_U+30A4_U+30E4_U+30FC 1
 62
     7
420
 16777215
370
     9
  0
INSERT
  5
F4
330
1F
100
AcDbEntity
  8
_U+30EC_U+30A4_U+30E4_U+30FC 1
100
AcDbBlockReference
  2
block 7
 10
0.0
 20
0.0
 30
0.0
  0
POLYLINE
  5
F9
330
1F
100
AcDbEntity
  8
_U+30EC_U+30A4_U+30E4_U+30FC 1
 62
     7
420
 16777215
370
     9
100
AcDb2dPolyline
 66
     1
 10
0.0
 20
0.0
 30
0.0
  0
VERTEX
  5
FA
330
F9
100
AcDbEntity
  8
_U+30EC_U+30A4_U+30E4_U+30FC 1
 62
     7
420
 16777215
370
     9
100
AcDbVertex
100
AcDb2dVertex
 10
97.58369306598814
 20
-133.7437705221197
 30
0.0
  0
VERTEX
  5
FB
330
F9
100
AcDbEntity
  8
_U+30EC_U+30A4_U+30E4_U+30FC 1
 62
     7
420
 16777215
370
     9
100
AcDbVertex
100
AcDb2dVertex
 10
112.0438068637466
 20
-133.7437705221197
 30
0.0
  0
SEQEND
  5
FC
330
F9
100
AcDbEntity
  8
_U+30EC_U+30A4_U+30E4_U+30FC 1
 62
     7
420
 16777215
370
     9
  0
INSERT
  5
FE
330
1F
100
AcDbEntity
  8
_U+30EC_U+30A4_U+30E4_U+30FC 1
100
AcDbBlockReference
  2
block 8
 10
0.0
 20
0.0
 30
0.0
  0
ENDSEC
  0
SECTION
  2
OBJECTS
  0
DICTIONARY
  5
C
330
0
100
AcDbDictionary
281
     1
  3
ACAD_GROUP
350
D
  3
ACAD_LAYOUT
350
1A
  3
ACAD_MATERIAL
350
3B
  3
ACAD_MLEADERSTYLE
350
107
  3
ACAD_MLINESTYLE
350
17
  3
ACAD_PLOTSETTINGS
350
19
  3
ACAD_PLOTSTYLENAME
350
E
  3
ACAD_TABLESTYLE
350
106
  3
ACAD_VISUALSTYLE
350
2A
  0
SUN
  5
3F
330
29
100
AcDbSun
 90
        1
290
     0
 63
     7
421
 16777215
 40
1.0
291
     1
 91
  2455826
 92
 54000000
292
     0
 70
     2
 71
   256
280
     1
  0
DICTIONARY
  5
D
102
{ACAD_REACTORS
330
C
102
}
330
C
100
AcDbDictionary
281
     1
  0
DICTIONARY
  5
1A
102
{ACAD_REACTORS
330
C
102
}
330
C
100
AcDbDictionary
281
     1
  3
Layout1
350
1E
  3
Layout2
350
26
  3
Model
350
22
  0
DICTIONARY
  5
3B
102
{ACAD_REACTORS
330
C
102
}
330
C
100
AcDbDictionary
281
     1
  3
ByBlock
350
3D
  3
ByLayer
350
3C
  3
Global
350
3E
  0
DICTIONARY
  5
107
102
{ACAD_REACTORS
330
C
102
}
330
C
100
AcDbDictionary
281
     1
  0
DICTIONARY
  5
17
102
{ACAD_REACTORS
330
C
102
}
330
C
100
AcDbDictionary
281
     1
  3
Standard
350
18
  0
DICTIONARY
  5
19
102
{ACAD_REACTORS
330
C
102
}
330
C
100
AcDbDictionary
281
     1
  0
ACDBDICTIONARYWDFLT
  5
E
102
{ACAD_REACTORS
330
C
102
}
330
C
100
AcDbDictionary
281
     1
  3
Normal
350
F
100
AcDbDictionaryWithDefault
340
F
  0
DICTIONARY
  5
106
102
{ACAD_REACTORS
330
C
102
}
330
C
100
AcDbDictionary
281
     1
  0
DICTIONARY
  5
2A
102
{ACAD_REACTORS
330
C
102
}
330
C
100
AcDbDictionary
281
     1
  3
2dWireframe
350
2F
  3
3D Hidden
350
31
  3
3dWireframe
350
30
  3
Basic
350
32
  3
Brighten
350
36
  3
ColorChange
350
3A
  3
Conceptual
350
34
  3
Dim
350
35
  3
Facepattern
350
39
  3
Flat
350
2B
  3
FlatWithEdges
350
2C
  3
Gouraud
350
2D
  3
GouraudWithEdges
350
2E
  3
Linepattern
350
38
  3
Realistic
350
33
  3
Thicken
350
37
  0
LAYOUT
  5
1E
102
{ACAD_REACTORS
330
1A
102
}
330
1A
100
AcDbPlotSettings
  1

  2
none_device
  4

  6

 40
0.0
 41
0.0
 42
0.0
 43
0.0
 44
0.0
 45
0.0
 46
0.0
 47
0.0
 48
0.0
 49
0.0
140
0.0
141
0.0
142
1.0
143
1.0
 70
   688
 72
     0
 73
     0
 74
     5
  7

 75
    16
 76
     0
 77
     2
 78
   300
147
1.0
148
0.0
149
0.0
100
AcDbLayout
  1
Layout1
 70
     1
 71
     1
 10
0.0
 20
0.0
 11
12.0
 21
9.0
 12
0.0
 22
0.0
 32
0.0
 14
1.000000000000000E+20
 24
1.000000000000000E+20
 34
1.000000000000000E+20
 15
-1.000000000000000E+20
 25
-1.000000000000000E+20
 35
-1.000000000000000E+20
146
0.0
 13
0.0
 23
0.0
 33
0.0
 16
1.0
 26
0.0
 36
0.0
 17
0.0
 27
1.0
 37
0.0
 76
     0
330
1B
  0
LAYOUT
  5
26
102
{ACAD_REACTORS
330
1A
102
}
330
1A
100
AcDbPlotSettings
  1

  2
none_device
  4

  6

 40
0.0
 41
0.0
 42
0.0
 43
0.0
 44
0.0
 45
0.0
 46
0.0
 47
0.0
 48
0.0
 49
0.0
140
0.0
141
0.0
142
1.0
143
1.0
 70
   688
 72
     0
 73
     0
 74
     5
  7

 75
    16
 76
     0
 77
     2
 78
   300
147
1.0
148
0.0
149
0.0
100
AcDbLayout
  1
Layout2
 70
     1
 71
     2
 10
0.0
 20
0.0
 11
0.0
 21
0.0
 12
0.0
 22
0.0
 32
0.0
 14
0.0
 24
0.0
 34
0.0
 15
0.0
 25
0.0
 35
0.0
146
0.0
 13
0.0
 23
0.0
 33
0.0
 16
1.0
 26
0.0
 36
0.0
 17
0.0
 27
1.0
 37
0.0
 76
     0
330
23
  0
LAYOUT
  5
22
102
{ACAD_REACTORS
330
1A
102
}
330
1A
100
AcDbPlotSettings
  1

  2
none_device
  4

  6

 40
0.0
 41
0.0
 42
0.0
 43
0.0
 44
0.0
 45
0.0
 46
0.0
 47
0.0
 48
0.0
 49
0.0
140
0.0
141
0.0
142
1.0
143
1.0
 70
  1712
 72
     0
 73
     0
 74
     0
  7

 75
     0
 76
     0
 77
     2
 78
   300
147
1.0
148
0.0
149
0.0
100
AcDbLayout
  1
Model
 70
     1
 71
     0
 10
0.0
 20
0.0
 11
12.0
 21
9.0
 12
0.0
 22
0.0
 32
0.0
 14
1.000000000000000E+20
 24
1.000000000000000E+20
 34
1.000000000000000E+20
 15
-1.000000000000000E+20
 25
-1.000000000000000E+20
 35
-1.000000000000000E+20
146
0.0
 13
0.0
 23
0.0
 33
0.0
 16
1.0
 26
0.0
 36
0.0
 17
0.0
 27
1.0
 37
0.0
 76
     0
330
1F
331
29
  0
MATERIAL
  5
3D
102
{ACAD_REACTORS
330
3B
102
}
330
3B
100
AcDbMaterial
  1
ByBlock
 72
     1
 94
      127
  0
MATERIAL
  5
3C
102
{ACAD_REACTORS
330
3B
102
}
330
3B
100
AcDbMaterial
  1
ByLayer
 72
     1
 94
      127
  0
MATERIAL
  5
3E
102
{ACAD_REACTORS
330
3B
102
}
330
3B
100
AcDbMaterial
  1
Global
 72
     1
 94
      127
  0
MLINESTYLE
  5
18
102
{ACAD_REACTORS
330
17
102
}
330
17
100
AcDbMlineStyle
  2
Standard
 70
     0
  3

 62
   256
 51
90.0
 52
90.0
 71
     2
 49
0.5
 62
   256
  6
BYLAYER
 49
-0.5
 62
   256
  6
BYLAYER
  0
ACDBPLACEHOLDER
  5
F
102
{ACAD_REACTORS
330
E
102
}
330
E
  0
VISUALSTYLE
  5
2F
102
{ACAD_REACTORS
330
2A
102
}
330
2A
100
AcDbVisualStyle
  2
2dWireframe
 70
     4
177
     2
291
     0
 71
     0
176
     1
 72
     2
176
     1
 73
     0
176
     1
 90
        0
176
     1
 40
-0.6
176
     1
 41
-30.0
176
     1
 62
     5
 63
     7
421
 16777215
176
     1
 74
     1
176
     1
 91
        4
176
     1
 64
     7
176
     1
 65
   257
176
     1
 75
     1
176
     1
175
     1
176
     1
 42
1.0
176
     1
 92
        0
176
     1
 66
   257
176
     1
 43
1.0
176
     1
 76
     1
176
     1
 77
     6
176
     1
 78
     2
176
     1
 67
     7
176
     1
 79
     5
176
     1
170
     0
176
     1
171
     0
176
     1
290
     0
176
     1
 93
        1
176
     1
 44
0.0
176
     1
173
     0
176
     1
  0
VISUALSTYLE
  5
31
102
{ACAD_REACTORS
330
2A
102
}
330
2A
100
AcDbVisualStyle
  2
3D Hidden
 70
     6
177
     2
291
     0
 71
     1
176
     1
 72
     2
176
     1
 73
     2
176
     1
 90
        0
176
     1
 40
-0.6
176
     1
 41
-30.0
176
     1
 62
     5
 63
     7
421
 16777215
176
     1
 74
     2
176
     1
 91
        2
176
     1
 64
     7
176
     1
 65
   257
176
     1
 75
     2
176
     1
175
     1
176
     1
 42
40.0
176
     1
 92
        0
176
     1
 66
   257
176
     1
 43
1.0
176
     1
 76
     1
176
     1
 77
     6
176
     1
 78
     2
176
     1
 67
     7
176
     1
 79
     3
176
     1
170
     0
176
     1
171
     0
176
     1
290
     0
176
     1
 93
        1
176
     1
 44
0.0
176
     1
173
     0
176
     1
  0
VISUALSTYLE
  5
30
102
{ACAD_REACTORS
330
2A
102
}
330
2A
100
AcDbVisualStyle
  2
3dWireframe
 70
     5
177
     2
291
     0
 71
     0
176
     1
 72
     2
176
     1
 73
     0
176
     1
 90
        0
176
     1
 40
-0.6
176
     1
 41
-30.0
176
     1
 62
     5
 63
     7
421
 16777215
176
     1
 74
     1
176
     1
 91
        4
176
     1
 64
     7
176
     1
 65
   257
176
     1
 75
     1
176
     1
175
     1
176
     1
 42
1.0
176
     1
 92
        0
176
     1
 66
   257
176
     1
 43
1.0
176
     1
 76
     1
176
     1
 77
     6
176
     1
 78
     2
176
     1
 67
     7
176
     1
 79
     5
176
     1
170
     0
176
     1
171
     0
176
     1
290
     0
176
     1
 93
        1
176
     1
 44
0.0
176
     1
173
     0
176
     1
  0
VISUALSTYLE
  5
32
102
{ACAD_REACTORS
330
2A
102
}
330
2A
100
AcDbVisualStyle
  2
Basic
 70
     7
177
     2
291
     1
 71
     1
176
     1
 72
     0
176
     1
 73
     1
176
     1
 90
        0
176
     1
 40
-0.6
176
     1
 41
-30.0
176
     1
 62
     5
 63
     7
421
 16777215
176
     1
 74
     0
176
     1
 91
        4
176
     1
 64
     7
176
     1
 65
   257
176
     1
 75
     1
176
     1
175
     1
176
     1
 42
1.0
176
     1
 92
        8
176
     1
 66
     7
176
     1
 43
1.0
176
     1
 76
     1
176
     1
 77
     6
176
     1
 78
     2
176
     1
 67
     7
176
     1
 79
     5
176
     1
170
     0
176
     1
171
     0
176
     1
290
     0
176
     1
 93
        1
176
     1
 44
0.0
176
     1
173
     0
176
     1
  0
VISUALSTYLE
  5
36
102
{ACAD_REACTORS
330
2A
102
}
330
2A
100
AcDbVisualStyle
  2
Brighten
 70
    12
177
     2
291
     1
 71
     2
176
     1
 72
     2
176
     1
 73
     0
176
     1
 90
        0
176
     1
 40
-0.6
176
     1
 41
-30.0
176
     1
 62
     5
 63
     7
421
 16777215
176
     1
 74
     1
176
     1
 91
        4
176
     1
 64
     7
176
     1
 65
   257
176
     1
 75
     1
176
     1
175
     1
176
     1
 42
1.0
176
     1
 92
        8
176
     1
 66
     7
176
     1
 43
1.0
176
     1
 76
     1
176
     1
 77
     6
176
     1
 78
     2
176
     1
 67
     7
176
     1
 79
     5
176
     1
170
     0
176
     1
171
     0
176
     1
290
     0
176
     1
 93
        1
176
     1
 44
50.0
176
     1
173
     0
176
     1
  0
VISUALSTYLE
  5
3A
102
{ACAD_REACTORS
330
2A
102
}
330
2A
100
AcDbVisualStyle
  2
ColorChange
 70
    16
177
     2
291
     1
 71
     2
176
     1
 72
     2
176
     1
 73
     3
176
     1
 90
        0
176
     1
 40
-0.6
176
     1
 41
-30.0
176
     1
 62
     5
 63
     8
421
  8421504
176
     1
 74
     1
176
     1
 91
        4
176
     1
 64
     7
176
     1
 65
   257
176
     1
 75
     1
176
     1
175
     1
176
     1
 42
1.0
176
     1
 92
        8
176
     1
 66
     8
424
  8421504
176
     1
 43
1.0
176
     1
 76
     1
176
     1
 77
     6
176
     1
 78
     2
176
     1
 67
     7
176
     1
 79
     5
176
     1
170
     0
176
     1
171
     0
176
     1
290
     0
176
     1
 93
        1
176
     1
 44
0.0
176
     1
173
     0
176
     1
  0
VISUALSTYLE
  5
34
102
{ACAD_REACTORS
330
2A
102
}
330
2A
100
AcDbVisualStyle
  2
Conceptual
 70
     9
177
     2
291
     0
 71
     3
176
     1
 72
     2
176
     1
 73
     0
176
     1
 90
        0
176
     1
 40
-0.6
176
     1
 41
-30.0
176
     1
 62
     5
 63
     7
421
 16777215
176
     1
 74
     2
176
     1
 91
        2
176
     1
 64
     7
176
     1
 65
   257
176
     1
 75
     1
176
     1
175
     1
176
     1
 42
40.0
176
     1
 92
        8
176
     1
 66
     7
176
     1
 43
1.0
176
     1
 76
     1
176
     1
 77
     6
176
     1
 78
     2
176
     1
 67
     7
176
     1
 79
     3
176
     1
170
     0
176
     1
171
     0
176
     1
290
     0
176
     1
 93
        1
176
     1
 44
0.0
176
     1
173
     0
176
     1
  0
VISUALSTYLE
  5
35
102
{ACAD_REACTORS
330
2A
102
}
330
2A
100
AcDbVisualStyle
  2
Dim
 70
    11
177
     2
291
     1
 71
     2
176
     1
 72
     2
176
     1
 73
     0
176
     1
 90
        0
176
     1
 40
-0.6
176
     1
 41
-30.0
176
     1
 62
     5
 63
     7
421
 16777215
176
     1
 74
     1
176
     1
 91
        4
176
     1
 64
     7
176
     1
 65
   257
176
     1
 75
     1
176
     1
175
     1
176
     1
 42
1.0
176
     1
 92
        8
176
     1
 66
     7
176
     1
 43
1.0
176
     1
 76
     1
176
     1
 77
     6
176
     1
 78
     2
176
     1
 67
     7
176
     1
 79
     5
176
     1
170
     0
176
     1
171
     0
176
     1
290
     0
176
     1
 93
        1
176
     1
 44
-50.0
176
     1
173
     0
176
     1
  0
VISUALSTYLE
  5
39
102
{ACAD_REACTORS
330
2A
102
}
330
2A
100
AcDbVisualStyle
  2
Facepattern
 70
    15
177
     2
291
     1
 71
     2
176
     1
 72
     2
176
     1
 73
     0
176
     1
 90
        0
176
     1
 40
-0.6
176
     1
 41
-30.0
176
     1
 62
     5
 63
     7
421
 16777215
176
     1
 74
     1
176
     1
 91
        4
176
     1
 64
     7
176
     1
 65
   257
176
     1
 75
     1
176
     1
175
     1
176
     1
 42
1.0
176
     1
 92
        8
176
     1
 66
     7
176
     1
 43
1.0
176
     1
 76
     1
176
     1
 77
     6
176
     1
 78
     2
176
     1
 67
     7
176
     1
 79
     5
176
     1
170
     0
176
     1
171
     0
176
     1
290
     0
176
     1
 93
        1
176
     1
 44
0.0
176
     1
173
     0
176
     1
  0
VISUALSTYLE
  5
2B
102
{ACAD_REACTORS
330
2A
102
}
330
2A
100
AcDbVisualStyle
  2
Flat
 70
     0
177
     2
291
     1
 71
     2
176
     1
 72
     1
176
     1
 73
     1
176
     1
 90
        2
176
     1
 40
-0.6
176
     1
 41
30.0
176
     1
 62
     5
 63
     7
421
 16777215
176
     1
 74
     0
176
     1
 91
        4
176
     1
 64
     7
176
     1
 65
   257
176
     1
 75
     1
176
     1
175
     1
176
     1
 42
1.0
176
     1
 92
        8
176
     1
 66
     7
176
     1
 43
1.0
176
     1
 76
     1
176
     1
 77
     6
176
     1
 78
     2
176
     1
 67
     7
176
     1
 79
     5
176
     1
170
     0
176
     1
171
     0
176
     1
290
     0
176
     1
 93
       13
176
     1
 44
0.0
176
     1
173
     0
176
     1
  0
VISUALSTYLE
  5
2C
102
{ACAD_REACTORS
330
2A
102
}
330
2A
100
AcDbVisualStyle
  2
FlatWithEdges
 70
     1
177
     2
291
     1
 71
     2
176
     1
 72
     1
176
     1
 73
     1
176
     1
 90
        2
176
     1
 40
-0.6
176
     1
 41
30.0
176
     1
 62
     5
 63
     7
421
 16777215
176
     1
 74
     1
176
     1
 91
        4
176
     1
 64
     7
176
     1
 65
   257
176
     1
 75
     1
176
     1
175
     1
176
     1
 42
1.0
176
     1
 92
        0
176
     1
 66
   257
176
     1
 43
1.0
176
     1
 76
     1
176
     1
 77
     6
176
     1
 78
     2
176
     1
 67
     7
176
     1
 79
     5
176
     1
170
     0
176
     1
171
     0
176
     1
290
     0
176
     1
 93
       13
176
     1
 44
0.0
176
     1
173
     0
176
     1
  0
VISUALSTYLE
  5
2D
102
{ACAD_REACTORS
330
2A
102
}
330
2A
100
AcDbVisualStyle
  2
Gouraud
 70
     2
177
     2
291
     1
 71
     2
176
     1
 72
     2
176
     1
 73
     1
176
     1
 90
        2
176
     1
 40
-0.6
176
     1
 41
30.0
176
     1
 62
     5
 63
     7
421
 16777215
176
     1
 74
     0
176
     1
 91
        4
176
     1
 64
     7
176
     1
 65
   257
176
     1
 75
     1
176
     1
175
     1
176
     1
 42
1.0
176
     1
 92
        0
176
     1
 66
     7
176
     1
 43
1.0
176
     1
 76
     1
176
     1
 77
     6
176
     1
 78
     2
176
     1
 67
     7
176
     1
 79
     5
176
     1
170
     0
176
     1
171
     0
176
     1
290
     0
176
     1
 93
       13
176
     1
 44
0.0
176
     1
173
     0
176
     1
  0
VISUALSTYLE
  5
2E
102
{ACAD_REACTORS
330
2A
102
}
330
2A
100
AcDbVisualStyle
  2
GouraudWithEdges
 70
     3
177
     2
291
     1
 71
     2
176
     1
 72
     2
176
     1
 73
     1
176
     1
 90
        2
176
     1
 40
-0.6
176
     1
 41
30.0
176
     1
 62
     5
 63
     7
421
 16777215
176
     1
 74
     1
176
     1
 91
        4
176
     1
 64
     7
176
     1
 65
   257
176
     1
 75
     1
176
     1
175
     1
176
     1
 42
1.0
176
     1
 92
        0
176
     1
 66
   257
176
     1
 43
1.0
176
     1
 76
     1
176
     1
 77
     6
176
     1
 78
     2
176
     1
 67
     7
176
     1
 79
     5
176
     1
170
     0
176
     1
171
     0
176
     1
290
     0
176
     1
 93
       13
176
     1
 44
0.0
176
     1
173
     0
176
     1
  0
VISUALSTYLE
  5
38
102
{ACAD_REACTORS
330
2A
102
}
330
2A
100
AcDbVisualStyle
  2
Linepattern
 70
    14
177
     2
291
     1
 71
     2
176
     1
 72
     2
176
     1
 73
     0
176
     1
 90
        0
176
     1
 40
-0.6
176
     1
 41
-30.0
176
     1
 62
     5
 63
     7
421
 16777215
176
     1
 74
     1
176
     1
 91
        4
176
     1
 64
     7
176
     1
 65
   257
176
     1
 75
     7
176
     1
175
     7
176
     1
 42
1.0
176
     1
 92
        8
176
     1
 66
     7
176
     1
 43
1.0
176
     1
 76
     1
176
     1
 77
     6
176
     1
 78
     2
176
     1
 67
     7
176
     1
 79
     5
176
     1
170
     0
176
     1
171
     0
176
     1
290
     0
176
     1
 93
        1
176
     1
 44
0.0
176
     1
173
     0
176
     1
  0
VISUALSTYLE
  5
33
102
{ACAD_REACTORS
330
2A
102
}
330
2A
100
AcDbVisualStyle
  2
Realistic
 70
     8
177
     2
291
     0
 71
     2
176
     1
 72
     2
176
     1
 73
     0
176
     1
 90
        0
176
     1
 40
-0.6
176
     1
 41
-30.0
176
     1
 62
     5
 63
     7
421
 16777215
176
     1
 74
     1
176
     1
 91
        0
176
     1
 64
     7
176
     1
 65
   257
176
     1
 75
     1
176
     1
175
     1
176
     1
 42
1.0
176
     1
 92
        8
176
     1
 66
     8
424
  7895160
176
     1
 43
1.0
176
     1
 76
     1
176
     1
 77
     6
176
     1
 78
     2
176
     1
 67
     7
176
     1
 79
     5
176
     1
170
     0
176
     1
171
     0
176
     1
290
     0
176
     1
 93
       13
176
     1
 44
0.0
176
     1
173
     0
176
     1
  0
VISUALSTYLE
  5
37
102
{ACAD_REACTORS
330
2A
102
}
330
2A
100
AcDbVisualStyle
  2
Thicken
 70
    13
177
     2
291
     1
 71
     2
176
     1
 72
     2
176
     1
 73
     0
176
     1
 90
        0
176
     1
 40
-0.6
176
     1
 41
-30.0
176
     1
 62
     5
 63
     7
421
 16777215
176
     1
 74
     1
176
     1
 91
        4
176
     1
 64
     7
176
     1
 65
   257
176
     1
 75
     1
176
     1
175
     1
176
     1
 42
1.0
176
     1
 92
       12
176
     1
 66
     7
176
     1
 43
1.0
176
     1
 76
     1
176
     1
 77
     6
176
     1
 78
     2
176
     1
 67
     7
176
     1
 79
     5
176
     1
170
     0
176
     1
171
     0
176
     1
290
     0
176
     1
 93
        1
176
     1
 44
0.0
176
     1
173
     0
176
     1
  0
ENDSEC
  0
EOF
