  0
SECTION
  2
HEADER
  9
$ACADVER
  1
AC1024
  9
$ACADMAINTVER
 70
     6
  9
$DWGCODEPAGE
  3
UNDEFINED
  9
$INSBASE
 10
0.0
 20
0.0
 30
0.0
  9
$EXTMIN
 10
1.000000000000000E+20
 20
1.000000000000000E+20
 30
1.000000000000000E+20
  9
$EXTMAX
 10
-1.000000000000000E+20
 20
-1.000000000000000E+20
 30
-1.000000000000000E+20
  9
$LIMMIN
 10
0.0
 20
0.0
  9
$LIMMAX
 10
12.0
 20
9.0
  9
$ORTHOMODE
 70
     0
  9
$REGENMODE
 70
     1
  9
$FILLMODE
 70
     1
  9
$QTEXTMODE
 70
     0
  9
$MIRRTEXT
 70
     1
  9
$LTSCALE
 40
1.0
  9
$ATTMODE
 70
     1
  9
$TEXTSIZE
 40
0.2
  9
$TRACEWID
 40
0.05
  9
$TEXTSTYLE
  7
Standard
  9
$CLAYER
  8
0
  9
$CELTYPE
  6
ByLayer
  9
$CECOLOR
 62
   256
  9
$CELTSCALE
 40
1.0
  9
$DISPSILH
 70
     0
  9
$DIMSCALE
 40
1.0
  9
$DIMASZ
 40
0.18
  9
$DIMEXO
 40
0.0625
  9
$DIMDLI
 40
0.38
  9
$DIMRND
 40
0.0
  9
$DIMDLE
 40
0.0
  9
$DIMEXE
 40
0.18
  9
$DIMTP
 40
0.0
  9
$DIMTM
 40
0.0
  9
$DIMTXT
 40
0.18
  9
$DIMCEN
 40
0.09
  9
$DIMTSZ
 40
0.0
  9
$DIMTOL
 70
     0
  9
$DIMLIM
 70
     0
  9
$DIMTIH
 70
     1
  9
$DIMTOH
 70
     1
  9
$DIMSE1
 70
     0
  9
$DIMSE2
 70
     0
  9
$DIMTAD
 70
     0
  9
$DIMZIN
 70
     0
  9
$DIMBLK
  1

  9
$DIMASO
 70
     1
  9
$DIMSHO
 70
     1
  9
$DIMPOST
  1

  9
$DIMAPOST
  1

  9
$DIMALT
 70
     0
  9
$DIMALTD
 70
     2
  9
$DIMALTF
 40
25.4
  9
$DIMLFAC
 40
1.0
  9
$DIMTOFL
 70
     0
  9
$DIMTVP
 40
0.0
  9
$DIMTIX
 70
     0
  9
$DIMSOXD
 70
     0
  9
$DIMSAH
 70
     0
  9
$DIMBLK1
  1

  9
$DIMBLK2
  1

  9
$DIMSTYLE
  2
Standard
  9
$DIMCLRD
 70
     0
  9
$DIMCLRE
 70
     0
  9
$DIMCLRT
 70
     0
  9
$DIMTFAC
 40
1.0
  9
$DIMGAP
 40
0.09
  9
$DIMJUST
 70
     0
  9
$DIMSD1
 70
     0
  9
$DIMSD2
 70
     0
  9
$DIMTOLJ
 70
     1
  9
$DIMTZIN
 70
     0
  9
$DIMALTZ
 70
     0
  9
$DIMALTTZ
 70
     0
  9
$DIMUPT
 70
     0
  9
$DIMDEC
 70
     4
  9
$DIMTDEC
 70
     4
  9
$DIMALTU
 70
     2
  9
$DIMALTTD
 70
     2
  9
$DIMTXSTY
  7
Standard
  9
$DIMAUNIT
 70
     0
  9
$DIMADEC
 70
     0
  9
$DIMALTRND
 40
0.0
  9
$DIMAZIN
 70
     0
  9
$DIMDSEP
 70
    46
  9
$DIMATFIT
 70
     3
  9
$DIMFRAC
 70
     0
  9
$DIMLDRBLK
  1

  9
$DIMLUNIT
 70
     2
  9
$DIMLWD
 70
    -2
  9
$DIMLWE
 70
    -2
  9
$DIMTMOVE
 70
     0
  9
$DIMFXL
 40
1.0
  9
$DIMFXLON
 70
     0
  9
$DIMJOGANG
 40
0.7853981633974483
  9
$DIMTFILL
 70
     0
  9
$DIMTFILLCLR
 70
     0
  9
$DIMARCSYM
 70
     0
  9
$DIMLTYPE
  6

  9
$DIMLTEX1
  6

  9
$DIMLTEX2
  6

  9
$DIMTXTDIRECTION
 70
     0
  9
$LUNITS
 70
     2
  9
$LUPREC
 70
     4
  9
$SKETCHINC
 40
0.1
  9
$FILLETRAD
 40
0.5
  9
$AUNITS
 70
     0
  9
$AUPREC
 70
     0
  9
$MENU
  1
.
  9
$ELEVATION
 40
0.0
  9
$PELEVATION
 40
0.0
  9
$THICKNESS
 40
0.0
  9
$LIMCHECK
 70
     0
  9
$CHAMFERA
 40
0.5
  9
$CHAMFERB
 40
0.5
  9
$CHAMFERC
 40
1.0
  9
$CHAMFERD
 40
0.0
  9
$SKPOLY
 70
     0
  9
$TDCREATE
 40
2457917.614456007
  9
$TDUCREATE
 40
2457917.239456018
  9
$TDUPDATE
 40
2457917.614456007
  9
$TDUUPDATE
 40
2457917.239456018
  9
$TDINDWG
 40
0.0000000116
  9
$TDUSRTIMER
 40
0.0000000116
  9
$USRTIMER
 70
     1
  9
$ANGBASE
 50
0.0
  9
$ANGDIR
 70
     0
  9
$PDMODE
 70
     0
  9
$PDSIZE
 40
0.0
  9
$PLINEWID
 40
0.0
  9
$SPLFRAME
 70
     0
  9
$SPLINETYPE
 70
     6
  9
$SPLINESEGS
 70
     8
  9
$HANDSEED
  5
105
  9
$SURFTAB1
 70
     6
  9
$SURFTAB2
 70
     6
  9
$SURFTYPE
 70
     6
  9
$SURFU
 70
     6
  9
$SURFV
 70
     6
  9
$UCSBASE
  2

  9
$UCSNAME
  2

  9
$UCSORG
 10
0.0
 20
0.0
 30
0.0
  9
$UCSXDIR
 10
1.0
 20
0.0
 30
0.0
  9
$UCSYDIR
 10
0.0
 20
1.0
 30
0.0
  9
$UCSORTHOREF
  2

  9
$UCSORTHOVIEW
 70
     0
  9
$UCSORGTOP
 10
0.0
 20
0.0
 30
0.0
  9
$UCSORGBOTTOM
 10
0.0
 20
0.0
 30
0.0
  9
$UCSORGLEFT
 10
0.0
 20
0.0
 30
0.0
  9
$UCSORGRIGHT
 10
0.0
 20
0.0
 30
0.0
  9
$UCSORGFRONT
 10
0.0
 20
0.0
 30
0.0
  9
$UCSORGBACK
 10
0.0
 20
0.0
 30
0.0
  9
$PUCSBASE
  2

  9
$PUCSNAME
  2

  9
$PUCSORG
 10
0.0
 20
0.0
 30
0.0
  9
$PUCSXDIR
 10
1.0
 20
0.0
 30
0.0
  9
$PUCSYDIR
 10
0.0
 20
1.0
 30
0.0
  9
$PUCSORTHOREF
  2

  9
$PUCSORTHOVIEW
 70
     0
  9
$PUCSORGTOP
 10
0.0
 20
0.0
 30
0.0
  9
$PUCSORGBOTTOM
 10
0.0
 20
0.0
 30
0.0
  9
$PUCSORGLEFT
 10
0.0
 20
0.0
 30
0.0
  9
$PUCSORGRIGHT
 10
0.0
 20
0.0
 30
0.0
  9
$PUCSORGFRONT
 10
0.0
 20
0.0
 30
0.0
  9
$PUCSORGBACK
 10
0.0
 20
0.0
 30
0.0
  9
$USERI1
 70
     0
  9
$USERI2
 70
     0
  9
$USERI3
 70
     0
  9
$USERI4
 70
     0
  9
$USERI5
 70
     0
  9
$USERR1
 40
0.0
  9
$USERR2
 40
0.0
  9
$USERR3
 40
0.0
  9
$USERR4
 40
0.0
  9
$USERR5
 40
0.0
  9
$WORLDVIEW
 70
     1
  9
$SHADEDGE
 70
     3
  9
$SHADEDIF
 70
    70
  9
$TILEMODE
 70
     1
  9
$MAXACTVP
 70
    64
  9
$PINSBASE
 10
0.0
 20
0.0
 30
0.0
  9
$PLIMCHECK
 70
     0
  9
$PEXTMIN
 10
1.000000000000000E+20
 20
1.000000000000000E+20
 30
1.000000000000000E+20
  9
$PEXTMAX
 10
-1.000000000000000E+20
 20
-1.000000000000000E+20
 30
-1.000000000000000E+20
  9
$PLIMMIN
 10
0.0
 20
0.0
  9
$PLIMMAX
 10
12.0
 20
9.0
  9
$UNITMODE
 70
     0
  9
$VISRETAIN
 70
     1
  9
$PLINEGEN
 70
     0
  9
$PSLTSCALE
 70
     1
  9
$TREEDEPTH
 70
  3020
  9
$CMLSTYLE
  2
Standard
  9
$CMLJUST
 70
     0
  9
$CMLSCALE
 40
1.0
  9
$PROXYGRAPHICS
 70
     1
  9
$MEASUREMENT
 70
     0
  9
$CELWEIGHT
370
    -1
  9
$ENDCAPS
280
     0
  9
$JOINSTYLE
280
     0
  9
$LWDISPLAY
290
     1
  9
$INSUNITS
 70
     1
  9
$HYPERLINKBASE
  1

  9
$STYLESHEET
  1

  9
$XEDIT
290
     1
  9
$CEPSNTYPE
380
     0
  9
$PSTYLEMODE
290
     1
  9
$FINGERPRINTGUID
  2
{E83D7E7B-562C-9135-20DC-E2C8A20F9C0A}
  9
$VERSIONGUID
  2
{FAEB1C32-E019-11D5-929B-00C0DF256EC4}
  9
$EXTNAMES
290
     1
  9
$PSVPSCALE
 40
0.0
  9
$OLESTARTUP
290
     0
  9
$SORTENTS
280
   127
  9
$INDEXCTL
280
     0
  9
$HIDETEXT
280
     1
  9
$XCLIPFRAME
280
     2
  9
$HALOGAP
280
     0
  9
$OBSCOLOR
 70
   257
  9
$OBSLTYPE
280
     0
  9
$INTERSECTIONDISPLAY
280
     0
  9
$INTERSECTIONCOLOR
 70
   257
  9
$DIMASSOC
280
     2
  9
$PROJECTNAME
  1

  9
$CAMERADISPLAY
290
     0
  9
$LENSLENGTH
 40
50.0
  9
$CAMERAHEIGHT
 40
0.0
  9
$STEPSPERSEC
 40
2.0
  9
$STEPSIZE
 40
6.0
  9
$3DDWFPREC
 40
2.0
  9
$PSOLWIDTH
 40
0.25
  9
$PSOLHEIGHT
 40
4.0
  9
$LOFTANG1
 40
1.570796326794897
  9
$LOFTANG2
 40
1.570796326794897
  9
$LOFTMAG1
 40
0.0
  9
$LOFTMAG2
 40
0.0
  9
$LOFTPARAM
 70
     7
  9
$LOFTNORMALS
280
     1
  9
$LATITUDE
 40
37.795
  9
$LONGITUDE
 40
-122.394
  9
$NORTHDIRECTION
 40
0.0
  9
$TIMEZONE
 70
 -8000
  9
$LIGHTGLYPHDISPLAY
280
     1
  9
$TILEMODELIGHTSYNCH
280
     1
  9
$CMATERIAL
347
3C
  9
$SOLIDHIST
280
     1
  9
$SHOWHIST
280
     1
  9
$DWFFRAME
280
     2
  9
$DGNFRAME
280
     2
  9
$REALWORLDSCALE
290
     1
  9
$INTERFERECOLOR
 62
   256
  9
$CSHADOW
280
     0
  9
$SHADOWPLANELOCATION
 40
0.0
  0
ENDSEC
  0
SECTION
  2
CLASSES
  0
CLASS
  1
ACDBDICTIONARYWDFLT
  2
AcDbDictionaryWithDefault
  3
ObjectDBX Classes
 90
        0
 91
        4
280
     0
281
     0
  0
CLASS
  1
VISUALSTYLE
  2
AcDbVisualStyle
  3
ObjectDBX Classes
 90
     4095
 91
        4
280
     0
281
     0
  0
CLASS
  1
MATERIAL
  2
AcDbMaterial
  3
ObjectDBX Classes
 90
     1153
 91
        4
280
     0
281
     0
  0
CLASS
  1
SUN
  2
AcDbSun
  3
SCENEOE
 90
     1024
 91
        4
280
     0
281
     0
  0
ENDSEC
  0
SECTION
  2
TABLES
  0
TABLE
  2
VPORT
  5
8
330
0
100
AcDbSymbolTable
 70
     1
  0
VPORT
  5
29
330
8
100
AcDbSymbolTableRecord
100
AcDbViewportTableRecord
  2
*Active
 70
     0
 10
0.0
 20
0.0
 11
1.0
 21
1.0
 12
0.0
 22
0.0
 13
0.0
 23
0.0
 14
0.5
 24
0.5
 15
0.5
 25
0.5
 16
0.0
 26
0.0
 36
1.0
 17
91.00082462281999
 27
-128.4993055234307
 37
0.0
 40
256.9986110468615
 41
0.7081814508812795
 42
50.0
 43
0.0
 44
0.0
 50
0.0
 51
0.0
 71
     0
 72
   100
 73
     1
 74
     3
 75
     0
 76
     0
 77
     0
 78
     0
281
     0
 65
     1
110
0.0
120
0.0
130
0.0
111
1.0
121
0.0
131
0.0
112
0.0
122
1.0
132
0.0
 79
     0
146
0.0
 60
     3
 61
     5
292
     1
282
     1
141
0.0
142
0.0
 63
   250
361
3F
  0
ENDTAB
  0
TABLE
  2
LTYPE
  5
5
330
0
100
AcDbSymbolTable
 70
     1
  0
LTYPE
  5
14
330
5
100
AcDbSymbolTableRecord
100
AcDbLinetypeTableRecord
  2
ByBlock
 70
     0
  3

 72
    65
 73
     0
 40
0.0
  0
LTYPE
  5
15
330
5
100
AcDbSymbolTableRecord
100
AcDbLinetypeTableRecord
  2
ByLayer
 70
     0
  3

 72
    65
 73
     0
 40
0.0
  0
LTYPE
  5
16
330
5
100
AcDbSymbolTableRecord
100
AcDbLinetypeTableRecord
  2
Continuous
 70
     0
  3
Solid line
 72
    65
 73
     0
 40
0.0
  0
ENDTAB
  0
TABLE
  2
LAYER
  5
2
330
0
100
AcDbSymbolTable
 70
     2
  0
LAYER
  5
10
330
2
100
AcDbSymbolTableRecord
100
AcDbLayerTableRecord
  2
0
 70
     0
 62
     7
  6
Continuous
370
    -3
390
F
347
3E
  0
LAYER
  5
40
330
2
100
AcDbSymbolTableRecord
100
AcDbLayerTableRecord
  2
_U+30EC_U+30A4_U+30E4_U+30FC 1
 70
     0
 62
     7
  6
Continuous
370
    -3
390
F
347
3E
  0
ENDTAB
  0
TABLE
  2
STYLE
  5
3
330
0
100
AcDbSymbolTable
 70
     1
  0
STYLE
  5
11
330
3
100
AcDbSymbolTableRecord
100
AcDbTextStyleTableRecord
  2
Standard
 70
     0
 40
0.0
 41
1.0
 50
0.0
 71
     0
 42
0.2
  3
txt
  4

  0
ENDTAB
  0
TABLE
  2
VIEW
  5
6
330
0
100
AcDbSymbolTable
 70
     0
  0
ENDTAB
  0
TABLE
  2
UCS
  5
7
330
0
100
AcDbSymbolTable
 70
     0
  0
ENDTAB
  0
TABLE
  2
APPID
  5
9
330
0
100
AcDbSymbolTable
 70
     1
  0
APPID
  5
12
330
9
100
AcDbSymbolTableRecord
100
AcDbRegAppTableRecord
  2
ACAD
 70
     0
  0
ENDTAB
  0
TABLE
  2
DIMSTYLE
  5
A
330
0
100
AcDbSymbolTable
 70
     1
100
AcDbDimStyleTable
  0
DIMSTYLE
105
27
330
A
100
AcDbSymbolTableRecord
100
AcDbDimStyleTableRecord
  2
Standard
 70
     0
178
     0
340
11
  0
ENDTAB
  0
TABLE
  2
BLOCK_RECORD
  5
1
330
0
100
AcDbSymbolTable
 70
     8
  0
BLOCK_RECORD
  5
1F
330
1
100
AcDbSymbolTableRecord
100
AcDbBlockTableRecord
  2
*Model_Space
340
22
 70
     0
280
     1
281
     0
  0
BLOCK_RECORD
  5
1B
330
1
100
AcDbSymbolTableRecord
100
AcDbBlockTableRecord
  2
*Paper_Space
340
1E
 70
     0
280
     1
281
     0
  0
BLOCK_RECORD
  5
23
330
1
100
AcDbSymbolTableRecord
100
AcDbBlockTableRecord
  2
*Paper_Space0
340
26
 70
     0
280
     1
281
     0
  0
BLOCK_RECORD
  5
71
330
1
100
AcDbSymbolTableRecord
100
AcDbBlockTableRecord
  2
block 2
340
0
102
{BLKREFS
331
72
102
}
 70
     0
280
     1
281
     0
  0
BLOCK_RECORD
  5
94
330
1
100
AcDbSymbolTableRecord
100
AcDbBlockTableRecord
  2
block 3
340
0
102
{BLKREFS
331
95
102
}
 70
     0
280
     1
281
     0
  0
BLOCK_RECORD
  5
AD
330
1
100
AcDbSymbolTableRecord
100
AcDbBlockTableRecord
  2
block 4
340
0
102
{BLKREFS
331
AE
102
}
 70
     0
280
     1
281
     0
  0
BLOCK_RECORD
  5
C9
330
1
100
AcDbSymbolTableRecord
100
AcDbBlockTableRecord
  2
block 5
340
0
102
{BLKREFS
331
CA
102
}
 70
     0
280
     1
281
     0
  0
BLOCK_RECORD
  5
DD
330
1
100
AcDbSymbolTableRecord
100
AcDbBlockTableRecord
  2
block 6
340
0
102
{BLKREFS
331
DE
102
}
 70
     0
280
     1
281
     0
  0
BLOCK_RECORD
  5
F3
330
1
100
AcDbSymbolTableRecord
100
AcDbBlockTableRecord
  2
block 7
340
0
102
{BLKREFS
331
F4
102
}
 70
     0
280
     1
281
     0
  0
BLOCK_RECORD
  5
FD
330
1
100
AcDbSymbolTableRecord
100
AcDbBlockTableRecord
  2
block 8
340
0
102
{BLKREFS
331
FE
102
}
 70
     0
280
     1
281
     0
  0
ENDTAB
  0
ENDSEC
  0
SECTION
  2
BLOCKS
  0
BLOCK
  5
20
330
1F
100
AcDbEntity
  8
0
100
AcDbBlockBegin
  2
*Model_Space
 70
     0
 10
0.0
 20
0.0
 30
0.0
  3
*Model_Space
  1

  0
ENDBLK
  5
21
330
1F
100
AcDbEntity
  8
0
100
AcDbBlockEnd
  0
BLOCK
  5
1C
330
1B
100
AcDbEntity
 67
     1
  8
0
100
AcDbBlockBegin
  2
*Paper_Space
 70
     0
 10
0.0
 20
0.0
 30
0.0
  3
*Paper_Space
  1

  0
ENDBLK
  5
1D
330
1B
100
AcDbEntity
 67
     1
  8
0
100
AcDbBlockEnd
  0
BLOCK
  5
24
330
23
100
AcDbEntity
  8
0
100
AcDbBlockBegin
  2
*Paper_Space0
 70
     0
 10
0.0
 20
0.0
 30
0.0
  3
*Paper_Space0
  1

  0
ENDBLK
  5
25
330
23
100
AcDbEntity
  8
0
100
AcDbBlockEnd
  0
BLOCK
  5
73
330
71
100
AcDbEntity
  8
0
100
AcDbBlockBegin
  2
block 2
 70
     0
 10
0.0
 20
0.0
 30
0.0
  3
block 2
  1

  0
POLYLINE
  5
75
330
71
100
AcDbEntity
  8
_U+30EC_U+30A4_U+30E4_U+30FC 1
 62
     7
420
 16777215
370
    25
100
AcDb2dPolyline
 66
     1
 10
0.0
 20
0.0
 30
0.0
  0
VERTEX
  5
76
330
75
100
AcDbEntity
  8
_U+30EC_U+30A4_U+30E4_U+30FC 1
 62
     7
420
 16777215
370
    25
100
AcDbVertex
100
AcDb2dVertex
 10
93.84851732794708
 20
-132.4608235779957
 30
0.0
  0
VERTEX
  5
77
330
75
100
AcDbEntity
  8
_U+30EC_U+30A4_U+30E4_U+30FC 1
 62
     7
420
 16777215
370
    25
100
AcDbVertex
100
AcDb2dVertex
 10
94.84899508020054
 20
-132.4608235779957
 30
0.0
  0
SEQEND
  5
78
330
75
100
AcDbEntity
  8
_U+30EC_U+30A4_U+30E4_U+30FC 1
 62
     7
420
 16777215
370
    25
  0
POLYLINE
  5
79
330
71
100
AcDbEntity
  8
_U+30EC_U+30A4_U+30E4_U+30FC 1
 62
     7
420
 16777215
370
    25
100
AcDb2dPolyline
 66
     1
 10
0.0
 20
0.0
 30
0.0
  0
VERTEX
  5
7A
330
79
100
AcDbEntity
  8
_U+30EC_U+30A4_U+30E4_U+30FC 1
 62
     7
420
 16777215
370
    25
100
AcDbVertex
100
AcDb2dVertex
 10
94.84899508020054
 20
-135.4608105216901
 30
0.0
  0
VERTEX
  5
7B
330
79
100
AcDbEntity
  8
_U+30EC_U+30A4_U+30E4_U+30FC 1
 62
     7
420
 16777215
370
    25
100
AcDbVertex
100
AcDb2dVertex
 10
94.84899508020054
 20
-132.4608235779957
 30
0.0
  0
SEQEND
  5
7C
330
79
100
AcDbEntity
  8
_U+30EC_U+30A4_U+30E4_U+30FC 1
 62
     7
420
 16777215
370
    25
  0
POLYLINE
  5
7D
330
71
100
AcDbEntity
  8
_U+30EC_U+30A4_U+30E4_U+30FC 1
 62
     7
420
 16777215
370
    25
100
AcDb2dPolyline
 66
     1
 10
0.0
 20
0.0
 30
0.0
  0
VERTEX
  5
7E
330
7D
100
AcDbEntity
  8
_U+30EC_U+30A4_U+30E4_U+30FC 1
 62
     7
420
 16777215
370
    25
100
AcDbVertex
100
AcDb2dVertex
 10
93.74861066382924
 20
-134.3611316330765
 30
0.0
  0
VERTEX
  5
7F
330
7D
100
AcDbEntity
  8
_U+30EC_U+30A4_U+30E4_U+30FC 1
 62
     7
420
 16777215
370
    25
100
AcDbVertex
100
AcDb2dVertex
 10
93.74861066382924
 20
-132.4608235779957
 30
0.0
  0
SEQEND
  5
80
330
7D
100
AcDbEntity
  8
_U+30EC_U+30A4_U+30E4_U+30FC 1
 62
     7
420
 16777215
370
    25
  0
ENDBLK
  5
74
330
71
100
AcDbEntity
  8
0
100
AcDbBlockEnd
  0
BLOCK
  5
96
330
94
100
AcDbEntity
  8
0
100
AcDbBlockBegin
  2
block 3
 70
     0
 10
0.0
 20
0.0
 30
0.0
  3
block 3
  1

  0
SPLINE
  5
98
330
94
100
AcDbEntity
  8
_U+30EC_U+30A4_U+30E4_U+30FC 1
370
     0
100
AcDbSpline
210
0.0
220
0.0
230
1.0
 70
    11
 71
     3
 72
    26
 73
    22
 74
     0
 42
0.0000000001
 43
0.0000000001
 12
1.0
 22
0.0
 32
0.0
 13
1.0
 23
0.0
 33
0.0
 40
0.0
 40
0.0
 40
0.0
 40
0.0
 40
1.0
 40
1.0
 40
1.0
 40
2.0
 40
2.0
 40
2.0
 40
3.0
 40
3.0
 40
3.0
 40
4.0
 40
4.0
 40
4.0
 40
5.0
 40
5.0
 40
5.0
 40
6.0
 40
6.0
 40
6.0
 40
7.0
 40
7.0
 40
7.0
 40
7.0
 10
89.32357446768647
 20
-139.0402641796497
 30
0.0
 10
89.32357446768647
 20
-139.0402641796497
 30
0.0
 10
89.32357446768647
 20
-137.9361110766271
 30
0.0
 10
89.32357446768647
 20
-137.9361110766271
 30
0.0
 10
89.32357446768647
 20
-137.9361110766271
 30
0.0
 10
88.99353432019954
 20
-137.9361110766271
 30
0.0
 10
88.99353432019954
 20
-137.9361110766271
 30
0.0
 10
88.99353432019954
 20
-137.9361110766271
 30
0.0
 10
88.99353432019954
 20
-137.7879719707613
 30
0.0
 10
88.99353432019954
 20
-137.7879719707613
 30
0.0
 10
89.32564152497763
 20
-137.7731580601748
 30
0.0
 10
89.37215031402849
 20
-137.6102050437225
 30
0.0
 10
89.40177813520164
 20
-137.4958278736122
 30
0.0
 10
89.40177813520164
 20
-137.4958278736122
 30
0.0
 10
89.54785018377623
 20
-137.4958278736122
 30
0.0
 10
89.54785018377623
 20
-137.4958278736122
 30
0.0
 10
89.54785018377623
 20
-137.4958278736122
 30
0.0
 10
89.54785018377623
 20
-139.0402641796497
 30
0.0
 10
89.54785018377623
 20
-139.0402641796497
 30
0.0
 10
89.54785018377623
 20
-139.0402641796497
 30
0.0
 10
89.32357446768647
 20
-139.0402641796497
 30
0.0
 10
89.32357446768647
 20
-139.0402641796497
 30
0.0
  0
HATCH
  5
99
330
94
100
AcDbEntity
  8
_U+30EC_U+30A4_U+30E4_U+30FC 1
 62
     7
420
 16777215
100
AcDbHatch
 10
0.0
 20
0.0
 30
0.0
210
0.0
220
0.0
230
1.0
  2
SOLID
 70
     1
 71
     0
 91
        1
 92
        1
 93
        1
 72
     4
 94
        3
 73
     0
 74
     1
 95
       26
 96
       22
 40
0.0
 40
0.0
 40
0.0
 40
0.0
 40
1.0
 40
1.0
 40
1.0
 40
2.0
 40
2.0
 40
2.0
 40
3.0
 40
3.0
 40
3.0
 40
4.0
 40
4.0
 40
4.0
 40
5.0
 40
5.0
 40
5.0
 40
6.0
 40
6.0
 40
6.0
 40
7.0
 40
7.0
 40
7.0
 40
7.0
 10
89.32357446768647
 20
-139.0402641796497
 10
89.32357446768647
 20
-139.0402641796497
 10
89.32357446768647
 20
-137.9361110766271
 10
89.32357446768647
 20
-137.9361110766271
 10
89.32357446768647
 20
-137.9361110766271
 10
88.99353432019954
 20
-137.9361110766271
 10
88.99353432019954
 20
-137.9361110766271
 10
88.99353432019954
 20
-137.9361110766271
 10
88.99353432019954
 20
-137.7879719707613
 10
88.99353432019954
 20
-137.7879719707613
 10
89.32564152497763
 20
-137.7731580601748
 10
89.37215031402849
 20
-137.6102050437225
 10
89.40177813520164
 20
-137.4958278736122
 10
89.40177813520164
 20
-137.4958278736122
 10
89.54785018377623
 20
-137.4958278736122
 10
89.54785018377623
 20
-137.4958278736122
 10
89.54785018377623
 20
-137.4958278736122
 10
89.54785018377623
 20
-139.0402641796497
 10
89.54785018377623
 20
-139.0402641796497
 10
89.54785018377623
 20
-139.0402641796497
 10
89.32357446768647
 20
-139.0402641796497
 10
89.32357446768647
 20
-139.0402641796497
 97
        0
 97
        0
 75
     2
 76
     1
 98
        0
  0
SPLINE
  5
9A
330
94
100
AcDbEntity
  8
_U+30EC_U+30A4_U+30E4_U+30FC 1
370
     0
100
AcDbSpline
210
0.0
220
0.0
230
1.0
 70
    11
 71
     3
 72
    29
 73
    25
 74
     0
 42
0.0000000001
 43
0.0000000001
 12
1.0
 22
0.0
 32
0.0
 13
1.0
 23
0.0
 33
0.0
 40
0.0
 40
0.0
 40
0.0
 40
0.0
 40
1.0
 40
1.0
 40
1.0
 40
2.0
 40
2.0
 40
2.0
 40
3.0
 40
3.0
 40
3.0
 40
4.0
 40
4.0
 40
4.0
 40
5.0
 40
5.0
 40
5.0
 40
6.0
 40
6.0
 40
6.0
 40
7.0
 40
7.0
 40
7.0
 40
8.0
 40
8.0
 40
8.0
 40
8.0
 10
90.9469034603362
 20
-138.8624972526108
 30
0.0
 10
90.83872746209936
 20
-139.0719590581139
 30
0.0
 10
90.66543915919128
 20
-139.0909070832828
 30
0.0
 10
90.54899493178984
 20
-139.0909070832828
 30
0.0
 10
90.38810897262867
 20
-139.0909070832828
 30
0.0
 10
90.2465155481849
 20
-139.044398294232
 30
0.0
 10
90.15143091279201
 20
-138.8624972526108
 30
0.0
 10
90.04773353868599
 20
-138.6678493576942
 30
0.0
 10
90.0284410039686
 20
-138.4311712978575
 30
0.0
 10
90.0284410039686
 20
-138.2682182814052
 30
0.0
 10
90.0284410039686
 20
-138.1242132901217
 30
0.0
 10
90.04566648139483
 20
-137.87237681015
 30
0.0
 10
90.15143091279201
 20
-137.673594800651
 30
0.0
 10
90.25926240148033
 20
-137.4706786765698
 30
0.0
 10
90.42014836064149
 20
-137.4472520272701
 30
0.0
 10
90.54899493178984
 20
-137.4472520272701
 30
0.0
 10
90.70781383365986
 20
-137.4472520272701
 30
0.0
 10
90.85147431539477
 20
-137.4916937590299
 30
0.0
 10
90.9469034603362
 20
-137.673594800651
 30
0.0
 10
91.0461222103114
 20
-137.8661756382765
 30
0.0
 10
91.06954885961109
 20
-138.0945854689486
 30
0.0
 10
91.06954885961109
 20
-138.2682182814052
 30
0.0
 10
91.06954885961109
 20
-138.4394395270221
 30
0.0
 10
91.04818926760254
 20
-138.6699164149853
 30
0.0
 10
90.9469034603362
 20
-138.8624972526108
 30
0.0
  0
SPLINE
  5
9B
330
94
100
AcDbEntity
  8
_U+30EC_U+30A4_U+30E4_U+30FC 1
370
     0
100
AcDbSpline
210
0.0
220
0.0
230
1.0
 70
    11
 71
     3
 72
    17
 73
    13
 74
     0
 42
0.0000000001
 43
0.0000000001
 12
1.0
 22
0.0
 32
0.0
 13
1.0
 23
0.0
 33
0.0
 40
0.0
 40
0.0
 40
0.0
 40
0.0
 40
1.0
 40
1.0
 40
1.0
 40
2.0
 40
2.0
 40
2.0
 40
3.0
 40
3.0
 40
3.0
 40
4.0
 40
4.0
 40
4.0
 40
4.0
 10
90.54899493178984
 20
-137.6398328648956
 30
0.0
 10
90.29922550910922
 20
-137.6398328648956
 30
0.0
 10
90.25271672005836
 20
-137.9233642233317
 30
0.0
 10
90.25271672005836
 20
-138.2682182814052
 30
0.0
 10
90.25271672005836
 20
-138.5875786328878
 30
0.0
 10
90.28889022265348
 20
-138.8962591883662
 30
0.0
 10
90.54899493178984
 20
-138.8962591883662
 30
0.0
 10
90.7966972971793
 20
-138.8962591883662
 30
0.0
 10
90.84527314352133
 20
-138.6151393967698
 30
0.0
 10
90.84527314352133
 20
-138.2682182814052
 30
0.0
 10
90.84527314352133
 20
-137.948513420374
 30
0.0
 10
90.80703258363505
 20
-137.6398328648956
 30
0.0
 10
90.54899493178984
 20
-137.6398328648956
 30
0.0
  0
HATCH
  5
9C
330
94
100
AcDbEntity
  8
_U+30EC_U+30A4_U+30E4_U+30FC 1
 62
     7
420
 16777215
100
AcDbHatch
 10
0.0
 20
0.0
 30
0.0
210
0.0
220
0.0
230
1.0
  2
SOLID
 70
     1
 71
     0
 91
        2
 92
        1
 93
        1
 72
     4
 94
        3
 73
     0
 74
     1
 95
       29
 96
       25
 40
0.0
 40
0.0
 40
0.0
 40
0.0
 40
1.0
 40
1.0
 40
1.0
 40
2.0
 40
2.0
 40
2.0
 40
3.0
 40
3.0
 40
3.0
 40
4.0
 40
4.0
 40
4.0
 40
5.0
 40
5.0
 40
5.0
 40
6.0
 40
6.0
 40
6.0
 40
7.0
 40
7.0
 40
7.0
 40
8.0
 40
8.0
 40
8.0
 40
8.0
 10
90.9469034603362
 20
-138.8624972526108
 10
90.83872746209936
 20
-139.0719590581139
 10
90.66543915919128
 20
-139.0909070832828
 10
90.54899493178984
 20
-139.0909070832828
 10
90.38810897262867
 20
-139.0909070832828
 10
90.2465155481849
 20
-139.044398294232
 10
90.15143091279201
 20
-138.8624972526108
 10
90.04773353868599
 20
-138.6678493576942
 10
90.0284410039686
 20
-138.4311712978575
 10
90.0284410039686
 20
-138.2682182814052
 10
90.0284410039686
 20
-138.1242132901217
 10
90.04566648139483
 20
-137.87237681015
 10
90.15143091279201
 20
-137.673594800651
 10
90.25926240148033
 20
-137.4706786765698
 10
90.42014836064149
 20
-137.4472520272701
 10
90.54899493178984
 20
-137.4472520272701
 10
90.70781383365986
 20
-137.4472520272701
 10
90.85147431539477
 20
-137.4916937590299
 10
90.9469034603362
 20
-137.673594800651
 10
91.0461222103114
 20
-137.8661756382765
 10
91.06954885961109
 20
-138.0945854689486
 10
91.06954885961109
 20
-138.2682182814052
 10
91.06954885961109
 20
-138.4394395270221
 10
91.04818926760254
 20
-138.6699164149853
 10
90.9469034603362
 20
-138.8624972526108
 97
        0
 97
        0
 92
        1
 93
        1
 72
     4
 94
        3
 73
     0
 74
     1
 95
       17
 96
       13
 40
0.0
 40
0.0
 40
0.0
 40
0.0
 40
1.0
 40
1.0
 40
1.0
 40
2.0
 40
2.0
 40
2.0
 40
3.0
 40
3.0
 40
3.0
 40
4.0
 40
4.0
 40
4.0
 40
4.0
 10
90.54899493178984
 20
-137.6398328648956
 10
90.29922550910922
 20
-137.6398328648956
 10
90.25271672005836
 20
-137.9233642233317
 10
90.25271672005836
 20
-138.2682182814052
 10
90.25271672005836
 20
-138.5875786328878
 10
90.28889022265348
 20
-138.8962591883662
 10
90.54899493178984
 20
-138.8962591883662
 10
90.7966972971793
 20
-138.8962591883662
 10
90.84527314352133
 20
-138.6151393967698
 10
90.84527314352133
 20
-138.2682182814052
 10
90.84527314352133
 20
-137.948513420374
 10
90.80703258363505
 20
-137.6398328648956
 10
90.54899493178984
 20
-137.6398328648956
 97
        0
 97
        0
 75
     2
 76
     1
 98
        0
  0
ENDBLK
  5
97
330
94
100
AcDbEntity
  8
0
100
AcDbBlockEnd
  0
BLOCK
  5
AF
330
AD
100
AcDbEntity
  8
0
100
AcDbBlockBegin
  2
block 4
 70
     0
 10
0.0
 20
0.0
 30
0.0
  3
block 4
  1

  0
SPLINE
  5
B1
330
AD
100
AcDbEntity
  8
_U+30EC_U+30A4_U+30E4_U+30FC 1
370
     0
100
AcDbSpline
210
0.0
220
0.0
230
1.0
 70
    11
 71
     3
 72
    26
 73
    22
 74
     0
 42
0.0000000001
 43
0.0000000001
 12
1.0
 22
0.0
 32
0.0
 13
1.0
 23
0.0
 33
0.0
 40
0.0
 40
0.0
 40
0.0
 40
0.0
 40
1.0
 40
1.0
 40
1.0
 40
2.0
 40
2.0
 40
2.0
 40
3.0
 40
3.0
 40
3.0
 40
4.0
 40
4.0
 40
4.0
 40
5.0
 40
5.0
 40
5.0
 40
6.0
 40
6.0
 40
6.0
 40
7.0
 40
7.0
 40
7.0
 40
7.0
 10
109.0152234970517
 20
-125.7473632498132
 30
0.0
 10
109.0152234970517
 20
-125.7473632498132
 30
0.0
 10
107.9110703940292
 20
-125.7473632498132
 30
0.0
 10
107.9110703940292
 20
-125.7473632498132
 30
0.0
 10
107.9110703940292
 20
-125.7473632498132
 30
0.0
 10
107.9110703940292
 20
-126.0774033973001
 30
0.0
 10
107.9110703940292
 20
-126.0774033973001
 30
0.0
 10
107.9110703940292
 20
-126.0774033973001
 30
0.0
 10
107.7629312881634
 20
-126.0774033973001
 30
0.0
 10
107.7629312881634
 20
-126.0774033973001
 30
0.0
 10
107.7481173775769
 20
-125.745296192522
 30
0.0
 10
107.5851643611245
 20
-125.6987874034711
 30
0.0
 10
107.4707871910143
 20
-125.669159582298
 30
0.0
 10
107.4707871910143
 20
-125.669159582298
 30
0.0
 10
107.4707871910143
 20
-125.5230875337234
 30
0.0
 10
107.4707871910143
 20
-125.5230875337234
 30
0.0
 10
107.4707871910143
 20
-125.5230875337234
 30
0.0
 10
109.0152234970517
 20
-125.5230875337234
 30
0.0
 10
109.0152234970517
 20
-125.5230875337234
 30
0.0
 10
109.0152234970517
 20
-125.5230875337234
 30
0.0
 10
109.0152234970517
 20
-125.7473632498132
 30
0.0
 10
109.0152234970517
 20
-125.7473632498132
 30
0.0
  0
HATCH
  5
B2
330
AD
100
AcDbEntity
  8
_U+30EC_U+30A4_U+30E4_U+30FC 1
 62
     7
420
 16777215
100
AcDbHatch
 10
0.0
 20
0.0
 30
0.0
210
0.0
220
0.0
230
1.0
  2
SOLID
 70
     1
 71
     0
 91
        1
 92
        1
 93
        1
 72
     4
 94
        3
 73
     0
 74
     1
 95
       26
 96
       22
 40
0.0
 40
0.0
 40
0.0
 40
0.0
 40
1.0
 40
1.0
 40
1.0
 40
2.0
 40
2.0
 40
2.0
 40
3.0
 40
3.0
 40
3.0
 40
4.0
 40
4.0
 40
4.0
 40
5.0
 40
5.0
 40
5.0
 40
6.0
 40
6.0
 40
6.0
 40
7.0
 40
7.0
 40
7.0
 40
7.0
 10
109.0152234970517
 20
-125.7473632498132
 10
109.0152234970517
 20
-125.7473632498132
 10
107.9110703940292
 20
-125.7473632498132
 10
107.9110703940292
 20
-125.7473632498132
 10
107.9110703940292
 20
-125.7473632498132
 10
107.9110703940292
 20
-126.0774033973001
 10
107.9110703940292
 20
-126.0774033973001
 10
107.9110703940292
 20
-126.0774033973001
 10
107.7629312881634
 20
-126.0774033973001
 10
107.7629312881634
 20
-126.0774033973001
 10
107.7481173775769
 20
-125.745296192522
 10
107.5851643611245
 20
-125.6987874034711
 10
107.4707871910143
 20
-125.669159582298
 10
107.4707871910143
 20
-125.669159582298
 10
107.4707871910143
 20
-125.5230875337234
 10
107.4707871910143
 20
-125.5230875337234
 10
107.4707871910143
 20
-125.5230875337234
 10
109.0152234970517
 20
-125.5230875337234
 10
109.0152234970517
 20
-125.5230875337234
 10
109.0152234970517
 20
-125.5230875337234
 10
109.0152234970517
 20
-125.7473632498132
 10
109.0152234970517
 20
-125.7473632498132
 97
        0
 97
        0
 75
     2
 76
     1
 98
        0
  0
POLYLINE
  5
B3
330
AD
100
AcDbEntity
  8
_U+30EC_U+30A4_U+30E4_U+30FC 1
370
     0
100
AcDb2dPolyline
 66
     1
 10
0.0
 20
0.0
 30
0.0
  0
VERTEX
  5
B4
330
B3
100
AcDbEntity
  8
_U+30EC_U+30A4_U+30E4_U+30FC 1
370
     0
100
AcDbVertex
100
AcDb2dVertex
 10
109.0152234970517
 20
-124.9618814791762
 30
0.0
  0
VERTEX
  5
B5
330
B3
100
AcDbEntity
  8
_U+30EC_U+30A4_U+30E4_U+30FC 1
370
     0
100
AcDbVertex
100
AcDb2dVertex
 10
108.76338701708
 20
-124.9618814791762
 30
0.0
  0
VERTEX
  5
B6
330
B3
100
AcDbEntity
  8
_U+30EC_U+30A4_U+30E4_U+30FC 1
370
     0
100
AcDbVertex
100
AcDb2dVertex
 10
108.76338701708
 20
-124.7100449992044
 30
0.0
  0
VERTEX
  5
B7
330
B3
100
AcDbEntity
  8
_U+30EC_U+30A4_U+30E4_U+30FC 1
370
     0
100
AcDbVertex
100
AcDb2dVertex
 10
109.0152234970517
 20
-124.7100449992044
 30
0.0
  0
VERTEX
  5
B8
330
B3
100
AcDbEntity
  8
_U+30EC_U+30A4_U+30E4_U+30FC 1
370
     0
100
AcDbVertex
100
AcDb2dVertex
 10
109.0152234970517
 20
-124.9618814791762
 30
0.0
  0
SEQEND
  5
B9
330
B3
100
AcDbEntity
  8
_U+30EC_U+30A4_U+30E4_U+30FC 1
370
     0
  0
HATCH
  5
BA
330
AD
100
AcDbEntity
  8
_U+30EC_U+30A4_U+30E4_U+30FC 1
 62
     7
420
 16777215
100
AcDbHatch
 10
0.0
 20
0.0
 30
0.0
210
0.0
220
0.0
230
1.0
  2
SOLID
 70
     1
 71
     0
 91
        1
 92
        1
 93
        4
 72
     1
 10
109.0152234970517
 20
-124.9618814791762
 11
108.76338701708
 21
-124.9618814791762
 72
     1
 10
108.76338701708
 20
-124.9618814791762
 11
108.76338701708
 21
-124.7100449992044
 72
     1
 10
108.76338701708
 20
-124.7100449992044
 11
109.0152234970517
 21
-124.7100449992044
 72
     1
 10
109.0152234970517
 20
-124.7100449992044
 11
109.0152234970517
 21
-124.9618814791762
 97
        0
 75
     2
 76
     1
 98
        0
  0
SPLINE
  5
BB
330
AD
100
AcDbEntity
  8
_U+30EC_U+30A4_U+30E4_U+30FC 1
370
     0
100
AcDbSpline
210
0.0
220
0.0
230
1.0
 70
    11
 71
     3
 72
    26
 73
    22
 74
     0
 42
0.0000000001
 43
0.0000000001
 12
1.0
 22
0.0
 32
0.0
 13
1.0
 23
0.0
 33
0.0
 40
0.0
 40
0.0
 40
0.0
 40
0.0
 40
1.0
 40
1.0
 40
1.0
 40
2.0
 40
2.0
 40
2.0
 40
3.0
 40
3.0
 40
3.0
 40
4.0
 40
4.0
 40
4.0
 40
5.0
 40
5.0
 40
5.0
 40
6.0
 40
6.0
 40
6.0
 40
7.0
 40
7.0
 40
7.0
 40
7.0
 10
109.0152234970517
 20
-124.0224039403486
 30
0.0
 10
109.0152234970517
 20
-124.0224039403486
 30
0.0
 10
107.9110703940292
 20
-124.0224039403486
 30
0.0
 10
107.9110703940292
 20
-124.0224039403486
 30
0.0
 10
107.9110703940292
 20
-124.0224039403486
 30
0.0
 10
107.9110703940292
 20
-124.3524440878355
 30
0.0
 10
107.9110703940292
 20
-124.3524440878355
 30
0.0
 10
107.9110703940292
 20
-124.3524440878355
 30
0.0
 10
107.7629312881634
 20
-124.3524440878355
 30
0.0
 10
107.7629312881634
 20
-124.3524440878355
 30
0.0
 10
107.7481173775769
 20
-124.0203368830574
 30
0.0
 10
107.5851643611245
 20
-123.9738280940065
 30
0.0
 10
107.4707871910143
 20
-123.9442002728334
 30
0.0
 10
107.4707871910143
 20
-123.9442002728334
 30
0.0
 10
107.4707871910143
 20
-123.7981282242588
 30
0.0
 10
107.4707871910143
 20
-123.7981282242588
 30
0.0
 10
107.4707871910143
 20
-123.7981282242588
 30
0.0
 10
109.0152234970517
 20
-123.7981282242588
 30
0.0
 10
109.0152234970517
 20
-123.7981282242588
 30
0.0
 10
109.0152234970517
 20
-123.7981282242588
 30
0.0
 10
109.0152234970517
 20
-124.0224039403486
 30
0.0
 10
109.0152234970517
 20
-124.0224039403486
 30
0.0
  0
HATCH
  5
BC
330
AD
100
AcDbEntity
  8
_U+30EC_U+30A4_U+30E4_U+30FC 1
 62
     7
420
 16777215
100
AcDbHatch
 10
0.0
 20
0.0
 30
0.0
210
0.0
220
0.0
230
1.0
  2
SOLID
 70
     1
 71
     0
 91
        1
 92
        1
 93
        1
 72
     4
 94
        3
 73
     0
 74
     1
 95
       26
 96
       22
 40
0.0
 40
0.0
 40
0.0
 40
0.0
 40
1.0
 40
1.0
 40
1.0
 40
2.0
 40
2.0
 40
2.0
 40
3.0
 40
3.0
 40
3.0
 40
4.0
 40
4.0
 40
4.0
 40
5.0
 40
5.0
 40
5.0
 40
6.0
 40
6.0
 40
6.0
 40
7.0
 40
7.0
 40
7.0
 40
7.0
 10
109.0152234970517
 20
-124.0224039403486
 10
109.0152234970517
 20
-124.0224039403486
 10
107.9110703940292
 20
-124.0224039403486
 10
107.9110703940292
 20
-124.0224039403486
 10
107.9110703940292
 20
-124.0224039403486
 10
107.9110703940292
 20
-124.3524440878355
 10
107.9110703940292
 20
-124.3524440878355
 10
107.9110703940292
 20
-124.3524440878355
 10
107.7629312881634
 20
-124.3524440878355
 10
107.7629312881634
 20
-124.3524440878355
 10
107.7481173775769
 20
-124.0203368830574
 10
107.5851643611245
 20
-123.9738280940065
 10
107.4707871910143
 20
-123.9442002728334
 10
107.4707871910143
 20
-123.9442002728334
 10
107.4707871910143
 20
-123.7981282242588
 10
107.4707871910143
 20
-123.7981282242588
 10
107.4707871910143
 20
-123.7981282242588
 10
109.0152234970517
 20
-123.7981282242588
 10
109.0152234970517
 20
-123.7981282242588
 10
109.0152234970517
 20
-123.7981282242588
 10
109.0152234970517
 20
-124.0224039403486
 10
109.0152234970517
 20
-124.0224039403486
 97
        0
 97
        0
 75
     2
 76
     1
 98
        0
  0
ENDBLK
  5
B0
330
AD
100
AcDbEntity
  8
0
100
AcDbBlockEnd
  0
BLOCK
  5
CB
330
C9
100
AcDbEntity
  8
0
100
AcDbBlockBegin
  2
block 5
 70
     0
 10
0.0
 20
0.0
 30
0.0
  3
block 5
  1

  0
SPLINE
  5
CD
330
C9
100
AcDbEntity
  8
_U+30EC_U+30A4_U+30E4_U+30FC 1
370
     0
100
AcDbSpline
210
0.0
220
0.0
230
1.0
 70
    11
 71
     3
 72
    62
 73
    58
 74
     0
 42
0.0000000001
 43
0.0000000001
 12
1.0
 22
0.0
 32
0.0
 13
1.0
 23
0.0
 33
0.0
 40
0.0
 40
0.0
 40
0.0
 40
0.0
 40
1.0
 40
1.0
 40
1.0
 40
2.0
 40
2.0
 40
2.0
 40
3.0
 40
3.0
 40
3.0
 40
4.0
 40
4.0
 40
4.0
 40
5.0
 40
5.0
 40
5.0
 40
6.0
 40
6.0
 40
6.0
 40
7.0
 40
7.0
 40
7.0
 40
8.0
 40
8.0
 40
8.0
 40
9.0
 40
9.0
 40
9.0
 40
10.0
 40
10.0
 40
10.0
 40
11.0
 40
11.0
 40
11.0
 40
12.0
 40
12.0
 40
12.0
 40
13.0
 40
13.0
 40
13.0
 40
14.0
 40
14.0
 40
14.0
 40
15.0
 40
15.0
 40
15.0
 40
16.0
 40
16.0
 40
16.0
 40
17.0
 40
17.0
 40
17.0
 40
18.0
 40
18.0
 40
18.0
 40
19.0
 40
19.0
 40
19.0
 40
19.0
 10
86.162871614744
 20
-119.5970065347709
 30
0.0
 10
86.06744246980259
 20
-119.5970065347709
 30
0.0
 10
85.8497124351348
 20
-119.5758191975366
 30
0.0
 10
85.72465546902023
 20
-119.3896117865589
 30
0.0
 10
85.65058591608735
 20
-119.277473928514
 30
0.0
 10
85.64645180150505
 20
-119.1780829237645
 30
0.0
 10
85.64231768692275
 20
-119.0935058296016
 30
0.0
 10
85.64231768692275
 20
-119.0935058296016
 30
0.0
 10
85.86245928843022
 20
-119.0935058296016
 30
0.0
 10
85.86245928843022
 20
-119.0935058296016
 30
0.0
 10
85.86452634572137
 20
-119.1675753825345
 30
0.0
 10
85.87486163217712
 20
-119.4023586398543
 30
0.0
 10
86.15839299061318
 20
-119.4023586398543
 30
0.0
 10
86.29585230047465
 20
-119.4023586398543
 30
0.0
 10
86.44847003047121
 20
-119.332595456278
 30
0.0
 10
86.44847003047121
 20
-119.1040133708316
 30
0.0
 10
86.44847003047121
 20
-118.9877413982045
 30
0.0
 10
86.41022947058495
 20
-118.9389932970882
 30
0.0
 10
86.37853459212064
 20
-118.9072984186239
 30
0.0
 10
86.30446503918778
 20
-118.833228865691
 30
0.0
 10
86.18802081178633
 20
-118.8206542671698
 30
0.0
 10
86.13324379357086
 20
-118.8206542671698
 30
0.0
 10
86.11395125885346
 20
-118.8206542671698
 30
0.0
 10
86.07812226580687
 20
-118.822721324461
 30
0.0
 10
86.05056150192486
 20
-118.8268554390433
 30
0.0
 10
86.05056150192486
 20
-118.8268554390433
 30
0.0
 10
86.05056150192486
 20
-118.6322075441267
 30
0.0
 10
86.05056150192486
 20
-118.6322075441267
 30
0.0
 10
86.08880206181114
 20
-118.6385809707744
 30
0.0
 10
86.13083222673119
 20
-118.6408202828398
 30
0.0
 10
86.13737790815316
 20
-118.6408202828398
 30
0.0
 10
86.20283472237291
 20
-118.6408202828398
 30
0.0
 10
86.40161673187183
 20
-118.6196329456055
 30
0.0
 10
86.40161673187183
 20
-118.3826103762203
 30
0.0
 10
86.40161673187183
 20
-118.2050157039557
 30
0.0
 10
86.27070310343233
 20
-118.1498941761917
 30
0.0
 10
86.16046004790434
 20
-118.1498941761917
 30
0.0
 10
85.89622122418567
 20
-118.1498941761917
 30
0.0
 10
85.88760848547254
 20
-118.3826103762203
 30
0.0
 10
85.88347437089024
 20
-118.4546128718621
 30
0.0
 10
85.88347437089024
 20
-118.4546128718621
 30
0.0
 10
85.6802137372605
 20
-118.4546128718621
 30
0.0
 10
85.6802137372605
 20
-118.4546128718621
 30
0.0
 10
85.68882647597363
 20
-118.3297281605217
 30
0.0
 10
85.71638723985564
 20
-117.9531792239839
 30
0.0
 10
86.17320690119976
 20
-117.9531792239839
 30
0.0
 10
86.39748261728953
 20
-117.9531792239839
 30
0.0
 10
86.63863930125702
 20
-118.0801309926154
 30
0.0
 10
86.63863930125702
 20
-118.3762369495726
 30
0.0
 10
86.63863930125702
 20
-118.5624443605504
 30
0.0
 10
86.54355466586412
 20
-118.6449543974221
 30
0.0
 10
86.4439914063404
 20
-118.7062770970595
 30
0.0
 10
86.50531410597785
 20
-118.7338378609415
 30
0.0
 10
86.68721514759903
 20
-118.8142808405221
 30
0.0
 10
86.68721514759903
 20
-119.0914387723105
 30
0.0
 10
86.68721514759903
 20
-119.4299194037363
 30
0.0
 10
86.4398572917581
 20
-119.5970065347709
 30
0.0
 10
86.162871614744
 20
-119.5970065347709
 30
0.0
  0
HATCH
  5
CE
330
C9
100
AcDbEntity
  8
_U+30EC_U+30A4_U+30E4_U+30FC 1
 62
     7
420
 16777215
100
AcDbHatch
 10
0.0
 20
0.0
 30
0.0
210
0.0
220
0.0
230
1.0
  2
SOLID
 70
     1
 71
     0
 91
        1
 92
        1
 93
        1
 72
     4
 94
        3
 73
     0
 74
     1
 95
       62
 96
       58
 40
0.0
 40
0.0
 40
0.0
 40
0.0
 40
1.0
 40
1.0
 40
1.0
 40
2.0
 40
2.0
 40
2.0
 40
3.0
 40
3.0
 40
3.0
 40
4.0
 40
4.0
 40
4.0
 40
5.0
 40
5.0
 40
5.0
 40
6.0
 40
6.0
 40
6.0
 40
7.0
 40
7.0
 40
7.0
 40
8.0
 40
8.0
 40
8.0
 40
9.0
 40
9.0
 40
9.0
 40
10.0
 40
10.0
 40
10.0
 40
11.0
 40
11.0
 40
11.0
 40
12.0
 40
12.0
 40
12.0
 40
13.0
 40
13.0
 40
13.0
 40
14.0
 40
14.0
 40
14.0
 40
15.0
 40
15.0
 40
15.0
 40
16.0
 40
16.0
 40
16.0
 40
17.0
 40
17.0
 40
17.0
 40
18.0
 40
18.0
 40
18.0
 40
19.0
 40
19.0
 40
19.0
 40
19.0
 10
86.162871614744
 20
-119.5970065347709
 10
86.06744246980259
 20
-119.5970065347709
 10
85.8497124351348
 20
-119.5758191975366
 10
85.72465546902023
 20
-119.3896117865589
 10
85.65058591608735
 20
-119.277473928514
 10
85.64645180150505
 20
-119.1780829237645
 10
85.64231768692275
 20
-119.0935058296016
 10
85.64231768692275
 20
-119.0935058296016
 10
85.86245928843022
 20
-119.0935058296016
 10
85.86245928843022
 20
-119.0935058296016
 10
85.86452634572137
 20
-119.1675753825345
 10
85.87486163217712
 20
-119.4023586398543
 10
86.15839299061318
 20
-119.4023586398543
 10
86.29585230047465
 20
-119.4023586398543
 10
86.44847003047121
 20
-119.332595456278
 10
86.44847003047121
 20
-119.1040133708316
 10
86.44847003047121
 20
-118.9877413982045
 10
86.41022947058495
 20
-118.9389932970882
 10
86.37853459212064
 20
-118.9072984186239
 10
86.30446503918778
 20
-118.833228865691
 10
86.18802081178633
 20
-118.8206542671698
 10
86.13324379357086
 20
-118.8206542671698
 10
86.11395125885346
 20
-118.8206542671698
 10
86.07812226580687
 20
-118.822721324461
 10
86.05056150192486
 20
-118.8268554390433
 10
86.05056150192486
 20
-118.8268554390433
 10
86.05056150192486
 20
-118.6322075441267
 10
86.05056150192486
 20
-118.6322075441267
 10
86.08880206181114
 20
-118.6385809707744
 10
86.13083222673119
 20
-118.6408202828398
 10
86.13737790815316
 20
-118.6408202828398
 10
86.20283472237291
 20
-118.6408202828398
 10
86.40161673187183
 20
-118.6196329456055
 10
86.40161673187183
 20
-118.3826103762203
 10
86.40161673187183
 20
-118.2050157039557
 10
86.27070310343233
 20
-118.1498941761917
 10
86.16046004790434
 20
-118.1498941761917
 10
85.89622122418567
 20
-118.1498941761917
 10
85.88760848547254
 20
-118.3826103762203
 10
85.88347437089024
 20
-118.4546128718621
 10
85.88347437089024
 20
-118.4546128718621
 10
85.6802137372605
 20
-118.4546128718621
 10
85.6802137372605
 20
-118.4546128718621
 10
85.68882647597363
 20
-118.3297281605217
 10
85.71638723985564
 20
-117.9531792239839
 10
86.17320690119976
 20
-117.9531792239839
 10
86.39748261728953
 20
-117.9531792239839
 10
86.63863930125702
 20
-118.0801309926154
 10
86.63863930125702
 20
-118.3762369495726
 10
86.63863930125702
 20
-118.5624443605504
 10
86.54355466586412
 20
-118.6449543974221
 10
86.4439914063404
 20
-118.7062770970595
 10
86.50531410597785
 20
-118.7338378609415
 10
86.68721514759903
 20
-118.8142808405221
 10
86.68721514759903
 20
-119.0914387723105
 10
86.68721514759903
 20
-119.4299194037363
 10
86.4398572917581
 20
-119.5970065347709
 10
86.162871614744
 20
-119.5970065347709
 97
        0
 97
        0
 75
     2
 76
     1
 98
        0
  0
SPLINE
  5
CF
330
C9
100
AcDbEntity
  8
_U+30EC_U+30A4_U+30E4_U+30FC 1
370
     0
100
AcDbSpline
210
0.0
220
0.0
230
1.0
 70
    11
 71
     3
 72
    53
 73
    49
 74
     0
 42
0.0000000001
 43
0.0000000001
 12
1.0
 22
0.0
 32
0.0
 13
1.0
 23
0.0
 33
0.0
 40
0.0
 40
0.0
 40
0.0
 40
0.0
 40
1.0
 40
1.0
 40
1.0
 40
2.0
 40
2.0
 40
2.0
 40
3.0
 40
3.0
 40
3.0
 40
4.0
 40
4.0
 40
4.0
 40
5.0
 40
5.0
 40
5.0
 40
6.0
 40
6.0
 40
6.0
 40
7.0
 40
7.0
 40
7.0
 40
8.0
 40
8.0
 40
8.0
 40
9.0
 40
9.0
 40
9.0
 40
10.0
 40
10.0
 40
10.0
 40
11.0
 40
11.0
 40
11.0
 40
12.0
 40
12.0
 40
12.0
 40
13.0
 40
13.0
 40
13.0
 40
14.0
 40
14.0
 40
14.0
 40
15.0
 40
15.0
 40
15.0
 40
16.0
 40
16.0
 40
16.0
 40
16.0
 10
87.32903643650108
 20
-119.5970065347709
 30
0.0
 10
87.2508327689859
 20
-119.5970065347709
 30
0.0
 10
87.14920245217104
 20
-119.5799533121189
 30
0.0
 10
87.04757213535616
 20
-119.5165635551903
 30
0.0
 10
86.8742838324481
 20
-119.4064927544366
 30
0.0
 10
86.85292424043955
 20
-119.2754068712228
 30
0.0
 10
86.83397621527068
 20
-119.1675753825345
 30
0.0
 10
86.83397621527068
 20
-119.1675753825345
 30
0.0
 10
87.05618487406929
 20
-119.1675753825345
 30
0.0
 10
87.05618487406929
 20
-119.1675753825345
 30
0.0
 10
87.11096189228476
 20
-119.3663573920334
 30
0.0
 10
87.23808591569048
 20
-119.3959852132066
 30
0.0
 10
87.33110349379223
 20
-119.3959852132066
 30
0.0
 10
87.47062986094484
 20
-119.3959852132066
 30
0.0
 10
87.62290308139289
 20
-119.2965942084571
 30
0.0
 10
87.62290308139289
 20
-119.0638780084285
 30
0.0
 10
87.62290308139289
 20
-118.8079074138744
 30
0.0
 10
87.44306909706285
 20
-118.7381442302981
 30
0.0
 10
87.3224907550791
 20
-118.7381442302981
 30
0.0
 10
87.29079587661481
 20
-118.7381442302981
 30
0.0
 10
87.14920245217104
 20
-118.7381442302981
 30
0.0
 10
87.06031898865159
 20
-118.8671630562207
 30
0.0
 10
87.06031898865159
 20
-118.8671630562207
 30
0.0
 10
86.88461911890384
 20
-118.8480427762776
 30
0.0
 10
86.88461911890384
 20
-118.8480427762776
 30
0.0
 10
86.88461911890384
 20
-118.8480427762776
 30
0.0
 10
87.00519746088759
 20
-118.0019273251002
 30
0.0
 10
87.00519746088759
 20
-118.0019273251002
 30
0.0
 10
87.00519746088759
 20
-118.0019273251002
 30
0.0
 10
87.78378904055405
 20
-118.0019273251002
 30
0.0
 10
87.78378904055405
 20
-118.0019273251002
 30
0.0
 10
87.78378904055405
 20
-118.0019273251002
 30
0.0
 10
87.78378904055405
 20
-118.1965752200168
 30
0.0
 10
87.78378904055405
 20
-118.1965752200168
 30
0.0
 10
87.78378904055405
 20
-118.1965752200168
 30
0.0
 10
87.1681504773399
 20
-118.1965752200168
 30
0.0
 10
87.1681504773399
 20
-118.1965752200168
 30
0.0
 10
87.1681504773399
 20
-118.1965752200168
 30
0.0
 10
87.10269366312016
 20
-118.6196329456055
 30
0.0
 10
87.10269366312016
 20
-118.6196329456055
 30
0.0
 10
87.16401636275761
 20
-118.5856987550758
 30
0.0
 10
87.24635414485508
 20
-118.5455633926726
 30
0.0
 10
87.36486542954768
 20
-118.5455633926726
 30
0.0
 10
87.61876896681059
 20
-118.5455633926726
 30
0.0
 10
87.85579153619578
 20
-118.7317708036504
 30
0.0
 10
87.85579153619578
 20
-119.0447577284854
 30
0.0
 10
87.85579153619578
 20
-119.3622232774511
 30
0.0
 10
87.63151582010602
 20
-119.5970065347709
 30
0.0
 10
87.32903643650108
 20
-119.5970065347709
 30
0.0
  0
HATCH
  5
D0
330
C9
100
AcDbEntity
  8
_U+30EC_U+30A4_U+30E4_U+30FC 1
 62
     7
420
 16777215
100
AcDbHatch
 10
0.0
 20
0.0
 30
0.0
210
0.0
220
0.0
230
1.0
  2
SOLID
 70
     1
 71
     0
 91
        1
 92
        1
 93
        1
 72
     4
 94
        3
 73
     0
 74
     1
 95
       53
 96
       49
 40
0.0
 40
0.0
 40
0.0
 40
0.0
 40
1.0
 40
1.0
 40
1.0
 40
2.0
 40
2.0
 40
2.0
 40
3.0
 40
3.0
 40
3.0
 40
4.0
 40
4.0
 40
4.0
 40
5.0
 40
5.0
 40
5.0
 40
6.0
 40
6.0
 40
6.0
 40
7.0
 40
7.0
 40
7.0
 40
8.0
 40
8.0
 40
8.0
 40
9.0
 40
9.0
 40
9.0
 40
10.0
 40
10.0
 40
10.0
 40
11.0
 40
11.0
 40
11.0
 40
12.0
 40
12.0
 40
12.0
 40
13.0
 40
13.0
 40
13.0
 40
14.0
 40
14.0
 40
14.0
 40
15.0
 40
15.0
 40
15.0
 40
16.0
 40
16.0
 40
16.0
 40
16.0
 10
87.32903643650108
 20
-119.5970065347709
 10
87.2508327689859
 20
-119.5970065347709
 10
87.14920245217104
 20
-119.5799533121189
 10
87.04757213535616
 20
-119.5165635551903
 10
86.8742838324481
 20
-119.4064927544366
 10
86.85292424043955
 20
-119.2754068712228
 10
86.83397621527068
 20
-119.1675753825345
 10
86.83397621527068
 20
-119.1675753825345
 10
87.05618487406929
 20
-119.1675753825345
 10
87.05618487406929
 20
-119.1675753825345
 10
87.11096189228476
 20
-119.3663573920334
 10
87.23808591569048
 20
-119.3959852132066
 10
87.33110349379223
 20
-119.3959852132066
 10
87.47062986094484
 20
-119.3959852132066
 10
87.62290308139289
 20
-119.2965942084571
 10
87.62290308139289
 20
-119.0638780084285
 10
87.62290308139289
 20
-118.8079074138744
 10
87.44306909706285
 20
-118.7381442302981
 10
87.3224907550791
 20
-118.7381442302981
 10
87.29079587661481
 20
-118.7381442302981
 10
87.14920245217104
 20
-118.7381442302981
 10
87.06031898865159
 20
-118.8671630562207
 10
87.06031898865159
 20
-118.8671630562207
 10
86.88461911890384
 20
-118.8480427762776
 10
86.88461911890384
 20
-118.8480427762776
 10
86.88461911890384
 20
-118.8480427762776
 10
87.00519746088759
 20
-118.0019273251002
 10
87.00519746088759
 20
-118.0019273251002
 10
87.00519746088759
 20
-118.0019273251002
 10
87.78378904055405
 20
-118.0019273251002
 10
87.78378904055405
 20
-118.0019273251002
 10
87.78378904055405
 20
-118.0019273251002
 10
87.78378904055405
 20
-118.1965752200168
 10
87.78378904055405
 20
-118.1965752200168
 10
87.78378904055405
 20
-118.1965752200168
 10
87.1681504773399
 20
-118.1965752200168
 10
87.1681504773399
 20
-118.1965752200168
 10
87.1681504773399
 20
-118.1965752200168
 10
87.10269366312016
 20
-118.6196329456055
 10
87.10269366312016
 20
-118.6196329456055
 10
87.16401636275761
 20
-118.5856987550758
 10
87.24635414485508
 20
-118.5455633926726
 10
87.36486542954768
 20
-118.5455633926726
 10
87.61876896681059
 20
-118.5455633926726
 10
87.85579153619578
 20
-118.7317708036504
 10
87.85579153619578
 20
-119.0447577284854
 10
87.85579153619578
 20
-119.3622232774511
 10
87.63151582010602
 20
-119.5970065347709
 10
87.32903643650108
 20
-119.5970065347709
 97
        0
 97
        0
 75
     2
 76
     1
 98
        0
  0
ENDBLK
  5
CC
330
C9
100
AcDbEntity
  8
0
100
AcDbBlockEnd
  0
BLOCK
  5
DF
330
DD
100
AcDbEntity
  8
0
100
AcDbBlockBegin
  2
block 6
 70
     0
 10
0.0
 20
0.0
 30
0.0
  3
block 6
  1

  0
SPLINE
  5
E1
330
DD
100
AcDbEntity
  8
_U+30EC_U+30A4_U+30E4_U+30FC 1
370
     0
100
AcDbSpline
210
0.0
220
0.0
230
1.0
 70
    11
 71
     3
 72
    26
 73
    22
 74
     0
 42
0.0000000001
 43
0.0000000001
 12
1.0
 22
0.0
 32
0.0
 13
1.0
 23
0.0
 33
0.0
 40
0.0
 40
0.0
 40
0.0
 40
0.0
 40
1.0
 40
1.0
 40
1.0
 40
2.0
 40
2.0
 40
2.0
 40
3.0
 40
3.0
 40
3.0
 40
4.0
 40
4.0
 40
4.0
 40
5.0
 40
5.0
 40
5.0
 40
6.0
 40
6.0
 40
6.0
 40
7.0
 40
7.0
 40
7.0
 40
7.0
 10
76.48370359416033
 20
-139.0402641796497
 30
0.0
 10
76.48370359416033
 20
-139.0402641796497
 30
0.0
 10
76.48370359416033
 20
-137.9361110766271
 30
0.0
 10
76.48370359416033
 20
-137.9361110766271
 30
0.0
 10
76.48370359416033
 20
-137.9361110766271
 30
0.0
 10
76.15366344667339
 20
-137.9361110766271
 30
0.0
 10
76.15366344667339
 20
-137.9361110766271
 30
0.0
 10
76.15366344667339
 20
-137.9361110766271
 30
0.0
 10
76.15366344667339
 20
-137.7879719707613
 30
0.0
 10
76.15366344667339
 20
-137.7879719707613
 30
0.0
 10
76.48577065145147
 20
-137.7731580601748
 30
0.0
 10
76.53227944050235
 20
-137.6102050437225
 30
0.0
 10
76.5619072616755
 20
-137.4958278736122
 30
0.0
 10
76.5619072616755
 20
-137.4958278736122
 30
0.0
 10
76.7079793102501
 20
-137.4958278736122
 30
0.0
 10
76.7079793102501
 20
-137.4958278736122
 30
0.0
 10
76.7079793102501
 20
-137.4958278736122
 30
0.0
 10
76.7079793102501
 20
-139.0402641796497
 30
0.0
 10
76.7079793102501
 20
-139.0402641796497
 30
0.0
 10
76.7079793102501
 20
-139.0402641796497
 30
0.0
 10
76.48370359416033
 20
-139.0402641796497
 30
0.0
 10
76.48370359416033
 20
-139.0402641796497
 30
0.0
  0
HATCH
  5
E2
330
DD
100
AcDbEntity
  8
_U+30EC_U+30A4_U+30E4_U+30FC 1
 62
     7
420
 16777215
100
AcDbHatch
 10
0.0
 20
0.0
 30
0.0
210
0.0
220
0.0
230
1.0
  2
SOLID
 70
     1
 71
     0
 91
        1
 92
        1
 93
        1
 72
     4
 94
        3
 73
     0
 74
     1
 95
       26
 96
       22
 40
0.0
 40
0.0
 40
0.0
 40
0.0
 40
1.0
 40
1.0
 40
1.0
 40
2.0
 40
2.0
 40
2.0
 40
3.0
 40
3.0
 40
3.0
 40
4.0
 40
4.0
 40
4.0
 40
5.0
 40
5.0
 40
5.0
 40
6.0
 40
6.0
 40
6.0
 40
7.0
 40
7.0
 40
7.0
 40
7.0
 10
76.48370359416033
 20
-139.0402641796497
 10
76.48370359416033
 20
-139.0402641796497
 10
76.48370359416033
 20
-137.9361110766271
 10
76.48370359416033
 20
-137.9361110766271
 10
76.48370359416033
 20
-137.9361110766271
 10
76.15366344667339
 20
-137.9361110766271
 10
76.15366344667339
 20
-137.9361110766271
 10
76.15366344667339
 20
-137.9361110766271
 10
76.15366344667339
 20
-137.7879719707613
 10
76.15366344667339
 20
-137.7879719707613
 10
76.48577065145147
 20
-137.7731580601748
 10
76.53227944050235
 20
-137.6102050437225
 10
76.5619072616755
 20
-137.4958278736122
 10
76.5619072616755
 20
-137.4958278736122
 10
76.7079793102501
 20
-137.4958278736122
 10
76.7079793102501
 20
-137.4958278736122
 10
76.7079793102501
 20
-137.4958278736122
 10
76.7079793102501
 20
-139.0402641796497
 10
76.7079793102501
 20
-139.0402641796497
 10
76.7079793102501
 20
-139.0402641796497
 10
76.48370359416033
 20
-139.0402641796497
 10
76.48370359416033
 20
-139.0402641796497
 97
        0
 97
        0
 75
     2
 76
     1
 98
        0
  0
SPLINE
  5
E3
330
DD
100
AcDbEntity
  8
_U+30EC_U+30A4_U+30E4_U+30FC 1
370
     0
100
AcDbSpline
210
0.0
220
0.0
230
1.0
 70
    11
 71
     3
 72
    53
 73
    49
 74
     0
 42
0.0000000001
 43
0.0000000001
 12
1.0
 22
0.0
 32
0.0
 13
1.0
 23
0.0
 33
0.0
 40
0.0
 40
0.0
 40
0.0
 40
0.0
 40
1.0
 40
1.0
 40
1.0
 40
2.0
 40
2.0
 40
2.0
 40
3.0
 40
3.0
 40
3.0
 40
4.0
 40
4.0
 40
4.0
 40
5.0
 40
5.0
 40
5.0
 40
6.0
 40
6.0
 40
6.0
 40
7.0
 40
7.0
 40
7.0
 40
8.0
 40
8.0
 40
8.0
 40
9.0
 40
9.0
 40
9.0
 40
10.0
 40
10.0
 40
10.0
 40
11.0
 40
11.0
 40
11.0
 40
12.0
 40
12.0
 40
12.0
 40
13.0
 40
13.0
 40
13.0
 40
14.0
 40
14.0
 40
14.0
 40
15.0
 40
15.0
 40
15.0
 40
16.0
 40
16.0
 40
16.0
 40
16.0
 10
77.69017603309482
 20
-139.0909070832828
 30
0.0
 10
77.61180011080539
 20
-139.0909070832828
 30
0.0
 10
77.51034204876478
 20
-139.0740261154051
 30
0.0
 10
77.40871173194991
 20
-139.0106363584765
 30
0.0
 10
77.23525117426757
 20
-138.9007378124971
 30
0.0
 10
77.2140638370333
 20
-138.769479674509
 30
0.0
 10
77.19511581186443
 20
-138.6616481858207
 30
0.0
 10
77.19511581186443
 20
-138.6616481858207
 30
0.0
 10
77.41715221588878
 20
-138.6616481858207
 30
0.0
 10
77.41715221588878
 20
-138.6616481858207
 30
0.0
 10
77.47227374365276
 20
-138.8604301953196
 30
0.0
 10
77.59922551228422
 20
-138.8900580164928
 30
0.0
 10
77.69224309038597
 20
-138.8900580164928
 30
0.0
 10
77.83176945753858
 20
-138.8900580164928
 30
0.0
 10
77.98421493276089
 20
-138.7904947569691
 30
0.0
 10
77.98421493276089
 20
-138.5579508117147
 30
0.0
 10
77.98421493276089
 20
-138.3019802171606
 30
0.0
 10
77.80438094843085
 20
-138.2320447788101
 30
0.0
 10
77.6838026064471
 20
-138.2320447788101
 30
0.0
 10
77.65210772798281
 20
-138.2320447788101
 30
0.0
 10
77.51034204876478
 20
-138.2320447788101
 30
0.0
 10
77.42145858524533
 20
-138.3612358595069
 30
0.0
 10
77.42145858524533
 20
-138.3612358595069
 30
0.0
 10
77.24593097027186
 20
-138.342287834338
 30
0.0
 10
77.24593097027186
 20
-138.342287834338
 30
0.0
 10
77.24593097027186
 20
-138.342287834338
 30
0.0
 10
77.3665093122556
 20
-137.4958278736122
 30
0.0
 10
77.3665093122556
 20
-137.4958278736122
 30
0.0
 10
77.3665093122556
 20
-137.4958278736122
 30
0.0
 10
78.1449286371478
 20
-137.4958278736122
 30
0.0
 10
78.1449286371478
 20
-137.4958278736122
 30
0.0
 10
78.1449286371478
 20
-137.4958278736122
 30
0.0
 10
78.1449286371478
 20
-137.6904757685288
 30
0.0
 10
78.1449286371478
 20
-137.6904757685288
 30
0.0
 10
78.1449286371478
 20
-137.6904757685288
 30
0.0
 10
77.52929007393365
 20
-137.6904757685288
 30
0.0
 10
77.52929007393365
 20
-137.6904757685288
 30
0.0
 10
77.52929007393365
 20
-137.6904757685288
 30
0.0
 10
77.46383325971391
 20
-138.1135334941175
 30
0.0
 10
77.46383325971391
 20
-138.1135334941175
 30
0.0
 10
77.52515595935135
 20
-138.079771558362
 30
0.0
 10
77.60766599622309
 20
-138.0394639411846
 30
0.0
 10
77.72600502614142
 20
-138.0394639411846
 30
0.0
 10
77.97990856340434
 20
-138.0394639411846
 30
0.0
 10
78.21693113278953
 20
-138.2258436069366
 30
0.0
 10
78.21693113278953
 20
-138.5390027865458
 30
0.0
 10
78.21693113278953
 20
-138.8562960807373
 30
0.0
 10
77.99265541669976
 20
-139.0909070832828
 30
0.0
 10
77.69017603309482
 20
-139.0909070832828
 30
0.0
  0
HATCH
  5
E4
330
DD
100
AcDbEntity
  8
_U+30EC_U+30A4_U+30E4_U+30FC 1
 62
     7
420
 16777215
100
AcDbHatch
 10
0.0
 20
0.0
 30
0.0
210
0.0
220
0.0
230
1.0
  2
SOLID
 70
     1
 71
     0
 91
        1
 92
        1
 93
        1
 72
     4
 94
        3
 73
     0
 74
     1
 95
       53
 96
       49
 40
0.0
 40
0.0
 40
0.0
 40
0.0
 40
1.0
 40
1.0
 40
1.0
 40
2.0
 40
2.0
 40
2.0
 40
3.0
 40
3.0
 40
3.0
 40
4.0
 40
4.0
 40
4.0
 40
5.0
 40
5.0
 40
5.0
 40
6.0
 40
6.0
 40
6.0
 40
7.0
 40
7.0
 40
7.0
 40
8.0
 40
8.0
 40
8.0
 40
9.0
 40
9.0
 40
9.0
 40
10.0
 40
10.0
 40
10.0
 40
11.0
 40
11.0
 40
11.0
 40
12.0
 40
12.0
 40
12.0
 40
13.0
 40
13.0
 40
13.0
 40
14.0
 40
14.0
 40
14.0
 40
15.0
 40
15.0
 40
15.0
 40
16.0
 40
16.0
 40
16.0
 40
16.0
 10
77.69017603309482
 20
-139.0909070832828
 10
77.61180011080539
 20
-139.0909070832828
 10
77.51034204876478
 20
-139.0740261154051
 10
77.40871173194991
 20
-139.0106363584765
 10
77.23525117426757
 20
-138.9007378124971
 10
77.2140638370333
 20
-138.769479674509
 10
77.19511581186443
 20
-138.6616481858207
 10
77.19511581186443
 20
-138.6616481858207
 10
77.41715221588878
 20
-138.6616481858207
 10
77.41715221588878
 20
-138.6616481858207
 10
77.47227374365276
 20
-138.8604301953196
 10
77.59922551228422
 20
-138.8900580164928
 10
77.69224309038597
 20
-138.8900580164928
 10
77.83176945753858
 20
-138.8900580164928
 10
77.98421493276089
 20
-138.7904947569691
 10
77.98421493276089
 20
-138.5579508117147
 10
77.98421493276089
 20
-138.3019802171606
 10
77.80438094843085
 20
-138.2320447788101
 10
77.6838026064471
 20
-138.2320447788101
 10
77.65210772798281
 20
-138.2320447788101
 10
77.51034204876478
 20
-138.2320447788101
 10
77.42145858524533
 20
-138.3612358595069
 10
77.42145858524533
 20
-138.3612358595069
 10
77.24593097027186
 20
-138.342287834338
 10
77.24593097027186
 20
-138.342287834338
 10
77.24593097027186
 20
-138.342287834338
 10
77.3665093122556
 20
-137.4958278736122
 10
77.3665093122556
 20
-137.4958278736122
 10
77.3665093122556
 20
-137.4958278736122
 10
78.1449286371478
 20
-137.4958278736122
 10
78.1449286371478
 20
-137.4958278736122
 10
78.1449286371478
 20
-137.4958278736122
 10
78.1449286371478
 20
-137.6904757685288
 10
78.1449286371478
 20
-137.6904757685288
 10
78.1449286371478
 20
-137.6904757685288
 10
77.52929007393365
 20
-137.6904757685288
 10
77.52929007393365
 20
-137.6904757685288
 10
77.52929007393365
 20
-137.6904757685288
 10
77.46383325971391
 20
-138.1135334941175
 10
77.46383325971391
 20
-138.1135334941175
 10
77.52515595935135
 20
-138.079771558362
 10
77.60766599622309
 20
-138.0394639411846
 10
77.72600502614142
 20
-138.0394639411846
 10
77.97990856340434
 20
-138.0394639411846
 10
78.21693113278953
 20
-138.2258436069366
 10
78.21693113278953
 20
-138.5390027865458
 10
78.21693113278953
 20
-138.8562960807373
 10
77.99265541669976
 20
-139.0909070832828
 10
77.69017603309482
 20
-139.0909070832828
 97
        0
 97
        0
 75
     2
 76
     1
 98
        0
  0
ENDBLK
  5
E0
330
DD
100
AcDbEntity
  8
0
100
AcDbBlockEnd
  0
BLOCK
  5
F5
330
F3
100
AcDbEntity
  8
0
100
AcDbBlockBegin
  2
block 7
 70
     0
 10
0.0
 20
0.0
 30
0.0
  3
block 7
  1

  0
SPLINE
  5
F7
330
F3
100
AcDbEntity
  8
_U+30EC_U+30A4_U+30E4_U+30FC 1
370
     0
100
AcDbSpline
210
0.0
220
0.0
230
1.0
 70
    11
 71
     3
 72
    62
 73
    58
 74
     0
 42
0.0000000001
 43
0.0000000001
 12
1.0
 22
0.0
 32
0.0
 13
1.0
 23
0.0
 33
0.0
 40
0.0
 40
0.0
 40
0.0
 40
0.0
 40
1.0
 40
1.0
 40
1.0
 40
2.0
 40
2.0
 40
2.0
 40
3.0
 40
3.0
 40
3.0
 40
4.0
 40
4.0
 40
4.0
 40
5.0
 40
5.0
 40
5.0
 40
6.0
 40
6.0
 40
6.0
 40
7.0
 40
7.0
 40
7.0
 40
8.0
 40
8.0
 40
8.0
 40
9.0
 40
9.0
 40
9.0
 40
10.0
 40
10.0
 40
10.0
 40
11.0
 40
11.0
 40
11.0
 40
12.0
 40
12.0
 40
12.0
 40
13.0
 40
13.0
 40
13.0
 40
14.0
 40
14.0
 40
14.0
 40
15.0
 40
15.0
 40
15.0
 40
16.0
 40
16.0
 40
16.0
 40
17.0
 40
17.0
 40
17.0
 40
18.0
 40
18.0
 40
18.0
 40
19.0
 40
19.0
 40
19.0
 40
19.0
 10
109.0658664006849
 20
-133.8388590160195
 30
0.0
 10
109.0658664006849
 20
-133.9342881609609
 30
0.0
 10
109.0448513182249
 20
-134.1520181956287
 30
0.0
 10
108.8588161620214
 20
-134.2770751617432
 30
0.0
 10
108.7465060492023
 20
-134.3511447146761
 30
0.0
 10
108.6472872992271
 20
-134.3552788292584
 30
0.0
 10
108.5625379502899
 20
-134.3594129438407
 30
0.0
 10
108.5625379502899
 20
-134.3594129438407
 30
0.0
 10
108.5625379502899
 20
-134.1392713423332
 30
0.0
 10
108.5625379502899
 20
-134.1392713423332
 30
0.0
 10
108.6366075032228
 20
-134.1372042850421
 30
0.0
 10
108.8712185057683
 20
-134.1268689985863
 30
0.0
 10
108.8712185057683
 20
-133.8433376401503
 30
0.0
 10
108.8712185057683
 20
-133.7058783302888
 30
0.0
 10
108.8016275769663
 20
-133.5532606002922
 30
0.0
 10
108.5732177462942
 20
-133.5532606002922
 30
0.0
 10
108.4567735188928
 20
-133.5532606002922
 30
0.0
 10
108.4081976725507
 20
-133.5915011601785
 30
0.0
 10
108.3765027940864
 20
-133.6231960386428
 30
0.0
 10
108.3024332411536
 20
-133.6972655915757
 30
0.0
 10
108.2896863878581
 20
-133.8137098189771
 30
0.0
 10
108.2896863878581
 20
-133.8684868371926
 30
0.0
 10
108.2896863878581
 20
-133.88777937191
 30
0.0
 10
108.2917534451493
 20
-133.9236083649566
 30
0.0
 10
108.2958875597316
 20
-133.9511691288386
 30
0.0
 10
108.2958875597316
 20
-133.9511691288386
 30
0.0
 10
108.101239664815
 20
-133.9511691288386
 30
0.0
 10
108.101239664815
 20
-133.9511691288386
 30
0.0
 10
108.107785346237
 20
-133.9129285689523
 30
0.0
 10
108.1098524035281
 20
-133.8708984040323
 30
0.0
 10
108.1098524035281
 20
-133.8643527226103
 30
0.0
 10
108.1098524035281
 20
-133.7988959083906
 30
0.0
 10
108.0884928115195
 20
-133.6001138988916
 30
0.0
 10
107.8518147516829
 20
-133.6001138988916
 30
0.0
 10
107.674047824644
 20
-133.6001138988916
 30
0.0
 10
107.61892629688
 20
-133.7310275273312
 30
0.0
 10
107.61892629688
 20
-133.8412705828591
 30
0.0
 10
107.61892629688
 20
-134.1055094065778
 30
0.0
 10
107.8518147516829
 20
-134.1141221452909
 30
0.0
 10
107.9234727377761
 20
-134.1182562598732
 30
0.0
 10
107.9234727377761
 20
-134.1182562598732
 30
0.0
 10
107.9234727377761
 20
-134.321516893503
 30
0.0
 10
107.9234727377761
 20
-134.321516893503
 30
0.0
 10
107.79876028121
 20
-134.3129041547898
 30
0.0
 10
107.4222113446722
 20
-134.2853433909078
 30
0.0
 10
107.4222113446722
 20
-133.8285237295637
 30
0.0
 10
107.4222113446722
 20
-133.6042480134739
 30
0.0
 10
107.5493353680779
 20
-133.3630913295065
 30
0.0
 10
107.8452690702609
 20
-133.3630913295065
 30
0.0
 10
108.0316487360129
 20
-133.3630913295065
 30
0.0
 10
108.1139865181104
 20
-133.4581759648993
 30
0.0
 10
108.1753092177478
 20
-133.5577392244231
 30
0.0
 10
108.2028699816298
 20
-133.4964165247856
 30
0.0
 10
108.2831407064362
 20
-133.3145154831644
 30
0.0
 10
108.5604708929988
 20
-133.3145154831644
 30
0.0
 10
108.8987792696503
 20
-133.3145154831644
 30
0.0
 10
109.0658664006849
 20
-133.5618733390054
 30
0.0
 10
109.0658664006849
 20
-133.8388590160195
 30
0.0
  0
HATCH
  5
F8
330
F3
100
AcDbEntity
  8
_U+30EC_U+30A4_U+30E4_U+30FC 1
 62
     7
420
 16777215
100
AcDbHatch
 10
0.0
 20
0.0
 30
0.0
210
0.0
220
0.0
230
1.0
  2
SOLID
 70
     1
 71
     0
 91
        1
 92
        1
 93
        1
 72
     4
 94
        3
 73
     0
 74
     1
 95
       62
 96
       58
 40
0.0
 40
0.0
 40
0.0
 40
0.0
 40
1.0
 40
1.0
 40
1.0
 40
2.0
 40
2.0
 40
2.0
 40
3.0
 40
3.0
 40
3.0
 40
4.0
 40
4.0
 40
4.0
 40
5.0
 40
5.0
 40
5.0
 40
6.0
 40
6.0
 40
6.0
 40
7.0
 40
7.0
 40
7.0
 40
8.0
 40
8.0
 40
8.0
 40
9.0
 40
9.0
 40
9.0
 40
10.0
 40
10.0
 40
10.0
 40
11.0
 40
11.0
 40
11.0
 40
12.0
 40
12.0
 40
12.0
 40
13.0
 40
13.0
 40
13.0
 40
14.0
 40
14.0
 40
14.0
 40
15.0
 40
15.0
 40
15.0
 40
16.0
 40
16.0
 40
16.0
 40
17.0
 40
17.0
 40
17.0
 40
18.0
 40
18.0
 40
18.0
 40
19.0
 40
19.0
 40
19.0
 40
19.0
 10
109.0658664006849
 20
-133.8388590160195
 10
109.0658664006849
 20
-133.9342881609609
 10
109.0448513182249
 20
-134.1520181956287
 10
108.8588161620214
 20
-134.2770751617432
 10
108.7465060492023
 20
-134.3511447146761
 10
108.6472872992271
 20
-134.3552788292584
 10
108.5625379502899
 20
-134.3594129438407
 10
108.5625379502899
 20
-134.3594129438407
 10
108.5625379502899
 20
-134.1392713423332
 10
108.5625379502899
 20
-134.1392713423332
 10
108.6366075032228
 20
-134.1372042850421
 10
108.8712185057683
 20
-134.1268689985863
 10
108.8712185057683
 20
-133.8433376401503
 10
108.8712185057683
 20
-133.7058783302888
 10
108.8016275769663
 20
-133.5532606002922
 10
108.5732177462942
 20
-133.5532606002922
 10
108.4567735188928
 20
-133.5532606002922
 10
108.4081976725507
 20
-133.5915011601785
 10
108.3765027940864
 20
-133.6231960386428
 10
108.3024332411536
 20
-133.6972655915757
 10
108.2896863878581
 20
-133.8137098189771
 10
108.2896863878581
 20
-133.8684868371926
 10
108.2896863878581
 20
-133.88777937191
 10
108.2917534451493
 20
-133.9236083649566
 10
108.2958875597316
 20
-133.9511691288386
 10
108.2958875597316
 20
-133.9511691288386
 10
108.101239664815
 20
-133.9511691288386
 10
108.101239664815
 20
-133.9511691288386
 10
108.107785346237
 20
-133.9129285689523
 10
108.1098524035281
 20
-133.8708984040323
 10
108.1098524035281
 20
-133.8643527226103
 10
108.1098524035281
 20
-133.7988959083906
 10
108.0884928115195
 20
-133.6001138988916
 10
107.8518147516829
 20
-133.6001138988916
 10
107.674047824644
 20
-133.6001138988916
 10
107.61892629688
 20
-133.7310275273312
 10
107.61892629688
 20
-133.8412705828591
 10
107.61892629688
 20
-134.1055094065778
 10
107.8518147516829
 20
-134.1141221452909
 10
107.9234727377761
 20
-134.1182562598732
 10
107.9234727377761
 20
-134.1182562598732
 10
107.9234727377761
 20
-134.321516893503
 10
107.9234727377761
 20
-134.321516893503
 10
107.79876028121
 20
-134.3129041547898
 10
107.4222113446722
 20
-134.2853433909078
 10
107.4222113446722
 20
-133.8285237295637
 10
107.4222113446722
 20
-133.6042480134739
 10
107.5493353680779
 20
-133.3630913295065
 10
107.8452690702609
 20
-133.3630913295065
 10
108.0316487360129
 20
-133.3630913295065
 10
108.1139865181104
 20
-133.4581759648993
 10
108.1753092177478
 20
-133.5577392244231
 10
108.2028699816298
 20
-133.4964165247856
 10
108.2831407064362
 20
-133.3145154831644
 10
108.5604708929988
 20
-133.3145154831644
 10
108.8987792696503
 20
-133.3145154831644
 10
109.0658664006849
 20
-133.5618733390054
 10
109.0658664006849
 20
-133.8388590160195
 97
        0
 97
        0
 75
     2
 76
     1
 98
        0
  0
ENDBLK
  5
F6
330
F3
100
AcDbEntity
  8
0
100
AcDbBlockEnd
  0
BLOCK
  5
FF
330
FD
100
AcDbEntity
  8
0
100
AcDbBlockBegin
  2
block 8
 70
     0
 10
0.0
 20
0.0
 30
0.0
  3
block 8
  1

  0
SPLINE
  5
101
330
FD
100
AcDbEntity
  8
_U+30EC_U+30A4_U+30E4_U+30FC 1
370
     0
100
AcDbSpline
210
0.0
220
0.0
230
1.0
 70
    11
 71
     3
 72
    26
 73
    22
 74
     0
 42
0.0000000001
 43
0.0000000001
 12
1.0
 22
0.0
 32
0.0
 13
1.0
 23
0.0
 33
0.0
 40
0.0
 40
0.0
 40
0.0
 40
0.0
 40
1.0
 40
1.0
 40
1.0
 40
2.0
 40
2.0
 40
2.0
 40
3.0
 40
3.0
 40
3.0
 40
4.0
 40
4.0
 40
4.0
 40
5.0
 40
5.0
 40
5.0
 40
6.0
 40
6.0
 40
6.0
 40
7.0
 40
7.0
 40
7.0
 40
7.0
 10
109.0152234970517
 20
-128.9981553496949
 30
0.0
 10
109.0152234970517
 20
-128.9981553496949
 30
0.0
 10
109.0152234970517
 20
-129.2351779190801
 30
0.0
 10
109.0152234970517
 20
-129.2351779190801
 30
0.0
 10
108.7061984320248
 20
-129.2096842124893
 30
0.0
 10
108.1880560710433
 20
-129.0171033748638
 30
0.0
 10
107.6823160538086
 20
-128.6109266171528
 30
0.0
 10
107.6823160538086
 20
-128.6109266171528
 30
0.0
 10
107.6823160538086
 20
-129.4487738391656
 30
0.0
 10
107.6823160538086
 20
-129.4487738391656
 30
0.0
 10
107.6823160538086
 20
-129.4487738391656
 30
0.0
 10
107.4707871910143
 20
-129.4487738391656
 30
0.0
 10
107.4707871910143
 20
-129.4487738391656
 30
0.0
 10
107.4707871910143
 20
-129.4487738391656
 30
0.0
 10
107.4707871910143
 20
-128.3739040477676
 30
0.0
 10
107.4707871910143
 20
-128.3739040477676
 30
0.0
 10
107.4707871910143
 20
-128.3739040477676
 30
0.0
 10
107.6823160538086
 20
-128.3739040477676
 30
0.0
 10
107.6823160538086
 20
-128.3739040477676
 30
0.0
 10
107.9723930936666
 20
-128.6977430233811
 30
0.0
 10
108.5646050075811
 20
-128.9643934139395
 30
0.0
 10
109.0152234970517
 20
-128.9981553496949
 30
0.0
  0
HATCH
  5
102
330
FD
100
AcDbEntity
  8
_U+30EC_U+30A4_U+30E4_U+30FC 1
 62
     7
420
 16777215
100
AcDbHatch
 10
0.0
 20
0.0
 30
0.0
210
0.0
220
0.0
230
1.0
  2
SOLID
 70
     1
 71
     0
 91
        1
 92
        1
 93
        1
 72
     4
 94
        3
 73
     0
 74
     1
 95
       26
 96
       22
 40
0.0
 40
0.0
 40
0.0
 40
0.0
 40
1.0
 40
1.0
 40
1.0
 40
2.0
 40
2.0
 40
2.0
 40
3.0
 40
3.0
 40
3.0
 40
4.0
 40
4.0
 40
4.0
 40
5.0
 40
5.0
 40
5.0
 40
6.0
 40
6.0
 40
6.0
 40
7.0
 40
7.0
 40
7.0
 40
7.0
 10
109.0152234970517
 20
-128.9981553496949
 10
109.0152234970517
 20
-128.9981553496949
 10
109.0152234970517
 20
-129.2351779190801
 10
109.0152234970517
 20
-129.2351779190801
 10
108.7061984320248
 20
-129.2096842124893
 10
108.1880560710433
 20
-129.0171033748638
 10
107.6823160538086
 20
-128.6109266171528
 10
107.6823160538086
 20
-128.6109266171528
 10
107.6823160538086
 20
-129.4487738391656
 10
107.6823160538086
 20
-129.4487738391656
 10
107.6823160538086
 20
-129.4487738391656
 10
107.4707871910143
 20
-129.4487738391656
 10
107.4707871910143
 20
-129.4487738391656
 10
107.4707871910143
 20
-129.4487738391656
 10
107.4707871910143
 20
-128.3739040477676
 10
107.4707871910143
 20
-128.3739040477676
 10
107.4707871910143
 20
-128.3739040477676
 10
107.6823160538086
 20
-128.3739040477676
 10
107.6823160538086
 20
-128.3739040477676
 10
107.9723930936666
 20
-128.6977430233811
 10
108.5646050075811
 20
-128.9643934139395
 10
109.0152234970517
 20
-128.9981553496949
 97
        0
 97
        0
 75
     2
 76
     1
 98
        0
  0
ENDBLK
  5
100
330
FD
100
AcDbEntity
  8
0
100
AcDbBlockEnd
  0
ENDSEC
  0
SECTION
  2
ENTITIES
  0
POLYLINE
  5
41
330
1F
100
AcDbEntity
  8
_U+30EC_U+30A4_U+30E4_U+30FC 1
 62
   253
420
 11711154
370
     9
100
AcDb2dPolyline
 66
     1
 10
0.0
 20
0.0
 30
0.0
  0
VERTEX
  5
42
330
41
100
AcDbEntity
  8
_U+30EC_U+30A4_U+30E4_U+30FC 1
 62
   253
420
 11711154
370
     9
100
AcDbVertex
100
AcDb2dVertex
 10
69.77094071999501
 20
-124.2236035800552
 30
0.0
  0
VERTEX
  5
43
330
41
100
AcDbEntity
  8
_U+30EC_U+30A4_U+30E4_U+30FC 1
 62
   253
420
 11711154
370
     9
100
AcDbVertex
100
AcDb2dVertex
 10
69.77094071999501
 20
-125.2388627464682
 30
0.0
  0
VERTEX
  5
44
330
41
100
AcDbEntity
  8
_U+30EC_U+30A4_U+30E4_U+30FC 1
 62
   253
420
 11711154
370
     9
100
AcDbVertex
100
AcDb2dVertex
 10
84.66581783999503
 20
-125.2388627464682
 30
0.0
  0
VERTEX
  5
45
330
41
100
AcDbEntity
  8
_U+30EC_U+30A4_U+30E4_U+30FC 1
 62
   253
420
 11711154
370
     9
100
AcDbVertex
100
AcDb2dVertex
 10
84.66581783999503
 20
-135.368488577269
 30
0.0
  0
VERTEX
  5
46
330
41
100
AcDbEntity
  8
_U+30EC_U+30A4_U+30E4_U+30FC 1
 62
   253
420
 11711154
370
     9
100
AcDbVertex
100
AcDb2dVertex
 10
94.87725257947963
 20
-135.368488577269
 30
0.0
  0
VERTEX
  5
47
330
41
100
AcDbEntity
  8
_U+30EC_U+30A4_U+30E4_U+30FC 1
 62
   253
420
 11711154
370
     9
100
AcDbVertex
100
AcDb2dVertex
 10
94.87725257947963
 20
-132.4036383002324
 30
0.0
  0
VERTEX
  5
48
330
41
100
AcDbEntity
  8
_U+30EC_U+30A4_U+30E4_U+30FC 1
 62
   253
420
 11711154
370
     9
100
AcDbVertex
100
AcDb2dVertex
 10
93.75277344150082
 20
-132.4036383002324
 30
0.0
  0
VERTEX
  5
49
330
41
100
AcDbEntity
  8
_U+30EC_U+30A4_U+30E4_U+30FC 1
 62
   253
420
 11711154
370
     9
100
AcDbVertex
100
AcDb2dVertex
 10
93.75277344150082
 20
-134.3170344108653
 30
0.0
  0
VERTEX
  5
4A
330
41
100
AcDbEntity
  8
_U+30EC_U+30A4_U+30E4_U+30FC 1
 62
   253
420
 11711154
370
     9
100
AcDbVertex
100
AcDb2dVertex
 10
85.7906166452189
 20
-134.3170344108653
 30
0.0
  0
VERTEX
  5
4B
330
41
100
AcDbEntity
  8
_U+30EC_U+30A4_U+30E4_U+30FC 1
 62
   253
420
 11711154
370
     9
100
AcDbVertex
100
AcDb2dVertex
 10
85.7906166452189
 20
-125.2757280242366
 30
0.0
  0
VERTEX
  5
4C
330
41
100
AcDbEntity
  8
_U+30EC_U+30A4_U+30E4_U+30FC 1
 62
   253
420
 11711154
370
     9
100
AcDbVertex
100
AcDb2dVertex
 10
104.8707764911903
 20
-125.2757280242366
 30
0.0
  0
VERTEX
  5
4D
330
41
100
AcDbEntity
  8
_U+30EC_U+30A4_U+30E4_U+30FC 1
 62
   253
420
 11711154
370
     9
100
AcDbVertex
100
AcDb2dVertex
 10
104.8707764911903
 20
-124.1870910800642
 30
0.0
  0
VERTEX
  5
4E
330
41
100
AcDbEntity
  8
_U+30EC_U+30A4_U+30E4_U+30FC 1
 62
   253
420
 11711154
370
     9
100
AcDbVertex
100
AcDb2dVertex
 10
69.77094071999501
 20
-124.2236035800552
 30
0.0
  0
SEQEND
  5
50
330
41
100
AcDbEntity
  8
_U+30EC_U+30A4_U+30E4_U+30FC 1
 62
   253
420
 11711154
370
     9
  0
HATCH
  5
4F
330
1F
100
AcDbEntity
  8
_U+30EC_U+30A4_U+30E4_U+30FC 1
 62
   253
420
 11711154
100
AcDbHatch
 10
0.0
 20
0.0
 30
0.0
210
0.0
220
0.0
230
1.0
  2
SOLID
 70
     1
 71
     0
 91
        1
 92
        1
 93
       12
 72
     1
 10
69.77094071999501
 20
-124.2236035800552
 11
69.77094071999501
 21
-125.2388627464682
 72
     1
 10
69.77094071999501
 20
-125.2388627464682
 11
84.66581783999503
 21
-125.2388627464682
 72
     1
 10
84.66581783999503
 20
-125.2388627464682
 11
84.66581783999503
 21
-135.368488577269
 72
     1
 10
84.66581783999503
 20
-135.368488577269
 11
94.87725257947963
 21
-135.368488577269
 72
     1
 10
94.87725257947963
 20
-135.368488577269
 11
94.87725257947963
 21
-132.4036383002324
 72
     1
 10
94.87725257947963
 20
-132.4036383002324
 11
93.75277344150082
 21
-132.4036383002324
 72
     1
 10
93.75277344150082
 20
-132.4036383002324
 11
93.75277344150082
 21
-134.3170344108653
 72
     1
 10
93.75277344150082
 20
-134.3170344108653
 11
85.7906166452189
 21
-134.3170344108653
 72
     1
 10
85.7906166452189
 20
-134.3170344108653
 11
85.7906166452189
 21
-125.2757280242366
 72
     1
 10
85.7906166452189
 20
-125.2757280242366
 11
104.8707764911903
 21
-125.2757280242366
 72
     1
 10
104.8707764911903
 20
-125.2757280242366
 11
104.8707764911903
 21
-124.1870910800642
 72
     1
 10
104.8707764911903
 20
-124.1870910800642
 11
69.77094071999501
 21
-124.2236035800552
 97
        0
 75
     2
 76
     1
 98
        0
  0
POLYLINE
  5
51
330
1F
100
AcDbEntity
  8
_U+30EC_U+30A4_U+30E4_U+30FC 1
 62
     7
420
 16777215
370
    25
100
AcDb2dPolyline
 66
     1
 10
0.0
 20
0.0
 30
0.0
  0
VERTEX
  5
52
330
51
100
AcDbEntity
  8
_U+30EC_U+30A4_U+30E4_U+30FC 1
 62
     7
420
 16777215
370
    25
100
AcDbVertex
100
AcDb2dVertex
 10
69.78300571968721
 20
-124.1925944133964
 30
0.0
  0
VERTEX
  5
53
330
51
100
AcDbEntity
  8
_U+30EC_U+30A4_U+30E4_U+30FC 1
 62
     7
420
 16777215
370
    25
100
AcDbVertex
100
AcDb2dVertex
 10
104.7832523267565
 20
-124.1925944133964
 30
0.0
  0
SEQEND
  5
54
330
51
100
AcDbEntity
  8
_U+30EC_U+30A4_U+30E4_U+30FC 1
 62
     7
420
 16777215
370
    25
  0
POLYLINE
  5
55
330
1F
100
AcDbEntity
  8
_U+30EC_U+30A4_U+30E4_U+30FC 1
 62
     7
420
 16777215
370
    25
100
AcDb2dPolyline
 66
     1
 10
0.0
 20
0.0
 30
0.0
  0
VERTEX
  5
56
330
55
100
AcDbEntity
  8
_U+30EC_U+30A4_U+30E4_U+30FC 1
 62
     7
420
 16777215
370
    25
100
AcDbVertex
100
AcDb2dVertex
 10
69.78300571968721
 20
-125.2922733020103
 30
0.0
  0
VERTEX
  5
57
330
55
100
AcDbEntity
  8
_U+30EC_U+30A4_U+30E4_U+30FC 1
 62
     7
420
 16777215
370
    25
100
AcDbVertex
100
AcDb2dVertex
 10
84.78294005922922
 20
-125.2922733020103
 30
0.0
  0
SEQEND
  5
58
330
55
100
AcDbEntity
  8
_U+30EC_U+30A4_U+30E4_U+30FC 1
 62
     7
420
 16777215
370
    25
  0
POLYLINE
  5
59
330
1F
100
AcDbEntity
  8
_U+30EC_U+30A4_U+30E4_U+30FC 1
 62
     7
420
 16777215
370
    25
100
AcDb2dPolyline
 66
     1
 10
0.0
 20
0.0
 30
0.0
  0
VERTEX
  5
5A
330
59
100
AcDbEntity
  8
_U+30EC_U+30A4_U+30E4_U+30FC 1
 62
     7
420
 16777215
370
    25
100
AcDbVertex
100
AcDb2dVertex
 10
104.834266640458
 20
-125.2922733020103
 30
0.0
  0
VERTEX
  5
5B
330
59
100
AcDbEntity
  8
_U+30EC_U+30A4_U+30E4_U+30FC 1
 62
     7
420
 16777215
370
    25
100
AcDbVertex
100
AcDb2dVertex
 10
104.834266640458
 20
-124.1925944133964
 30
0.0
  0
SEQEND
  5
5C
330
59
100
AcDbEntity
  8
_U+30EC_U+30A4_U+30E4_U+30FC 1
 62
     7
420
 16777215
370
    25
  0
POLYLINE
  5
5D
330
1F
100
AcDbEntity
  8
_U+30EC_U+30A4_U+30E4_U+30FC 1
 62
     7
420
 16777215
370
    25
100
AcDb2dPolyline
 66
     1
 10
0.0
 20
0.0
 30
0.0
  0
VERTEX
  5
5E
330
5D
100
AcDbEntity
  8
_U+30EC_U+30A4_U+30E4_U+30FC 1
 62
     7
420
 16777215
370
    25
100
AcDbVertex
100
AcDb2dVertex
 10
85.78306503371391
 20
-125.2922733020103
 30
0.0
  0
VERTEX
  5
5F
330
5D
100
AcDbEntity
  8
_U+30EC_U+30A4_U+30E4_U+30FC 1
 62
     7
420
 16777215
370
    25
100
AcDbVertex
100
AcDb2dVertex
 10
104.834266640458
 20
-125.2922733020103
 30
0.0
  0
SEQEND
  5
60
330
5D
100
AcDbEntity
  8
_U+30EC_U+30A4_U+30E4_U+30FC 1
 62
     7
420
 16777215
370
    25
  0
POLYLINE
  5
61
330
1F
100
AcDbEntity
  8
_U+30EC_U+30A4_U+30E4_U+30FC 1
 62
     7
420
 16777215
370
    25
100
AcDb2dPolyline
 66
     1
 10
0.0
 20
0.0
 30
0.0
  0
VERTEX
  5
62
330
61
100
AcDbEntity
  8
_U+30EC_U+30A4_U+30E4_U+30FC 1
 62
     7
420
 16777215
370
    25
100
AcDbVertex
100
AcDb2dVertex
 10
69.8236457186504
 20
-125.2922733020103
 30
0.0
  0
VERTEX
  5
63
330
61
100
AcDbEntity
  8
_U+30EC_U+30A4_U+30E4_U+30FC 1
 62
     7
420
 16777215
370
    25
100
AcDbVertex
100
AcDb2dVertex
 10
69.8236457186504
 20
-124.1925944133964
 30
0.0
  0
SEQEND
  5
64
330
61
100
AcDbEntity
  8
_U+30EC_U+30A4_U+30E4_U+30FC 1
 62
     7
420
 16777215
370
    25
  0
POLYLINE
  5
65
330
1F
100
AcDbEntity
  8
_U+30EC_U+30A4_U+30E4_U+30FC 1
 62
     7
420
 16777215
370
    25
100
AcDb2dPolyline
 66
     1
 10
0.0
 20
0.0
 30
0.0
  0
VERTEX
  5
66
330
65
100
AcDbEntity
  8
_U+30EC_U+30A4_U+30E4_U+30FC 1
 62
     7
420
 16777215
370
    25
100
AcDbVertex
100
AcDb2dVertex
 10
84.78294005922922
 20
-135.4608105216901
 30
0.0
  0
VERTEX
  5
67
330
65
100
AcDbEntity
  8
_U+30EC_U+30A4_U+30E4_U+30FC 1
 62
     7
420
 16777215
370
    25
100
AcDbVertex
100
AcDb2dVertex
 10
84.78294005922922
 20
-125.2922733020103
 30
0.0
  0
SEQEND
  5
68
330
65
100
AcDbEntity
  8
_U+30EC_U+30A4_U+30E4_U+30FC 1
 62
     7
420
 16777215
370
    25
  0
POLYLINE
  5
69
330
1F
100
AcDbEntity
  8
_U+30EC_U+30A4_U+30E4_U+30FC 1
 62
     7
420
 16777215
370
    25
100
AcDb2dPolyline
 66
     1
 10
0.0
 20
0.0
 30
0.0
  0
VERTEX
  5
6A
330
69
100
AcDbEntity
  8
_U+30EC_U+30A4_U+30E4_U+30FC 1
 62
     7
420
 16777215
370
    25
100
AcDbVertex
100
AcDb2dVertex
 10
84.78294005922922
 20
-135.4608105216901
 30
0.0
  0
VERTEX
  5
6B
330
69
100
AcDbEntity
  8
_U+30EC_U+30A4_U+30E4_U+30FC 1
 62
     7
420
 16777215
370
    25
100
AcDbVertex
100
AcDb2dVertex
 10
94.78284924855473
 20
-135.4608105216901
 30
0.0
  0
SEQEND
  5
6C
330
69
100
AcDbEntity
  8
_U+30EC_U+30A4_U+30E4_U+30FC 1
 62
     7
420
 16777215
370
    25
  0
POLYLINE
  5
6D
330
1F
100
AcDbEntity
  8
_U+30EC_U+30A4_U+30E4_U+30FC 1
 62
     7
420
 16777215
370
    25
100
AcDb2dPolyline
 66
     1
 10
0.0
 20
0.0
 30
0.0
  0
VERTEX
  5
6E
330
6D
100
AcDbEntity
  8
_U+30EC_U+30A4_U+30E4_U+30FC 1
 62
     7
420
 16777215
370
    25
100
AcDbVertex
100
AcDb2dVertex
 10
85.78306503371391
 20
-134.3611316330765
 30
0.0
  0
VERTEX
  5
6F
330
6D
100
AcDbEntity
  8
_U+30EC_U+30A4_U+30E4_U+30FC 1
 62
     7
420
 16777215
370
    25
100
AcDbVertex
100
AcDb2dVertex
 10
93.77344621875119
 20
-134.3611316330765
 30
0.0
  0
SEQEND
  5
70
330
6D
100
AcDbEntity
  8
_U+30EC_U+30A4_U+30E4_U+30FC 1
 62
     7
420
 16777215
370
    25
  0
INSERT
  5
72
330
1F
100
AcDbEntity
  8
_U+30EC_U+30A4_U+30E4_U+30FC 1
100
AcDbBlockReference
  2
block 2
 10
0.0
 20
0.0
 30
0.0
  0
POLYLINE
  5
81
330
1F
100
AcDbEntity
  8
_U+30EC_U+30A4_U+30E4_U+30FC 1
 62
     7
420
 16777215
370
    25
100
AcDb2dPolyline
 66
     1
 10
0.0
 20
0.0
 30
0.0
  0
VERTEX
  5
82
330
81
100
AcDbEntity
  8
_U+30EC_U+30A4_U+30E4_U+30FC 1
 62
     7
420
 16777215
370
    25
100
AcDbVertex
100
AcDb2dVertex
 10
85.78306503371391
 20
-134.3611316330765
 30
0.0
  0
VERTEX
  5
83
330
81
100
AcDbEntity
  8
_U+30EC_U+30A4_U+30E4_U+30FC 1
 62
     7
420
 16777215
370
    25
100
AcDbVertex
100
AcDb2dVertex
 10
85.78306503371391
 20
-125.2922733020103
 30
0.0
  0
SEQEND
  5
84
330
81
100
AcDbEntity
  8
_U+30EC_U+30A4_U+30E4_U+30FC 1
 62
     7
420
 16777215
370
    25
  0
SPLINE
  5
85
330
1F
100
AcDbEntity
  8
_U+30EC_U+30A4_U+30E4_U+30FC 1
 62
     7
420
 16777215
370
     9
100
AcDbSpline
210
0.0
220
0.0
230
1.0
 70
    11
 71
     3
 72
    17
 73
    13
 74
     0
 42
0.0000000001
 43
0.0000000001
 12
1.0
 22
0.0
 32
0.0
 13
1.0
 23
0.0
 33
0.0
 40
0.0
 40
0.0
 40
0.0
 40
0.0
 40
1.0
 40
1.0
 40
1.0
 40
2.0
 40
2.0
 40
2.0
 40
3.0
 40
3.0
 40
3.0
 40
4.0
 40
4.0
 40
4.0
 40
4.0
 10
70.08614765639786
 20
-120.1918121921744
 30
0.0
 10
70.08614765639786
 20
-120.1366730255213
 30
0.0
 10
70.04138015753996
 20
-120.0919055255325
 30
0.0
 10
69.98624099228002
 20
-120.0919055255325
 30
0.0
 10
69.93113887140595
 20
-120.0919055255325
 30
0.0
 10
69.88633609363956
 20
-120.1366730255213
 30
0.0
 10
69.88633609363956
 20
-120.1918121921744
 30
0.0
 10
69.88633609363956
 20
-120.2476216366049
 30
0.0
 10
69.93113887140595
 20
-120.2923891365937
 30
0.0
 10
69.98624099228002
 20
-120.2923891365937
 30
0.0
 10
70.04138015753996
 20
-120.2923891365937
 30
0.0
 10
70.08614765639786
 20
-120.2476216366049
 30
0.0
 10
70.08614765639786
 20
-120.1918121921744
 30
0.0
  0
SPLINE
  5
86
330
1F
100
AcDbEntity
  8
_U+30EC_U+30A4_U+30E4_U+30FC 1
 62
     7
420
 16777215
370
     9
100
AcDbSpline
210
0.0
220
0.0
230
1.0
 70
    11
 71
     3
 72
    17
 73
    13
 74
     0
 42
0.0000000001
 43
0.0000000001
 12
1.0
 22
0.0
 32
0.0
 13
1.0
 23
0.0
 33
0.0
 40
0.0
 40
0.0
 40
0.0
 40
0.0
 40
1.0
 40
1.0
 40
1.0
 40
2.0
 40
2.0
 40
2.0
 40
3.0
 40
3.0
 40
3.0
 40
4.0
 40
4.0
 40
4.0
 40
4.0
 10
104.9865228771262
 20
-120.1918121921744
 30
0.0
 10
104.9865228771262
 20
-120.1366730255213
 30
0.0
 10
104.9417553782683
 20
-120.0919055255325
 30
0.0
 10
104.8866162130084
 20
-120.0919055255325
 30
0.0
 10
104.8315123255253
 20
-120.0919055255325
 30
0.0
 10
104.7867095488905
 20
-120.1366730255213
 30
0.0
 10
104.7867095488905
 20
-120.1918121921744
 30
0.0
 10
104.7867095488905
 20
-120.2476216366049
 30
0.0
 10
104.8315123255253
 20
-120.2923891365937
 30
0.0
 10
104.8866162130084
 20
-120.2923891365937
 30
0.0
 10
104.9417553782683
 20
-120.2923891365937
 30
0.0
 10
104.9865228771262
 20
-120.2476216366049
 30
0.0
 10
104.9865228771262
 20
-120.1918121921744
 30
0.0
  0
SPLINE
  5
87
330
1F
100
AcDbEntity
  8
_U+30EC_U+30A4_U+30E4_U+30FC 1
 62
     7
420
 16777215
370
     9
100
AcDbSpline
210
0.0
220
0.0
230
1.0
 70
    11
 71
     3
 72
    17
 73
    13
 74
     0
 42
0.0000000001
 43
0.0000000001
 12
1.0
 22
0.0
 32
0.0
 13
1.0
 23
0.0
 33
0.0
 40
0.0
 40
0.0
 40
0.0
 40
0.0
 40
1.0
 40
1.0
 40
1.0
 40
2.0
 40
2.0
 40
2.0
 40
3.0
 40
3.0
 40
3.0
 40
4.0
 40
4.0
 40
4.0
 40
4.0
 10
110.9376016141904
 20
-124.1925944133964
 30
0.0
 10
110.9376016141904
 20
-124.1374552467434
 30
0.0
 10
110.8927988375557
 20
-124.0926877467545
 30
0.0
 10
110.8376596722957
 20
-124.0926877467545
 30
0.0
 10
110.7825557848127
 20
-124.0926877467545
 30
0.0
 10
110.7377530081779
 20
-124.1374552467434
 30
0.0
 10
110.7377530081779
 20
-124.1925944133964
 30
0.0
 10
110.7377530081779
 20
-124.2476983022713
 30
0.0
 10
110.7825557848127
 20
-124.2925010800381
 30
0.0
 10
110.8376596722957
 20
-124.2925010800381
 30
0.0
 10
110.8927988375557
 20
-124.2925010800381
 30
0.0
 10
110.9376016141904
 20
-124.2476983022713
 30
0.0
 10
110.9376016141904
 20
-124.1925944133964
 30
0.0
  0
SPLINE
  5
88
330
1F
100
AcDbEntity
  8
_U+30EC_U+30A4_U+30E4_U+30FC 1
 62
     7
420
 16777215
370
     9
100
AcDbSpline
210
0.0
220
0.0
230
1.0
 70
    11
 71
     3
 72
    17
 73
    13
 74
     0
 42
0.0000000001
 43
0.0000000001
 12
1.0
 22
0.0
 32
0.0
 13
1.0
 23
0.0
 33
0.0
 40
0.0
 40
0.0
 40
0.0
 40
0.0
 40
1.0
 40
1.0
 40
1.0
 40
2.0
 40
2.0
 40
2.0
 40
3.0
 40
3.0
 40
3.0
 40
4.0
 40
4.0
 40
4.0
 40
4.0
 10
110.9376016141904
 20
-125.2922733020103
 30
0.0
 10
110.9376016141904
 20
-125.2371341353575
 30
0.0
 10
110.8927988375557
 20
-125.1923666353687
 30
0.0
 10
110.8376596722957
 20
-125.1923666353687
 30
0.0
 10
110.7825557848127
 20
-125.1923666353687
 30
0.0
 10
110.7377530081779
 20
-125.2371341353575
 30
0.0
 10
110.7377530081779
 20
-125.2922733020103
 30
0.0
 10
110.7377530081779
 20
-125.347729968663
 30
0.0
 10
110.7825557848127
 20
-125.3925327464297
 30
0.0
 10
110.8376596722957
 20
-125.3925327464297
 30
0.0
 10
110.8927988375557
 20
-125.3925327464297
 30
0.0
 10
110.9376016141904
 20
-125.347729968663
 30
0.0
 10
110.9376016141904
 20
-125.2922733020103
 30
0.0
  0
SPLINE
  5
89
330
1F
100
AcDbEntity
  8
_U+30EC_U+30A4_U+30E4_U+30FC 1
 62
     7
420
 16777215
370
     9
100
AcDbSpline
210
0.0
220
0.0
230
1.0
 70
    11
 71
     3
 72
    17
 73
    13
 74
     0
 42
0.0000000001
 43
0.0000000001
 12
1.0
 22
0.0
 32
0.0
 13
1.0
 23
0.0
 33
0.0
 40
0.0
 40
0.0
 40
0.0
 40
0.0
 40
1.0
 40
1.0
 40
1.0
 40
2.0
 40
2.0
 40
2.0
 40
3.0
 40
3.0
 40
3.0
 40
4.0
 40
4.0
 40
4.0
 40
4.0
 10
84.81049200297076
 20
-139.6865591317451
 30
0.0
 10
84.81049200297076
 20
-139.6314552428702
 30
0.0
 10
84.76572450411287
 20
-139.5866524651035
 30
0.0
 10
84.71023256108414
 20
-139.5866524651035
 30
0.0
 10
84.65512867360107
 20
-139.5866524651035
 30
0.0
 10
84.6103258969663
 20
-139.6314552428702
 30
0.0
 10
84.6103258969663
 20
-139.6865591317451
 30
0.0
 10
84.6103258969663
 20
-139.7416982983982
 30
0.0
 10
84.65512867360107
 20
-139.7864657983868
 30
0.0
 10
84.71023256108414
 20
-139.7864657983868
 30
0.0
 10
84.76572450411287
 20
-139.7864657983868
 30
0.0
 10
84.81049200297076
 20
-139.7416982983982
 30
0.0
 10
84.81049200297076
 20
-139.6865591317451
 30
0.0
  0
SPLINE
  5
8A
330
1F
100
AcDbEntity
  8
_U+30EC_U+30A4_U+30E4_U+30FC 1
 62
     7
420
 16777215
370
     9
100
AcDbSpline
210
0.0
220
0.0
230
1.0
 70
    11
 71
     3
 72
    17
 73
    13
 74
     0
 42
0.0000000001
 43
0.0000000001
 12
1.0
 22
0.0
 32
0.0
 13
1.0
 23
0.0
 33
0.0
 40
0.0
 40
0.0
 40
0.0
 40
0.0
 40
1.0
 40
1.0
 40
1.0
 40
2.0
 40
2.0
 40
2.0
 40
3.0
 40
3.0
 40
3.0
 40
4.0
 40
4.0
 40
4.0
 40
4.0
 10
94.96128424400247
 20
-139.6865591317451
 30
0.0
 10
94.96128424400247
 20
-139.6314552428702
 30
0.0
 10
94.91651674514459
 20
-139.5866524651035
 30
0.0
 10
94.86137757988463
 20
-139.5866524651035
 30
0.0
 10
94.80627369240156
 20
-139.5866524651035
 30
0.0
 10
94.76147091576681
 20
-139.6314552428702
 30
0.0
 10
94.76147091576681
 20
-139.6865591317451
 30
0.0
 10
94.76147091576681
 20
-139.7416982983982
 30
0.0
 10
94.80627369240156
 20
-139.7864657983868
 30
0.0
 10
94.86137757988463
 20
-139.7864657983868
 30
0.0
 10
94.91651674514459
 20
-139.7864657983868
 30
0.0
 10
94.96128424400247
 20
-139.7416982983982
 30
0.0
 10
94.96128424400247
 20
-139.6865591317451
 30
0.0
  0
SPLINE
  5
8B
330
1F
100
AcDbEntity
  8
_U+30EC_U+30A4_U+30E4_U+30FC 1
 62
     7
420
 16777215
370
     9
100
AcDbSpline
210
0.0
220
0.0
230
1.0
 70
    11
 71
     3
 72
    17
 73
    13
 74
     0
 42
0.0000000001
 43
0.0000000001
 12
1.0
 22
0.0
 32
0.0
 13
1.0
 23
0.0
 33
0.0
 40
0.0
 40
0.0
 40
0.0
 40
0.0
 40
1.0
 40
1.0
 40
1.0
 40
2.0
 40
2.0
 40
2.0
 40
3.0
 40
3.0
 40
3.0
 40
4.0
 40
4.0
 40
4.0
 40
4.0
 10
69.92355238276822
 20
-139.6865591317451
 30
0.0
 10
69.92355238276822
 20
-139.6314552428702
 30
0.0
 10
69.87874960613347
 20
-139.5866524651035
 30
0.0
 10
69.8236457186504
 20
-139.5866524651035
 30
0.0
 10
69.76818905339854
 20
-139.5866524651035
 30
0.0
 10
69.72338627676378
 20
-139.6314552428702
 30
0.0
 10
69.72338627676378
 20
-139.6865591317451
 30
0.0
 10
69.72338627676378
 20
-139.7416982983982
 30
0.0
 10
69.76818905339854
 20
-139.7864657983868
 30
0.0
 10
69.8236457186504
 20
-139.7864657983868
 30
0.0
 10
69.87874960613347
 20
-139.7864657983868
 30
0.0
 10
69.92355238276822
 20
-139.7416982983982
 30
0.0
 10
69.92355238276822
 20
-139.6865591317451
 30
0.0
  0
POLYLINE
  5
8C
330
1F
100
AcDbEntity
  8
_U+30EC_U+30A4_U+30E4_U+30FC 1
 62
     7
420
 16777215
370
     9
100
AcDb2dPolyline
 66
     1
 10
0.0
 20
0.0
 30
0.0
  0
VERTEX
  5
8D
330
8C
100
AcDbEntity
  8
_U+30EC_U+30A4_U+30E4_U+30FC 1
 62
     7
420
 16777215
370
     9
100
AcDbVertex
100
AcDb2dVertex
 10
84.71023256108414
 20
-139.6865591317451
 30
0.0
  0
VERTEX
  5
8E
330
8C
100
AcDbEntity
  8
_U+30EC_U+30A4_U+30E4_U+30FC 1
 62
     7
420
 16777215
370
     9
100
AcDbVertex
100
AcDb2dVertex
 10
94.71049452817843
 20
-139.6865591317451
 30
0.0
  0
SEQEND
  5
8F
330
8C
100
AcDbEntity
  8
_U+30EC_U+30A4_U+30E4_U+30FC 1
 62
     7
420
 16777215
370
     9
  0
POLYLINE
  5
90
330
1F
100
AcDbEntity
  8
_U+30EC_U+30A4_U+30E4_U+30FC 1
 62
     7
420
 16777215
370
     9
100
AcDb2dPolyline
 66
     1
 10
0.0
 20
0.0
 30
0.0
  0
VERTEX
  5
91
330
90
100
AcDbEntity
  8
_U+30EC_U+30A4_U+30E4_U+30FC 1
 62
     7
420
 16777215
370
     9
100
AcDbVertex
100
AcDb2dVertex
 10
94.86137757988463
 20
-138.2265177432214
 30
0.0
  0
VERTEX
  5
92
330
90
100
AcDbEntity
  8
_U+30EC_U+30A4_U+30E4_U+30FC 1
 62
     7
420
 16777215
370
     9
100
AcDbVertex
100
AcDb2dVertex
 10
94.86137757988463
 20
-140.686331353717
 30
0.0
  0
SEQEND
  5
93
330
90
100
AcDbEntity
  8
_U+30EC_U+30A4_U+30E4_U+30FC 1
 62
     7
420
 16777215
370
     9
  0
INSERT
  5
95
330
1F
100
AcDbEntity
  8
_U+30EC_U+30A4_U+30E4_U+30FC 1
100
AcDbBlockReference
  2
block 3
 10
0.0
 20
0.0
 30
0.0
  0
POLYLINE
  5
9D
330
1F
100
AcDbEntity
  8
_U+30EC_U+30A4_U+30E4_U+30FC 1
 62
     7
420
 16777215
370
     9
100
AcDb2dPolyline
 66
     1
 10
0.0
 20
0.0
 30
0.0
  0
VERTEX
  5
9E
330
9D
100
AcDbEntity
  8
_U+30EC_U+30A4_U+30E4_U+30FC 1
 62
     7
420
 16777215
370
     9
100
AcDbVertex
100
AcDb2dVertex
 10
110.8376596722957
 20
-124.1925944133964
 30
0.0
  0
VERTEX
  5
9F
330
9D
100
AcDbEntity
  8
_U+30EC_U+30A4_U+30E4_U+30FC 1
 62
     7
420
 16777215
370
     9
100
AcDbVertex
100
AcDb2dVertex
 10
110.8376596722957
 20
-120.4219291365612
 30
0.0
  0
SEQEND
  5
A0
330
9D
100
AcDbEntity
  8
_U+30EC_U+30A4_U+30E4_U+30FC 1
 62
     7
420
 16777215
370
     9
  0
POLYLINE
  5
A1
330
1F
100
AcDbEntity
  8
_U+30EC_U+30A4_U+30E4_U+30FC 1
 62
     7
420
 16777215
370
     9
100
AcDb2dPolyline
 66
     1
 10
0.0
 20
0.0
 30
0.0
  0
VERTEX
  5
A2
330
A1
100
AcDbEntity
  8
_U+30EC_U+30A4_U+30E4_U+30FC 1
 62
     7
420
 16777215
370
     9
100
AcDbVertex
100
AcDb2dVertex
 10
110.8376596722957
 20
-124.1925944133964
 30
0.0
  0
VERTEX
  5
A3
330
A1
100
AcDbEntity
  8
_U+30EC_U+30A4_U+30E4_U+30FC 1
 62
     7
420
 16777215
370
     9
100
AcDbVertex
100
AcDb2dVertex
 10
110.8376596722957
 20
-125.2922733020103
 30
0.0
  0
SEQEND
  5
A4
330
A1
100
AcDbEntity
  8
_U+30EC_U+30A4_U+30E4_U+30FC 1
 62
     7
420
 16777215
370
     9
  0
POLYLINE
  5
A5
330
1F
100
AcDbEntity
  8
_U+30EC_U+30A4_U+30E4_U+30FC 1
 62
     7
420
 16777215
370
     9
100
AcDb2dPolyline
 66
     1
 10
0.0
 20
0.0
 30
0.0
  0
VERTEX
  5
A6
330
A5
100
AcDbEntity
  8
_U+30EC_U+30A4_U+30E4_U+30FC 1
 62
     7
420
 16777215
370
     9
100
AcDbVertex
100
AcDb2dVertex
 10
109.3776535984325
 20
-124.1925944133964
 30
0.0
  0
VERTEX
  5
A7
330
A5
100
AcDbEntity
  8
_U+30EC_U+30A4_U+30E4_U+30FC 1
 62
     7
420
 16777215
370
     9
100
AcDbVertex
100
AcDb2dVertex
 10
111.8374318690116
 20
-124.1925944133964
 30
0.0
  0
SEQEND
  5
A8
330
A5
100
AcDbEntity
  8
_U+30EC_U+30A4_U+30E4_U+30FC 1
 62
     7
420
 16777215
370
     9
  0
POLYLINE
  5
A9
330
1F
100
AcDbEntity
  8
_U+30EC_U+30A4_U+30E4_U+30FC 1
 62
     7
420
 16777215
370
     9
100
AcDb2dPolyline
 66
     1
 10
0.0
 20
0.0
 30
0.0
  0
VERTEX
  5
AA
330
A9
100
AcDbEntity
  8
_U+30EC_U+30A4_U+30E4_U+30FC 1
 62
     7
420
 16777215
370
     9
100
AcDbVertex
100
AcDb2dVertex
 10
109.3776535984325
 20
-125.2922733020103
 30
0.0
  0
VERTEX
  5
AB
330
A9
100
AcDbEntity
  8
_U+30EC_U+30A4_U+30E4_U+30FC 1
 62
     7
420
 16777215
370
     9
100
AcDbVertex
100
AcDb2dVertex
 10
111.8374318690116
 20
-125.2922733020103
 30
0.0
  0
SEQEND
  5
AC
330
A9
100
AcDbEntity
  8
_U+30EC_U+30A4_U+30E4_U+30FC 1
 62
     7
420
 16777215
370
     9
  0
INSERT
  5
AE
330
1F
100
AcDbEntity
  8
_U+30EC_U+30A4_U+30E4_U+30FC 1
100
AcDbBlockReference
  2
block 4
 10
0.0
 20
0.0
 30
0.0
  0
POLYLINE
  5
BD
330
1F
100
AcDbEntity
  8
_U+30EC_U+30A4_U+30E4_U+30FC 1
 62
     7
420
 16777215
370
     9
100
AcDb2dPolyline
 66
     1
 10
0.0
 20
0.0
 30
0.0
  0
VERTEX
  5
BE
330
BD
100
AcDbEntity
  8
_U+30EC_U+30A4_U+30E4_U+30FC 1
 62
     7
420
 16777215
370
     9
100
AcDbVertex
100
AcDb2dVertex
 10
69.98624099228002
 20
-120.1918121921744
 30
0.0
  0
VERTEX
  5
BF
330
BD
100
AcDbEntity
  8
_U+30EC_U+30A4_U+30E4_U+30FC 1
 62
     7
420
 16777215
370
     9
100
AcDbVertex
100
AcDb2dVertex
 10
104.9865228771262
 20
-120.1918121921744
 30
0.0
  0
SEQEND
  5
C0
330
BD
100
AcDbEntity
  8
_U+30EC_U+30A4_U+30E4_U+30FC 1
 62
     7
420
 16777215
370
     9
  0
POLYLINE
  5
C1
330
1F
100
AcDbEntity
  8
_U+30EC_U+30A4_U+30E4_U+30FC 1
 62
     7
420
 16777215
370
     9
100
AcDb2dPolyline
 66
     1
 10
0.0
 20
0.0
 30
0.0
  0
VERTEX
  5
C2
330
C1
100
AcDbEntity
  8
_U+30EC_U+30A4_U+30E4_U+30FC 1
 62
     7
420
 16777215
370
     9
100
AcDbVertex
100
AcDb2dVertex
 10
69.98624099228002
 20
-121.6518183029203
 30
0.0
  0
VERTEX
  5
C3
330
C1
100
AcDbEntity
  8
_U+30EC_U+30A4_U+30E4_U+30FC 1
 62
     7
420
 16777215
370
     9
100
AcDbVertex
100
AcDb2dVertex
 10
69.98624099228002
 20
-119.1916871924244
 30
0.0
  0
SEQEND
  5
C4
330
C1
100
AcDbEntity
  8
_U+30EC_U+30A4_U+30E4_U+30FC 1
 62
     7
420
 16777215
370
     9
  0
POLYLINE
  5
C5
330
1F
100
AcDbEntity
  8
_U+30EC_U+30A4_U+30E4_U+30FC 1
 62
     7
420
 16777215
370
     9
100
AcDb2dPolyline
 66
     1
 10
0.0
 20
0.0
 30
0.0
  0
VERTEX
  5
C6
330
C5
100
AcDbEntity
  8
_U+30EC_U+30A4_U+30E4_U+30FC 1
 62
     7
420
 16777215
370
     9
100
AcDbVertex
100
AcDb2dVertex
 10
104.8866162130084
 20
-121.6518183029203
 30
0.0
  0
VERTEX
  5
C7
330
C5
100
AcDbEntity
  8
_U+30EC_U+30A4_U+30E4_U+30FC 1
 62
     7
420
 16777215
370
     9
100
AcDbVertex
100
AcDb2dVertex
 10
104.8866162130084
 20
-119.1916871924244
 30
0.0
  0
SEQEND
  5
C8
330
C5
100
AcDbEntity
  8
_U+30EC_U+30A4_U+30E4_U+30FC 1
 62
     7
420
 16777215
370
     9
  0
INSERT
  5
CA
330
1F
100
AcDbEntity
  8
_U+30EC_U+30A4_U+30E4_U+30FC 1
100
AcDbBlockReference
  2
block 5
 10
0.0
 20
0.0
 30
0.0
  0
POLYLINE
  5
D1
330
1F
100
AcDbEntity
  8
_U+30EC_U+30A4_U+30E4_U+30FC 1
 62
     7
420
 16777215
370
     9
100
AcDb2dPolyline
 66
     1
 10
0.0
 20
0.0
 30
0.0
  0
VERTEX
  5
D2
330
D1
100
AcDbEntity
  8
_U+30EC_U+30A4_U+30E4_U+30FC 1
 62
     7
420
 16777215
370
     9
100
AcDbVertex
100
AcDb2dVertex
 10
69.71029998257252
 20
-139.6865591317451
 30
0.0
  0
VERTEX
  5
D3
330
D1
100
AcDbEntity
  8
_U+30EC_U+30A4_U+30E4_U+30FC 1
 62
     7
420
 16777215
370
     9
100
AcDbVertex
100
AcDb2dVertex
 10
84.71023256108414
 20
-139.6865591317451
 30
0.0
  0
SEQEND
  5
D4
330
D1
100
AcDbEntity
  8
_U+30EC_U+30A4_U+30E4_U+30FC 1
 62
     7
420
 16777215
370
     9
  0
POLYLINE
  5
D5
330
1F
100
AcDbEntity
  8
_U+30EC_U+30A4_U+30E4_U+30FC 1
 62
     7
420
 16777215
370
     9
100
AcDb2dPolyline
 66
     1
 10
0.0
 20
0.0
 30
0.0
  0
VERTEX
  5
D6
330
D5
100
AcDbEntity
  8
_U+30EC_U+30A4_U+30E4_U+30FC 1
 62
     7
420
 16777215
370
     9
100
AcDbVertex
100
AcDb2dVertex
 10
69.8236457186504
 20
-128.2440355234945
 30
0.0
  0
VERTEX
  5
D7
330
D5
100
AcDbEntity
  8
_U+30EC_U+30A4_U+30E4_U+30FC 1
 62
     7
420
 16777215
370
     9
100
AcDbVertex
100
AcDb2dVertex
 10
69.8236457186504
 20
-140.686331353717
 30
0.0
  0
SEQEND
  5
D8
330
D5
100
AcDbEntity
  8
_U+30EC_U+30A4_U+30E4_U+30FC 1
 62
     7
420
 16777215
370
     9
  0
POLYLINE
  5
D9
330
1F
100
AcDbEntity
  8
_U+30EC_U+30A4_U+30E4_U+30FC 1
 62
     7
420
 16777215
370
     9
100
AcDb2dPolyline
 66
     1
 10
0.0
 20
0.0
 30
0.0
  0
VERTEX
  5
DA
330
D9
100
AcDbEntity
  8
_U+30EC_U+30A4_U+30E4_U+30FC 1
 62
     7
420
 16777215
370
     9
100
AcDbVertex
100
AcDb2dVertex
 10
84.71023256108414
 20
-138.2265177432214
 30
0.0
  0
VERTEX
  5
DB
330
D9
100
AcDbEntity
  8
_U+30EC_U+30A4_U+30E4_U+30FC 1
 62
     7
420
 16777215
370
     9
100
AcDbVertex
100
AcDb2dVertex
 10
84.71023256108414
 20
-140.686331353717
 30
0.0
  0
SEQEND
  5
DC
330
D9
100
AcDbEntity
  8
_U+30EC_U+30A4_U+30E4_U+30FC 1
 62
     7
420
 16777215
370
     9
  0
INSERT
  5
DE
330
1F
100
AcDbEntity
  8
_U+30EC_U+30A4_U+30E4_U+30FC 1
100
AcDbBlockReference
  2
block 6
 10
0.0
 20
0.0
 30
0.0
  0
POLYLINE
  5
E5
330
1F
100
AcDbEntity
  8
_U+30EC_U+30A4_U+30E4_U+30FC 1
 62
     7
420
 16777215
370
     9
100
AcDb2dPolyline
 66
     1
 10
0.0
 20
0.0
 30
0.0
  0
VERTEX
  5
E6
330
E5
100
AcDbEntity
  8
_U+30EC_U+30A4_U+30E4_U+30FC 1
 62
     7
420
 16777215
370
     9
100
AcDbVertex
100
AcDb2dVertex
 10
110.8376596722957
 20
-132.2926896891489
 30
0.0
  0
VERTEX
  5
E7
330
E5
100
AcDbEntity
  8
_U+30EC_U+30A4_U+30E4_U+30FC 1
 62
     7
420
 16777215
370
     9
100
AcDbVertex
100
AcDb2dVertex
 10
110.8376596722957
 20
-125.2922733020103
 30
0.0
  0
SEQEND
  5
E8
330
E5
100
AcDbEntity
  8
_U+30EC_U+30A4_U+30E4_U+30FC 1
 62
     7
420
 16777215
370
     9
  0
SPLINE
  5
E9
330
1F
100
AcDbEntity
  8
_U+30EC_U+30A4_U+30E4_U+30FC 1
 62
     7
420
 16777215
370
     9
100
AcDbSpline
210
0.0
220
0.0
230
1.0
 70
    11
 71
     3
 72
    17
 73
    13
 74
     0
 42
0.0000000001
 43
0.0000000001
 12
1.0
 22
0.0
 32
0.0
 13
1.0
 23
0.0
 33
0.0
 40
0.0
 40
0.0
 40
0.0
 40
0.0
 40
1.0
 40
1.0
 40
1.0
 40
2.0
 40
2.0
 40
2.0
 40
3.0
 40
3.0
 40
3.0
 40
4.0
 40
4.0
 40
4.0
 40
4.0
 10
110.9376016141904
 20
-132.3326594113614
 30
0.0
 10
110.9376016141904
 20
-132.276849966931
 30
0.0
 10
110.8927988375557
 20
-132.2320824669418
 30
0.0
 10
110.8376596722957
 20
-132.2320824669418
 30
0.0
 10
110.7825557848127
 20
-132.2320824669418
 30
0.0
 10
110.7377530081779
 20
-132.276849966931
 30
0.0
 10
110.7377530081779
 20
-132.3326594113614
 30
0.0
 10
110.7377530081779
 20
-132.3877985780139
 30
0.0
 10
110.7825557848127
 20
-132.432566078003
 30
0.0
 10
110.8376596722957
 20
-132.432566078003
 30
0.0
 10
110.8927988375557
 20
-132.432566078003
 30
0.0
 10
110.9376016141904
 20
-132.3877985780139
 30
0.0
 10
110.9376016141904
 20
-132.3326594113614
 30
0.0
  0
SPLINE
  5
EA
330
1F
100
AcDbEntity
  8
_U+30EC_U+30A4_U+30E4_U+30FC 1
 62
     7
420
 16777215
370
     9
100
AcDbSpline
210
0.0
220
0.0
230
1.0
 70
    11
 71
     3
 72
    17
 73
    13
 74
     0
 42
0.0000000001
 43
0.0000000001
 12
1.0
 22
0.0
 32
0.0
 13
1.0
 23
0.0
 33
0.0
 40
0.0
 40
0.0
 40
0.0
 40
0.0
 40
1.0
 40
1.0
 40
1.0
 40
2.0
 40
2.0
 40
2.0
 40
3.0
 40
3.0
 40
3.0
 40
4.0
 40
4.0
 40
4.0
 40
4.0
 10
110.9376016141904
 20
-135.3326463550558
 30
0.0
 10
110.9376016141904
 20
-135.2768369106253
 30
0.0
 10
110.8927988375557
 20
-135.2320694106361
 30
0.0
 10
110.8376596722957
 20
-135.2320694106361
 30
0.0
 10
110.7825557848127
 20
-135.2320694106361
 30
0.0
 10
110.7377530081779
 20
-135.2768369106253
 30
0.0
 10
110.7377530081779
 20
-135.3326463550558
 30
0.0
 10
110.7377530081779
 20
-135.3877855217088
 30
0.0
 10
110.7825557848127
 20
-135.4325530216974
 30
0.0
 10
110.8376596722957
 20
-135.4325530216974
 30
0.0
 10
110.8927988375557
 20
-135.4325530216974
 30
0.0
 10
110.9376016141904
 20
-135.3877855217088
 30
0.0
 10
110.9376016141904
 20
-135.3326463550558
 30
0.0
  0
POLYLINE
  5
EB
330
1F
100
AcDbEntity
  8
_U+30EC_U+30A4_U+30E4_U+30FC 1
 62
     7
420
 16777215
370
     9
100
AcDb2dPolyline
 66
     1
 10
0.0
 20
0.0
 30
0.0
  0
VERTEX
  5
EC
330
EB
100
AcDbEntity
  8
_U+30EC_U+30A4_U+30E4_U+30FC 1
 62
     7
420
 16777215
370
     9
100
AcDbVertex
100
AcDb2dVertex
 10
110.8376596722957
 20
-135.3326463550558
 30
0.0
  0
VERTEX
  5
ED
330
EB
100
AcDbEntity
  8
_U+30EC_U+30A4_U+30E4_U+30FC 1
 62
     7
420
 16777215
370
     9
100
AcDbVertex
100
AcDb2dVertex
 10
110.8376596722957
 20
-132.3326594113614
 30
0.0
  0
SEQEND
  5
EE
330
EB
100
AcDbEntity
  8
_U+30EC_U+30A4_U+30E4_U+30FC 1
 62
     7
420
 16777215
370
     9
  0
POLYLINE
  5
EF
330
1F
100
AcDbEntity
  8
_U+30EC_U+30A4_U+30E4_U+30FC 1
 62
     7
420
 16777215
370
     9
100
AcDb2dPolyline
 66
     1
 10
0.0
 20
0.0
 30
0.0
  0
VERTEX
  5
F0
330
EF
100
AcDbEntity
  8
_U+30EC_U+30A4_U+30E4_U+30FC 1
 62
     7
420
 16777215
370
     9
100
AcDbVertex
100
AcDb2dVertex
 10
97.37770612679886
 20
-135.3326463550558
 30
0.0
  0
VERTEX
  5
F1
330
EF
100
AcDbEntity
  8
_U+30EC_U+30A4_U+30E4_U+30FC 1
 62
     7
420
 16777215
370
     9
100
AcDbVertex
100
AcDb2dVertex
 10
111.8374318690116
 20
-135.3326463550558
 30
0.0
  0
SEQEND
  5
F2
330
EF
100
AcDbEntity
  8
_U+30EC_U+30A4_U+30E4_U+30FC 1
 62
     7
420
 16777215
370
     9
  0
INSERT
  5
F4
330
1F
100
AcDbEntity
  8
_U+30EC_U+30A4_U+30E4_U+30FC 1
100
AcDbBlockReference
  2
block 7
 10
0.0
 20
0.0
 30
0.0
  0
POLYLINE
  5
F9
330
1F
100
AcDbEntity
  8
_U+30EC_U+30A4_U+30E4_U+30FC 1
 62
     7
420
 16777215
370
     9
100
AcDb2dPolyline
 66
     1
 10
0.0
 20
0.0
 30
0.0
  0
VERTEX
  5
FA
330
F9
100
AcDbEntity
  8
_U+30EC_U+30A4_U+30E4_U+30FC 1
 62
     7
420
 16777215
370
     9
100
AcDbVertex
100
AcDb2dVertex
 10
97.37770612679886
 20
-132.3326594113614
 30
0.0
  0
VERTEX
  5
FB
330
F9
100
AcDbEntity
  8
_U+30EC_U+30A4_U+30E4_U+30FC 1
 62
     7
420
 16777215
370
     9
100
AcDbVertex
100
AcDb2dVertex
 10
111.8374318690116
 20
-132.3326594113614
 30
0.0
  0
SEQEND
  5
FC
330
F9
100
AcDbEntity
  8
_U+30EC_U+30A4_U+30E4_U+30FC 1
 62
     7
420
 16777215
370
     9
  0
INSERT
  5
FE
330
1F
100
AcDbEntity
  8
_U+30EC_U+30A4_U+30E4_U+30FC 1
100
AcDbBlockReference
  2
block 8
 10
0.0
 20
0.0
 30
0.0
  0
ENDSEC
  0
SECTION
  2
OBJECTS
  0
DICTIONARY
  5
C
330
0
100
AcDbDictionary
281
     1
  3
ACAD_GROUP
350
D
  3
ACAD_LAYOUT
350
1A
  3
ACAD_MATERIAL
350
3B
  3
ACAD_MLEADERSTYLE
350
104
  3
ACAD_MLINESTYLE
350
17
  3
ACAD_PLOTSETTINGS
350
19
  3
ACAD_PLOTSTYLENAME
350
E
  3
ACAD_TABLESTYLE
350
103
  3
ACAD_VISUALSTYLE
350
2A
  0
SUN
  5
3F
330
29
100
AcDbSun
 90
        1
290
     0
 63
     7
421
 16777215
 40
1.0
291
     1
 91
  2455826
 92
 54000000
292
     0
 70
     2
 71
   256
280
     1
  0
DICTIONARY
  5
D
102
{ACAD_REACTORS
330
C
102
}
330
C
100
AcDbDictionary
281
     1
  0
DICTIONARY
  5
1A
102
{ACAD_REACTORS
330
C
102
}
330
C
100
AcDbDictionary
281
     1
  3
Layout1
350
1E
  3
Layout2
350
26
  3
Model
350
22
  0
DICTIONARY
  5
3B
102
{ACAD_REACTORS
330
C
102
}
330
C
100
AcDbDictionary
281
     1
  3
ByBlock
350
3D
  3
ByLayer
350
3C
  3
Global
350
3E
  0
DICTIONARY
  5
104
102
{ACAD_REACTORS
330
C
102
}
330
C
100
AcDbDictionary
281
     1
  0
DICTIONARY
  5
17
102
{ACAD_REACTORS
330
C
102
}
330
C
100
AcDbDictionary
281
     1
  3
Standard
350
18
  0
DICTIONARY
  5
19
102
{ACAD_REACTORS
330
C
102
}
330
C
100
AcDbDictionary
281
     1
  0
ACDBDICTIONARYWDFLT
  5
E
102
{ACAD_REACTORS
330
C
102
}
330
C
100
AcDbDictionary
281
     1
  3
Normal
350
F
100
AcDbDictionaryWithDefault
340
F
  0
DICTIONARY
  5
103
102
{ACAD_REACTORS
330
C
102
}
330
C
100
AcDbDictionary
281
     1
  0
DICTIONARY
  5
2A
102
{ACAD_REACTORS
330
C
102
}
330
C
100
AcDbDictionary
281
     1
  3
2dWireframe
350
2F
  3
3D Hidden
350
31
  3
3dWireframe
350
30
  3
Basic
350
32
  3
Brighten
350
36
  3
ColorChange
350
3A
  3
Conceptual
350
34
  3
Dim
350
35
  3
Facepattern
350
39
  3
Flat
350
2B
  3
FlatWithEdges
350
2C
  3
Gouraud
350
2D
  3
GouraudWithEdges
350
2E
  3
Linepattern
350
38
  3
Realistic
350
33
  3
Thicken
350
37
  0
LAYOUT
  5
1E
102
{ACAD_REACTORS
330
1A
102
}
330
1A
100
AcDbPlotSettings
  1

  2
none_device
  4

  6

 40
0.0
 41
0.0
 42
0.0
 43
0.0
 44
0.0
 45
0.0
 46
0.0
 47
0.0
 48
0.0
 49
0.0
140
0.0
141
0.0
142
1.0
143
1.0
 70
   688
 72
     0
 73
     0
 74
     5
  7

 75
    16
 76
     0
 77
     2
 78
   300
147
1.0
148
0.0
149
0.0
100
AcDbLayout
  1
Layout1
 70
     1
 71
     1
 10
0.0
 20
0.0
 11
12.0
 21
9.0
 12
0.0
 22
0.0
 32
0.0
 14
1.000000000000000E+20
 24
1.000000000000000E+20
 34
1.000000000000000E+20
 15
-1.000000000000000E+20
 25
-1.000000000000000E+20
 35
-1.000000000000000E+20
146
0.0
 13
0.0
 23
0.0
 33
0.0
 16
1.0
 26
0.0
 36
0.0
 17
0.0
 27
1.0
 37
0.0
 76
     0
330
1B
  0
LAYOUT
  5
26
102
{ACAD_REACTORS
330
1A
102
}
330
1A
100
AcDbPlotSettings
  1

  2
none_device
  4

  6

 40
0.0
 41
0.0
 42
0.0
 43
0.0
 44
0.0
 45
0.0
 46
0.0
 47
0.0
 48
0.0
 49
0.0
140
0.0
141
0.0
142
1.0
143
1.0
 70
   688
 72
     0
 73
     0
 74
     5
  7

 75
    16
 76
     0
 77
     2
 78
   300
147
1.0
148
0.0
149
0.0
100
AcDbLayout
  1
Layout2
 70
     1
 71
     2
 10
0.0
 20
0.0
 11
0.0
 21
0.0
 12
0.0
 22
0.0
 32
0.0
 14
0.0
 24
0.0
 34
0.0
 15
0.0
 25
0.0
 35
0.0
146
0.0
 13
0.0
 23
0.0
 33
0.0
 16
1.0
 26
0.0
 36
0.0
 17
0.0
 27
1.0
 37
0.0
 76
     0
330
23
  0
LAYOUT
  5
22
102
{ACAD_REACTORS
330
1A
102
}
330
1A
100
AcDbPlotSettings
  1

  2
none_device
  4

  6

 40
0.0
 41
0.0
 42
0.0
 43
0.0
 44
0.0
 45
0.0
 46
0.0
 47
0.0
 48
0.0
 49
0.0
140
0.0
141
0.0
142
1.0
143
1.0
 70
  1712
 72
     0
 73
     0
 74
     0
  7

 75
     0
 76
     0
 77
     2
 78
   300
147
1.0
148
0.0
149
0.0
100
AcDbLayout
  1
Model
 70
     1
 71
     0
 10
0.0
 20
0.0
 11
12.0
 21
9.0
 12
0.0
 22
0.0
 32
0.0
 14
1.000000000000000E+20
 24
1.000000000000000E+20
 34
1.000000000000000E+20
 15
-1.000000000000000E+20
 25
-1.000000000000000E+20
 35
-1.000000000000000E+20
146
0.0
 13
0.0
 23
0.0
 33
0.0
 16
1.0
 26
0.0
 36
0.0
 17
0.0
 27
1.0
 37
0.0
 76
     0
330
1F
331
29
  0
MATERIAL
  5
3D
102
{ACAD_REACTORS
330
3B
102
}
330
3B
100
AcDbMaterial
  1
ByBlock
 72
     1
 94
      127
  0
MATERIAL
  5
3C
102
{ACAD_REACTORS
330
3B
102
}
330
3B
100
AcDbMaterial
  1
ByLayer
 72
     1
 94
      127
  0
MATERIAL
  5
3E
102
{ACAD_REACTORS
330
3B
102
}
330
3B
100
AcDbMaterial
  1
Global
 72
     1
 94
      127
  0
MLINESTYLE
  5
18
102
{ACAD_REACTORS
330
17
102
}
330
17
100
AcDbMlineStyle
  2
Standard
 70
     0
  3

 62
   256
 51
90.0
 52
90.0
 71
     2
 49
0.5
 62
   256
  6
BYLAYER
 49
-0.5
 62
   256
  6
BYLAYER
  0
ACDBPLACEHOLDER
  5
F
102
{ACAD_REACTORS
330
E
102
}
330
E
  0
VISUALSTYLE
  5
2F
102
{ACAD_REACTORS
330
2A
102
}
330
2A
100
AcDbVisualStyle
  2
2dWireframe
 70
     4
177
     2
291
     0
 71
     0
176
     1
 72
     2
176
     1
 73
     0
176
     1
 90
        0
176
     1
 40
-0.6
176
     1
 41
-30.0
176
     1
 62
     5
 63
     7
421
 16777215
176
     1
 74
     1
176
     1
 91
        4
176
     1
 64
     7
176
     1
 65
   257
176
     1
 75
     1
176
     1
175
     1
176
     1
 42
1.0
176
     1
 92
        0
176
     1
 66
   257
176
     1
 43
1.0
176
     1
 76
     1
176
     1
 77
     6
176
     1
 78
     2
176
     1
 67
     7
176
     1
 79
     5
176
     1
170
     0
176
     1
171
     0
176
     1
290
     0
176
     1
 93
        1
176
     1
 44
0.0
176
     1
173
     0
176
     1
  0
VISUALSTYLE
  5
31
102
{ACAD_REACTORS
330
2A
102
}
330
2A
100
AcDbVisualStyle
  2
3D Hidden
 70
     6
177
     2
291
     0
 71
     1
176
     1
 72
     2
176
     1
 73
     2
176
     1
 90
        0
176
     1
 40
-0.6
176
     1
 41
-30.0
176
     1
 62
     5
 63
     7
421
 16777215
176
     1
 74
     2
176
     1
 91
        2
176
     1
 64
     7
176
     1
 65
   257
176
     1
 75
     2
176
     1
175
     1
176
     1
 42
40.0
176
     1
 92
        0
176
     1
 66
   257
176
     1
 43
1.0
176
     1
 76
     1
176
     1
 77
     6
176
     1
 78
     2
176
     1
 67
     7
176
     1
 79
     3
176
     1
170
     0
176
     1
171
     0
176
     1
290
     0
176
     1
 93
        1
176
     1
 44
0.0
176
     1
173
     0
176
     1
  0
VISUALSTYLE
  5
30
102
{ACAD_REACTORS
330
2A
102
}
330
2A
100
AcDbVisualStyle
  2
3dWireframe
 70
     5
177
     2
291
     0
 71
     0
176
     1
 72
     2
176
     1
 73
     0
176
     1
 90
        0
176
     1
 40
-0.6
176
     1
 41
-30.0
176
     1
 62
     5
 63
     7
421
 16777215
176
     1
 74
     1
176
     1
 91
        4
176
     1
 64
     7
176
     1
 65
   257
176
     1
 75
     1
176
     1
175
     1
176
     1
 42
1.0
176
     1
 92
        0
176
     1
 66
   257
176
     1
 43
1.0
176
     1
 76
     1
176
     1
 77
     6
176
     1
 78
     2
176
     1
 67
     7
176
     1
 79
     5
176
     1
170
     0
176
     1
171
     0
176
     1
290
     0
176
     1
 93
        1
176
     1
 44
0.0
176
     1
173
     0
176
     1
  0
VISUALSTYLE
  5
32
102
{ACAD_REACTORS
330
2A
102
}
330
2A
100
AcDbVisualStyle
  2
Basic
 70
     7
177
     2
291
     1
 71
     1
176
     1
 72
     0
176
     1
 73
     1
176
     1
 90
        0
176
     1
 40
-0.6
176
     1
 41
-30.0
176
     1
 62
     5
 63
     7
421
 16777215
176
     1
 74
     0
176
     1
 91
        4
176
     1
 64
     7
176
     1
 65
   257
176
     1
 75
     1
176
     1
175
     1
176
     1
 42
1.0
176
     1
 92
        8
176
     1
 66
     7
176
     1
 43
1.0
176
     1
 76
     1
176
     1
 77
     6
176
     1
 78
     2
176
     1
 67
     7
176
     1
 79
     5
176
     1
170
     0
176
     1
171
     0
176
     1
290
     0
176
     1
 93
        1
176
     1
 44
0.0
176
     1
173
     0
176
     1
  0
VISUALSTYLE
  5
36
102
{ACAD_REACTORS
330
2A
102
}
330
2A
100
AcDbVisualStyle
  2
Brighten
 70
    12
177
     2
291
     1
 71
     2
176
     1
 72
     2
176
     1
 73
     0
176
     1
 90
        0
176
     1
 40
-0.6
176
     1
 41
-30.0
176
     1
 62
     5
 63
     7
421
 16777215
176
     1
 74
     1
176
     1
 91
        4
176
     1
 64
     7
176
     1
 65
   257
176
     1
 75
     1
176
     1
175
     1
176
     1
 42
1.0
176
     1
 92
        8
176
     1
 66
     7
176
     1
 43
1.0
176
     1
 76
     1
176
     1
 77
     6
176
     1
 78
     2
176
     1
 67
     7
176
     1
 79
     5
176
     1
170
     0
176
     1
171
     0
176
     1
290
     0
176
     1
 93
        1
176
     1
 44
50.0
176
     1
173
     0
176
     1
  0
VISUALSTYLE
  5
3A
102
{ACAD_REACTORS
330
2A
102
}
330
2A
100
AcDbVisualStyle
  2
ColorChange
 70
    16
177
     2
291
     1
 71
     2
176
     1
 72
     2
176
     1
 73
     3
176
     1
 90
        0
176
     1
 40
-0.6
176
     1
 41
-30.0
176
     1
 62
     5
 63
     8
421
  8421504
176
     1
 74
     1
176
     1
 91
        4
176
     1
 64
     7
176
     1
 65
   257
176
     1
 75
     1
176
     1
175
     1
176
     1
 42
1.0
176
     1
 92
        8
176
     1
 66
     8
424
  8421504
176
     1
 43
1.0
176
     1
 76
     1
176
     1
 77
     6
176
     1
 78
     2
176
     1
 67
     7
176
     1
 79
     5
176
     1
170
     0
176
     1
171
     0
176
     1
290
     0
176
     1
 93
        1
176
     1
 44
0.0
176
     1
173
     0
176
     1
  0
VISUALSTYLE
  5
34
102
{ACAD_REACTORS
330
2A
102
}
330
2A
100
AcDbVisualStyle
  2
Conceptual
 70
     9
177
     2
291
     0
 71
     3
176
     1
 72
     2
176
     1
 73
     0
176
     1
 90
        0
176
     1
 40
-0.6
176
     1
 41
-30.0
176
     1
 62
     5
 63
     7
421
 16777215
176
     1
 74
     2
176
     1
 91
        2
176
     1
 64
     7
176
     1
 65
   257
176
     1
 75
     1
176
     1
175
     1
176
     1
 42
40.0
176
     1
 92
        8
176
     1
 66
     7
176
     1
 43
1.0
176
     1
 76
     1
176
     1
 77
     6
176
     1
 78
     2
176
     1
 67
     7
176
     1
 79
     3
176
     1
170
     0
176
     1
171
     0
176
     1
290
     0
176
     1
 93
        1
176
     1
 44
0.0
176
     1
173
     0
176
     1
  0
VISUALSTYLE
  5
35
102
{ACAD_REACTORS
330
2A
102
}
330
2A
100
AcDbVisualStyle
  2
Dim
 70
    11
177
     2
291
     1
 71
     2
176
     1
 72
     2
176
     1
 73
     0
176
     1
 90
        0
176
     1
 40
-0.6
176
     1
 41
-30.0
176
     1
 62
     5
 63
     7
421
 16777215
176
     1
 74
     1
176
     1
 91
        4
176
     1
 64
     7
176
     1
 65
   257
176
     1
 75
     1
176
     1
175
     1
176
     1
 42
1.0
176
     1
 92
        8
176
     1
 66
     7
176
     1
 43
1.0
176
     1
 76
     1
176
     1
 77
     6
176
     1
 78
     2
176
     1
 67
     7
176
     1
 79
     5
176
     1
170
     0
176
     1
171
     0
176
     1
290
     0
176
     1
 93
        1
176
     1
 44
-50.0
176
     1
173
     0
176
     1
  0
VISUALSTYLE
  5
39
102
{ACAD_REACTORS
330
2A
102
}
330
2A
100
AcDbVisualStyle
  2
Facepattern
 70
    15
177
     2
291
     1
 71
     2
176
     1
 72
     2
176
     1
 73
     0
176
     1
 90
        0
176
     1
 40
-0.6
176
     1
 41
-30.0
176
     1
 62
     5
 63
     7
421
 16777215
176
     1
 74
     1
176
     1
 91
        4
176
     1
 64
     7
176
     1
 65
   257
176
     1
 75
     1
176
     1
175
     1
176
     1
 42
1.0
176
     1
 92
        8
176
     1
 66
     7
176
     1
 43
1.0
176
     1
 76
     1
176
     1
 77
     6
176
     1
 78
     2
176
     1
 67
     7
176
     1
 79
     5
176
     1
170
     0
176
     1
171
     0
176
     1
290
     0
176
     1
 93
        1
176
     1
 44
0.0
176
     1
173
     0
176
     1
  0
VISUALSTYLE
  5
2B
102
{ACAD_REACTORS
330
2A
102
}
330
2A
100
AcDbVisualStyle
  2
Flat
 70
     0
177
     2
291
     1
 71
     2
176
     1
 72
     1
176
     1
 73
     1
176
     1
 90
        2
176
     1
 40
-0.6
176
     1
 41
30.0
176
     1
 62
     5
 63
     7
421
 16777215
176
     1
 74
     0
176
     1
 91
        4
176
     1
 64
     7
176
     1
 65
   257
176
     1
 75
     1
176
     1
175
     1
176
     1
 42
1.0
176
     1
 92
        8
176
     1
 66
     7
176
     1
 43
1.0
176
     1
 76
     1
176
     1
 77
     6
176
     1
 78
     2
176
     1
 67
     7
176
     1
 79
     5
176
     1
170
     0
176
     1
171
     0
176
     1
290
     0
176
     1
 93
       13
176
     1
 44
0.0
176
     1
173
     0
176
     1
  0
VISUALSTYLE
  5
2C
102
{ACAD_REACTORS
330
2A
102
}
330
2A
100
AcDbVisualStyle
  2
FlatWithEdges
 70
     1
177
     2
291
     1
 71
     2
176
     1
 72
     1
176
     1
 73
     1
176
     1
 90
        2
176
     1
 40
-0.6
176
     1
 41
30.0
176
     1
 62
     5
 63
     7
421
 16777215
176
     1
 74
     1
176
     1
 91
        4
176
     1
 64
     7
176
     1
 65
   257
176
     1
 75
     1
176
     1
175
     1
176
     1
 42
1.0
176
     1
 92
        0
176
     1
 66
   257
176
     1
 43
1.0
176
     1
 76
     1
176
     1
 77
     6
176
     1
 78
     2
176
     1
 67
     7
176
     1
 79
     5
176
     1
170
     0
176
     1
171
     0
176
     1
290
     0
176
     1
 93
       13
176
     1
 44
0.0
176
     1
173
     0
176
     1
  0
VISUALSTYLE
  5
2D
102
{ACAD_REACTORS
330
2A
102
}
330
2A
100
AcDbVisualStyle
  2
Gouraud
 70
     2
177
     2
291
     1
 71
     2
176
     1
 72
     2
176
     1
 73
     1
176
     1
 90
        2
176
     1
 40
-0.6
176
     1
 41
30.0
176
     1
 62
     5
 63
     7
421
 16777215
176
     1
 74
     0
176
     1
 91
        4
176
     1
 64
     7
176
     1
 65
   257
176
     1
 75
     1
176
     1
175
     1
176
     1
 42
1.0
176
     1
 92
        0
176
     1
 66
     7
176
     1
 43
1.0
176
     1
 76
     1
176
     1
 77
     6
176
     1
 78
     2
176
     1
 67
     7
176
     1
 79
     5
176
     1
170
     0
176
     1
171
     0
176
     1
290
     0
176
     1
 93
       13
176
     1
 44
0.0
176
     1
173
     0
176
     1
  0
VISUALSTYLE
  5
2E
102
{ACAD_REACTORS
330
2A
102
}
330
2A
100
AcDbVisualStyle
  2
GouraudWithEdges
 70
     3
177
     2
291
     1
 71
     2
176
     1
 72
     2
176
     1
 73
     1
176
     1
 90
        2
176
     1
 40
-0.6
176
     1
 41
30.0
176
     1
 62
     5
 63
     7
421
 16777215
176
     1
 74
     1
176
     1
 91
        4
176
     1
 64
     7
176
     1
 65
   257
176
     1
 75
     1
176
     1
175
     1
176
     1
 42
1.0
176
     1
 92
        0
176
     1
 66
   257
176
     1
 43
1.0
176
     1
 76
     1
176
     1
 77
     6
176
     1
 78
     2
176
     1
 67
     7
176
     1
 79
     5
176
     1
170
     0
176
     1
171
     0
176
     1
290
     0
176
     1
 93
       13
176
     1
 44
0.0
176
     1
173
     0
176
     1
  0
VISUALSTYLE
  5
38
102
{ACAD_REACTORS
330
2A
102
}
330
2A
100
AcDbVisualStyle
  2
Linepattern
 70
    14
177
     2
291
     1
 71
     2
176
     1
 72
     2
176
     1
 73
     0
176
     1
 90
        0
176
     1
 40
-0.6
176
     1
 41
-30.0
176
     1
 62
     5
 63
     7
421
 16777215
176
     1
 74
     1
176
     1
 91
        4
176
     1
 64
     7
176
     1
 65
   257
176
     1
 75
     7
176
     1
175
     7
176
     1
 42
1.0
176
     1
 92
        8
176
     1
 66
     7
176
     1
 43
1.0
176
     1
 76
     1
176
     1
 77
     6
176
     1
 78
     2
176
     1
 67
     7
176
     1
 79
     5
176
     1
170
     0
176
     1
171
     0
176
     1
290
     0
176
     1
 93
        1
176
     1
 44
0.0
176
     1
173
     0
176
     1
  0
VISUALSTYLE
  5
33
102
{ACAD_REACTORS
330
2A
102
}
330
2A
100
AcDbVisualStyle
  2
Realistic
 70
     8
177
     2
291
     0
 71
     2
176
     1
 72
     2
176
     1
 73
     0
176
     1
 90
        0
176
     1
 40
-0.6
176
     1
 41
-30.0
176
     1
 62
     5
 63
     7
421
 16777215
176
     1
 74
     1
176
     1
 91
        0
176
     1
 64
     7
176
     1
 65
   257
176
     1
 75
     1
176
     1
175
     1
176
     1
 42
1.0
176
     1
 92
        8
176
     1
 66
     8
424
  7895160
176
     1
 43
1.0
176
     1
 76
     1
176
     1
 77
     6
176
     1
 78
     2
176
     1
 67
     7
176
     1
 79
     5
176
     1
170
     0
176
     1
171
     0
176
     1
290
     0
176
     1
 93
       13
176
     1
 44
0.0
176
     1
173
     0
176
     1
  0
VISUALSTYLE
  5
37
102
{ACAD_REACTORS
330
2A
102
}
330
2A
100
AcDbVisualStyle
  2
Thicken
 70
    13
177
     2
291
     1
 71
     2
176
     1
 72
     2
176
     1
 73
     0
176
     1
 90
        0
176
     1
 40
-0.6
176
     1
 41
-30.0
176
     1
 62
     5
 63
     7
421
 16777215
176
     1
 74
     1
176
     1
 91
        4
176
     1
 64
     7
176
     1
 65
   257
176
     1
 75
     1
176
     1
175
     1
176
     1
 42
1.0
176
     1
 92
       12
176
     1
 66
     7
176
     1
 43
1.0
176
     1
 76
     1
176
     1
 77
     6
176
     1
 78
     2
176
     1
 67
     7
176
     1
 79
     5
176
     1
170
     0
176
     1
171
     0
176
     1
290
     0
176
     1
 93
        1
176
     1
 44
0.0
176
     1
173
     0
176
     1
  0
ENDSEC
  0
EOF
