  0
SECTION
  2
HEADER
  9
$ACADVER
  1
AC1024
  9
$ACADMAINTVER
 70
     6
  9
$DWGCODEPAGE
  3
UNDEFINED
  9
$INSBASE
 10
0.0
 20
0.0
 30
0.0
  9
$EXTMIN
 10
1.000000000000000E+20
 20
1.000000000000000E+20
 30
1.000000000000000E+20
  9
$EXTMAX
 10
-1.000000000000000E+20
 20
-1.000000000000000E+20
 30
-1.000000000000000E+20
  9
$LIMMIN
 10
0.0
 20
0.0
  9
$LIMMAX
 10
12.0
 20
9.0
  9
$ORTHOMODE
 70
     0
  9
$REGENMODE
 70
     1
  9
$FILLMODE
 70
     1
  9
$QTEXTMODE
 70
     0
  9
$MIRRTEXT
 70
     1
  9
$LTSCALE
 40
1.0
  9
$ATTMODE
 70
     1
  9
$TEXTSIZE
 40
0.2
  9
$TRACEWID
 40
0.05
  9
$TEXTSTYLE
  7
Standard
  9
$CLAYER
  8
0
  9
$CELTYPE
  6
ByLayer
  9
$CECOLOR
 62
   256
  9
$CELTSCALE
 40
1.0
  9
$DISPSILH
 70
     0
  9
$DIMSCALE
 40
1.0
  9
$DIMASZ
 40
0.18
  9
$DIMEXO
 40
0.0625
  9
$DIMDLI
 40
0.38
  9
$DIMRND
 40
0.0
  9
$DIMDLE
 40
0.0
  9
$DIMEXE
 40
0.18
  9
$DIMTP
 40
0.0
  9
$DIMTM
 40
0.0
  9
$DIMTXT
 40
0.18
  9
$DIMCEN
 40
0.09
  9
$DIMTSZ
 40
0.0
  9
$DIMTOL
 70
     0
  9
$DIMLIM
 70
     0
  9
$DIMTIH
 70
     1
  9
$DIMTOH
 70
     1
  9
$DIMSE1
 70
     0
  9
$DIMSE2
 70
     0
  9
$DIMTAD
 70
     0
  9
$DIMZIN
 70
     0
  9
$DIMBLK
  1

  9
$DIMASO
 70
     1
  9
$DIMSHO
 70
     1
  9
$DIMPOST
  1

  9
$DIMAPOST
  1

  9
$DIMALT
 70
     0
  9
$DIMALTD
 70
     2
  9
$DIMALTF
 40
25.4
  9
$DIMLFAC
 40
1.0
  9
$DIMTOFL
 70
     0
  9
$DIMTVP
 40
0.0
  9
$DIMTIX
 70
     0
  9
$DIMSOXD
 70
     0
  9
$DIMSAH
 70
     0
  9
$DIMBLK1
  1

  9
$DIMBLK2
  1

  9
$DIMSTYLE
  2
Standard
  9
$DIMCLRD
 70
     0
  9
$DIMCLRE
 70
     0
  9
$DIMCLRT
 70
     0
  9
$DIMTFAC
 40
1.0
  9
$DIMGAP
 40
0.09
  9
$DIMJUST
 70
     0
  9
$DIMSD1
 70
     0
  9
$DIMSD2
 70
     0
  9
$DIMTOLJ
 70
     1
  9
$DIMTZIN
 70
     0
  9
$DIMALTZ
 70
     0
  9
$DIMALTTZ
 70
     0
  9
$DIMUPT
 70
     0
  9
$DIMDEC
 70
     4
  9
$DIMTDEC
 70
     4
  9
$DIMALTU
 70
     2
  9
$DIMALTTD
 70
     2
  9
$DIMTXSTY
  7
Standard
  9
$DIMAUNIT
 70
     0
  9
$DIMADEC
 70
     0
  9
$DIMALTRND
 40
0.0
  9
$DIMAZIN
 70
     0
  9
$DIMDSEP
 70
    46
  9
$DIMATFIT
 70
     3
  9
$DIMFRAC
 70
     0
  9
$DIMLDRBLK
  1

  9
$DIMLUNIT
 70
     2
  9
$DIMLWD
 70
    -2
  9
$DIMLWE
 70
    -2
  9
$DIMTMOVE
 70
     0
  9
$DIMFXL
 40
1.0
  9
$DIMFXLON
 70
     0
  9
$DIMJOGANG
 40
0.7853981633974483
  9
$DIMTFILL
 70
     0
  9
$DIMTFILLCLR
 70
     0
  9
$DIMARCSYM
 70
     0
  9
$DIMLTYPE
  6

  9
$DIMLTEX1
  6

  9
$DIMLTEX2
  6

  9
$DIMTXTDIRECTION
 70
     0
  9
$LUNITS
 70
     2
  9
$LUPREC
 70
     4
  9
$SKETCHINC
 40
0.1
  9
$FILLETRAD
 40
0.5
  9
$AUNITS
 70
     0
  9
$AUPREC
 70
     0
  9
$MENU
  1
.
  9
$ELEVATION
 40
0.0
  9
$PELEVATION
 40
0.0
  9
$THICKNESS
 40
0.0
  9
$LIMCHECK
 70
     0
  9
$CHAMFERA
 40
0.5
  9
$CHAMFERB
 40
0.5
  9
$CHAMFERC
 40
1.0
  9
$CHAMFERD
 40
0.0
  9
$SKPOLY
 70
     0
  9
$TDCREATE
 40
2457917.614398148
  9
$TDUCREATE
 40
2457917.239398148
  9
$TDUPDATE
 40
2457917.614398148
  9
$TDUUPDATE
 40
2457917.239398148
  9
$TDINDWG
 40
0.0000000116
  9
$TDUSRTIMER
 40
0.0000000116
  9
$USRTIMER
 70
     1
  9
$ANGBASE
 50
0.0
  9
$ANGDIR
 70
     0
  9
$PDMODE
 70
     0
  9
$PDSIZE
 40
0.0
  9
$PLINEWID
 40
0.0
  9
$SPLFRAME
 70
     0
  9
$SPLINETYPE
 70
     6
  9
$SPLINESEGS
 70
     8
  9
$HANDSEED
  5
110
  9
$SURFTAB1
 70
     6
  9
$SURFTAB2
 70
     6
  9
$SURFTYPE
 70
     6
  9
$SURFU
 70
     6
  9
$SURFV
 70
     6
  9
$UCSBASE
  2

  9
$UCSNAME
  2

  9
$UCSORG
 10
0.0
 20
0.0
 30
0.0
  9
$UCSXDIR
 10
1.0
 20
0.0
 30
0.0
  9
$UCSYDIR
 10
0.0
 20
1.0
 30
0.0
  9
$UCSORTHOREF
  2

  9
$UCSORTHOVIEW
 70
     0
  9
$UCSORGTOP
 10
0.0
 20
0.0
 30
0.0
  9
$UCSORGBOTTOM
 10
0.0
 20
0.0
 30
0.0
  9
$UCSORGLEFT
 10
0.0
 20
0.0
 30
0.0
  9
$UCSORGRIGHT
 10
0.0
 20
0.0
 30
0.0
  9
$UCSORGFRONT
 10
0.0
 20
0.0
 30
0.0
  9
$UCSORGBACK
 10
0.0
 20
0.0
 30
0.0
  9
$PUCSBASE
  2

  9
$PUCSNAME
  2

  9
$PUCSORG
 10
0.0
 20
0.0
 30
0.0
  9
$PUCSXDIR
 10
1.0
 20
0.0
 30
0.0
  9
$PUCSYDIR
 10
0.0
 20
1.0
 30
0.0
  9
$PUCSORTHOREF
  2

  9
$PUCSORTHOVIEW
 70
     0
  9
$PUCSORGTOP
 10
0.0
 20
0.0
 30
0.0
  9
$PUCSORGBOTTOM
 10
0.0
 20
0.0
 30
0.0
  9
$PUCSORGLEFT
 10
0.0
 20
0.0
 30
0.0
  9
$PUCSORGRIGHT
 10
0.0
 20
0.0
 30
0.0
  9
$PUCSORGFRONT
 10
0.0
 20
0.0
 30
0.0
  9
$PUCSORGBACK
 10
0.0
 20
0.0
 30
0.0
  9
$USERI1
 70
     0
  9
$USERI2
 70
     0
  9
$USERI3
 70
     0
  9
$USERI4
 70
     0
  9
$USERI5
 70
     0
  9
$USERR1
 40
0.0
  9
$USERR2
 40
0.0
  9
$USERR3
 40
0.0
  9
$USERR4
 40
0.0
  9
$USERR5
 40
0.0
  9
$WORLDVIEW
 70
     1
  9
$SHADEDGE
 70
     3
  9
$SHADEDIF
 70
    70
  9
$TILEMODE
 70
     1
  9
$MAXACTVP
 70
    64
  9
$PINSBASE
 10
0.0
 20
0.0
 30
0.0
  9
$PLIMCHECK
 70
     0
  9
$PEXTMIN
 10
1.000000000000000E+20
 20
1.000000000000000E+20
 30
1.000000000000000E+20
  9
$PEXTMAX
 10
-1.000000000000000E+20
 20
-1.000000000000000E+20
 30
-1.000000000000000E+20
  9
$PLIMMIN
 10
0.0
 20
0.0
  9
$PLIMMAX
 10
12.0
 20
9.0
  9
$UNITMODE
 70
     0
  9
$VISRETAIN
 70
     1
  9
$PLINEGEN
 70
     0
  9
$PSLTSCALE
 70
     1
  9
$TREEDEPTH
 70
  3020
  9
$CMLSTYLE
  2
Standard
  9
$CMLJUST
 70
     0
  9
$CMLSCALE
 40
1.0
  9
$PROXYGRAPHICS
 70
     1
  9
$MEASUREMENT
 70
     0
  9
$CELWEIGHT
370
    -1
  9
$ENDCAPS
280
     0
  9
$JOINSTYLE
280
     0
  9
$LWDISPLAY
290
     1
  9
$INSUNITS
 70
     1
  9
$HYPERLINKBASE
  1

  9
$STYLESHEET
  1

  9
$XEDIT
290
     1
  9
$CEPSNTYPE
380
     0
  9
$PSTYLEMODE
290
     1
  9
$FINGERPRINTGUID
  2
{18DB158D-A35F-5DBA-53A8-120DE8F36AC5}
  9
$VERSIONGUID
  2
{FAEB1C32-E019-11D5-929B-00C0DF256EC4}
  9
$EXTNAMES
290
     1
  9
$PSVPSCALE
 40
0.0
  9
$OLESTARTUP
290
     0
  9
$SORTENTS
280
   127
  9
$INDEXCTL
280
     0
  9
$HIDETEXT
280
     1
  9
$XCLIPFRAME
280
     2
  9
$HALOGAP
280
     0
  9
$OBSCOLOR
 70
   257
  9
$OBSLTYPE
280
     0
  9
$INTERSECTIONDISPLAY
280
     0
  9
$INTERSECTIONCOLOR
 70
   257
  9
$DIMASSOC
280
     2
  9
$PROJECTNAME
  1

  9
$CAMERADISPLAY
290
     0
  9
$LENSLENGTH
 40
50.0
  9
$CAMERAHEIGHT
 40
0.0
  9
$STEPSPERSEC
 40
2.0
  9
$STEPSIZE
 40
6.0
  9
$3DDWFPREC
 40
2.0
  9
$PSOLWIDTH
 40
0.25
  9
$PSOLHEIGHT
 40
4.0
  9
$LOFTANG1
 40
1.570796326794897
  9
$LOFTANG2
 40
1.570796326794897
  9
$LOFTMAG1
 40
0.0
  9
$LOFTMAG2
 40
0.0
  9
$LOFTPARAM
 70
     7
  9
$LOFTNORMALS
280
     1
  9
$LATITUDE
 40
37.795
  9
$LONGITUDE
 40
-122.394
  9
$NORTHDIRECTION
 40
0.0
  9
$TIMEZONE
 70
 -8000
  9
$LIGHTGLYPHDISPLAY
280
     1
  9
$TILEMODELIGHTSYNCH
280
     1
  9
$CMATERIAL
347
3C
  9
$SOLIDHIST
280
     1
  9
$SHOWHIST
280
     1
  9
$DWFFRAME
280
     2
  9
$DGNFRAME
280
     2
  9
$REALWORLDSCALE
290
     1
  9
$INTERFERECOLOR
 62
   256
  9
$CSHADOW
280
     0
  9
$SHADOWPLANELOCATION
 40
0.0
  0
ENDSEC
  0
SECTION
  2
CLASSES
  0
CLASS
  1
ACDBDICTIONARYWDFLT
  2
AcDbDictionaryWithDefault
  3
ObjectDBX Classes
 90
        0
 91
        4
280
     0
281
     0
  0
CLASS
  1
VISUALSTYLE
  2
AcDbVisualStyle
  3
ObjectDBX Classes
 90
     4095
 91
        4
280
     0
281
     0
  0
CLASS
  1
MATERIAL
  2
AcDbMaterial
  3
ObjectDBX Classes
 90
     1153
 91
        4
280
     0
281
     0
  0
CLASS
  1
SUN
  2
AcDbSun
  3
SCENEOE
 90
     1024
 91
        4
280
     0
281
     0
  0
ENDSEC
  0
SECTION
  2
TABLES
  0
TABLE
  2
VPORT
  5
8
330
0
100
AcDbSymbolTable
 70
     1
  0
VPORT
  5
29
330
8
100
AcDbSymbolTableRecord
100
AcDbViewportTableRecord
  2
*Active
 70
     0
 10
0.0
 20
0.0
 11
1.0
 21
1.0
 12
0.0
 22
0.0
 13
0.0
 23
0.0
 14
0.5
 24
0.5
 15
0.5
 25
0.5
 16
0.0
 26
0.0
 36
1.0
 17
91.00082462281999
 27
-128.4993055234307
 37
0.0
 40
256.9986110468615
 41
0.7081814508812795
 42
50.0
 43
0.0
 44
0.0
 50
0.0
 51
0.0
 71
     0
 72
   100
 73
     1
 74
     3
 75
     0
 76
     0
 77
     0
 78
     0
281
     0
 65
     1
110
0.0
120
0.0
130
0.0
111
1.0
121
0.0
131
0.0
112
0.0
122
1.0
132
0.0
 79
     0
146
0.0
 60
     3
 61
     5
292
     1
282
     1
141
0.0
142
0.0
 63
   250
361
3F
  0
ENDTAB
  0
TABLE
  2
LTYPE
  5
5
330
0
100
AcDbSymbolTable
 70
     1
  0
LTYPE
  5
14
330
5
100
AcDbSymbolTableRecord
100
AcDbLinetypeTableRecord
  2
ByBlock
 70
     0
  3

 72
    65
 73
     0
 40
0.0
  0
LTYPE
  5
15
330
5
100
AcDbSymbolTableRecord
100
AcDbLinetypeTableRecord
  2
ByLayer
 70
     0
  3

 72
    65
 73
     0
 40
0.0
  0
LTYPE
  5
16
330
5
100
AcDbSymbolTableRecord
100
AcDbLinetypeTableRecord
  2
Continuous
 70
     0
  3
Solid line
 72
    65
 73
     0
 40
0.0
  0
ENDTAB
  0
TABLE
  2
LAYER
  5
2
330
0
100
AcDbSymbolTable
 70
     2
  0
LAYER
  5
10
330
2
100
AcDbSymbolTableRecord
100
AcDbLayerTableRecord
  2
0
 70
     0
 62
     7
  6
Continuous
370
    -3
390
F
347
3E
  0
LAYER
  5
40
330
2
100
AcDbSymbolTableRecord
100
AcDbLayerTableRecord
  2
_U+30EC_U+30A4_U+30E4_U+30FC 1
 70
     0
 62
     7
  6
Continuous
370
    -3
390
F
347
3E
  0
ENDTAB
  0
TABLE
  2
STYLE
  5
3
330
0
100
AcDbSymbolTable
 70
     1
  0
STYLE
  5
11
330
3
100
AcDbSymbolTableRecord
100
AcDbTextStyleTableRecord
  2
Standard
 70
     0
 40
0.0
 41
1.0
 50
0.0
 71
     0
 42
0.2
  3
txt
  4

  0
ENDTAB
  0
TABLE
  2
VIEW
  5
6
330
0
100
AcDbSymbolTable
 70
     0
  0
ENDTAB
  0
TABLE
  2
UCS
  5
7
330
0
100
AcDbSymbolTable
 70
     0
  0
ENDTAB
  0
TABLE
  2
APPID
  5
9
330
0
100
AcDbSymbolTable
 70
     1
  0
APPID
  5
12
330
9
100
AcDbSymbolTableRecord
100
AcDbRegAppTableRecord
  2
ACAD
 70
     0
  0
ENDTAB
  0
TABLE
  2
DIMSTYLE
  5
A
330
0
100
AcDbSymbolTable
 70
     1
100
AcDbDimStyleTable
  0
DIMSTYLE
105
27
330
A
100
AcDbSymbolTableRecord
100
AcDbDimStyleTableRecord
  2
Standard
 70
     0
178
     0
340
11
  0
ENDTAB
  0
TABLE
  2
BLOCK_RECORD
  5
1
330
0
100
AcDbSymbolTable
 70
     7
  0
BLOCK_RECORD
  5
1F
330
1
100
AcDbSymbolTableRecord
100
AcDbBlockTableRecord
  2
*Model_Space
340
22
 70
     0
280
     1
281
     0
  0
BLOCK_RECORD
  5
1B
330
1
100
AcDbSymbolTableRecord
100
AcDbBlockTableRecord
  2
*Paper_Space
340
1E
 70
     0
280
     1
281
     0
  0
BLOCK_RECORD
  5
23
330
1
100
AcDbSymbolTableRecord
100
AcDbBlockTableRecord
  2
*Paper_Space0
340
26
 70
     0
280
     1
281
     0
  0
BLOCK_RECORD
  5
9E
330
1
100
AcDbSymbolTableRecord
100
AcDbBlockTableRecord
  2
block 2
340
0
102
{BLKREFS
331
9F
102
}
 70
     0
280
     1
281
     0
  0
BLOCK_RECORD
  5
AC
330
1
100
AcDbSymbolTableRecord
100
AcDbBlockTableRecord
  2
block 3
340
0
102
{BLKREFS
331
AD
102
}
 70
     0
280
     1
281
     0
  0
BLOCK_RECORD
  5
BE
330
1
100
AcDbSymbolTableRecord
100
AcDbBlockTableRecord
  2
block 4
340
0
102
{BLKREFS
331
BF
102
}
 70
     0
280
     1
281
     0
  0
BLOCK_RECORD
  5
CE
330
1
100
AcDbSymbolTableRecord
100
AcDbBlockTableRecord
  2
block 5
340
0
102
{BLKREFS
331
CF
102
}
 70
     0
280
     1
281
     0
  0
BLOCK_RECORD
  5
E0
330
1
100
AcDbSymbolTableRecord
100
AcDbBlockTableRecord
  2
block 6
340
0
102
{BLKREFS
331
E1
102
}
 70
     0
280
     1
281
     0
  0
BLOCK_RECORD
  5
F6
330
1
100
AcDbSymbolTableRecord
100
AcDbBlockTableRecord
  2
block 7
340
0
102
{BLKREFS
331
F7
102
}
 70
     0
280
     1
281
     0
  0
ENDTAB
  0
ENDSEC
  0
SECTION
  2
BLOCKS
  0
BLOCK
  5
20
330
1F
100
AcDbEntity
  8
0
100
AcDbBlockBegin
  2
*Model_Space
 70
     0
 10
0.0
 20
0.0
 30
0.0
  3
*Model_Space
  1

  0
ENDBLK
  5
21
330
1F
100
AcDbEntity
  8
0
100
AcDbBlockEnd
  0
BLOCK
  5
1C
330
1B
100
AcDbEntity
 67
     1
  8
0
100
AcDbBlockBegin
  2
*Paper_Space
 70
     0
 10
0.0
 20
0.0
 30
0.0
  3
*Paper_Space
  1

  0
ENDBLK
  5
1D
330
1B
100
AcDbEntity
 67
     1
  8
0
100
AcDbBlockEnd
  0
BLOCK
  5
24
330
23
100
AcDbEntity
  8
0
100
AcDbBlockBegin
  2
*Paper_Space0
 70
     0
 10
0.0
 20
0.0
 30
0.0
  3
*Paper_Space0
  1

  0
ENDBLK
  5
25
330
23
100
AcDbEntity
  8
0
100
AcDbBlockEnd
  0
BLOCK
  5
A0
330
9E
100
AcDbEntity
  8
0
100
AcDbBlockBegin
  2
block 2
 70
     0
 10
0.0
 20
0.0
 30
0.0
  3
block 2
  1

  0
SPLINE
  5
A2
330
9E
100
AcDbEntity
  8
_U+30EC_U+30A4_U+30E4_U+30FC 1
370
     0
100
AcDbSpline
210
0.0
220
0.0
230
1.0
 70
    11
 71
     3
 72
    26
 73
    22
 74
     0
 42
0.0000000001
 43
0.0000000001
 12
1.0
 22
0.0
 32
0.0
 13
1.0
 23
0.0
 33
0.0
 40
0.0
 40
0.0
 40
0.0
 40
0.0
 40
1.0
 40
1.0
 40
1.0
 40
2.0
 40
2.0
 40
2.0
 40
3.0
 40
3.0
 40
3.0
 40
4.0
 40
4.0
 40
4.0
 40
5.0
 40
5.0
 40
5.0
 40
6.0
 40
6.0
 40
6.0
 40
7.0
 40
7.0
 40
7.0
 40
7.0
 10
104.9155598696045
 20
-122.2102837151072
 30
0.0
 10
104.9155598696045
 20
-122.2102837151072
 30
0.0
 10
103.8114067665819
 20
-122.2102837151072
 30
0.0
 10
103.8114067665819
 20
-122.2102837151072
 30
0.0
 10
103.8114067665819
 20
-122.2102837151072
 30
0.0
 10
103.8114067665819
 20
-122.5627169832482
 30
0.0
 10
103.8114067665819
 20
-122.5627169832482
 30
0.0
 10
103.8114067665819
 20
-122.5627169832482
 30
0.0
 10
103.6632676607161
 20
-122.5627169832482
 30
0.0
 10
103.6632676607161
 20
-122.5627169832482
 30
0.0
 10
103.6484537501296
 20
-122.2078721482675
 30
0.0
 10
103.4855007336772
 20
-122.1582627732799
 30
0.0
 10
103.3711235635669
 20
-122.1265678948156
 30
0.0
 10
103.3711235635669
 20
-122.1265678948156
 30
0.0
 10
103.3711235635669
 20
-121.9705050693338
 30
0.0
 10
103.3711235635669
 20
-121.9705050693338
 30
0.0
 10
103.3711235635669
 20
-121.9705050693338
 30
0.0
 10
104.9155598696045
 20
-121.9705050693338
 30
0.0
 10
104.9155598696045
 20
-121.9705050693338
 30
0.0
 10
104.9155598696045
 20
-121.9705050693338
 30
0.0
 10
104.9155598696045
 20
-122.2102837151072
 30
0.0
 10
104.9155598696045
 20
-122.2102837151072
 30
0.0
  0
HATCH
  5
A3
330
9E
100
AcDbEntity
  8
_U+30EC_U+30A4_U+30E4_U+30FC 1
 62
   179
420
  2234388
100
AcDbHatch
 10
0.0
 20
0.0
 30
0.0
210
0.0
220
0.0
230
1.0
  2
SOLID
 70
     1
 71
     0
 91
        1
 92
        1
 93
        1
 72
     4
 94
        3
 73
     0
 74
     1
 95
       26
 96
       22
 40
0.0
 40
0.0
 40
0.0
 40
0.0
 40
1.0
 40
1.0
 40
1.0
 40
2.0
 40
2.0
 40
2.0
 40
3.0
 40
3.0
 40
3.0
 40
4.0
 40
4.0
 40
4.0
 40
5.0
 40
5.0
 40
5.0
 40
6.0
 40
6.0
 40
6.0
 40
7.0
 40
7.0
 40
7.0
 40
7.0
 10
104.9155598696045
 20
-122.2102837151072
 10
104.9155598696045
 20
-122.2102837151072
 10
103.8114067665819
 20
-122.2102837151072
 10
103.8114067665819
 20
-122.2102837151072
 10
103.8114067665819
 20
-122.2102837151072
 10
103.8114067665819
 20
-122.5627169832482
 10
103.8114067665819
 20
-122.5627169832482
 10
103.8114067665819
 20
-122.5627169832482
 10
103.6632676607161
 20
-122.5627169832482
 10
103.6632676607161
 20
-122.5627169832482
 10
103.6484537501296
 20
-122.2078721482675
 10
103.4855007336772
 20
-122.1582627732799
 10
103.3711235635669
 20
-122.1265678948156
 10
103.3711235635669
 20
-122.1265678948156
 10
103.3711235635669
 20
-121.9705050693338
 10
103.3711235635669
 20
-121.9705050693338
 10
103.3711235635669
 20
-121.9705050693338
 10
104.9155598696045
 20
-121.9705050693338
 10
104.9155598696045
 20
-121.9705050693338
 10
104.9155598696045
 20
-121.9705050693338
 10
104.9155598696045
 20
-122.2102837151072
 10
104.9155598696045
 20
-122.2102837151072
 97
        0
 97
        0
 75
     2
 76
     1
 98
        0
  0
ENDBLK
  5
A1
330
9E
100
AcDbEntity
  8
0
100
AcDbBlockEnd
  0
BLOCK
  5
AE
330
AC
100
AcDbEntity
  8
0
100
AcDbBlockBegin
  2
block 3
 70
     0
 10
0.0
 20
0.0
 30
0.0
  3
block 3
  1

  0
SPLINE
  5
B0
330
AC
100
AcDbEntity
  8
_U+30EC_U+30A4_U+30E4_U+30FC 1
370
     0
100
AcDbSpline
210
0.0
220
0.0
230
1.0
 70
    11
 71
     3
 72
    62
 73
    58
 74
     0
 42
0.0000000001
 43
0.0000000001
 12
1.0
 22
0.0
 32
0.0
 13
1.0
 23
0.0
 33
0.0
 40
0.0
 40
0.0
 40
0.0
 40
0.0
 40
1.0
 40
1.0
 40
1.0
 40
2.0
 40
2.0
 40
2.0
 40
3.0
 40
3.0
 40
3.0
 40
4.0
 40
4.0
 40
4.0
 40
5.0
 40
5.0
 40
5.0
 40
6.0
 40
6.0
 40
6.0
 40
7.0
 40
7.0
 40
7.0
 40
8.0
 40
8.0
 40
8.0
 40
9.0
 40
9.0
 40
9.0
 40
10.0
 40
10.0
 40
10.0
 40
11.0
 40
11.0
 40
11.0
 40
12.0
 40
12.0
 40
12.0
 40
13.0
 40
13.0
 40
13.0
 40
14.0
 40
14.0
 40
14.0
 40
15.0
 40
15.0
 40
15.0
 40
16.0
 40
16.0
 40
16.0
 40
17.0
 40
17.0
 40
17.0
 40
18.0
 40
18.0
 40
18.0
 40
19.0
 40
19.0
 40
19.0
 40
19.0
 10
104.9662027732376
 20
-136.6393771359791
 30
0.0
 10
104.9662027732376
 20
-136.7410074527939
 30
0.0
 10
104.9451876907776
 20
-136.9738959075968
 30
0.0
 10
104.7591525345741
 20
-137.107221102876
 30
0.0
 10
104.646842421755
 20
-137.1864582990367
 30
0.0
 10
104.5476236717798
 20
-137.1909369231676
 30
0.0
 10
104.4628743228426
 20
-137.1954155472984
 30
0.0
 10
104.4628743228426
 20
-137.1954155472984
 30
0.0
 10
104.4628743228426
 20
-136.9604600352043
 30
0.0
 10
104.4628743228426
 20
-136.9604600352043
 30
0.0
 10
104.5369438757755
 20
-136.9580484683647
 30
0.0
 10
104.771554878321
 20
-136.9466796532633
 30
0.0
 10
104.771554878321
 20
-136.6438557601099
 30
0.0
 10
104.771554878321
 20
-136.4967501828897
 30
0.0
 10
104.701963949519
 20
-136.3341416759859
 30
0.0
 10
104.4735541188469
 20
-136.3341416759859
 30
0.0
 10
104.3571098914454
 20
-136.3341416759859
 30
0.0
 10
104.3085340451034
 20
-136.3747938027118
 30
0.0
 10
104.2768391666391
 20
-136.4085557384673
 30
0.0
 10
104.2027696137063
 20
-136.4877929346281
 30
0.0
 10
104.1900227604108
 20
-136.6121608816456
 30
0.0
 10
104.1900227604108
 20
-136.6710720144434
 30
0.0
 10
104.1900227604108
 20
-136.6913980778063
 30
0.0
 10
104.192089817702
 20
-136.7296386376926
 30
0.0
 10
104.1962239322843
 20
-136.7592664588657
 30
0.0
 10
104.1962239322843
 20
-136.7592664588657
 30
0.0
 10
104.0015760373677
 20
-136.7592664588657
 30
0.0
 10
104.0015760373677
 20
-136.7592664588657
 30
0.0
 10
104.0081217187896
 20
-136.7186143321398
 30
0.0
 10
104.0101887760808
 20
-136.6731390717345
 30
0.0
 10
104.0101887760808
 20
-136.6665933903125
 30
0.0
 10
104.0101887760808
 20
-136.5963134424134
 30
0.0
 10
103.9888291840722
 20
-136.3837510509735
 30
0.0
 10
103.7521511242356
 20
-136.3837510509735
 30
0.0
 10
103.5743841971967
 20
-136.3837510509735
 30
0.0
 10
103.5192626694327
 20
-136.5239664372232
 30
0.0
 10
103.5192626694327
 20
-136.6414441932702
 30
0.0
 10
103.5192626694327
 20
-136.9242865326092
 30
0.0
 10
103.7521511242356
 20
-136.9332437808709
 30
0.0
 10
103.8238091103288
 20
-136.9377224050017
 30
0.0
 10
103.8238091103288
 20
-136.9377224050017
 30
0.0
 10
103.8238091103288
 20
-137.1547634205724
 30
0.0
 10
103.8238091103288
 20
-137.1547634205724
 30
0.0
 10
103.6990966537627
 20
-137.1458061723108
 30
0.0
 10
103.3225477172249
 20
-137.1165228606862
 30
0.0
 10
103.3225477172249
 20
-136.6280083208777
 30
0.0
 10
103.3225477172249
 20
-136.3882296751043
 30
0.0
 10
103.4496717406306
 20
-136.1305365328076
 30
0.0
 10
103.7456054428136
 20
-136.1305365328076
 30
0.0
 10
103.9319851085656
 20
-136.1305365328076
 30
0.0
 10
104.0143228906631
 20
-136.232511359171
 30
0.0
 10
104.0756455903005
 20
-136.3386203001167
 30
0.0
 10
104.1032063541825
 20
-136.273163485897
 30
0.0
 10
104.1834770789889
 20
-136.0785155909804
 30
0.0
 10
104.4608072655515
 20
-136.0785155909804
 30
0.0
 10
104.799115642203
 20
-136.0785155909804
 30
0.0
 10
104.9662027732376
 20
-136.3430989242476
 30
0.0
 10
104.9662027732376
 20
-136.6393771359791
 30
0.0
  0
HATCH
  5
B1
330
AC
100
AcDbEntity
  8
_U+30EC_U+30A4_U+30E4_U+30FC 1
 62
   179
420
  2234388
100
AcDbHatch
 10
0.0
 20
0.0
 30
0.0
210
0.0
220
0.0
230
1.0
  2
SOLID
 70
     1
 71
     0
 91
        1
 92
        1
 93
        1
 72
     4
 94
        3
 73
     0
 74
     1
 95
       62
 96
       58
 40
0.0
 40
0.0
 40
0.0
 40
0.0
 40
1.0
 40
1.0
 40
1.0
 40
2.0
 40
2.0
 40
2.0
 40
3.0
 40
3.0
 40
3.0
 40
4.0
 40
4.0
 40
4.0
 40
5.0
 40
5.0
 40
5.0
 40
6.0
 40
6.0
 40
6.0
 40
7.0
 40
7.0
 40
7.0
 40
8.0
 40
8.0
 40
8.0
 40
9.0
 40
9.0
 40
9.0
 40
10.0
 40
10.0
 40
10.0
 40
11.0
 40
11.0
 40
11.0
 40
12.0
 40
12.0
 40
12.0
 40
13.0
 40
13.0
 40
13.0
 40
14.0
 40
14.0
 40
14.0
 40
15.0
 40
15.0
 40
15.0
 40
16.0
 40
16.0
 40
16.0
 40
17.0
 40
17.0
 40
17.0
 40
18.0
 40
18.0
 40
18.0
 40
19.0
 40
19.0
 40
19.0
 40
19.0
 10
104.9662027732376
 20
-136.6393771359791
 10
104.9662027732376
 20
-136.7410074527939
 10
104.9451876907776
 20
-136.9738959075968
 10
104.7591525345741
 20
-137.107221102876
 10
104.646842421755
 20
-137.1864582990367
 10
104.5476236717798
 20
-137.1909369231676
 10
104.4628743228426
 20
-137.1954155472984
 10
104.4628743228426
 20
-137.1954155472984
 10
104.4628743228426
 20
-136.9604600352043
 10
104.4628743228426
 20
-136.9604600352043
 10
104.5369438757755
 20
-136.9580484683647
 10
104.771554878321
 20
-136.9466796532633
 10
104.771554878321
 20
-136.6438557601099
 10
104.771554878321
 20
-136.4967501828897
 10
104.701963949519
 20
-136.3341416759859
 10
104.4735541188469
 20
-136.3341416759859
 10
104.3571098914454
 20
-136.3341416759859
 10
104.3085340451034
 20
-136.3747938027118
 10
104.2768391666391
 20
-136.4085557384673
 10
104.2027696137063
 20
-136.4877929346281
 10
104.1900227604108
 20
-136.6121608816456
 10
104.1900227604108
 20
-136.6710720144434
 10
104.1900227604108
 20
-136.6913980778063
 10
104.192089817702
 20
-136.7296386376926
 10
104.1962239322843
 20
-136.7592664588657
 10
104.1962239322843
 20
-136.7592664588657
 10
104.0015760373677
 20
-136.7592664588657
 10
104.0015760373677
 20
-136.7592664588657
 10
104.0081217187896
 20
-136.7186143321398
 10
104.0101887760808
 20
-136.6731390717345
 10
104.0101887760808
 20
-136.6665933903125
 10
104.0101887760808
 20
-136.5963134424134
 10
103.9888291840722
 20
-136.3837510509735
 10
103.7521511242356
 20
-136.3837510509735
 10
103.5743841971967
 20
-136.3837510509735
 10
103.5192626694327
 20
-136.5239664372232
 10
103.5192626694327
 20
-136.6414441932702
 10
103.5192626694327
 20
-136.9242865326092
 10
103.7521511242356
 20
-136.9332437808709
 10
103.8238091103288
 20
-136.9377224050017
 10
103.8238091103288
 20
-136.9377224050017
 10
103.8238091103288
 20
-137.1547634205724
 10
103.8238091103288
 20
-137.1547634205724
 10
103.6990966537627
 20
-137.1458061723108
 10
103.3225477172249
 20
-137.1165228606862
 10
103.3225477172249
 20
-136.6280083208777
 10
103.3225477172249
 20
-136.3882296751043
 10
103.4496717406306
 20
-136.1305365328076
 10
103.7456054428136
 20
-136.1305365328076
 10
103.9319851085656
 20
-136.1305365328076
 10
104.0143228906631
 20
-136.232511359171
 10
104.0756455903005
 20
-136.3386203001167
 10
104.1032063541825
 20
-136.273163485897
 10
104.1834770789889
 20
-136.0785155909804
 10
104.4608072655515
 20
-136.0785155909804
 10
104.799115642203
 20
-136.0785155909804
 10
104.9662027732376
 20
-136.3430989242476
 10
104.9662027732376
 20
-136.6393771359791
 97
        0
 97
        0
 75
     2
 76
     1
 98
        0
  0
ENDBLK
  5
AF
330
AC
100
AcDbEntity
  8
0
100
AcDbBlockEnd
  0
BLOCK
  5
C0
330
BE
100
AcDbEntity
  8
0
100
AcDbBlockBegin
  2
block 4
 70
     0
 10
0.0
 20
0.0
 30
0.0
  3
block 4
  1

  0
SPLINE
  5
C2
330
BE
100
AcDbEntity
  8
_U+30EC_U+30A4_U+30E4_U+30FC 1
370
     0
100
AcDbSpline
210
0.0
220
0.0
230
1.0
 70
    11
 71
     3
 72
    29
 73
    25
 74
     0
 42
0.0000000001
 43
0.0000000001
 12
1.0
 22
0.0
 32
0.0
 13
1.0
 23
0.0
 33
0.0
 40
0.0
 40
0.0
 40
0.0
 40
0.0
 40
1.0
 40
1.0
 40
1.0
 40
2.0
 40
2.0
 40
2.0
 40
3.0
 40
3.0
 40
3.0
 40
4.0
 40
4.0
 40
4.0
 40
5.0
 40
5.0
 40
5.0
 40
6.0
 40
6.0
 40
6.0
 40
7.0
 40
7.0
 40
7.0
 40
8.0
 40
8.0
 40
8.0
 40
8.0
 10
78.63017033624524
 20
-141.5345133109705
 30
0.0
 10
78.34526093961507
 20
-141.5345133109705
 30
0.0
 10
78.07395967015165
 20
-141.3970540011091
 30
0.0
 10
78.07395967015165
 20
-141.0480658284533
 30
0.0
 10
78.07395967015165
 20
-140.7920952338992
 30
0.0
 10
78.22537161672838
 20
-140.6970105985063
 30
0.0
 10
78.33854300341883
 20
-140.6356878988689
 30
0.0
 10
78.20504555336541
 20
-140.5764322565226
 30
0.0
 10
78.12374129991352
 20
-140.4620550864123
 30
0.0
 10
78.12374129991352
 20
-140.3011691272511
 30
0.0
 10
78.12374129991352
 20
-140.0262505075282
 30
0.0
 10
78.33630369135342
 20
-139.8908582549578
 30
0.0
 10
78.63017033624524
 20
-139.8908582549578
 30
0.0
 10
78.9329942293987
 20
-139.8908582549578
 30
0.0
 10
79.13659937257697
 20
-140.0348632462413
 30
0.0
 10
79.13659937257697
 20
-140.3011691272511
 30
0.0
 10
79.13659937257697
 20
-140.4620550864123
 30
0.0
 10
79.0528835522854
 20
-140.5764322565226
 30
0.0
 10
78.91955835700622
 20
-140.6356878988689
 30
0.0
 10
79.01447073762486
 20
-140.686330802502
 30
0.0
 10
79.18396943549915
 20
-140.7814154378949
 30
0.0
 10
79.18396943549915
 20
-141.043931713871
 30
0.0
 10
79.18396943549915
 20
-141.4184135931176
 30
0.0
 10
78.88562416647652
 20
-141.5345133109705
 30
0.0
 10
78.63017033624524
 20
-141.5345133109705
 30
0.0
  0
SPLINE
  5
C3
330
BE
100
AcDbEntity
  8
_U+30EC_U+30A4_U+30E4_U+30FC 1
370
     0
100
AcDbSpline
210
0.0
220
0.0
230
1.0
 70
    11
 71
     3
 72
    17
 73
    13
 74
     0
 42
0.0000000001
 43
0.0000000001
 12
1.0
 22
0.0
 32
0.0
 13
1.0
 23
0.0
 33
0.0
 40
0.0
 40
0.0
 40
0.0
 40
0.0
 40
1.0
 40
1.0
 40
1.0
 40
2.0
 40
2.0
 40
2.0
 40
3.0
 40
3.0
 40
3.0
 40
4.0
 40
4.0
 40
4.0
 40
4.0
 10
78.63017033624524
 20
-140.7435193875572
 30
0.0
 10
78.47634682282883
 20
-140.7435193875572
 30
0.0
 10
78.31356606115078
 20
-140.8303357937855
 30
0.0
 10
78.31356606115078
 20
-141.0332519178667
 30
0.0
 10
78.31356606115078
 20
-141.2385796087876
 30
0.0
 10
78.44930282326962
 20
-141.3398654160539
 30
0.0
 10
78.63017033624524
 20
-141.3398654160539
 30
0.0
 10
78.82912460051841
 20
-141.3398654160539
 30
0.0
 10
78.94660235656544
 20
-141.217220016779
 30
0.0
 10
78.94660235656544
 20
-141.0394530897401
 30
0.0
 10
78.94660235656544
 20
-140.8175889404901
 30
0.0
 10
78.77262503456032
 20
-140.7435193875572
 30
0.0
 10
78.63017033624524
 20
-140.7435193875572
 30
0.0
  0
SPLINE
  5
C4
330
BE
100
AcDbEntity
  8
_U+30EC_U+30A4_U+30E4_U+30FC 1
370
     0
100
AcDbSpline
210
0.0
220
0.0
230
1.0
 70
    11
 71
     3
 72
    17
 73
    13
 74
     0
 42
0.0000000001
 43
0.0000000001
 12
1.0
 22
0.0
 32
0.0
 13
1.0
 23
0.0
 33
0.0
 40
0.0
 40
0.0
 40
0.0
 40
0.0
 40
1.0
 40
1.0
 40
1.0
 40
2.0
 40
2.0
 40
2.0
 40
3.0
 40
3.0
 40
3.0
 40
4.0
 40
4.0
 40
4.0
 40
4.0
 10
78.63017033624524
 20
-140.0834390925833
 30
0.0
 10
78.45378144740044
 20
-140.0834390925833
 30
0.0
 10
78.36334769091263
 20
-140.1785237279762
 30
0.0
 10
78.36334769091263
 20
-140.3139159805465
 30
0.0
 10
78.36334769091263
 20
-140.4365613798214
 30
0.0
 10
78.44017332023371
 20
-140.555072664514
 30
0.0
 10
78.63017033624524
 20
-140.555072664514
 30
0.0
 10
78.8199950974825
 20
-140.555072664514
 30
0.0
 10
78.89682072680358
 20
-140.4365613798214
 30
0.0
 10
78.89682072680358
 20
-140.3139159805465
 30
0.0
 10
78.89682072680358
 20
-140.1785237279762
 30
0.0
 10
78.80414765825036
 20
-140.0834390925833
 30
0.0
 10
78.63017033624524
 20
-140.0834390925833
 30
0.0
  0
HATCH
  5
C5
330
BE
100
AcDbEntity
  8
_U+30EC_U+30A4_U+30E4_U+30FC 1
 62
   179
420
  2234388
100
AcDbHatch
 10
0.0
 20
0.0
 30
0.0
210
0.0
220
0.0
230
1.0
  2
SOLID
 70
     1
 71
     0
 91
        3
 92
        1
 93
        1
 72
     4
 94
        3
 73
     0
 74
     1
 95
       29
 96
       25
 40
0.0
 40
0.0
 40
0.0
 40
0.0
 40
1.0
 40
1.0
 40
1.0
 40
2.0
 40
2.0
 40
2.0
 40
3.0
 40
3.0
 40
3.0
 40
4.0
 40
4.0
 40
4.0
 40
5.0
 40
5.0
 40
5.0
 40
6.0
 40
6.0
 40
6.0
 40
7.0
 40
7.0
 40
7.0
 40
8.0
 40
8.0
 40
8.0
 40
8.0
 10
78.63017033624524
 20
-141.5345133109705
 10
78.34526093961507
 20
-141.5345133109705
 10
78.07395967015165
 20
-141.3970540011091
 10
78.07395967015165
 20
-141.0480658284533
 10
78.07395967015165
 20
-140.7920952338992
 10
78.22537161672838
 20
-140.6970105985063
 10
78.33854300341883
 20
-140.6356878988689
 10
78.20504555336541
 20
-140.5764322565226
 10
78.12374129991352
 20
-140.4620550864123
 10
78.12374129991352
 20
-140.3011691272511
 10
78.12374129991352
 20
-140.0262505075282
 10
78.33630369135342
 20
-139.8908582549578
 10
78.63017033624524
 20
-139.8908582549578
 10
78.9329942293987
 20
-139.8908582549578
 10
79.13659937257697
 20
-140.0348632462413
 10
79.13659937257697
 20
-140.3011691272511
 10
79.13659937257697
 20
-140.4620550864123
 10
79.0528835522854
 20
-140.5764322565226
 10
78.91955835700622
 20
-140.6356878988689
 10
79.01447073762486
 20
-140.686330802502
 10
79.18396943549915
 20
-140.7814154378949
 10
79.18396943549915
 20
-141.043931713871
 10
79.18396943549915
 20
-141.4184135931176
 10
78.88562416647652
 20
-141.5345133109705
 10
78.63017033624524
 20
-141.5345133109705
 97
        0
 97
        0
 92
        1
 93
        1
 72
     4
 94
        3
 73
     0
 74
     1
 95
       17
 96
       13
 40
0.0
 40
0.0
 40
0.0
 40
0.0
 40
1.0
 40
1.0
 40
1.0
 40
2.0
 40
2.0
 40
2.0
 40
3.0
 40
3.0
 40
3.0
 40
4.0
 40
4.0
 40
4.0
 40
4.0
 10
78.63017033624524
 20
-140.7435193875572
 10
78.47634682282883
 20
-140.7435193875572
 10
78.31356606115078
 20
-140.8303357937855
 10
78.31356606115078
 20
-141.0332519178667
 10
78.31356606115078
 20
-141.2385796087876
 10
78.44930282326962
 20
-141.3398654160539
 10
78.63017033624524
 20
-141.3398654160539
 10
78.82912460051841
 20
-141.3398654160539
 10
78.94660235656544
 20
-141.217220016779
 10
78.94660235656544
 20
-141.0394530897401
 10
78.94660235656544
 20
-140.8175889404901
 10
78.77262503456032
 20
-140.7435193875572
 10
78.63017033624524
 20
-140.7435193875572
 97
        0
 97
        0
 92
        1
 93
        1
 72
     4
 94
        3
 73
     0
 74
     1
 95
       17
 96
       13
 40
0.0
 40
0.0
 40
0.0
 40
0.0
 40
1.0
 40
1.0
 40
1.0
 40
2.0
 40
2.0
 40
2.0
 40
3.0
 40
3.0
 40
3.0
 40
4.0
 40
4.0
 40
4.0
 40
4.0
 10
78.63017033624524
 20
-140.0834390925833
 10
78.45378144740044
 20
-140.0834390925833
 10
78.36334769091263
 20
-140.1785237279762
 10
78.36334769091263
 20
-140.3139159805465
 10
78.36334769091263
 20
-140.4365613798214
 10
78.44017332023371
 20
-140.555072664514
 10
78.63017033624524
 20
-140.555072664514
 10
78.8199950974825
 20
-140.555072664514
 10
78.89682072680358
 20
-140.4365613798214
 10
78.89682072680358
 20
-140.3139159805465
 10
78.89682072680358
 20
-140.1785237279762
 10
78.80414765825036
 20
-140.0834390925833
 10
78.63017033624524
 20
-140.0834390925833
 97
        0
 97
        0
 75
     2
 76
     1
 98
        0
  0
ENDBLK
  5
C1
330
BE
100
AcDbEntity
  8
0
100
AcDbBlockEnd
  0
BLOCK
  5
D0
330
CE
100
AcDbEntity
  8
0
100
AcDbBlockBegin
  2
block 5
 70
     0
 10
0.0
 20
0.0
 30
0.0
  3
block 5
  1

  0
SPLINE
  5
D2
330
CE
100
AcDbEntity
  8
_U+30EC_U+30A4_U+30E4_U+30FC 1
370
     0
100
AcDbSpline
210
0.0
220
0.0
230
1.0
 70
    11
 71
     3
 72
    53
 73
    49
 74
     0
 42
0.0000000001
 43
0.0000000001
 12
1.0
 22
0.0
 32
0.0
 13
1.0
 23
0.0
 33
0.0
 40
0.0
 40
0.0
 40
0.0
 40
0.0
 40
1.0
 40
1.0
 40
1.0
 40
2.0
 40
2.0
 40
2.0
 40
3.0
 40
3.0
 40
3.0
 40
4.0
 40
4.0
 40
4.0
 40
5.0
 40
5.0
 40
5.0
 40
6.0
 40
6.0
 40
6.0
 40
7.0
 40
7.0
 40
7.0
 40
8.0
 40
8.0
 40
8.0
 40
9.0
 40
9.0
 40
9.0
 40
10.0
 40
10.0
 40
10.0
 40
11.0
 40
11.0
 40
11.0
 40
12.0
 40
12.0
 40
12.0
 40
13.0
 40
13.0
 40
13.0
 40
14.0
 40
14.0
 40
14.0
 40
15.0
 40
15.0
 40
15.0
 40
16.0
 40
16.0
 40
16.0
 40
16.0
 10
85.10953367012887
 20
-141.5345133109705
 30
0.0
 10
85.0258178498373
 20
-141.5345133109705
 30
0.0
 10
84.91729734205192
 20
-141.5176323430928
 30
0.0
 10
84.80877683426655
 20
-141.4542425861642
 30
0.0
 10
84.62343069716012
 20
-141.3443440401848
 30
0.0
 10
84.60086532173173
 20
-141.2130859021967
 30
0.0
 10
84.58036700359449
 20
-141.1052544135084
 30
0.0
 10
84.58036700359449
 20
-141.1052544135084
 30
0.0
 10
84.81790633730247
 20
-141.1052544135084
 30
0.0
 10
84.81790633730247
 20
-141.1052544135084
 30
0.0
 10
84.87664521532598
 20
-141.3040364230073
 30
0.0
 10
85.01220972267056
 20
-141.3336642441805
 30
0.0
 10
85.11177298219428
 20
-141.3336642441805
 30
0.0
 10
85.2609456167056
 20
-141.3336642441805
 30
0.0
 10
85.42372637838366
 20
-141.2341009846567
 30
0.0
 10
85.42372637838366
 20
-141.0015570394024
 30
0.0
 10
85.42372637838366
 20
-140.7455864448483
 30
0.0
 10
85.23149005030672
 20
-140.6756510064978
 30
0.0
 10
85.10264347915837
 20
-140.6756510064978
 30
0.0
 10
85.06870928862865
 20
-140.6756510064978
 30
0.0
 10
84.91729734205192
 20
-140.6756510064978
 30
0.0
 10
84.8223849614333
 20
-140.8048420871946
 30
0.0
 10
84.8223849614333
 20
-140.8048420871946
 30
0.0
 10
84.63462725748718
 20
-140.7858940620258
 30
0.0
 10
84.63462725748718
 20
-140.7858940620258
 30
0.0
 10
84.63462725748718
 20
-140.7858940620258
 30
0.0
 10
84.76347382863553
 20
-139.9394341012999
 30
0.0
 10
84.76347382863553
 20
-139.9394341012999
 30
0.0
 10
84.76347382863553
 20
-139.9394341012999
 30
0.0
 10
85.59546438832336
 20
-139.9394341012999
 30
0.0
 10
85.59546438832336
 20
-139.9394341012999
 30
0.0
 10
85.59546438832336
 20
-139.9394341012999
 30
0.0
 10
85.59546438832336
 20
-140.1340819962165
 30
0.0
 10
85.59546438832336
 20
-140.1340819962165
 30
0.0
 10
85.59546438832336
 20
-140.1340819962165
 30
0.0
 10
84.9376234054149
 20
-140.1340819962165
 30
0.0
 10
84.9376234054149
 20
-140.1340819962165
 30
0.0
 10
84.9376234054149
 20
-140.1340819962165
 30
0.0
 10
84.86751571229007
 20
-140.5571397218052
 30
0.0
 10
84.86751571229007
 20
-140.5571397218052
 30
0.0
 10
84.93314478128408
 20
-140.5233777860497
 30
0.0
 10
85.02133922570647
 20
-140.4830701688723
 30
0.0
 10
85.1479464847894
 20
-140.4830701688723
 30
0.0
 10
85.41924775425284
 20
-140.4830701688723
 30
0.0
 10
85.6724622724187
 20
-140.6694498346243
 30
0.0
 10
85.6724622724187
 20
-140.9826090142335
 30
0.0
 10
85.6724622724187
 20
-141.299902308425
 30
0.0
 10
85.43285588141957
 20
-141.5345133109705
 30
0.0
 10
85.10953367012887
 20
-141.5345133109705
 30
0.0
  0
HATCH
  5
D3
330
CE
100
AcDbEntity
  8
_U+30EC_U+30A4_U+30E4_U+30FC 1
 62
   179
420
  2234388
100
AcDbHatch
 10
0.0
 20
0.0
 30
0.0
210
0.0
220
0.0
230
1.0
  2
SOLID
 70
     1
 71
     0
 91
        1
 92
        1
 93
        1
 72
     4
 94
        3
 73
     0
 74
     1
 95
       53
 96
       49
 40
0.0
 40
0.0
 40
0.0
 40
0.0
 40
1.0
 40
1.0
 40
1.0
 40
2.0
 40
2.0
 40
2.0
 40
3.0
 40
3.0
 40
3.0
 40
4.0
 40
4.0
 40
4.0
 40
5.0
 40
5.0
 40
5.0
 40
6.0
 40
6.0
 40
6.0
 40
7.0
 40
7.0
 40
7.0
 40
8.0
 40
8.0
 40
8.0
 40
9.0
 40
9.0
 40
9.0
 40
10.0
 40
10.0
 40
10.0
 40
11.0
 40
11.0
 40
11.0
 40
12.0
 40
12.0
 40
12.0
 40
13.0
 40
13.0
 40
13.0
 40
14.0
 40
14.0
 40
14.0
 40
15.0
 40
15.0
 40
15.0
 40
16.0
 40
16.0
 40
16.0
 40
16.0
 10
85.10953367012887
 20
-141.5345133109705
 10
85.0258178498373
 20
-141.5345133109705
 10
84.91729734205192
 20
-141.5176323430928
 10
84.80877683426655
 20
-141.4542425861642
 10
84.62343069716012
 20
-141.3443440401848
 10
84.60086532173173
 20
-141.2130859021967
 10
84.58036700359449
 20
-141.1052544135084
 10
84.58036700359449
 20
-141.1052544135084
 10
84.81790633730247
 20
-141.1052544135084
 10
84.81790633730247
 20
-141.1052544135084
 10
84.87664521532598
 20
-141.3040364230073
 10
85.01220972267056
 20
-141.3336642441805
 10
85.11177298219428
 20
-141.3336642441805
 10
85.2609456167056
 20
-141.3336642441805
 10
85.42372637838366
 20
-141.2341009846567
 10
85.42372637838366
 20
-141.0015570394024
 10
85.42372637838366
 20
-140.7455864448483
 10
85.23149005030672
 20
-140.6756510064978
 10
85.10264347915837
 20
-140.6756510064978
 10
85.06870928862865
 20
-140.6756510064978
 10
84.91729734205192
 20
-140.6756510064978
 10
84.8223849614333
 20
-140.8048420871946
 10
84.8223849614333
 20
-140.8048420871946
 10
84.63462725748718
 20
-140.7858940620258
 10
84.63462725748718
 20
-140.7858940620258
 10
84.63462725748718
 20
-140.7858940620258
 10
84.76347382863553
 20
-139.9394341012999
 10
84.76347382863553
 20
-139.9394341012999
 10
84.76347382863553
 20
-139.9394341012999
 10
85.59546438832336
 20
-139.9394341012999
 10
85.59546438832336
 20
-139.9394341012999
 10
85.59546438832336
 20
-139.9394341012999
 10
85.59546438832336
 20
-140.1340819962165
 10
85.59546438832336
 20
-140.1340819962165
 10
85.59546438832336
 20
-140.1340819962165
 10
84.9376234054149
 20
-140.1340819962165
 10
84.9376234054149
 20
-140.1340819962165
 10
84.9376234054149
 20
-140.1340819962165
 10
84.86751571229007
 20
-140.5571397218052
 10
84.86751571229007
 20
-140.5571397218052
 10
84.93314478128408
 20
-140.5233777860497
 10
85.02133922570647
 20
-140.4830701688723
 10
85.1479464847894
 20
-140.4830701688723
 10
85.41924775425284
 20
-140.4830701688723
 10
85.6724622724187
 20
-140.6694498346243
 10
85.6724622724187
 20
-140.9826090142335
 10
85.6724622724187
 20
-141.299902308425
 10
85.43285588141957
 20
-141.5345133109705
 10
85.10953367012887
 20
-141.5345133109705
 97
        0
 97
        0
 75
     2
 76
     1
 98
        0
  0
ENDBLK
  5
D1
330
CE
100
AcDbEntity
  8
0
100
AcDbBlockEnd
  0
BLOCK
  5
E2
330
E0
100
AcDbEntity
  8
0
100
AcDbBlockBegin
  2
block 6
 70
     0
 10
0.0
 20
0.0
 30
0.0
  3
block 6
  1

  0
SPLINE
  5
E4
330
E0
100
AcDbEntity
  8
_U+30EC_U+30A4_U+30E4_U+30FC 1
370
     0
100
AcDbSpline
210
0.0
220
0.0
230
1.0
 70
    11
 71
     3
 72
    44
 73
    40
 74
     0
 42
0.0000000001
 43
0.0000000001
 12
1.0
 22
0.0
 32
0.0
 13
1.0
 23
0.0
 33
0.0
 40
0.0
 40
0.0
 40
0.0
 40
0.0
 40
1.0
 40
1.0
 40
1.0
 40
2.0
 40
2.0
 40
2.0
 40
3.0
 40
3.0
 40
3.0
 40
4.0
 40
4.0
 40
4.0
 40
5.0
 40
5.0
 40
5.0
 40
6.0
 40
6.0
 40
6.0
 40
7.0
 40
7.0
 40
7.0
 40
8.0
 40
8.0
 40
8.0
 40
9.0
 40
9.0
 40
9.0
 40
10.0
 40
10.0
 40
10.0
 40
11.0
 40
11.0
 40
11.0
 40
12.0
 40
12.0
 40
12.0
 40
13.0
 40
13.0
 40
13.0
 40
13.0
 10
88.10022106087425
 20
-116.4023694912987
 30
0.0
 10
87.86733260607137
 20
-116.5610161383945
 30
0.0
 10
87.76776934654764
 20
-116.6350856913273
 30
0.0
 10
87.7160929142689
 20
-116.7789184278365
 30
0.0
 10
87.7160929142689
 20
-116.7789184278365
 30
0.0
 10
88.54773896440821
 20
-116.7789184278365
 30
0.0
 10
88.54773896440821
 20
-116.7789184278365
 30
0.0
 10
88.54773896440821
 20
-116.7789184278365
 30
0.0
 10
88.54773896440821
 20
-116.9840738639832
 30
0.0
 10
88.54773896440821
 20
-116.9840738639832
 30
0.0
 10
88.54773896440821
 20
-116.9840738639832
 30
0.0
 10
87.44909801416203
 20
-116.9840738639832
 30
0.0
 10
87.44909801416203
 20
-116.9840738639832
 30
0.0
 10
87.48320445946601
 20
-116.6264729526142
 30
0.0
 10
87.55313989781658
 20
-116.5482692850991
 30
0.0
 10
87.96448429875541
 20
-116.2499240160764
 30
0.0
 10
88.23802488028424
 20
-116.0511420065775
 30
0.0
 10
88.30830482818334
 20
-115.9834458802923
 30
0.0
 10
88.30830482818334
 20
-115.8459865704309
 30
0.0
 10
88.30830482818334
 20
-115.7274752857383
 30
0.0
 10
88.23147919886227
 20
-115.5963894025245
 30
0.0
 10
88.02098386471351
 20
-115.5963894025245
 30
0.0
 10
87.74296465905384
 20
-115.5963894025245
 30
0.0
 10
87.7340074107922
 20
-115.8268662904877
 30
0.0
 10
87.72952878666138
 20
-115.9433105178892
 30
0.0
 10
87.72952878666138
 20
-115.9433105178892
 30
0.0
 10
87.48975014088798
 20
-115.9433105178892
 30
0.0
 10
87.48975014088798
 20
-115.9433105178892
 30
0.0
 10
87.49905189869816
 20
-115.8163587492577
 30
0.0
 10
87.51007620425095
 20
-115.7042208912128
 30
0.0
 10
87.5962035913822
 20
-115.5857096065202
 30
0.0
 10
87.71368134742923
 20
-115.4249959021333
 30
0.0
 10
87.91246335692814
 20
-115.3910617116036
 30
0.0
 10
88.03683130394566
 20
-115.3910617116036
 30
0.0
 10
88.33310951567714
 20
-115.3910617116036
 30
0.0
 10
88.5546291553787
 20
-115.5752020652902
 30
0.0
 10
88.5546291553787
 20
-115.848053627722
 30
0.0
 10
88.5546291553787
 20
-116.0764634583941
 30
0.0
 10
88.43026120836119
 20
-116.1760267179178
 30
0.0
 10
88.10022106087425
 20
-116.4023694912987
 30
0.0
  0
HATCH
  5
E5
330
E0
100
AcDbEntity
  8
_U+30EC_U+30A4_U+30E4_U+30FC 1
 62
   179
420
  2234388
100
AcDbHatch
 10
0.0
 20
0.0
 30
0.0
210
0.0
220
0.0
230
1.0
  2
SOLID
 70
     1
 71
     0
 91
        1
 92
        1
 93
        1
 72
     4
 94
        3
 73
     0
 74
     1
 95
       44
 96
       40
 40
0.0
 40
0.0
 40
0.0
 40
0.0
 40
1.0
 40
1.0
 40
1.0
 40
2.0
 40
2.0
 40
2.0
 40
3.0
 40
3.0
 40
3.0
 40
4.0
 40
4.0
 40
4.0
 40
5.0
 40
5.0
 40
5.0
 40
6.0
 40
6.0
 40
6.0
 40
7.0
 40
7.0
 40
7.0
 40
8.0
 40
8.0
 40
8.0
 40
9.0
 40
9.0
 40
9.0
 40
10.0
 40
10.0
 40
10.0
 40
11.0
 40
11.0
 40
11.0
 40
12.0
 40
12.0
 40
12.0
 40
13.0
 40
13.0
 40
13.0
 40
13.0
 10
88.10022106087425
 20
-116.4023694912987
 10
87.86733260607137
 20
-116.5610161383945
 10
87.76776934654764
 20
-116.6350856913273
 10
87.7160929142689
 20
-116.7789184278365
 10
87.7160929142689
 20
-116.7789184278365
 10
88.54773896440821
 20
-116.7789184278365
 10
88.54773896440821
 20
-116.7789184278365
 10
88.54773896440821
 20
-116.7789184278365
 10
88.54773896440821
 20
-116.9840738639832
 10
88.54773896440821
 20
-116.9840738639832
 10
88.54773896440821
 20
-116.9840738639832
 10
87.44909801416203
 20
-116.9840738639832
 10
87.44909801416203
 20
-116.9840738639832
 10
87.48320445946601
 20
-116.6264729526142
 10
87.55313989781658
 20
-116.5482692850991
 10
87.96448429875541
 20
-116.2499240160764
 10
88.23802488028424
 20
-116.0511420065775
 10
88.30830482818334
 20
-115.9834458802923
 10
88.30830482818334
 20
-115.8459865704309
 10
88.30830482818334
 20
-115.7274752857383
 10
88.23147919886227
 20
-115.5963894025245
 10
88.02098386471351
 20
-115.5963894025245
 10
87.74296465905384
 20
-115.5963894025245
 10
87.7340074107922
 20
-115.8268662904877
 10
87.72952878666138
 20
-115.9433105178892
 10
87.72952878666138
 20
-115.9433105178892
 10
87.48975014088798
 20
-115.9433105178892
 10
87.48975014088798
 20
-115.9433105178892
 10
87.49905189869816
 20
-115.8163587492577
 10
87.51007620425095
 20
-115.7042208912128
 10
87.5962035913822
 20
-115.5857096065202
 10
87.71368134742923
 20
-115.4249959021333
 10
87.91246335692814
 20
-115.3910617116036
 10
88.03683130394566
 20
-115.3910617116036
 10
88.33310951567714
 20
-115.3910617116036
 10
88.5546291553787
 20
-115.5752020652902
 10
88.5546291553787
 20
-115.848053627722
 10
88.5546291553787
 20
-116.0764634583941
 10
88.43026120836119
 20
-116.1760267179178
 10
88.10022106087425
 20
-116.4023694912987
 97
        0
 97
        0
 75
     2
 76
     1
 98
        0
  0
SPLINE
  5
E6
330
E0
100
AcDbEntity
  8
_U+30EC_U+30A4_U+30E4_U+30FC 1
370
     0
100
AcDbSpline
210
0.0
220
0.0
230
1.0
 70
    11
 71
     3
 72
    29
 73
    25
 74
     0
 42
0.0000000001
 43
0.0000000001
 12
1.0
 22
0.0
 32
0.0
 13
1.0
 23
0.0
 33
0.0
 40
0.0
 40
0.0
 40
0.0
 40
0.0
 40
1.0
 40
1.0
 40
1.0
 40
2.0
 40
2.0
 40
2.0
 40
3.0
 40
3.0
 40
3.0
 40
4.0
 40
4.0
 40
4.0
 40
5.0
 40
5.0
 40
5.0
 40
6.0
 40
6.0
 40
6.0
 40
7.0
 40
7.0
 40
7.0
 40
8.0
 40
8.0
 40
8.0
 40
8.0
 10
89.25846216301525
 20
-117.0348890223906
 30
0.0
 10
88.97355276638508
 20
-117.0348890223906
 30
0.0
 10
88.70242375169593
 20
-116.8972574577549
 30
0.0
 10
88.70242375169593
 20
-116.5482692850991
 30
0.0
 10
88.70242375169593
 20
-116.292298690545
 30
0.0
 10
88.85400795304692
 20
-116.1970418003778
 30
0.0
 10
88.96700708496311
 20
-116.1357191007404
 30
0.0
 10
88.83368188968394
 20
-116.0764634583941
 30
0.0
 10
88.75203312668353
 20
-115.9622585430581
 30
0.0
 10
88.75203312668353
 20
-115.8015448386711
 30
0.0
 10
88.75203312668353
 20
-115.526453964174
 30
0.0
 10
88.96459551812345
 20
-115.3910617116036
 30
0.0
 10
89.25846216301525
 20
-115.3910617116036
 30
0.0
 10
89.56163056571724
 20
-115.3910617116036
 30
0.0
 10
89.76489119934698
 20
-115.5348944481128
 30
0.0
 10
89.76489119934698
 20
-115.8015448386711
 30
0.0
 10
89.76489119934698
 20
-115.9622585430581
 30
0.0
 10
89.68151988860393
 20
-116.0764634583941
 30
0.0
 10
89.54785018377623
 20
-116.1357191007404
 30
0.0
 10
89.64293481916913
 20
-116.1865342591478
 30
0.0
 10
89.81243351704342
 20
-116.281791149315
 30
0.0
 10
89.81243351704342
 20
-116.5441351705168
 30
0.0
 10
89.81243351704342
 20
-116.9184447949891
 30
0.0
 10
89.51408824802078
 20
-117.0348890223906
 30
0.0
 10
89.25846216301525
 20
-117.0348890223906
 30
0.0
  0
SPLINE
  5
E7
330
E0
100
AcDbEntity
  8
_U+30EC_U+30A4_U+30E4_U+30FC 1
370
     0
100
AcDbSpline
210
0.0
220
0.0
230
1.0
 70
    11
 71
     3
 72
    17
 73
    13
 74
     0
 42
0.0000000001
 43
0.0000000001
 12
1.0
 22
0.0
 32
0.0
 13
1.0
 23
0.0
 33
0.0
 40
0.0
 40
0.0
 40
0.0
 40
0.0
 40
1.0
 40
1.0
 40
1.0
 40
2.0
 40
2.0
 40
2.0
 40
3.0
 40
3.0
 40
3.0
 40
4.0
 40
4.0
 40
4.0
 40
4.0
 10
89.25846216301525
 20
-116.243722844203
 30
0.0
 10
89.10481090437311
 20
-116.243722844203
 30
0.0
 10
88.94220239746932
 20
-116.330366995657
 30
0.0
 10
88.94220239746932
 20
-116.5334553745125
 30
0.0
 10
88.94220239746932
 20
-116.7386108106591
 30
0.0
 10
89.07759465003963
 20
-116.840241127474
 30
0.0
 10
89.25846216301525
 20
-116.840241127474
 30
0.0
 10
89.45758868206269
 20
-116.840241127474
 30
0.0
 10
89.57506643810972
 20
-116.7175957281991
 30
0.0
 10
89.57506643810972
 20
-116.5398288011602
 30
0.0
 10
89.57506643810972
 20
-116.3176201423616
 30
0.0
 10
89.40108911610459
 20
-116.243722844203
 30
0.0
 10
89.25846216301525
 20
-116.243722844203
 30
0.0
  0
SPLINE
  5
E8
330
E0
100
AcDbEntity
  8
_U+30EC_U+30A4_U+30E4_U+30FC 1
370
     0
100
AcDbSpline
210
0.0
220
0.0
230
1.0
 70
    11
 71
     3
 72
    17
 73
    13
 74
     0
 42
0.0000000001
 43
0.0000000001
 12
1.0
 22
0.0
 32
0.0
 13
1.0
 23
0.0
 33
0.0
 40
0.0
 40
0.0
 40
0.0
 40
0.0
 40
1.0
 40
1.0
 40
1.0
 40
2.0
 40
2.0
 40
2.0
 40
3.0
 40
3.0
 40
3.0
 40
4.0
 40
4.0
 40
4.0
 40
4.0
 10
89.25846216301525
 20
-115.5836425492291
 30
0.0
 10
89.08241778371898
 20
-115.5836425492291
 30
0.0
 10
88.99181177245691
 20
-115.678727184622
 30
0.0
 10
88.99181177245691
 20
-115.8141194371923
 30
0.0
 10
88.99181177245691
 20
-115.9369370912415
 30
0.0
 10
89.06863740177798
 20
-116.0554483759341
 30
0.0
 10
89.25846216301525
 20
-116.0554483759341
 30
0.0
 10
89.44863143380104
 20
-116.0554483759341
 30
0.0
 10
89.52545706312212
 20
-115.9369370912415
 30
0.0
 10
89.52545706312212
 20
-115.8141194371923
 30
0.0
 10
89.52545706312212
 20
-115.678727184622
 30
0.0
 10
89.4327839945689
 20
-115.5836425492291
 30
0.0
 10
89.25846216301525
 20
-115.5836425492291
 30
0.0
  0
HATCH
  5
E9
330
E0
100
AcDbEntity
  8
_U+30EC_U+30A4_U+30E4_U+30FC 1
 62
   179
420
  2234388
100
AcDbHatch
 10
0.0
 20
0.0
 30
0.0
210
0.0
220
0.0
230
1.0
  2
SOLID
 70
     1
 71
     0
 91
        3
 92
        1
 93
        1
 72
     4
 94
        3
 73
     0
 74
     1
 95
       29
 96
       25
 40
0.0
 40
0.0
 40
0.0
 40
0.0
 40
1.0
 40
1.0
 40
1.0
 40
2.0
 40
2.0
 40
2.0
 40
3.0
 40
3.0
 40
3.0
 40
4.0
 40
4.0
 40
4.0
 40
5.0
 40
5.0
 40
5.0
 40
6.0
 40
6.0
 40
6.0
 40
7.0
 40
7.0
 40
7.0
 40
8.0
 40
8.0
 40
8.0
 40
8.0
 10
89.25846216301525
 20
-117.0348890223906
 10
88.97355276638508
 20
-117.0348890223906
 10
88.70242375169593
 20
-116.8972574577549
 10
88.70242375169593
 20
-116.5482692850991
 10
88.70242375169593
 20
-116.292298690545
 10
88.85400795304692
 20
-116.1970418003778
 10
88.96700708496311
 20
-116.1357191007404
 10
88.83368188968394
 20
-116.0764634583941
 10
88.75203312668353
 20
-115.9622585430581
 10
88.75203312668353
 20
-115.8015448386711
 10
88.75203312668353
 20
-115.526453964174
 10
88.96459551812345
 20
-115.3910617116036
 10
89.25846216301525
 20
-115.3910617116036
 10
89.56163056571724
 20
-115.3910617116036
 10
89.76489119934698
 20
-115.5348944481128
 10
89.76489119934698
 20
-115.8015448386711
 10
89.76489119934698
 20
-115.9622585430581
 10
89.68151988860393
 20
-116.0764634583941
 10
89.54785018377623
 20
-116.1357191007404
 10
89.64293481916913
 20
-116.1865342591478
 10
89.81243351704342
 20
-116.281791149315
 10
89.81243351704342
 20
-116.5441351705168
 10
89.81243351704342
 20
-116.9184447949891
 10
89.51408824802078
 20
-117.0348890223906
 10
89.25846216301525
 20
-117.0348890223906
 97
        0
 97
        0
 92
        1
 93
        1
 72
     4
 94
        3
 73
     0
 74
     1
 95
       17
 96
       13
 40
0.0
 40
0.0
 40
0.0
 40
0.0
 40
1.0
 40
1.0
 40
1.0
 40
2.0
 40
2.0
 40
2.0
 40
3.0
 40
3.0
 40
3.0
 40
4.0
 40
4.0
 40
4.0
 40
4.0
 10
89.25846216301525
 20
-116.243722844203
 10
89.10481090437311
 20
-116.243722844203
 10
88.94220239746932
 20
-116.330366995657
 10
88.94220239746932
 20
-116.5334553745125
 10
88.94220239746932
 20
-116.7386108106591
 10
89.07759465003963
 20
-116.840241127474
 10
89.25846216301525
 20
-116.840241127474
 10
89.45758868206269
 20
-116.840241127474
 10
89.57506643810972
 20
-116.7175957281991
 10
89.57506643810972
 20
-116.5398288011602
 10
89.57506643810972
 20
-116.3176201423616
 10
89.40108911610459
 20
-116.243722844203
 10
89.25846216301525
 20
-116.243722844203
 97
        0
 97
        0
 92
        1
 93
        1
 72
     4
 94
        3
 73
     0
 74
     1
 95
       17
 96
       13
 40
0.0
 40
0.0
 40
0.0
 40
0.0
 40
1.0
 40
1.0
 40
1.0
 40
2.0
 40
2.0
 40
2.0
 40
3.0
 40
3.0
 40
3.0
 40
4.0
 40
4.0
 40
4.0
 40
4.0
 10
89.25846216301525
 20
-115.5836425492291
 10
89.08241778371898
 20
-115.5836425492291
 10
88.99181177245691
 20
-115.678727184622
 10
88.99181177245691
 20
-115.8141194371923
 10
88.99181177245691
 20
-115.9369370912415
 10
89.06863740177798
 20
-116.0554483759341
 10
89.25846216301525
 20
-116.0554483759341
 10
89.44863143380104
 20
-116.0554483759341
 10
89.52545706312212
 20
-115.9369370912415
 10
89.52545706312212
 20
-115.8141194371923
 10
89.52545706312212
 20
-115.678727184622
 10
89.4327839945689
 20
-115.5836425492291
 10
89.25846216301525
 20
-115.5836425492291
 97
        0
 97
        0
 75
     2
 76
     1
 98
        0
  0
ENDBLK
  5
E3
330
E0
100
AcDbEntity
  8
0
100
AcDbBlockEnd
  0
BLOCK
  5
F8
330
F6
100
AcDbEntity
  8
0
100
AcDbBlockBegin
  2
block 7
 70
     0
 10
0.0
 20
0.0
 30
0.0
  3
block 7
  1

  0
SPLINE
  5
FA
330
F6
100
AcDbEntity
  8
_U+30EC_U+30A4_U+30E4_U+30FC 1
370
     0
100
AcDbSpline
210
0.0
220
0.0
230
1.0
 70
    11
 71
     3
 72
    26
 73
    22
 74
     0
 42
0.0000000001
 43
0.0000000001
 12
1.0
 22
0.0
 32
0.0
 13
1.0
 23
0.0
 33
0.0
 40
0.0
 40
0.0
 40
0.0
 40
0.0
 40
1.0
 40
1.0
 40
1.0
 40
2.0
 40
2.0
 40
2.0
 40
3.0
 40
3.0
 40
3.0
 40
4.0
 40
4.0
 40
4.0
 40
5.0
 40
5.0
 40
5.0
 40
6.0
 40
6.0
 40
6.0
 40
7.0
 40
7.0
 40
7.0
 40
7.0
 10
104.9155598696045
 20
-130.4833360133861
 30
0.0
 10
104.9155598696045
 20
-130.4833360133861
 30
0.0
 10
103.8114067665819
 20
-130.4833360133861
 30
0.0
 10
103.8114067665819
 20
-130.4833360133861
 30
0.0
 10
103.8114067665819
 20
-130.4833360133861
 30
0.0
 10
103.8114067665819
 20
-130.8357692815272
 30
0.0
 10
103.8114067665819
 20
-130.8357692815272
 30
0.0
 10
103.8114067665819
 20
-130.8357692815272
 30
0.0
 10
103.6632676607161
 20
-130.8357692815272
 30
0.0
 10
103.6632676607161
 20
-130.8357692815272
 30
0.0
 10
103.6484537501296
 20
-130.4809244465465
 30
0.0
 10
103.4855007336772
 20
-130.4313150715589
 30
0.0
 10
103.3711235635669
 20
-130.3996201930945
 30
0.0
 10
103.3711235635669
 20
-130.3996201930945
 30
0.0
 10
103.3711235635669
 20
-130.2435573676127
 30
0.0
 10
103.3711235635669
 20
-130.2435573676127
 30
0.0
 10
103.3711235635669
 20
-130.2435573676127
 30
0.0
 10
104.9155598696045
 20
-130.2435573676127
 30
0.0
 10
104.9155598696045
 20
-130.2435573676127
 30
0.0
 10
104.9155598696045
 20
-130.2435573676127
 30
0.0
 10
104.9155598696045
 20
-130.4833360133861
 30
0.0
 10
104.9155598696045
 20
-130.4833360133861
 30
0.0
  0
HATCH
  5
FB
330
F6
100
AcDbEntity
  8
_U+30EC_U+30A4_U+30E4_U+30FC 1
 62
   179
420
  2234388
100
AcDbHatch
 10
0.0
 20
0.0
 30
0.0
210
0.0
220
0.0
230
1.0
  2
SOLID
 70
     1
 71
     0
 91
        1
 92
        1
 93
        1
 72
     4
 94
        3
 73
     0
 74
     1
 95
       26
 96
       22
 40
0.0
 40
0.0
 40
0.0
 40
0.0
 40
1.0
 40
1.0
 40
1.0
 40
2.0
 40
2.0
 40
2.0
 40
3.0
 40
3.0
 40
3.0
 40
4.0
 40
4.0
 40
4.0
 40
5.0
 40
5.0
 40
5.0
 40
6.0
 40
6.0
 40
6.0
 40
7.0
 40
7.0
 40
7.0
 40
7.0
 10
104.9155598696045
 20
-130.4833360133861
 10
104.9155598696045
 20
-130.4833360133861
 10
103.8114067665819
 20
-130.4833360133861
 10
103.8114067665819
 20
-130.4833360133861
 10
103.8114067665819
 20
-130.4833360133861
 10
103.8114067665819
 20
-130.8357692815272
 10
103.8114067665819
 20
-130.8357692815272
 10
103.8114067665819
 20
-130.8357692815272
 10
103.6632676607161
 20
-130.8357692815272
 10
103.6632676607161
 20
-130.8357692815272
 10
103.6484537501296
 20
-130.4809244465465
 10
103.4855007336772
 20
-130.4313150715589
 10
103.3711235635669
 20
-130.3996201930945
 10
103.3711235635669
 20
-130.3996201930945
 10
103.3711235635669
 20
-130.2435573676127
 10
103.3711235635669
 20
-130.2435573676127
 10
103.3711235635669
 20
-130.2435573676127
 10
104.9155598696045
 20
-130.2435573676127
 10
104.9155598696045
 20
-130.2435573676127
 10
104.9155598696045
 20
-130.2435573676127
 10
104.9155598696045
 20
-130.4833360133861
 10
104.9155598696045
 20
-130.4833360133861
 97
        0
 97
        0
 75
     2
 76
     1
 98
        0
  0
SPLINE
  5
FC
330
F6
100
AcDbEntity
  8
_U+30EC_U+30A4_U+30E4_U+30FC 1
370
     0
100
AcDbSpline
210
0.0
220
0.0
230
1.0
 70
    11
 71
     3
 72
    44
 73
    40
 74
     0
 42
0.0000000001
 43
0.0000000001
 12
1.0
 22
0.0
 32
0.0
 13
1.0
 23
0.0
 33
0.0
 40
0.0
 40
0.0
 40
0.0
 40
0.0
 40
1.0
 40
1.0
 40
1.0
 40
2.0
 40
2.0
 40
2.0
 40
3.0
 40
3.0
 40
3.0
 40
4.0
 40
4.0
 40
4.0
 40
5.0
 40
5.0
 40
5.0
 40
6.0
 40
6.0
 40
6.0
 40
7.0
 40
7.0
 40
7.0
 40
8.0
 40
8.0
 40
8.0
 40
9.0
 40
9.0
 40
9.0
 40
10.0
 40
10.0
 40
10.0
 40
11.0
 40
11.0
 40
11.0
 40
12.0
 40
12.0
 40
12.0
 40
13.0
 40
13.0
 40
13.0
 40
13.0
 10
104.3336832421458
 20
-129.0739474503704
 30
0.0
 10
104.4925021440158
 20
-129.3068359051733
 30
0.0
 10
104.5665716969486
 20
-129.406399164697
 30
0.0
 10
104.7102321786836
 20
-129.4584201065243
 30
0.0
 10
104.7102321786836
 20
-129.4584201065243
 30
0.0
 10
104.7102321786836
 20
-128.6260850372879
 30
0.0
 10
104.7102321786836
 20
-128.6260850372879
 30
0.0
 10
104.7102321786836
 20
-128.6260850372879
 30
0.0
 10
104.9155598696045
 20
-128.6260850372879
 30
0.0
 10
104.9155598696045
 20
-128.6260850372879
 30
0.0
 10
104.9155598696045
 20
-128.6260850372879
 30
0.0
 10
104.9155598696045
 20
-129.7250704970826
 30
0.0
 10
104.9155598696045
 20
-129.7250704970826
 30
0.0
 10
104.5579589582355
 20
-129.6909640517786
 30
0.0
 10
104.4797552907203
 20
-129.6210286134281
 30
0.0
 10
104.1814100216977
 20
-129.2096842124893
 30
0.0
 10
103.9826280121988
 20
-128.9361436309604
 30
0.0
 10
103.9147596311394
 20
-128.8658636830613
 30
0.0
 10
103.7773003212779
 20
-128.8658636830613
 30
0.0
 10
103.6587890365853
 20
-128.8658636830613
 30
0.0
 10
103.5278754081458
 20
-128.9426893123824
 30
0.0
 10
103.5278754081458
 20
-129.1531846465311
 30
0.0
 10
103.5278754081458
 20
-129.4312038521908
 30
0.0
 10
103.758352296109
 20
-129.4401611004525
 30
0.0
 10
103.8747965235105
 20
-129.4446397245833
 30
0.0
 10
103.8747965235105
 20
-129.4446397245833
 30
0.0
 10
103.8747965235105
 20
-129.6844183703567
 30
0.0
 10
103.8747965235105
 20
-129.6844183703567
 30
0.0
 10
103.7476725001048
 20
-129.675461122095
 30
0.0
 10
103.6357068968341
 20
-129.6640923069937
 30
0.0
 10
103.5171956121415
 20
-129.5779649198625
 30
0.0
 10
103.3563096529804
 20
-129.4604871638154
 30
0.0
 10
103.3225477172249
 20
-129.2617051543165
 30
0.0
 10
103.3225477172249
 20
-129.137337207299
 30
0.0
 10
103.3225477172249
 20
-128.8410589955675
 30
0.0
 10
103.5065158161373
 20
-128.619539355866
 30
0.0
 10
103.779367378569
 20
-128.619539355866
 30
0.0
 10
104.0081217187896
 20
-128.619539355866
 30
0.0
 10
104.1073404687648
 20
-128.7439073028835
 30
0.0
 10
104.3336832421458
 20
-129.0739474503704
 30
0.0
  0
HATCH
  5
FD
330
F6
100
AcDbEntity
  8
_U+30EC_U+30A4_U+30E4_U+30FC 1
 62
   179
420
  2234388
100
AcDbHatch
 10
0.0
 20
0.0
 30
0.0
210
0.0
220
0.0
230
1.0
  2
SOLID
 70
     1
 71
     0
 91
        1
 92
        1
 93
        1
 72
     4
 94
        3
 73
     0
 74
     1
 95
       44
 96
       40
 40
0.0
 40
0.0
 40
0.0
 40
0.0
 40
1.0
 40
1.0
 40
1.0
 40
2.0
 40
2.0
 40
2.0
 40
3.0
 40
3.0
 40
3.0
 40
4.0
 40
4.0
 40
4.0
 40
5.0
 40
5.0
 40
5.0
 40
6.0
 40
6.0
 40
6.0
 40
7.0
 40
7.0
 40
7.0
 40
8.0
 40
8.0
 40
8.0
 40
9.0
 40
9.0
 40
9.0
 40
10.0
 40
10.0
 40
10.0
 40
11.0
 40
11.0
 40
11.0
 40
12.0
 40
12.0
 40
12.0
 40
13.0
 40
13.0
 40
13.0
 40
13.0
 10
104.3336832421458
 20
-129.0739474503704
 10
104.4925021440158
 20
-129.3068359051733
 10
104.5665716969486
 20
-129.406399164697
 10
104.7102321786836
 20
-129.4584201065243
 10
104.7102321786836
 20
-129.4584201065243
 10
104.7102321786836
 20
-128.6260850372879
 10
104.7102321786836
 20
-128.6260850372879
 10
104.7102321786836
 20
-128.6260850372879
 10
104.9155598696045
 20
-128.6260850372879
 10
104.9155598696045
 20
-128.6260850372879
 10
104.9155598696045
 20
-128.6260850372879
 10
104.9155598696045
 20
-129.7250704970826
 10
104.9155598696045
 20
-129.7250704970826
 10
104.5579589582355
 20
-129.6909640517786
 10
104.4797552907203
 20
-129.6210286134281
 10
104.1814100216977
 20
-129.2096842124893
 10
103.9826280121988
 20
-128.9361436309604
 10
103.9147596311394
 20
-128.8658636830613
 10
103.7773003212779
 20
-128.8658636830613
 10
103.6587890365853
 20
-128.8658636830613
 10
103.5278754081458
 20
-128.9426893123824
 10
103.5278754081458
 20
-129.1531846465311
 10
103.5278754081458
 20
-129.4312038521908
 10
103.758352296109
 20
-129.4401611004525
 10
103.8747965235105
 20
-129.4446397245833
 10
103.8747965235105
 20
-129.4446397245833
 10
103.8747965235105
 20
-129.6844183703567
 10
103.8747965235105
 20
-129.6844183703567
 10
103.7476725001048
 20
-129.675461122095
 10
103.6357068968341
 20
-129.6640923069937
 10
103.5171956121415
 20
-129.5779649198625
 10
103.3563096529804
 20
-129.4604871638154
 10
103.3225477172249
 20
-129.2617051543165
 10
103.3225477172249
 20
-129.137337207299
 10
103.3225477172249
 20
-128.8410589955675
 10
103.5065158161373
 20
-128.619539355866
 10
103.779367378569
 20
-128.619539355866
 10
104.0081217187896
 20
-128.619539355866
 10
104.1073404687648
 20
-128.7439073028835
 10
104.3336832421458
 20
-129.0739474503704
 97
        0
 97
        0
 75
     2
 76
     1
 98
        0
  0
POLYLINE
  5
FE
330
F6
100
AcDbEntity
  8
_U+30EC_U+30A4_U+30E4_U+30FC 1
370
     0
100
AcDb2dPolyline
 66
     1
 10
0.0
 20
0.0
 30
0.0
  0
VERTEX
  5
FF
330
FE
100
AcDbEntity
  8
_U+30EC_U+30A4_U+30E4_U+30FC 1
370
     0
100
AcDbVertex
100
AcDb2dVertex
 10
104.9155598696045
 20
-128.385961881966
 30
0.0
  0
VERTEX
  5
100
330
FE
100
AcDbEntity
  8
_U+30EC_U+30A4_U+30E4_U+30FC 1
370
     0
100
AcDbVertex
100
AcDb2dVertex
 10
104.6637233896327
 20
-128.385961881966
 30
0.0
  0
VERTEX
  5
101
330
FE
100
AcDbEntity
  8
_U+30EC_U+30A4_U+30E4_U+30FC 1
370
     0
100
AcDbVertex
100
AcDb2dVertex
 10
104.6637233896327
 20
-128.116899924568
 30
0.0
  0
VERTEX
  5
102
330
FE
100
AcDbEntity
  8
_U+30EC_U+30A4_U+30E4_U+30FC 1
370
     0
100
AcDbVertex
100
AcDb2dVertex
 10
104.9155598696045
 20
-128.116899924568
 30
0.0
  0
VERTEX
  5
103
330
FE
100
AcDbEntity
  8
_U+30EC_U+30A4_U+30E4_U+30FC 1
370
     0
100
AcDbVertex
100
AcDb2dVertex
 10
104.9155598696045
 20
-128.385961881966
 30
0.0
  0
SEQEND
  5
104
330
FE
100
AcDbEntity
  8
_U+30EC_U+30A4_U+30E4_U+30FC 1
370
     0
  0
HATCH
  5
105
330
F6
100
AcDbEntity
  8
_U+30EC_U+30A4_U+30E4_U+30FC 1
 62
   179
420
  2234388
100
AcDbHatch
 10
0.0
 20
0.0
 30
0.0
210
0.0
220
0.0
230
1.0
  2
SOLID
 70
     1
 71
     0
 91
        1
 92
        1
 93
        4
 72
     1
 10
104.9155598696045
 20
-128.385961881966
 11
104.6637233896327
 21
-128.385961881966
 72
     1
 10
104.6637233896327
 20
-128.385961881966
 11
104.6637233896327
 21
-128.116899924568
 72
     1
 10
104.6637233896327
 20
-128.116899924568
 11
104.9155598696045
 21
-128.116899924568
 72
     1
 10
104.9155598696045
 20
-128.116899924568
 11
104.9155598696045
 21
-128.385961881966
 97
        0
 75
     2
 76
     1
 98
        0
  0
SPLINE
  5
106
330
F6
100
AcDbEntity
  8
_U+30EC_U+30A4_U+30E4_U+30FC 1
370
     0
100
AcDbSpline
210
0.0
220
0.0
230
1.0
 70
    11
 71
     3
 72
    53
 73
    49
 74
     0
 42
0.0000000001
 43
0.0000000001
 12
1.0
 22
0.0
 32
0.0
 13
1.0
 23
0.0
 33
0.0
 40
0.0
 40
0.0
 40
0.0
 40
0.0
 40
1.0
 40
1.0
 40
1.0
 40
2.0
 40
2.0
 40
2.0
 40
3.0
 40
3.0
 40
3.0
 40
4.0
 40
4.0
 40
4.0
 40
5.0
 40
5.0
 40
5.0
 40
6.0
 40
6.0
 40
6.0
 40
7.0
 40
7.0
 40
7.0
 40
8.0
 40
8.0
 40
8.0
 40
9.0
 40
9.0
 40
9.0
 40
10.0
 40
10.0
 40
10.0
 40
11.0
 40
11.0
 40
11.0
 40
12.0
 40
12.0
 40
12.0
 40
13.0
 40
13.0
 40
13.0
 40
14.0
 40
14.0
 40
14.0
 40
15.0
 40
15.0
 40
15.0
 40
16.0
 40
16.0
 40
16.0
 40
16.0
 10
104.9662027732376
 20
-127.3500216695514
 30
0.0
 10
104.9662027732376
 20
-127.4333929802944
 30
0.0
 10
104.9493218053599
 20
-127.5422579976283
 30
0.0
 10
104.8859320484313
 20
-127.6504339958652
 30
0.0
 10
104.7760335024518
 20
-127.8361246425201
 30
0.0
 10
104.6447753644638
 20
-127.8585177631743
 30
0.0
 10
104.5369438757755
 20
-127.8788438265372
 30
0.0
 10
104.5369438757755
 20
-127.8788438265372
 30
0.0
 10
104.5369438757755
 20
-127.6414767476035
 30
0.0
 10
104.5369438757755
 20
-127.6414767476035
 30
0.0
 10
104.7357258852744
 20
-127.5829101243543
 30
0.0
 10
104.7653537064476
 20
-127.4471733622354
 30
0.0
 10
104.7653537064476
 20
-127.3476101027117
 30
0.0
 10
104.7653537064476
 20
-127.1984374682004
 30
0.0
 10
104.6657904469238
 20
-127.0358289612966
 30
0.0
 10
104.4332465016695
 20
-127.0358289612966
 30
0.0
 10
104.1772759071154
 20
-127.0358289612966
 30
0.0
 10
104.1073404687648
 20
-127.227720779825
 30
0.0
 10
104.1073404687648
 20
-127.3565673509734
 30
0.0
 10
104.1073404687648
 20
-127.3906737962773
 30
0.0
 10
104.1073404687648
 20
-127.5422579976283
 30
0.0
 10
104.2365315494617
 20
-127.6369981234727
 30
0.0
 10
104.2365315494617
 20
-127.6369981234727
 30
0.0
 10
104.2175835242928
 20
-127.8247558274188
 30
0.0
 10
104.2175835242928
 20
-127.8247558274188
 30
0.0
 10
104.2175835242928
 20
-127.8247558274188
 30
0.0
 10
103.3711235635669
 20
-127.6959092562705
 30
0.0
 10
103.3711235635669
 20
-127.6959092562705
 30
0.0
 10
103.3711235635669
 20
-127.6959092562705
 30
0.0
 10
103.3711235635669
 20
-126.8639186965826
 30
0.0
 10
103.3711235635669
 20
-126.8639186965826
 30
0.0
 10
103.3711235635669
 20
-126.8639186965826
 30
0.0
 10
103.5657714584836
 20
-126.8639186965826
 30
0.0
 10
103.5657714584836
 20
-126.8639186965826
 30
0.0
 10
103.5657714584836
 20
-126.8639186965826
 30
0.0
 10
103.5657714584836
 20
-127.5215874247168
 30
0.0
 10
103.5657714584836
 20
-127.5215874247168
 30
0.0
 10
103.5657714584836
 20
-127.5215874247168
 30
0.0
 10
103.9888291840722
 20
-127.5918673726159
 30
0.0
 10
103.9888291840722
 20
-127.5918673726159
 30
0.0
 10
103.9550672483168
 20
-127.5264105583962
 30
0.0
 10
103.9147596311394
 20
-127.4382161139738
 30
0.0
 10
103.9147596311394
 20
-127.3114366001166
 30
0.0
 10
103.9147596311394
 20
-127.0403075854274
 30
0.0
 10
104.1011392968914
 20
-126.7870930672616
 30
0.0
 10
104.4142984765006
 20
-126.7870930672616
 30
0.0
 10
104.7315917706921
 20
-126.7870930672616
 30
0.0
 10
104.9662027732376
 20
-127.0265272034864
 30
0.0
 10
104.9662027732376
 20
-127.3500216695514
 30
0.0
  0
HATCH
  5
107
330
F6
100
AcDbEntity
  8
_U+30EC_U+30A4_U+30E4_U+30FC 1
 62
   179
420
  2234388
100
AcDbHatch
 10
0.0
 20
0.0
 30
0.0
210
0.0
220
0.0
230
1.0
  2
SOLID
 70
     1
 71
     0
 91
        1
 92
        1
 93
        1
 72
     4
 94
        3
 73
     0
 74
     1
 95
       53
 96
       49
 40
0.0
 40
0.0
 40
0.0
 40
0.0
 40
1.0
 40
1.0
 40
1.0
 40
2.0
 40
2.0
 40
2.0
 40
3.0
 40
3.0
 40
3.0
 40
4.0
 40
4.0
 40
4.0
 40
5.0
 40
5.0
 40
5.0
 40
6.0
 40
6.0
 40
6.0
 40
7.0
 40
7.0
 40
7.0
 40
8.0
 40
8.0
 40
8.0
 40
9.0
 40
9.0
 40
9.0
 40
10.0
 40
10.0
 40
10.0
 40
11.0
 40
11.0
 40
11.0
 40
12.0
 40
12.0
 40
12.0
 40
13.0
 40
13.0
 40
13.0
 40
14.0
 40
14.0
 40
14.0
 40
15.0
 40
15.0
 40
15.0
 40
16.0
 40
16.0
 40
16.0
 40
16.0
 10
104.9662027732376
 20
-127.3500216695514
 10
104.9662027732376
 20
-127.4333929802944
 10
104.9493218053599
 20
-127.5422579976283
 10
104.8859320484313
 20
-127.6504339958652
 10
104.7760335024518
 20
-127.8361246425201
 10
104.6447753644638
 20
-127.8585177631743
 10
104.5369438757755
 20
-127.8788438265372
 10
104.5369438757755
 20
-127.8788438265372
 10
104.5369438757755
 20
-127.6414767476035
 10
104.5369438757755
 20
-127.6414767476035
 10
104.7357258852744
 20
-127.5829101243543
 10
104.7653537064476
 20
-127.4471733622354
 10
104.7653537064476
 20
-127.3476101027117
 10
104.7653537064476
 20
-127.1984374682004
 10
104.6657904469238
 20
-127.0358289612966
 10
104.4332465016695
 20
-127.0358289612966
 10
104.1772759071154
 20
-127.0358289612966
 10
104.1073404687648
 20
-127.227720779825
 10
104.1073404687648
 20
-127.3565673509734
 10
104.1073404687648
 20
-127.3906737962773
 10
104.1073404687648
 20
-127.5422579976283
 10
104.2365315494617
 20
-127.6369981234727
 10
104.2365315494617
 20
-127.6369981234727
 10
104.2175835242928
 20
-127.8247558274188
 10
104.2175835242928
 20
-127.8247558274188
 10
104.2175835242928
 20
-127.8247558274188
 10
103.3711235635669
 20
-127.6959092562705
 10
103.3711235635669
 20
-127.6959092562705
 10
103.3711235635669
 20
-127.6959092562705
 10
103.3711235635669
 20
-126.8639186965826
 10
103.3711235635669
 20
-126.8639186965826
 10
103.3711235635669
 20
-126.8639186965826
 10
103.5657714584836
 20
-126.8639186965826
 10
103.5657714584836
 20
-126.8639186965826
 10
103.5657714584836
 20
-126.8639186965826
 10
103.5657714584836
 20
-127.5215874247168
 10
103.5657714584836
 20
-127.5215874247168
 10
103.5657714584836
 20
-127.5215874247168
 10
103.9888291840722
 20
-127.5918673726159
 10
103.9888291840722
 20
-127.5918673726159
 10
103.9550672483168
 20
-127.5264105583962
 10
103.9147596311394
 20
-127.4382161139738
 10
103.9147596311394
 20
-127.3114366001166
 10
103.9147596311394
 20
-127.0403075854274
 10
104.1011392968914
 20
-126.7870930672616
 10
104.4142984765006
 20
-126.7870930672616
 10
104.7315917706921
 20
-126.7870930672616
 10
104.9662027732376
 20
-127.0265272034864
 10
104.9662027732376
 20
-127.3500216695514
 97
        0
 97
        0
 75
     2
 76
     1
 98
        0
  0
ENDBLK
  5
F9
330
F6
100
AcDbEntity
  8
0
100
AcDbBlockEnd
  0
ENDSEC
  0
SECTION
  2
ENTITIES
  0
POLYLINE
  5
41
330
1F
100
AcDbEntity
  8
_U+30EC_U+30A4_U+30E4_U+30FC 1
370
     0
100
AcDb2dPolyline
 66
     1
 10
0.0
 20
0.0
 30
0.0
  0
VERTEX
  5
42
330
41
100
AcDbEntity
  8
_U+30EC_U+30A4_U+30E4_U+30FC 1
370
     0
100
AcDbVertex
100
AcDb2dVertex
 10
74.63059559601489
 20
-122.6298946915647
 30
0.0
  0
VERTEX
  5
43
330
41
100
AcDbEntity
  8
_U+30EC_U+30A4_U+30E4_U+30FC 1
370
     0
100
AcDbVertex
100
AcDb2dVertex
 10
82.63043331267575
 20
-122.6298946915647
 30
0.0
  0
VERTEX
  5
44
330
41
100
AcDbEntity
  8
_U+30EC_U+30A4_U+30E4_U+30FC 1
370
     0
100
AcDbVertex
100
AcDb2dVertex
 10
82.63043331267575
 20
-138.1300682988011
 30
0.0
  0
VERTEX
  5
45
330
41
100
AcDbEntity
  8
_U+30EC_U+30A4_U+30E4_U+30FC 1
370
     0
100
AcDbVertex
100
AcDb2dVertex
 10
87.62996248659563
 20
-138.1300682988011
 30
0.0
  0
VERTEX
  5
46
330
41
100
AcDbEntity
  8
_U+30EC_U+30A4_U+30E4_U+30FC 1
370
     0
100
AcDbVertex
100
AcDb2dVertex
 10
87.62996248659563
 20
-135.1300813551061
 30
0.0
  0
VERTEX
  5
47
330
41
100
AcDbEntity
  8
_U+30EC_U+30A4_U+30E4_U+30FC 1
370
     0
100
AcDbVertex
100
AcDb2dVertex
 10
86.63019028987972
 20
-135.1300813551061
 30
0.0
  0
VERTEX
  5
48
330
41
100
AcDbEntity
  8
_U+30EC_U+30A4_U+30E4_U+30FC 1
370
     0
100
AcDbVertex
100
AcDb2dVertex
 10
86.63019028987972
 20
-137.1302960768285
 30
0.0
  0
VERTEX
  5
49
330
41
100
AcDbEntity
  8
_U+30EC_U+30A4_U+30E4_U+30FC 1
370
     0
100
AcDbVertex
100
AcDb2dVertex
 10
83.53029675785348
 20
-137.1302960768285
 30
0.0
  0
VERTEX
  5
4A
330
41
100
AcDbEntity
  8
_U+30EC_U+30A4_U+30E4_U+30FC 1
370
     0
100
AcDbVertex
100
AcDb2dVertex
 10
83.53029675785348
 20
-122.6298946915647
 30
0.0
  0
VERTEX
  5
4B
330
41
100
AcDbEntity
  8
_U+30EC_U+30A4_U+30E4_U+30FC 1
370
     0
100
AcDbVertex
100
AcDb2dVertex
 10
102.630073215022
 20
-122.6298946915647
 30
0.0
  0
VERTEX
  5
4C
330
41
100
AcDbEntity
  8
_U+30EC_U+30A4_U+30E4_U+30FC 1
370
     0
100
AcDbVertex
100
AcDb2dVertex
 10
102.630073215022
 20
-121.6301224695925
 30
0.0
  0
VERTEX
  5
4D
330
41
100
AcDbEntity
  8
_U+30EC_U+30A4_U+30E4_U+30FC 1
370
     0
100
AcDbVertex
100
AcDb2dVertex
 10
74.63059559601489
 20
-121.6301224695925
 30
0.0
  0
VERTEX
  5
4E
330
41
100
AcDbEntity
  8
_U+30EC_U+30A4_U+30E4_U+30FC 1
370
     0
100
AcDbVertex
100
AcDb2dVertex
 10
74.63059559601489
 20
-122.6298946915647
 30
0.0
  0
SEQEND
  5
50
330
41
100
AcDbEntity
  8
_U+30EC_U+30A4_U+30E4_U+30FC 1
370
     0
  0
HATCH
  5
4F
330
1F
100
AcDbEntity
  8
_U+30EC_U+30A4_U+30E4_U+30FC 1
 62
   253
420
 11711154
100
AcDbHatch
 10
0.0
 20
0.0
 30
0.0
210
0.0
220
0.0
230
1.0
  2
SOLID
 70
     1
 71
     0
 91
        1
 92
        1
 93
       12
 72
     1
 10
74.63059559601489
 20
-122.6298946915647
 11
82.63043331267575
 21
-122.6298946915647
 72
     1
 10
82.63043331267575
 20
-122.6298946915647
 11
82.63043331267575
 21
-138.1300682988011
 72
     1
 10
82.63043331267575
 20
-138.1300682988011
 11
87.62996248659563
 21
-138.1300682988011
 72
     1
 10
87.62996248659563
 20
-138.1300682988011
 11
87.62996248659563
 21
-135.1300813551061
 72
     1
 10
87.62996248659563
 20
-135.1300813551061
 11
86.63019028987972
 21
-135.1300813551061
 72
     1
 10
86.63019028987972
 20
-135.1300813551061
 11
86.63019028987972
 21
-137.1302960768285
 72
     1
 10
86.63019028987972
 20
-137.1302960768285
 11
83.53029675785348
 21
-137.1302960768285
 72
     1
 10
83.53029675785348
 20
-137.1302960768285
 11
83.53029675785348
 21
-122.6298946915647
 72
     1
 10
83.53029675785348
 20
-122.6298946915647
 11
102.630073215022
 21
-122.6298946915647
 72
     1
 10
102.630073215022
 20
-122.6298946915647
 11
102.630073215022
 21
-121.6301224695925
 72
     1
 10
102.630073215022
 20
-121.6301224695925
 11
74.63059559601489
 21
-121.6301224695925
 72
     1
 10
74.63059559601489
 20
-121.6301224695925
 11
74.63059559601489
 21
-122.6298946915647
 97
        0
 75
     2
 76
     1
 98
        0
  0
POLYLINE
  5
51
330
1F
100
AcDbEntity
  8
_U+30EC_U+30A4_U+30E4_U+30FC 1
 62
   179
420
  2234388
370
    25
100
AcDb2dPolyline
 66
     1
 10
0.0
 20
0.0
 30
0.0
  0
VERTEX
  5
52
330
51
100
AcDbEntity
  8
_U+30EC_U+30A4_U+30E4_U+30FC 1
 62
   179
420
  2234388
370
    25
100
AcDbVertex
100
AcDb2dVertex
 10
74.63059559601489
 20
-121.6301224695925
 30
0.0
  0
VERTEX
  5
53
330
51
100
AcDbEntity
  8
_U+30EC_U+30A4_U+30E4_U+30FC 1
 62
   179
420
  2234388
370
    25
100
AcDbVertex
100
AcDb2dVertex
 10
102.630073215022
 20
-121.6301224695925
 30
0.0
  0
SEQEND
  5
54
330
51
100
AcDbEntity
  8
_U+30EC_U+30A4_U+30E4_U+30FC 1
 62
   179
420
  2234388
370
    25
  0
POLYLINE
  5
55
330
1F
100
AcDbEntity
  8
_U+30EC_U+30A4_U+30E4_U+30FC 1
 62
   179
420
  2234388
370
    25
100
AcDb2dPolyline
 66
     1
 10
0.0
 20
0.0
 30
0.0
  0
VERTEX
  5
56
330
55
100
AcDbEntity
  8
_U+30EC_U+30A4_U+30E4_U+30FC 1
 62
   179
420
  2234388
370
    25
100
AcDbVertex
100
AcDb2dVertex
 10
74.63059559601489
 20
-122.6298946915647
 30
0.0
  0
VERTEX
  5
57
330
55
100
AcDbEntity
  8
_U+30EC_U+30A4_U+30E4_U+30FC 1
 62
   179
420
  2234388
370
    25
100
AcDbVertex
100
AcDb2dVertex
 10
82.63043331267575
 20
-122.6298946915647
 30
0.0
  0
SEQEND
  5
58
330
55
100
AcDbEntity
  8
_U+30EC_U+30A4_U+30E4_U+30FC 1
 62
   179
420
  2234388
370
    25
  0
POLYLINE
  5
59
330
1F
100
AcDbEntity
  8
_U+30EC_U+30A4_U+30E4_U+30FC 1
 62
   179
420
  2234388
370
    25
100
AcDb2dPolyline
 66
     1
 10
0.0
 20
0.0
 30
0.0
  0
VERTEX
  5
5A
330
59
100
AcDbEntity
  8
_U+30EC_U+30A4_U+30E4_U+30FC 1
 62
   179
420
  2234388
370
    25
100
AcDbVertex
100
AcDb2dVertex
 10
102.630073215022
 20
-122.6298946915647
 30
0.0
  0
VERTEX
  5
5B
330
59
100
AcDbEntity
  8
_U+30EC_U+30A4_U+30E4_U+30FC 1
 62
   179
420
  2234388
370
    25
100
AcDbVertex
100
AcDb2dVertex
 10
102.630073215022
 20
-121.6301224695925
 30
0.0
  0
SEQEND
  5
5C
330
59
100
AcDbEntity
  8
_U+30EC_U+30A4_U+30E4_U+30FC 1
 62
   179
420
  2234388
370
    25
  0
POLYLINE
  5
5D
330
1F
100
AcDbEntity
  8
_U+30EC_U+30A4_U+30E4_U+30FC 1
 62
   179
420
  2234388
370
    25
100
AcDb2dPolyline
 66
     1
 10
0.0
 20
0.0
 30
0.0
  0
VERTEX
  5
5E
330
5D
100
AcDbEntity
  8
_U+30EC_U+30A4_U+30E4_U+30FC 1
 62
   179
420
  2234388
370
    25
100
AcDbVertex
100
AcDb2dVertex
 10
83.53029675785348
 20
-122.6298946915647
 30
0.0
  0
VERTEX
  5
5F
330
5D
100
AcDbEntity
  8
_U+30EC_U+30A4_U+30E4_U+30FC 1
 62
   179
420
  2234388
370
    25
100
AcDbVertex
100
AcDb2dVertex
 10
102.630073215022
 20
-122.6298946915647
 30
0.0
  0
SEQEND
  5
60
330
5D
100
AcDbEntity
  8
_U+30EC_U+30A4_U+30E4_U+30FC 1
 62
   179
420
  2234388
370
    25
  0
POLYLINE
  5
61
330
1F
100
AcDbEntity
  8
_U+30EC_U+30A4_U+30E4_U+30FC 1
 62
   179
420
  2234388
370
    25
100
AcDb2dPolyline
 66
     1
 10
0.0
 20
0.0
 30
0.0
  0
VERTEX
  5
62
330
61
100
AcDbEntity
  8
_U+30EC_U+30A4_U+30E4_U+30FC 1
 62
   179
420
  2234388
370
    25
100
AcDbVertex
100
AcDb2dVertex
 10
74.63059559601489
 20
-122.6298946915647
 30
0.0
  0
VERTEX
  5
63
330
61
100
AcDbEntity
  8
_U+30EC_U+30A4_U+30E4_U+30FC 1
 62
   179
420
  2234388
370
    25
100
AcDbVertex
100
AcDb2dVertex
 10
74.63059559601489
 20
-121.6301224695925
 30
0.0
  0
SEQEND
  5
64
330
61
100
AcDbEntity
  8
_U+30EC_U+30A4_U+30E4_U+30FC 1
 62
   179
420
  2234388
370
    25
  0
POLYLINE
  5
65
330
1F
100
AcDbEntity
  8
_U+30EC_U+30A4_U+30E4_U+30FC 1
 62
   179
420
  2234388
370
    25
100
AcDb2dPolyline
 66
     1
 10
0.0
 20
0.0
 30
0.0
  0
VERTEX
  5
66
330
65
100
AcDbEntity
  8
_U+30EC_U+30A4_U+30E4_U+30FC 1
 62
   179
420
  2234388
370
    25
100
AcDbVertex
100
AcDb2dVertex
 10
82.63043331267575
 20
-138.1300682988011
 30
0.0
  0
VERTEX
  5
67
330
65
100
AcDbEntity
  8
_U+30EC_U+30A4_U+30E4_U+30FC 1
 62
   179
420
  2234388
370
    25
100
AcDbVertex
100
AcDb2dVertex
 10
82.63043331267575
 20
-122.6298946915647
 30
0.0
  0
SEQEND
  5
68
330
65
100
AcDbEntity
  8
_U+30EC_U+30A4_U+30E4_U+30FC 1
 62
   179
420
  2234388
370
    25
  0
POLYLINE
  5
69
330
1F
100
AcDbEntity
  8
_U+30EC_U+30A4_U+30E4_U+30FC 1
 62
   179
420
  2234388
370
    25
100
AcDb2dPolyline
 66
     1
 10
0.0
 20
0.0
 30
0.0
  0
VERTEX
  5
6A
330
69
100
AcDbEntity
  8
_U+30EC_U+30A4_U+30E4_U+30FC 1
 62
   179
420
  2234388
370
    25
100
AcDbVertex
100
AcDb2dVertex
 10
86.63019028987972
 20
-135.1300813551061
 30
0.0
  0
VERTEX
  5
6B
330
69
100
AcDbEntity
  8
_U+30EC_U+30A4_U+30E4_U+30FC 1
 62
   179
420
  2234388
370
    25
100
AcDbVertex
100
AcDb2dVertex
 10
87.62996248659563
 20
-135.1300813551061
 30
0.0
  0
SEQEND
  5
6C
330
69
100
AcDbEntity
  8
_U+30EC_U+30A4_U+30E4_U+30FC 1
 62
   179
420
  2234388
370
    25
  0
POLYLINE
  5
6D
330
1F
100
AcDbEntity
  8
_U+30EC_U+30A4_U+30E4_U+30FC 1
 62
   179
420
  2234388
370
    25
100
AcDb2dPolyline
 66
     1
 10
0.0
 20
0.0
 30
0.0
  0
VERTEX
  5
6E
330
6D
100
AcDbEntity
  8
_U+30EC_U+30A4_U+30E4_U+30FC 1
 62
   179
420
  2234388
370
    25
100
AcDbVertex
100
AcDb2dVertex
 10
82.63043331267575
 20
-138.1300682988011
 30
0.0
  0
VERTEX
  5
6F
330
6D
100
AcDbEntity
  8
_U+30EC_U+30A4_U+30E4_U+30FC 1
 62
   179
420
  2234388
370
    25
100
AcDbVertex
100
AcDb2dVertex
 10
87.62996248659563
 20
-138.1300682988011
 30
0.0
  0
SEQEND
  5
70
330
6D
100
AcDbEntity
  8
_U+30EC_U+30A4_U+30E4_U+30FC 1
 62
   179
420
  2234388
370
    25
  0
POLYLINE
  5
71
330
1F
100
AcDbEntity
  8
_U+30EC_U+30A4_U+30E4_U+30FC 1
 62
   179
420
  2234388
370
    25
100
AcDb2dPolyline
 66
     1
 10
0.0
 20
0.0
 30
0.0
  0
VERTEX
  5
72
330
71
100
AcDbEntity
  8
_U+30EC_U+30A4_U+30E4_U+30FC 1
 62
   179
420
  2234388
370
    25
100
AcDbVertex
100
AcDb2dVertex
 10
83.53029675785348
 20
-137.1302960768285
 30
0.0
  0
VERTEX
  5
73
330
71
100
AcDbEntity
  8
_U+30EC_U+30A4_U+30E4_U+30FC 1
 62
   179
420
  2234388
370
    25
100
AcDbVertex
100
AcDb2dVertex
 10
86.63019028987972
 20
-137.1302960768285
 30
0.0
  0
SEQEND
  5
74
330
71
100
AcDbEntity
  8
_U+30EC_U+30A4_U+30E4_U+30FC 1
 62
   179
420
  2234388
370
    25
  0
POLYLINE
  5
75
330
1F
100
AcDbEntity
  8
_U+30EC_U+30A4_U+30E4_U+30FC 1
 62
   179
420
  2234388
370
    25
100
AcDb2dPolyline
 66
     1
 10
0.0
 20
0.0
 30
0.0
  0
VERTEX
  5
76
330
75
100
AcDbEntity
  8
_U+30EC_U+30A4_U+30E4_U+30FC 1
 62
   179
420
  2234388
370
    25
100
AcDbVertex
100
AcDb2dVertex
 10
87.62996248659563
 20
-138.1300682988011
 30
0.0
  0
VERTEX
  5
77
330
75
100
AcDbEntity
  8
_U+30EC_U+30A4_U+30E4_U+30FC 1
 62
   179
420
  2234388
370
    25
100
AcDbVertex
100
AcDb2dVertex
 10
87.62996248659563
 20
-135.1300813551061
 30
0.0
  0
SEQEND
  5
78
330
75
100
AcDbEntity
  8
_U+30EC_U+30A4_U+30E4_U+30FC 1
 62
   179
420
  2234388
370
    25
  0
POLYLINE
  5
79
330
1F
100
AcDbEntity
  8
_U+30EC_U+30A4_U+30E4_U+30FC 1
 62
   179
420
  2234388
370
    25
100
AcDb2dPolyline
 66
     1
 10
0.0
 20
0.0
 30
0.0
  0
VERTEX
  5
7A
330
79
100
AcDbEntity
  8
_U+30EC_U+30A4_U+30E4_U+30FC 1
 62
   179
420
  2234388
370
    25
100
AcDbVertex
100
AcDb2dVertex
 10
86.63019028987972
 20
-137.1302960768285
 30
0.0
  0
VERTEX
  5
7B
330
79
100
AcDbEntity
  8
_U+30EC_U+30A4_U+30E4_U+30FC 1
 62
   179
420
  2234388
370
    25
100
AcDbVertex
100
AcDb2dVertex
 10
86.63019028987972
 20
-135.1300813551061
 30
0.0
  0
SEQEND
  5
7C
330
79
100
AcDbEntity
  8
_U+30EC_U+30A4_U+30E4_U+30FC 1
 62
   179
420
  2234388
370
    25
  0
POLYLINE
  5
7D
330
1F
100
AcDbEntity
  8
_U+30EC_U+30A4_U+30E4_U+30FC 1
 62
   179
420
  2234388
370
    25
100
AcDb2dPolyline
 66
     1
 10
0.0
 20
0.0
 30
0.0
  0
VERTEX
  5
7E
330
7D
100
AcDbEntity
  8
_U+30EC_U+30A4_U+30E4_U+30FC 1
 62
   179
420
  2234388
370
    25
100
AcDbVertex
100
AcDb2dVertex
 10
83.53029675785348
 20
-128.5070666345399
 30
0.0
  0
VERTEX
  5
7F
330
7D
100
AcDbEntity
  8
_U+30EC_U+30A4_U+30E4_U+30FC 1
 62
   179
420
  2234388
370
    25
100
AcDbVertex
100
AcDb2dVertex
 10
83.53029675785348
 20
-122.6298946915647
 30
0.0
  0
SEQEND
  5
80
330
7D
100
AcDbEntity
  8
_U+30EC_U+30A4_U+30E4_U+30FC 1
 62
   179
420
  2234388
370
    25
  0
POLYLINE
  5
81
330
1F
100
AcDbEntity
  8
_U+30EC_U+30A4_U+30E4_U+30FC 1
 62
   179
420
  2234388
370
    25
100
AcDb2dPolyline
 66
     1
 10
0.0
 20
0.0
 30
0.0
  0
VERTEX
  5
82
330
81
100
AcDbEntity
  8
_U+30EC_U+30A4_U+30E4_U+30FC 1
 62
   179
420
  2234388
370
    25
100
AcDbVertex
100
AcDb2dVertex
 10
83.53029675785348
 20
-137.1302960768285
 30
0.0
  0
VERTEX
  5
83
330
81
100
AcDbEntity
  8
_U+30EC_U+30A4_U+30E4_U+30FC 1
 62
   179
420
  2234388
370
    25
100
AcDbVertex
100
AcDb2dVertex
 10
83.53029675785348
 20
-129.2530858010198
 30
0.0
  0
SEQEND
  5
84
330
81
100
AcDbEntity
  8
_U+30EC_U+30A4_U+30E4_U+30FC 1
 62
   179
420
  2234388
370
    25
  0
SPLINE
  5
85
330
1F
100
AcDbEntity
  8
_U+30EC_U+30A4_U+30E4_U+30FC 1
 62
   179
420
  2234388
370
     9
100
AcDbSpline
210
0.0
220
0.0
230
1.0
 70
    11
 71
     3
 72
    17
 73
    13
 74
     0
 42
0.0000000001
 43
0.0000000001
 12
1.0
 22
0.0
 32
0.0
 13
1.0
 23
0.0
 33
0.0
 40
0.0
 40
0.0
 40
0.0
 40
0.0
 40
1.0
 40
1.0
 40
1.0
 40
2.0
 40
2.0
 40
2.0
 40
3.0
 40
3.0
 40
3.0
 40
4.0
 40
4.0
 40
4.0
 40
4.0
 10
74.73050226013272
 20
-117.630045803926
 30
0.0
 10
74.73050226013272
 20
-117.5749066372729
 30
0.0
 10
74.68569948349796
 20
-117.530139137284
 30
0.0
 10
74.63059559601489
 20
-117.530139137284
 30
0.0
 10
74.57545831468963
 20
-117.530139137284
 30
0.0
 10
74.53068893189705
 20
-117.5749066372729
 30
0.0
 10
74.53068893189705
 20
-117.630045803926
 30
0.0
 10
74.53068893189705
 20
-117.6853260816898
 30
0.0
 10
74.57545831468963
 20
-117.7300935816786
 30
0.0
 10
74.63059559601489
 20
-117.7300935816786
 30
0.0
 10
74.68569948349796
 20
-117.7300935816786
 30
0.0
 10
74.73050226013272
 20
-117.6853260816898
 30
0.0
 10
74.73050226013272
 20
-117.630045803926
 30
0.0
  0
SPLINE
  5
86
330
1F
100
AcDbEntity
  8
_U+30EC_U+30A4_U+30E4_U+30FC 1
 62
   179
420
  2234388
370
     9
100
AcDbSpline
210
0.0
220
0.0
230
1.0
 70
    11
 71
     3
 72
    17
 73
    13
 74
     0
 42
0.0000000001
 43
0.0000000001
 12
1.0
 22
0.0
 32
0.0
 13
1.0
 23
0.0
 33
0.0
 40
0.0
 40
0.0
 40
0.0
 40
0.0
 40
1.0
 40
1.0
 40
1.0
 40
2.0
 40
2.0
 40
2.0
 40
3.0
 40
3.0
 40
3.0
 40
4.0
 40
4.0
 40
4.0
 40
4.0
 10
102.7306854346774
 20
-117.630045803926
 30
0.0
 10
102.7306854346774
 20
-117.5749066372729
 30
0.0
 10
102.6858826580427
 20
-117.530139137284
 30
0.0
 10
102.630073215022
 20
-117.530139137284
 30
0.0
 10
102.574969327539
 20
-117.530139137284
 30
0.0
 10
102.5301665509042
 20
-117.5749066372729
 30
0.0
 10
102.5301665509042
 20
-117.630045803926
 30
0.0
 10
102.5301665509042
 20
-117.6853260816898
 30
0.0
 10
102.574969327539
 20
-117.7300935816786
 30
0.0
 10
102.630073215022
 20
-117.7300935816786
 30
0.0
 10
102.6858826580427
 20
-117.7300935816786
 30
0.0
 10
102.7306854346774
 20
-117.6853260816898
 30
0.0
 10
102.7306854346774
 20
-117.630045803926
 30
0.0
  0
SPLINE
  5
87
330
1F
100
AcDbEntity
  8
_U+30EC_U+30A4_U+30E4_U+30FC 1
 62
   179
420
  2234388
370
     9
100
AcDbSpline
210
0.0
220
0.0
230
1.0
 70
    11
 71
     3
 72
    17
 73
    13
 74
     0
 42
0.0000000001
 43
0.0000000001
 12
1.0
 22
0.0
 32
0.0
 13
1.0
 23
0.0
 33
0.0
 40
0.0
 40
0.0
 40
0.0
 40
0.0
 40
1.0
 40
1.0
 40
1.0
 40
2.0
 40
2.0
 40
2.0
 40
3.0
 40
3.0
 40
3.0
 40
4.0
 40
4.0
 40
4.0
 40
4.0
 10
106.7304471955395
 20
-121.6301224695925
 30
0.0
 10
106.7304471955395
 20
-121.5750185807172
 30
0.0
 10
106.6856444177728
 20
-121.5302158029508
 30
0.0
 10
106.6305378351839
 20
-121.5302158029508
 30
0.0
 10
106.575398669924
 20
-121.5302158029508
 30
0.0
 10
106.5306311710661
 20
-121.5750185807172
 30
0.0
 10
106.5306311710661
 20
-121.6301224695925
 30
0.0
 10
106.5306311710661
 20
-121.6852616362452
 30
0.0
 10
106.575398669924
 20
-121.7300291362341
 30
0.0
 10
106.6305378351839
 20
-121.7300291362341
 30
0.0
 10
106.6856444177728
 20
-121.7300291362341
 30
0.0
 10
106.7304471955395
 20
-121.6852616362452
 30
0.0
 10
106.7304471955395
 20
-121.6301224695925
 30
0.0
  0
SPLINE
  5
88
330
1F
100
AcDbEntity
  8
_U+30EC_U+30A4_U+30E4_U+30FC 1
 62
   179
420
  2234388
370
     9
100
AcDbSpline
210
0.0
220
0.0
230
1.0
 70
    11
 71
     3
 72
    17
 73
    13
 74
     0
 42
0.0000000001
 43
0.0000000001
 12
1.0
 22
0.0
 32
0.0
 13
1.0
 23
0.0
 33
0.0
 40
0.0
 40
0.0
 40
0.0
 40
0.0
 40
1.0
 40
1.0
 40
1.0
 40
2.0
 40
2.0
 40
2.0
 40
3.0
 40
3.0
 40
3.0
 40
4.0
 40
4.0
 40
4.0
 40
4.0
 10
106.7304471955395
 20
-122.6298946915647
 30
0.0
 10
106.7304471955395
 20
-122.5747908026898
 30
0.0
 10
106.6856444177728
 20
-122.529988024923
 30
0.0
 10
106.6305378351839
 20
-122.529988024923
 30
0.0
 10
106.575398669924
 20
-122.529988024923
 30
0.0
 10
106.5306311710661
 20
-122.5747908026898
 30
0.0
 10
106.5306311710661
 20
-122.6298946915647
 30
0.0
 10
106.5306311710661
 20
-122.6853513582177
 30
0.0
 10
106.575398669924
 20
-122.7301541359841
 30
0.0
 10
106.6305378351839
 20
-122.7301541359841
 30
0.0
 10
106.6856444177728
 20
-122.7301541359841
 30
0.0
 10
106.7304471955395
 20
-122.6853513582177
 30
0.0
 10
106.7304471955395
 20
-122.6298946915647
 30
0.0
  0
SPLINE
  5
89
330
1F
100
AcDbEntity
  8
_U+30EC_U+30A4_U+30E4_U+30FC 1
 62
   179
420
  2234388
370
     9
100
AcDbSpline
210
0.0
220
0.0
230
1.0
 70
    11
 71
     3
 72
    17
 73
    13
 74
     0
 42
0.0000000001
 43
0.0000000001
 12
1.0
 22
0.0
 32
0.0
 13
1.0
 23
0.0
 33
0.0
 40
0.0
 40
0.0
 40
0.0
 40
0.0
 40
1.0
 40
1.0
 40
1.0
 40
2.0
 40
2.0
 40
2.0
 40
3.0
 40
3.0
 40
3.0
 40
4.0
 40
4.0
 40
4.0
 40
4.0
 10
106.7304471955395
 20
-135.1300813551061
 30
0.0
 10
106.7304471955395
 20
-135.0749421884536
 30
0.0
 10
106.6856444177728
 20
-135.0301746884645
 30
0.0
 10
106.6305378351839
 20
-135.0301746884645
 30
0.0
 10
106.575398669924
 20
-135.0301746884645
 30
0.0
 10
106.5306311710661
 20
-135.0749421884536
 30
0.0
 10
106.5306311710661
 20
-135.1300813551061
 30
0.0
 10
106.5306311710661
 20
-135.1851852439816
 30
0.0
 10
106.575398669924
 20
-135.2299880217484
 30
0.0
 10
106.6305378351839
 20
-135.2299880217484
 30
0.0
 10
106.6856444177728
 20
-135.2299880217484
 30
0.0
 10
106.7304471955395
 20
-135.1851852439816
 30
0.0
 10
106.7304471955395
 20
-135.1300813551061
 30
0.0
  0
SPLINE
  5
8A
330
1F
100
AcDbEntity
  8
_U+30EC_U+30A4_U+30E4_U+30FC 1
 62
   179
420
  2234388
370
     9
100
AcDbSpline
210
0.0
220
0.0
230
1.0
 70
    11
 71
     3
 72
    17
 73
    13
 74
     0
 42
0.0000000001
 43
0.0000000001
 12
1.0
 22
0.0
 32
0.0
 13
1.0
 23
0.0
 33
0.0
 40
0.0
 40
0.0
 40
0.0
 40
0.0
 40
1.0
 40
1.0
 40
1.0
 40
2.0
 40
2.0
 40
2.0
 40
3.0
 40
3.0
 40
3.0
 40
4.0
 40
4.0
 40
4.0
 40
4.0
 10
106.7304471955395
 20
-138.1300682988011
 30
0.0
 10
106.7304471955395
 20
-138.0749644099255
 30
0.0
 10
106.6856444177728
 20
-138.0301616321594
 30
0.0
 10
106.6305378351839
 20
-138.0301616321594
 30
0.0
 10
106.575398669924
 20
-138.0301616321594
 30
0.0
 10
106.5306311710661
 20
-138.0749644099255
 30
0.0
 10
106.5306311710661
 20
-138.1300682988011
 30
0.0
 10
106.5306311710661
 20
-138.1852074654535
 30
0.0
 10
106.575398669924
 20
-138.2299749654427
 30
0.0
 10
106.6305378351839
 20
-138.2299749654427
 30
0.0
 10
106.6856444177728
 20
-138.2299749654427
 30
0.0
 10
106.7304471955395
 20
-138.1852074654535
 30
0.0
 10
106.7304471955395
 20
-138.1300682988011
 30
0.0
  0
SPLINE
  5
8B
330
1F
100
AcDbEntity
  8
_U+30EC_U+30A4_U+30E4_U+30FC 1
 62
   179
420
  2234388
370
     9
100
AcDbSpline
210
0.0
220
0.0
230
1.0
 70
    11
 71
     3
 72
    17
 73
    13
 74
     0
 42
0.0000000001
 43
0.0000000001
 12
1.0
 22
0.0
 32
0.0
 13
1.0
 23
0.0
 33
0.0
 40
0.0
 40
0.0
 40
0.0
 40
0.0
 40
1.0
 40
1.0
 40
1.0
 40
2.0
 40
2.0
 40
2.0
 40
3.0
 40
3.0
 40
3.0
 40
4.0
 40
4.0
 40
4.0
 40
4.0
 10
82.73033788937325
 20
-142.1298274644673
 30
0.0
 10
82.73033788937325
 20
-142.0746882978149
 30
0.0
 10
82.68557039051535
 20
-142.0299207978257
 30
0.0
 10
82.63043331267575
 20
-142.0299207978257
 30
0.0
 10
82.57532733777234
 20
-142.0299207978257
 30
0.0
 10
82.53052456113757
 20
-142.0746882978149
 30
0.0
 10
82.53052456113757
 20
-142.1298274644673
 30
0.0
 10
82.53052456113757
 20
-142.1856369088977
 30
0.0
 10
82.57532733777234
 20
-142.229734131109
 30
0.0
 10
82.63043331267575
 20
-142.229734131109
 30
0.0
 10
82.68557039051535
 20
-142.229734131109
 30
0.0
 10
82.73033788937325
 20
-142.1856369088977
 30
0.0
 10
82.73033788937325
 20
-142.1298274644673
 30
0.0
  0
SPLINE
  5
8C
330
1F
100
AcDbEntity
  8
_U+30EC_U+30A4_U+30E4_U+30FC 1
 62
   179
420
  2234388
370
     9
100
AcDbSpline
210
0.0
220
0.0
230
1.0
 70
    11
 71
     3
 72
    17
 73
    13
 74
     0
 42
0.0000000001
 43
0.0000000001
 12
1.0
 22
0.0
 32
0.0
 13
1.0
 23
0.0
 33
0.0
 40
0.0
 40
0.0
 40
0.0
 40
0.0
 40
1.0
 40
1.0
 40
1.0
 40
2.0
 40
2.0
 40
2.0
 40
3.0
 40
3.0
 40
3.0
 40
4.0
 40
4.0
 40
4.0
 40
4.0
 10
87.72986915071347
 20
-142.1298274644673
 30
0.0
 10
87.72986915071347
 20
-142.0746882978149
 30
0.0
 10
87.68510165185558
 20
-142.0299207978257
 30
0.0
 10
87.62996248659563
 20
-142.0299207978257
 30
0.0
 10
87.57485859911256
 20
-142.0299207978257
 30
0.0
 10
87.53005582247779
 20
-142.0746882978149
 30
0.0
 10
87.53005582247779
 20
-142.1298274644673
 30
0.0
 10
87.53005582247779
 20
-142.1856369088977
 30
0.0
 10
87.57485859911256
 20
-142.229734131109
 30
0.0
 10
87.62996248659563
 20
-142.229734131109
 30
0.0
 10
87.68510165185558
 20
-142.229734131109
 30
0.0
 10
87.72986915071347
 20
-142.1856369088977
 30
0.0
 10
87.72986915071347
 20
-142.1298274644673
 30
0.0
  0
SPLINE
  5
8D
330
1F
100
AcDbEntity
  8
_U+30EC_U+30A4_U+30E4_U+30FC 1
 62
   179
420
  2234388
370
     9
100
AcDbSpline
210
0.0
220
0.0
230
1.0
 70
    11
 71
     3
 72
    17
 73
    13
 74
     0
 42
0.0000000001
 43
0.0000000001
 12
1.0
 22
0.0
 32
0.0
 13
1.0
 23
0.0
 33
0.0
 40
0.0
 40
0.0
 40
0.0
 40
0.0
 40
1.0
 40
1.0
 40
1.0
 40
2.0
 40
2.0
 40
2.0
 40
3.0
 40
3.0
 40
3.0
 40
4.0
 40
4.0
 40
4.0
 40
4.0
 10
74.73050226013272
 20
-142.1298274644673
 30
0.0
 10
74.73050226013272
 20
-142.0746882978149
 30
0.0
 10
74.68569948349796
 20
-142.0299207978257
 30
0.0
 10
74.63059559601489
 20
-142.0299207978257
 30
0.0
 10
74.57545831468963
 20
-142.0299207978257
 30
0.0
 10
74.53068893189705
 20
-142.0746882978149
 30
0.0
 10
74.53068893189705
 20
-142.1298274644673
 30
0.0
 10
74.53068893189705
 20
-142.1856369088977
 30
0.0
 10
74.57545831468963
 20
-142.229734131109
 30
0.0
 10
74.63059559601489
 20
-142.229734131109
 30
0.0
 10
74.68569948349796
 20
-142.229734131109
 30
0.0
 10
74.73050226013272
 20
-142.1856369088977
 30
0.0
 10
74.73050226013272
 20
-142.1298274644673
 30
0.0
  0
POLYLINE
  5
8E
330
1F
100
AcDbEntity
  8
_U+30EC_U+30A4_U+30E4_U+30FC 1
 62
   179
420
  2234388
370
     9
100
AcDb2dPolyline
 66
     1
 10
0.0
 20
0.0
 30
0.0
  0
VERTEX
  5
8F
330
8E
100
AcDbEntity
  8
_U+30EC_U+30A4_U+30E4_U+30FC 1
 62
   179
420
  2234388
370
     9
100
AcDbVertex
100
AcDb2dVertex
 10
106.6305378351839
 20
-121.6301224695925
 30
0.0
  0
VERTEX
  5
90
330
8E
100
AcDbEntity
  8
_U+30EC_U+30A4_U+30E4_U+30FC 1
 62
   179
420
  2234388
370
     9
100
AcDbVertex
100
AcDb2dVertex
 10
106.6305378351839
 20
-117.859809970535
 30
0.0
  0
SEQEND
  5
91
330
8E
100
AcDbEntity
  8
_U+30EC_U+30A4_U+30E4_U+30FC 1
 62
   179
420
  2234388
370
     9
  0
POLYLINE
  5
92
330
1F
100
AcDbEntity
  8
_U+30EC_U+30A4_U+30E4_U+30FC 1
 62
   179
420
  2234388
370
     9
100
AcDb2dPolyline
 66
     1
 10
0.0
 20
0.0
 30
0.0
  0
VERTEX
  5
93
330
92
100
AcDbEntity
  8
_U+30EC_U+30A4_U+30E4_U+30FC 1
 62
   179
420
  2234388
370
     9
100
AcDbVertex
100
AcDb2dVertex
 10
106.6305378351839
 20
-121.6301224695925
 30
0.0
  0
VERTEX
  5
94
330
92
100
AcDbEntity
  8
_U+30EC_U+30A4_U+30E4_U+30FC 1
 62
   179
420
  2234388
370
     9
100
AcDbVertex
100
AcDb2dVertex
 10
106.6305378351839
 20
-122.6298946915647
 30
0.0
  0
SEQEND
  5
95
330
92
100
AcDbEntity
  8
_U+30EC_U+30A4_U+30E4_U+30FC 1
 62
   179
420
  2234388
370
     9
  0
POLYLINE
  5
96
330
1F
100
AcDbEntity
  8
_U+30EC_U+30A4_U+30E4_U+30FC 1
 62
   179
420
  2234388
370
     9
100
AcDb2dPolyline
 66
     1
 10
0.0
 20
0.0
 30
0.0
  0
VERTEX
  5
97
330
96
100
AcDbEntity
  8
_U+30EC_U+30A4_U+30E4_U+30FC 1
 62
   179
420
  2234388
370
     9
100
AcDbVertex
100
AcDb2dVertex
 10
105.1704964835438
 20
-121.6301224695925
 30
0.0
  0
VERTEX
  5
98
330
96
100
AcDbEntity
  8
_U+30EC_U+30A4_U+30E4_U+30FC 1
 62
   179
420
  2234388
370
     9
100
AcDbVertex
100
AcDb2dVertex
 10
107.6303100318998
 20
-121.6301224695925
 30
0.0
  0
SEQEND
  5
99
330
96
100
AcDbEntity
  8
_U+30EC_U+30A4_U+30E4_U+30FC 1
 62
   179
420
  2234388
370
     9
  0
POLYLINE
  5
9A
330
1F
100
AcDbEntity
  8
_U+30EC_U+30A4_U+30E4_U+30FC 1
 62
   179
420
  2234388
370
     9
100
AcDb2dPolyline
 66
     1
 10
0.0
 20
0.0
 30
0.0
  0
VERTEX
  5
9B
330
9A
100
AcDbEntity
  8
_U+30EC_U+30A4_U+30E4_U+30FC 1
 62
   179
420
  2234388
370
     9
100
AcDbVertex
100
AcDb2dVertex
 10
105.1704964835438
 20
-122.6298946915647
 30
0.0
  0
VERTEX
  5
9C
330
9A
100
AcDbEntity
  8
_U+30EC_U+30A4_U+30E4_U+30FC 1
 62
   179
420
  2234388
370
     9
100
AcDbVertex
100
AcDb2dVertex
 10
107.6303100318998
 20
-122.6298946915647
 30
0.0
  0
SEQEND
  5
9D
330
9A
100
AcDbEntity
  8
_U+30EC_U+30A4_U+30E4_U+30FC 1
 62
   179
420
  2234388
370
     9
  0
INSERT
  5
9F
330
1F
100
AcDbEntity
  8
_U+30EC_U+30A4_U+30E4_U+30FC 1
100
AcDbBlockReference
  2
block 2
 10
0.0
 20
0.0
 30
0.0
  0
POLYLINE
  5
A4
330
1F
100
AcDbEntity
  8
_U+30EC_U+30A4_U+30E4_U+30FC 1
 62
   179
420
  2234388
370
     9
100
AcDb2dPolyline
 66
     1
 10
0.0
 20
0.0
 30
0.0
  0
VERTEX
  5
A5
330
A4
100
AcDbEntity
  8
_U+30EC_U+30A4_U+30E4_U+30FC 1
 62
   179
420
  2234388
370
     9
100
AcDbVertex
100
AcDb2dVertex
 10
106.6305378351839
 20
-138.1300682988011
 30
0.0
  0
VERTEX
  5
A6
330
A4
100
AcDbEntity
  8
_U+30EC_U+30A4_U+30E4_U+30FC 1
 62
   179
420
  2234388
370
     9
100
AcDbVertex
100
AcDb2dVertex
 10
106.6305378351839
 20
-135.1300813551061
 30
0.0
  0
SEQEND
  5
A7
330
A4
100
AcDbEntity
  8
_U+30EC_U+30A4_U+30E4_U+30FC 1
 62
   179
420
  2234388
370
     9
  0
POLYLINE
  5
A8
330
1F
100
AcDbEntity
  8
_U+30EC_U+30A4_U+30E4_U+30FC 1
 62
   179
420
  2234388
370
     9
100
AcDb2dPolyline
 66
     1
 10
0.0
 20
0.0
 30
0.0
  0
VERTEX
  5
A9
330
A8
100
AcDbEntity
  8
_U+30EC_U+30A4_U+30E4_U+30FC 1
 62
   179
420
  2234388
370
     9
100
AcDbVertex
100
AcDb2dVertex
 10
90.17038575511737
 20
-138.1300682988011
 30
0.0
  0
VERTEX
  5
AA
330
A8
100
AcDbEntity
  8
_U+30EC_U+30A4_U+30E4_U+30FC 1
 62
   179
420
  2234388
370
     9
100
AcDbVertex
100
AcDb2dVertex
 10
107.6303100318998
 20
-138.1300682988011
 30
0.0
  0
SEQEND
  5
AB
330
A8
100
AcDbEntity
  8
_U+30EC_U+30A4_U+30E4_U+30FC 1
 62
   179
420
  2234388
370
     9
  0
INSERT
  5
AD
330
1F
100
AcDbEntity
  8
_U+30EC_U+30A4_U+30E4_U+30FC 1
100
AcDbBlockReference
  2
block 3
 10
0.0
 20
0.0
 30
0.0
  0
POLYLINE
  5
B2
330
1F
100
AcDbEntity
  8
_U+30EC_U+30A4_U+30E4_U+30FC 1
 62
   179
420
  2234388
370
     9
100
AcDb2dPolyline
 66
     1
 10
0.0
 20
0.0
 30
0.0
  0
VERTEX
  5
B3
330
B2
100
AcDbEntity
  8
_U+30EC_U+30A4_U+30E4_U+30FC 1
 62
   179
420
  2234388
370
     9
100
AcDbVertex
100
AcDb2dVertex
 10
74.63059559601489
 20
-142.1298274644673
 30
0.0
  0
VERTEX
  5
B4
330
B2
100
AcDbEntity
  8
_U+30EC_U+30A4_U+30E4_U+30FC 1
 62
   179
420
  2234388
370
     9
100
AcDbVertex
100
AcDb2dVertex
 10
82.63043331267575
 20
-142.1298274644673
 30
0.0
  0
SEQEND
  5
B5
330
B2
100
AcDbEntity
  8
_U+30EC_U+30A4_U+30E4_U+30FC 1
 62
   179
420
  2234388
370
     9
  0
POLYLINE
  5
B6
330
1F
100
AcDbEntity
  8
_U+30EC_U+30A4_U+30E4_U+30FC 1
 62
   179
420
  2234388
370
     9
100
AcDb2dPolyline
 66
     1
 10
0.0
 20
0.0
 30
0.0
  0
VERTEX
  5
B7
330
B6
100
AcDbEntity
  8
_U+30EC_U+30A4_U+30E4_U+30FC 1
 62
   179
420
  2234388
370
     9
100
AcDbVertex
100
AcDb2dVertex
 10
74.63059559601489
 20
-125.1703180242631
 30
0.0
  0
VERTEX
  5
B8
330
B6
100
AcDbEntity
  8
_U+30EC_U+30A4_U+30E4_U+30FC 1
 62
   179
420
  2234388
370
     9
100
AcDbVertex
100
AcDb2dVertex
 10
74.63059559601489
 20
-143.1302699642172
 30
0.0
  0
SEQEND
  5
B9
330
B6
100
AcDbEntity
  8
_U+30EC_U+30A4_U+30E4_U+30FC 1
 62
   179
420
  2234388
370
     9
  0
POLYLINE
  5
BA
330
1F
100
AcDbEntity
  8
_U+30EC_U+30A4_U+30E4_U+30FC 1
 62
   179
420
  2234388
370
     9
100
AcDb2dPolyline
 66
     1
 10
0.0
 20
0.0
 30
0.0
  0
VERTEX
  5
BB
330
BA
100
AcDbEntity
  8
_U+30EC_U+30A4_U+30E4_U+30FC 1
 62
   179
420
  2234388
370
     9
100
AcDbVertex
100
AcDb2dVertex
 10
82.63043331267575
 20
-140.6697860759436
 30
0.0
  0
VERTEX
  5
BC
330
BA
100
AcDbEntity
  8
_U+30EC_U+30A4_U+30E4_U+30FC 1
 62
   179
420
  2234388
370
     9
100
AcDbVertex
100
AcDb2dVertex
 10
82.63043331267575
 20
-143.1302699642172
 30
0.0
  0
SEQEND
  5
BD
330
BA
100
AcDbEntity
  8
_U+30EC_U+30A4_U+30E4_U+30FC 1
 62
   179
420
  2234388
370
     9
  0
INSERT
  5
BF
330
1F
100
AcDbEntity
  8
_U+30EC_U+30A4_U+30E4_U+30FC 1
100
AcDbBlockReference
  2
block 4
 10
0.0
 20
0.0
 30
0.0
  0
POLYLINE
  5
C6
330
1F
100
AcDbEntity
  8
_U+30EC_U+30A4_U+30E4_U+30FC 1
 62
   179
420
  2234388
370
     9
100
AcDb2dPolyline
 66
     1
 10
0.0
 20
0.0
 30
0.0
  0
VERTEX
  5
C7
330
C6
100
AcDbEntity
  8
_U+30EC_U+30A4_U+30E4_U+30FC 1
 62
   179
420
  2234388
370
     9
100
AcDbVertex
100
AcDb2dVertex
 10
82.63043331267575
 20
-142.1298274644673
 30
0.0
  0
VERTEX
  5
C8
330
C6
100
AcDbEntity
  8
_U+30EC_U+30A4_U+30E4_U+30FC 1
 62
   179
420
  2234388
370
     9
100
AcDbVertex
100
AcDb2dVertex
 10
87.62996248659563
 20
-142.1298274644673
 30
0.0
  0
SEQEND
  5
C9
330
C6
100
AcDbEntity
  8
_U+30EC_U+30A4_U+30E4_U+30FC 1
 62
   179
420
  2234388
370
     9
  0
POLYLINE
  5
CA
330
1F
100
AcDbEntity
  8
_U+30EC_U+30A4_U+30E4_U+30FC 1
 62
   179
420
  2234388
370
     9
100
AcDb2dPolyline
 66
     1
 10
0.0
 20
0.0
 30
0.0
  0
VERTEX
  5
CB
330
CA
100
AcDbEntity
  8
_U+30EC_U+30A4_U+30E4_U+30FC 1
 62
   179
420
  2234388
370
     9
100
AcDbVertex
100
AcDb2dVertex
 10
87.62996248659563
 20
-140.6697860759436
 30
0.0
  0
VERTEX
  5
CC
330
CA
100
AcDbEntity
  8
_U+30EC_U+30A4_U+30E4_U+30FC 1
 62
   179
420
  2234388
370
     9
100
AcDbVertex
100
AcDb2dVertex
 10
87.62996248659563
 20
-143.1302699642172
 30
0.0
  0
SEQEND
  5
CD
330
CA
100
AcDbEntity
  8
_U+30EC_U+30A4_U+30E4_U+30FC 1
 62
   179
420
  2234388
370
     9
  0
INSERT
  5
CF
330
1F
100
AcDbEntity
  8
_U+30EC_U+30A4_U+30E4_U+30FC 1
100
AcDbBlockReference
  2
block 5
 10
0.0
 20
0.0
 30
0.0
  0
POLYLINE
  5
D4
330
1F
100
AcDbEntity
  8
_U+30EC_U+30A4_U+30E4_U+30FC 1
 62
   179
420
  2234388
370
     9
100
AcDb2dPolyline
 66
     1
 10
0.0
 20
0.0
 30
0.0
  0
VERTEX
  5
D5
330
D4
100
AcDbEntity
  8
_U+30EC_U+30A4_U+30E4_U+30FC 1
 62
   179
420
  2234388
370
     9
100
AcDbVertex
100
AcDb2dVertex
 10
74.63059559601489
 20
-117.630045803926
 30
0.0
  0
VERTEX
  5
D6
330
D4
100
AcDbEntity
  8
_U+30EC_U+30A4_U+30E4_U+30FC 1
 62
   179
420
  2234388
370
     9
100
AcDbVertex
100
AcDb2dVertex
 10
102.630073215022
 20
-117.630045803926
 30
0.0
  0
SEQEND
  5
D7
330
D4
100
AcDbEntity
  8
_U+30EC_U+30A4_U+30E4_U+30FC 1
 62
   179
420
  2234388
370
     9
  0
POLYLINE
  5
D8
330
1F
100
AcDbEntity
  8
_U+30EC_U+30A4_U+30E4_U+30FC 1
 62
   179
420
  2234388
370
     9
100
AcDb2dPolyline
 66
     1
 10
0.0
 20
0.0
 30
0.0
  0
VERTEX
  5
D9
330
D8
100
AcDbEntity
  8
_U+30EC_U+30A4_U+30E4_U+30FC 1
 62
   179
420
  2234388
370
     9
100
AcDbVertex
100
AcDb2dVertex
 10
74.63059559601489
 20
-119.0900519146718
 30
0.0
  0
VERTEX
  5
DA
330
D8
100
AcDbEntity
  8
_U+30EC_U+30A4_U+30E4_U+30FC 1
 62
   179
420
  2234388
370
     9
100
AcDbVertex
100
AcDb2dVertex
 10
74.63059559601489
 20
-116.6300971930645
 30
0.0
  0
SEQEND
  5
DB
330
D8
100
AcDbEntity
  8
_U+30EC_U+30A4_U+30E4_U+30FC 1
 62
   179
420
  2234388
370
     9
  0
POLYLINE
  5
DC
330
1F
100
AcDbEntity
  8
_U+30EC_U+30A4_U+30E4_U+30FC 1
 62
   179
420
  2234388
370
     9
100
AcDb2dPolyline
 66
     1
 10
0.0
 20
0.0
 30
0.0
  0
VERTEX
  5
DD
330
DC
100
AcDbEntity
  8
_U+30EC_U+30A4_U+30E4_U+30FC 1
 62
   179
420
  2234388
370
     9
100
AcDbVertex
100
AcDb2dVertex
 10
102.630073215022
 20
-119.0900519146718
 30
0.0
  0
VERTEX
  5
DE
330
DC
100
AcDbEntity
  8
_U+30EC_U+30A4_U+30E4_U+30FC 1
 62
   179
420
  2234388
370
     9
100
AcDbVertex
100
AcDb2dVertex
 10
102.630073215022
 20
-116.6300971930645
 30
0.0
  0
SEQEND
  5
DF
330
DC
100
AcDbEntity
  8
_U+30EC_U+30A4_U+30E4_U+30FC 1
 62
   179
420
  2234388
370
     9
  0
INSERT
  5
E1
330
1F
100
AcDbEntity
  8
_U+30EC_U+30A4_U+30E4_U+30FC 1
100
AcDbBlockReference
  2
block 6
 10
0.0
 20
0.0
 30
0.0
  0
POLYLINE
  5
EA
330
1F
100
AcDbEntity
  8
_U+30EC_U+30A4_U+30E4_U+30FC 1
 62
   179
420
  2234388
370
     9
100
AcDb2dPolyline
 66
     1
 10
0.0
 20
0.0
 30
0.0
  0
VERTEX
  5
EB
330
EA
100
AcDbEntity
  8
_U+30EC_U+30A4_U+30E4_U+30FC 1
 62
   179
420
  2234388
370
     9
100
AcDbVertex
100
AcDb2dVertex
 10
106.6305378351839
 20
-135.1300813551061
 30
0.0
  0
VERTEX
  5
EC
330
EA
100
AcDbEntity
  8
_U+30EC_U+30A4_U+30E4_U+30FC 1
 62
   179
420
  2234388
370
     9
100
AcDbVertex
100
AcDb2dVertex
 10
106.6305378351839
 20
-122.6298946915647
 30
0.0
  0
SEQEND
  5
ED
330
EA
100
AcDbEntity
  8
_U+30EC_U+30A4_U+30E4_U+30FC 1
 62
   179
420
  2234388
370
     9
  0
POLYLINE
  5
EE
330
1F
100
AcDbEntity
  8
_U+30EC_U+30A4_U+30E4_U+30FC 1
 62
   179
420
  2234388
370
     9
100
AcDb2dPolyline
 66
     1
 10
0.0
 20
0.0
 30
0.0
  0
VERTEX
  5
EF
330
EE
100
AcDbEntity
  8
_U+30EC_U+30A4_U+30E4_U+30FC 1
 62
   179
420
  2234388
370
     9
100
AcDbVertex
100
AcDb2dVertex
 10
90.17038575511737
 20
-135.1300813551061
 30
0.0
  0
VERTEX
  5
F0
330
EE
100
AcDbEntity
  8
_U+30EC_U+30A4_U+30E4_U+30FC 1
 62
   179
420
  2234388
370
     9
100
AcDbVertex
100
AcDb2dVertex
 10
107.6303100318998
 20
-135.1300813551061
 30
0.0
  0
SEQEND
  5
F1
330
EE
100
AcDbEntity
  8
_U+30EC_U+30A4_U+30E4_U+30FC 1
 62
   179
420
  2234388
370
     9
  0
POLYLINE
  5
F2
330
1F
100
AcDbEntity
  8
_U+30EC_U+30A4_U+30E4_U+30FC 1
 62
   179
420
  2234388
370
     9
100
AcDb2dPolyline
 66
     1
 10
0.0
 20
0.0
 30
0.0
  0
VERTEX
  5
F3
330
F2
100
AcDbEntity
  8
_U+30EC_U+30A4_U+30E4_U+30FC 1
 62
   179
420
  2234388
370
     9
100
AcDbVertex
100
AcDb2dVertex
 10
105.1704964835438
 20
-122.6298946915647
 30
0.0
  0
VERTEX
  5
F4
330
F2
100
AcDbEntity
  8
_U+30EC_U+30A4_U+30E4_U+30FC 1
 62
   179
420
  2234388
370
     9
100
AcDbVertex
100
AcDb2dVertex
 10
107.6303100318998
 20
-122.6298946915647
 30
0.0
  0
SEQEND
  5
F5
330
F2
100
AcDbEntity
  8
_U+30EC_U+30A4_U+30E4_U+30FC 1
 62
   179
420
  2234388
370
     9
  0
INSERT
  5
F7
330
1F
100
AcDbEntity
  8
_U+30EC_U+30A4_U+30E4_U+30FC 1
100
AcDbBlockReference
  2
block 7
 10
0.0
 20
0.0
 30
0.0
  0
POLYLINE
  5
108
330
1F
100
AcDbEntity
  8
_U+30EC_U+30A4_U+30E4_U+30FC 1
 62
   179
420
  2234388
370
    25
100
AcDb2dPolyline
 66
     1
 10
0.0
 20
0.0
 30
0.0
  0
VERTEX
  5
109
330
108
100
AcDbEntity
  8
_U+30EC_U+30A4_U+30E4_U+30FC 1
 62
   179
420
  2234388
370
    25
100
AcDbVertex
100
AcDb2dVertex
 10
83.53029675785348
 20
-129.2530858010198
 30
0.0
  0
VERTEX
  5
10A
330
108
100
AcDbEntity
  8
_U+30EC_U+30A4_U+30E4_U+30FC 1
 62
   179
420
  2234388
370
    25
100
AcDbVertex
100
AcDb2dVertex
 10
83.83072230574454
 20
-128.880340801113
 30
0.0
  0
VERTEX
  5
10B
330
108
100
AcDbEntity
  8
_U+30EC_U+30A4_U+30E4_U+30FC 1
 62
   179
420
  2234388
370
    25
100
AcDbVertex
100
AcDb2dVertex
 10
83.53029675785348
 20
-128.5070666345399
 30
0.0
  0
SEQEND
  5
10D
330
108
100
AcDbEntity
  8
_U+30EC_U+30A4_U+30E4_U+30FC 1
 62
   179
420
  2234388
370
    25
  0
HATCH
  5
10C
330
1F
100
AcDbEntity
  8
_U+30EC_U+30A4_U+30E4_U+30FC 1
 62
   253
420
 11711154
100
AcDbHatch
 10
0.0
 20
0.0
 30
0.0
210
0.0
220
0.0
230
1.0
  2
SOLID
 70
     1
 71
     0
 91
        1
 92
        1
 93
        3
 72
     1
 10
83.53029675785348
 20
-129.2530858010198
 11
83.83072230574454
 21
-128.880340801113
 72
     1
 10
83.83072230574454
 20
-128.880340801113
 11
83.53029675785348
 21
-128.5070666345399
 72
     1
 10
83.53029675785348
 20
-128.5070666345399
 11
83.53029675785348
 21
-129.2530858010198
 97
        0
 75
     2
 76
     1
 98
        0
  0
ENDSEC
  0
SECTION
  2
OBJECTS
  0
DICTIONARY
  5
C
330
0
100
AcDbDictionary
281
     1
  3
ACAD_GROUP
350
D
  3
ACAD_LAYOUT
350
1A
  3
ACAD_MATERIAL
350
3B
  3
ACAD_MLEADERSTYLE
350
10F
  3
ACAD_MLINESTYLE
350
17
  3
ACAD_PLOTSETTINGS
350
19
  3
ACAD_PLOTSTYLENAME
350
E
  3
ACAD_TABLESTYLE
350
10E
  3
ACAD_VISUALSTYLE
350
2A
  0
SUN
  5
3F
330
29
100
AcDbSun
 90
        1
290
     0
 63
     7
421
 16777215
 40
1.0
291
     1
 91
  2455826
 92
 54000000
292
     0
 70
     2
 71
   256
280
     1
  0
DICTIONARY
  5
D
102
{ACAD_REACTORS
330
C
102
}
330
C
100
AcDbDictionary
281
     1
  0
DICTIONARY
  5
1A
102
{ACAD_REACTORS
330
C
102
}
330
C
100
AcDbDictionary
281
     1
  3
Layout1
350
1E
  3
Layout2
350
26
  3
Model
350
22
  0
DICTIONARY
  5
3B
102
{ACAD_REACTORS
330
C
102
}
330
C
100
AcDbDictionary
281
     1
  3
ByBlock
350
3D
  3
ByLayer
350
3C
  3
Global
350
3E
  0
DICTIONARY
  5
10F
102
{ACAD_REACTORS
330
C
102
}
330
C
100
AcDbDictionary
281
     1
  0
DICTIONARY
  5
17
102
{ACAD_REACTORS
330
C
102
}
330
C
100
AcDbDictionary
281
     1
  3
Standard
350
18
  0
DICTIONARY
  5
19
102
{ACAD_REACTORS
330
C
102
}
330
C
100
AcDbDictionary
281
     1
  0
ACDBDICTIONARYWDFLT
  5
E
102
{ACAD_REACTORS
330
C
102
}
330
C
100
AcDbDictionary
281
     1
  3
Normal
350
F
100
AcDbDictionaryWithDefault
340
F
  0
DICTIONARY
  5
10E
102
{ACAD_REACTORS
330
C
102
}
330
C
100
AcDbDictionary
281
     1
  0
DICTIONARY
  5
2A
102
{ACAD_REACTORS
330
C
102
}
330
C
100
AcDbDictionary
281
     1
  3
2dWireframe
350
2F
  3
3D Hidden
350
31
  3
3dWireframe
350
30
  3
Basic
350
32
  3
Brighten
350
36
  3
ColorChange
350
3A
  3
Conceptual
350
34
  3
Dim
350
35
  3
Facepattern
350
39
  3
Flat
350
2B
  3
FlatWithEdges
350
2C
  3
Gouraud
350
2D
  3
GouraudWithEdges
350
2E
  3
Linepattern
350
38
  3
Realistic
350
33
  3
Thicken
350
37
  0
LAYOUT
  5
1E
102
{ACAD_REACTORS
330
1A
102
}
330
1A
100
AcDbPlotSettings
  1

  2
none_device
  4

  6

 40
0.0
 41
0.0
 42
0.0
 43
0.0
 44
0.0
 45
0.0
 46
0.0
 47
0.0
 48
0.0
 49
0.0
140
0.0
141
0.0
142
1.0
143
1.0
 70
   688
 72
     0
 73
     0
 74
     5
  7

 75
    16
 76
     0
 77
     2
 78
   300
147
1.0
148
0.0
149
0.0
100
AcDbLayout
  1
Layout1
 70
     1
 71
     1
 10
0.0
 20
0.0
 11
12.0
 21
9.0
 12
0.0
 22
0.0
 32
0.0
 14
1.000000000000000E+20
 24
1.000000000000000E+20
 34
1.000000000000000E+20
 15
-1.000000000000000E+20
 25
-1.000000000000000E+20
 35
-1.000000000000000E+20
146
0.0
 13
0.0
 23
0.0
 33
0.0
 16
1.0
 26
0.0
 36
0.0
 17
0.0
 27
1.0
 37
0.0
 76
     0
330
1B
  0
LAYOUT
  5
26
102
{ACAD_REACTORS
330
1A
102
}
330
1A
100
AcDbPlotSettings
  1

  2
none_device
  4

  6

 40
0.0
 41
0.0
 42
0.0
 43
0.0
 44
0.0
 45
0.0
 46
0.0
 47
0.0
 48
0.0
 49
0.0
140
0.0
141
0.0
142
1.0
143
1.0
 70
   688
 72
     0
 73
     0
 74
     5
  7

 75
    16
 76
     0
 77
     2
 78
   300
147
1.0
148
0.0
149
0.0
100
AcDbLayout
  1
Layout2
 70
     1
 71
     2
 10
0.0
 20
0.0
 11
0.0
 21
0.0
 12
0.0
 22
0.0
 32
0.0
 14
0.0
 24
0.0
 34
0.0
 15
0.0
 25
0.0
 35
0.0
146
0.0
 13
0.0
 23
0.0
 33
0.0
 16
1.0
 26
0.0
 36
0.0
 17
0.0
 27
1.0
 37
0.0
 76
     0
330
23
  0
LAYOUT
  5
22
102
{ACAD_REACTORS
330
1A
102
}
330
1A
100
AcDbPlotSettings
  1

  2
none_device
  4

  6

 40
0.0
 41
0.0
 42
0.0
 43
0.0
 44
0.0
 45
0.0
 46
0.0
 47
0.0
 48
0.0
 49
0.0
140
0.0
141
0.0
142
1.0
143
1.0
 70
  1712
 72
     0
 73
     0
 74
     0
  7

 75
     0
 76
     0
 77
     2
 78
   300
147
1.0
148
0.0
149
0.0
100
AcDbLayout
  1
Model
 70
     1
 71
     0
 10
0.0
 20
0.0
 11
12.0
 21
9.0
 12
0.0
 22
0.0
 32
0.0
 14
1.000000000000000E+20
 24
1.000000000000000E+20
 34
1.000000000000000E+20
 15
-1.000000000000000E+20
 25
-1.000000000000000E+20
 35
-1.000000000000000E+20
146
0.0
 13
0.0
 23
0.0
 33
0.0
 16
1.0
 26
0.0
 36
0.0
 17
0.0
 27
1.0
 37
0.0
 76
     0
330
1F
331
29
  0
MATERIAL
  5
3D
102
{ACAD_REACTORS
330
3B
102
}
330
3B
100
AcDbMaterial
  1
ByBlock
 72
     1
 94
      127
  0
MATERIAL
  5
3C
102
{ACAD_REACTORS
330
3B
102
}
330
3B
100
AcDbMaterial
  1
ByLayer
 72
     1
 94
      127
  0
MATERIAL
  5
3E
102
{ACAD_REACTORS
330
3B
102
}
330
3B
100
AcDbMaterial
  1
Global
 72
     1
 94
      127
  0
MLINESTYLE
  5
18
102
{ACAD_REACTORS
330
17
102
}
330
17
100
AcDbMlineStyle
  2
Standard
 70
     0
  3

 62
   256
 51
90.0
 52
90.0
 71
     2
 49
0.5
 62
   256
  6
BYLAYER
 49
-0.5
 62
   256
  6
BYLAYER
  0
ACDBPLACEHOLDER
  5
F
102
{ACAD_REACTORS
330
E
102
}
330
E
  0
VISUALSTYLE
  5
2F
102
{ACAD_REACTORS
330
2A
102
}
330
2A
100
AcDbVisualStyle
  2
2dWireframe
 70
     4
177
     2
291
     0
 71
     0
176
     1
 72
     2
176
     1
 73
     0
176
     1
 90
        0
176
     1
 40
-0.6
176
     1
 41
-30.0
176
     1
 62
     5
 63
     7
421
 16777215
176
     1
 74
     1
176
     1
 91
        4
176
     1
 64
     7
176
     1
 65
   257
176
     1
 75
     1
176
     1
175
     1
176
     1
 42
1.0
176
     1
 92
        0
176
     1
 66
   257
176
     1
 43
1.0
176
     1
 76
     1
176
     1
 77
     6
176
     1
 78
     2
176
     1
 67
     7
176
     1
 79
     5
176
     1
170
     0
176
     1
171
     0
176
     1
290
     0
176
     1
 93
        1
176
     1
 44
0.0
176
     1
173
     0
176
     1
  0
VISUALSTYLE
  5
31
102
{ACAD_REACTORS
330
2A
102
}
330
2A
100
AcDbVisualStyle
  2
3D Hidden
 70
     6
177
     2
291
     0
 71
     1
176
     1
 72
     2
176
     1
 73
     2
176
     1
 90
        0
176
     1
 40
-0.6
176
     1
 41
-30.0
176
     1
 62
     5
 63
     7
421
 16777215
176
     1
 74
     2
176
     1
 91
        2
176
     1
 64
     7
176
     1
 65
   257
176
     1
 75
     2
176
     1
175
     1
176
     1
 42
40.0
176
     1
 92
        0
176
     1
 66
   257
176
     1
 43
1.0
176
     1
 76
     1
176
     1
 77
     6
176
     1
 78
     2
176
     1
 67
     7
176
     1
 79
     3
176
     1
170
     0
176
     1
171
     0
176
     1
290
     0
176
     1
 93
        1
176
     1
 44
0.0
176
     1
173
     0
176
     1
  0
VISUALSTYLE
  5
30
102
{ACAD_REACTORS
330
2A
102
}
330
2A
100
AcDbVisualStyle
  2
3dWireframe
 70
     5
177
     2
291
     0
 71
     0
176
     1
 72
     2
176
     1
 73
     0
176
     1
 90
        0
176
     1
 40
-0.6
176
     1
 41
-30.0
176
     1
 62
     5
 63
     7
421
 16777215
176
     1
 74
     1
176
     1
 91
        4
176
     1
 64
     7
176
     1
 65
   257
176
     1
 75
     1
176
     1
175
     1
176
     1
 42
1.0
176
     1
 92
        0
176
     1
 66
   257
176
     1
 43
1.0
176
     1
 76
     1
176
     1
 77
     6
176
     1
 78
     2
176
     1
 67
     7
176
     1
 79
     5
176
     1
170
     0
176
     1
171
     0
176
     1
290
     0
176
     1
 93
        1
176
     1
 44
0.0
176
     1
173
     0
176
     1
  0
VISUALSTYLE
  5
32
102
{ACAD_REACTORS
330
2A
102
}
330
2A
100
AcDbVisualStyle
  2
Basic
 70
     7
177
     2
291
     1
 71
     1
176
     1
 72
     0
176
     1
 73
     1
176
     1
 90
        0
176
     1
 40
-0.6
176
     1
 41
-30.0
176
     1
 62
     5
 63
     7
421
 16777215
176
     1
 74
     0
176
     1
 91
        4
176
     1
 64
     7
176
     1
 65
   257
176
     1
 75
     1
176
     1
175
     1
176
     1
 42
1.0
176
     1
 92
        8
176
     1
 66
     7
176
     1
 43
1.0
176
     1
 76
     1
176
     1
 77
     6
176
     1
 78
     2
176
     1
 67
     7
176
     1
 79
     5
176
     1
170
     0
176
     1
171
     0
176
     1
290
     0
176
     1
 93
        1
176
     1
 44
0.0
176
     1
173
     0
176
     1
  0
VISUALSTYLE
  5
36
102
{ACAD_REACTORS
330
2A
102
}
330
2A
100
AcDbVisualStyle
  2
Brighten
 70
    12
177
     2
291
     1
 71
     2
176
     1
 72
     2
176
     1
 73
     0
176
     1
 90
        0
176
     1
 40
-0.6
176
     1
 41
-30.0
176
     1
 62
     5
 63
     7
421
 16777215
176
     1
 74
     1
176
     1
 91
        4
176
     1
 64
     7
176
     1
 65
   257
176
     1
 75
     1
176
     1
175
     1
176
     1
 42
1.0
176
     1
 92
        8
176
     1
 66
     7
176
     1
 43
1.0
176
     1
 76
     1
176
     1
 77
     6
176
     1
 78
     2
176
     1
 67
     7
176
     1
 79
     5
176
     1
170
     0
176
     1
171
     0
176
     1
290
     0
176
     1
 93
        1
176
     1
 44
50.0
176
     1
173
     0
176
     1
  0
VISUALSTYLE
  5
3A
102
{ACAD_REACTORS
330
2A
102
}
330
2A
100
AcDbVisualStyle
  2
ColorChange
 70
    16
177
     2
291
     1
 71
     2
176
     1
 72
     2
176
     1
 73
     3
176
     1
 90
        0
176
     1
 40
-0.6
176
     1
 41
-30.0
176
     1
 62
     5
 63
     8
421
  8421504
176
     1
 74
     1
176
     1
 91
        4
176
     1
 64
     7
176
     1
 65
   257
176
     1
 75
     1
176
     1
175
     1
176
     1
 42
1.0
176
     1
 92
        8
176
     1
 66
     8
424
  8421504
176
     1
 43
1.0
176
     1
 76
     1
176
     1
 77
     6
176
     1
 78
     2
176
     1
 67
     7
176
     1
 79
     5
176
     1
170
     0
176
     1
171
     0
176
     1
290
     0
176
     1
 93
        1
176
     1
 44
0.0
176
     1
173
     0
176
     1
  0
VISUALSTYLE
  5
34
102
{ACAD_REACTORS
330
2A
102
}
330
2A
100
AcDbVisualStyle
  2
Conceptual
 70
     9
177
     2
291
     0
 71
     3
176
     1
 72
     2
176
     1
 73
     0
176
     1
 90
        0
176
     1
 40
-0.6
176
     1
 41
-30.0
176
     1
 62
     5
 63
     7
421
 16777215
176
     1
 74
     2
176
     1
 91
        2
176
     1
 64
     7
176
     1
 65
   257
176
     1
 75
     1
176
     1
175
     1
176
     1
 42
40.0
176
     1
 92
        8
176
     1
 66
     7
176
     1
 43
1.0
176
     1
 76
     1
176
     1
 77
     6
176
     1
 78
     2
176
     1
 67
     7
176
     1
 79
     3
176
     1
170
     0
176
     1
171
     0
176
     1
290
     0
176
     1
 93
        1
176
     1
 44
0.0
176
     1
173
     0
176
     1
  0
VISUALSTYLE
  5
35
102
{ACAD_REACTORS
330
2A
102
}
330
2A
100
AcDbVisualStyle
  2
Dim
 70
    11
177
     2
291
     1
 71
     2
176
     1
 72
     2
176
     1
 73
     0
176
     1
 90
        0
176
     1
 40
-0.6
176
     1
 41
-30.0
176
     1
 62
     5
 63
     7
421
 16777215
176
     1
 74
     1
176
     1
 91
        4
176
     1
 64
     7
176
     1
 65
   257
176
     1
 75
     1
176
     1
175
     1
176
     1
 42
1.0
176
     1
 92
        8
176
     1
 66
     7
176
     1
 43
1.0
176
     1
 76
     1
176
     1
 77
     6
176
     1
 78
     2
176
     1
 67
     7
176
     1
 79
     5
176
     1
170
     0
176
     1
171
     0
176
     1
290
     0
176
     1
 93
        1
176
     1
 44
-50.0
176
     1
173
     0
176
     1
  0
VISUALSTYLE
  5
39
102
{ACAD_REACTORS
330
2A
102
}
330
2A
100
AcDbVisualStyle
  2
Facepattern
 70
    15
177
     2
291
     1
 71
     2
176
     1
 72
     2
176
     1
 73
     0
176
     1
 90
        0
176
     1
 40
-0.6
176
     1
 41
-30.0
176
     1
 62
     5
 63
     7
421
 16777215
176
     1
 74
     1
176
     1
 91
        4
176
     1
 64
     7
176
     1
 65
   257
176
     1
 75
     1
176
     1
175
     1
176
     1
 42
1.0
176
     1
 92
        8
176
     1
 66
     7
176
     1
 43
1.0
176
     1
 76
     1
176
     1
 77
     6
176
     1
 78
     2
176
     1
 67
     7
176
     1
 79
     5
176
     1
170
     0
176
     1
171
     0
176
     1
290
     0
176
     1
 93
        1
176
     1
 44
0.0
176
     1
173
     0
176
     1
  0
VISUALSTYLE
  5
2B
102
{ACAD_REACTORS
330
2A
102
}
330
2A
100
AcDbVisualStyle
  2
Flat
 70
     0
177
     2
291
     1
 71
     2
176
     1
 72
     1
176
     1
 73
     1
176
     1
 90
        2
176
     1
 40
-0.6
176
     1
 41
30.0
176
     1
 62
     5
 63
     7
421
 16777215
176
     1
 74
     0
176
     1
 91
        4
176
     1
 64
     7
176
     1
 65
   257
176
     1
 75
     1
176
     1
175
     1
176
     1
 42
1.0
176
     1
 92
        8
176
     1
 66
     7
176
     1
 43
1.0
176
     1
 76
     1
176
     1
 77
     6
176
     1
 78
     2
176
     1
 67
     7
176
     1
 79
     5
176
     1
170
     0
176
     1
171
     0
176
     1
290
     0
176
     1
 93
       13
176
     1
 44
0.0
176
     1
173
     0
176
     1
  0
VISUALSTYLE
  5
2C
102
{ACAD_REACTORS
330
2A
102
}
330
2A
100
AcDbVisualStyle
  2
FlatWithEdges
 70
     1
177
     2
291
     1
 71
     2
176
     1
 72
     1
176
     1
 73
     1
176
     1
 90
        2
176
     1
 40
-0.6
176
     1
 41
30.0
176
     1
 62
     5
 63
     7
421
 16777215
176
     1
 74
     1
176
     1
 91
        4
176
     1
 64
     7
176
     1
 65
   257
176
     1
 75
     1
176
     1
175
     1
176
     1
 42
1.0
176
     1
 92
        0
176
     1
 66
   257
176
     1
 43
1.0
176
     1
 76
     1
176
     1
 77
     6
176
     1
 78
     2
176
     1
 67
     7
176
     1
 79
     5
176
     1
170
     0
176
     1
171
     0
176
     1
290
     0
176
     1
 93
       13
176
     1
 44
0.0
176
     1
173
     0
176
     1
  0
VISUALSTYLE
  5
2D
102
{ACAD_REACTORS
330
2A
102
}
330
2A
100
AcDbVisualStyle
  2
Gouraud
 70
     2
177
     2
291
     1
 71
     2
176
     1
 72
     2
176
     1
 73
     1
176
     1
 90
        2
176
     1
 40
-0.6
176
     1
 41
30.0
176
     1
 62
     5
 63
     7
421
 16777215
176
     1
 74
     0
176
     1
 91
        4
176
     1
 64
     7
176
     1
 65
   257
176
     1
 75
     1
176
     1
175
     1
176
     1
 42
1.0
176
     1
 92
        0
176
     1
 66
     7
176
     1
 43
1.0
176
     1
 76
     1
176
     1
 77
     6
176
     1
 78
     2
176
     1
 67
     7
176
     1
 79
     5
176
     1
170
     0
176
     1
171
     0
176
     1
290
     0
176
     1
 93
       13
176
     1
 44
0.0
176
     1
173
     0
176
     1
  0
VISUALSTYLE
  5
2E
102
{ACAD_REACTORS
330
2A
102
}
330
2A
100
AcDbVisualStyle
  2
GouraudWithEdges
 70
     3
177
     2
291
     1
 71
     2
176
     1
 72
     2
176
     1
 73
     1
176
     1
 90
        2
176
     1
 40
-0.6
176
     1
 41
30.0
176
     1
 62
     5
 63
     7
421
 16777215
176
     1
 74
     1
176
     1
 91
        4
176
     1
 64
     7
176
     1
 65
   257
176
     1
 75
     1
176
     1
175
     1
176
     1
 42
1.0
176
     1
 92
        0
176
     1
 66
   257
176
     1
 43
1.0
176
     1
 76
     1
176
     1
 77
     6
176
     1
 78
     2
176
     1
 67
     7
176
     1
 79
     5
176
     1
170
     0
176
     1
171
     0
176
     1
290
     0
176
     1
 93
       13
176
     1
 44
0.0
176
     1
173
     0
176
     1
  0
VISUALSTYLE
  5
38
102
{ACAD_REACTORS
330
2A
102
}
330
2A
100
AcDbVisualStyle
  2
Linepattern
 70
    14
177
     2
291
     1
 71
     2
176
     1
 72
     2
176
     1
 73
     0
176
     1
 90
        0
176
     1
 40
-0.6
176
     1
 41
-30.0
176
     1
 62
     5
 63
     7
421
 16777215
176
     1
 74
     1
176
     1
 91
        4
176
     1
 64
     7
176
     1
 65
   257
176
     1
 75
     7
176
     1
175
     7
176
     1
 42
1.0
176
     1
 92
        8
176
     1
 66
     7
176
     1
 43
1.0
176
     1
 76
     1
176
     1
 77
     6
176
     1
 78
     2
176
     1
 67
     7
176
     1
 79
     5
176
     1
170
     0
176
     1
171
     0
176
     1
290
     0
176
     1
 93
        1
176
     1
 44
0.0
176
     1
173
     0
176
     1
  0
VISUALSTYLE
  5
33
102
{ACAD_REACTORS
330
2A
102
}
330
2A
100
AcDbVisualStyle
  2
Realistic
 70
     8
177
     2
291
     0
 71
     2
176
     1
 72
     2
176
     1
 73
     0
176
     1
 90
        0
176
     1
 40
-0.6
176
     1
 41
-30.0
176
     1
 62
     5
 63
     7
421
 16777215
176
     1
 74
     1
176
     1
 91
        0
176
     1
 64
     7
176
     1
 65
   257
176
     1
 75
     1
176
     1
175
     1
176
     1
 42
1.0
176
     1
 92
        8
176
     1
 66
     8
424
  7895160
176
     1
 43
1.0
176
     1
 76
     1
176
     1
 77
     6
176
     1
 78
     2
176
     1
 67
     7
176
     1
 79
     5
176
     1
170
     0
176
     1
171
     0
176
     1
290
     0
176
     1
 93
       13
176
     1
 44
0.0
176
     1
173
     0
176
     1
  0
VISUALSTYLE
  5
37
102
{ACAD_REACTORS
330
2A
102
}
330
2A
100
AcDbVisualStyle
  2
Thicken
 70
    13
177
     2
291
     1
 71
     2
176
     1
 72
     2
176
     1
 73
     0
176
     1
 90
        0
176
     1
 40
-0.6
176
     1
 41
-30.0
176
     1
 62
     5
 63
     7
421
 16777215
176
     1
 74
     1
176
     1
 91
        4
176
     1
 64
     7
176
     1
 65
   257
176
     1
 75
     1
176
     1
175
     1
176
     1
 42
1.0
176
     1
 92
       12
176
     1
 66
     7
176
     1
 43
1.0
176
     1
 76
     1
176
     1
 77
     6
176
     1
 78
     2
176
     1
 67
     7
176
     1
 79
     5
176
     1
170
     0
176
     1
171
     0
176
     1
290
     0
176
     1
 93
        1
176
     1
 44
0.0
176
     1
173
     0
176
     1
  0
ENDSEC
  0
EOF
