  0
SECTION
  2
HEADER
  9
$ACADVER
  1
AC1024
  9
$ACADMAINTVER
 70
     6
  9
$DWGCODEPAGE
  3
UNDEFINED
  9
$INSBASE
 10
0.0
 20
0.0
 30
0.0
  9
$EXTMIN
 10
1.000000000000000E+20
 20
1.000000000000000E+20
 30
1.000000000000000E+20
  9
$EXTMAX
 10
-1.000000000000000E+20
 20
-1.000000000000000E+20
 30
-1.000000000000000E+20
  9
$LIMMIN
 10
0.0
 20
0.0
  9
$LIMMAX
 10
12.0
 20
9.0
  9
$ORTHOMODE
 70
     0
  9
$REGENMODE
 70
     1
  9
$FILLMODE
 70
     1
  9
$QTEXTMODE
 70
     0
  9
$MIRRTEXT
 70
     1
  9
$LTSCALE
 40
1.0
  9
$ATTMODE
 70
     1
  9
$TEXTSIZE
 40
0.2
  9
$TRACEWID
 40
0.05
  9
$TEXTSTYLE
  7
Standard
  9
$CLAYER
  8
0
  9
$CELTYPE
  6
ByLayer
  9
$CECOLOR
 62
   256
  9
$CELTSCALE
 40
1.0
  9
$DISPSILH
 70
     0
  9
$DIMSCALE
 40
1.0
  9
$DIMASZ
 40
0.18
  9
$DIMEXO
 40
0.0625
  9
$DIMDLI
 40
0.38
  9
$DIMRND
 40
0.0
  9
$DIMDLE
 40
0.0
  9
$DIMEXE
 40
0.18
  9
$DIMTP
 40
0.0
  9
$DIMTM
 40
0.0
  9
$DIMTXT
 40
0.18
  9
$DIMCEN
 40
0.09
  9
$DIMTSZ
 40
0.0
  9
$DIMTOL
 70
     0
  9
$DIMLIM
 70
     0
  9
$DIMTIH
 70
     1
  9
$DIMTOH
 70
     1
  9
$DIMSE1
 70
     0
  9
$DIMSE2
 70
     0
  9
$DIMTAD
 70
     0
  9
$DIMZIN
 70
     0
  9
$DIMBLK
  1

  9
$DIMASO
 70
     1
  9
$DIMSHO
 70
     1
  9
$DIMPOST
  1

  9
$DIMAPOST
  1

  9
$DIMALT
 70
     0
  9
$DIMALTD
 70
     2
  9
$DIMALTF
 40
25.4
  9
$DIMLFAC
 40
1.0
  9
$DIMTOFL
 70
     0
  9
$DIMTVP
 40
0.0
  9
$DIMTIX
 70
     0
  9
$DIMSOXD
 70
     0
  9
$DIMSAH
 70
     0
  9
$DIMBLK1
  1

  9
$DIMBLK2
  1

  9
$DIMSTYLE
  2
Standard
  9
$DIMCLRD
 70
     0
  9
$DIMCLRE
 70
     0
  9
$DIMCLRT
 70
     0
  9
$DIMTFAC
 40
1.0
  9
$DIMGAP
 40
0.09
  9
$DIMJUST
 70
     0
  9
$DIMSD1
 70
     0
  9
$DIMSD2
 70
     0
  9
$DIMTOLJ
 70
     1
  9
$DIMTZIN
 70
     0
  9
$DIMALTZ
 70
     0
  9
$DIMALTTZ
 70
     0
  9
$DIMUPT
 70
     0
  9
$DIMDEC
 70
     4
  9
$DIMTDEC
 70
     4
  9
$DIMALTU
 70
     2
  9
$DIMALTTD
 70
     2
  9
$DIMTXSTY
  7
Standard
  9
$DIMAUNIT
 70
     0
  9
$DIMADEC
 70
     0
  9
$DIMALTRND
 40
0.0
  9
$DIMAZIN
 70
     0
  9
$DIMDSEP
 70
    46
  9
$DIMATFIT
 70
     3
  9
$DIMFRAC
 70
     0
  9
$DIMLDRBLK
  1

  9
$DIMLUNIT
 70
     2
  9
$DIMLWD
 70
    -2
  9
$DIMLWE
 70
    -2
  9
$DIMTMOVE
 70
     0
  9
$DIMFXL
 40
1.0
  9
$DIMFXLON
 70
     0
  9
$DIMJOGANG
 40
0.7853981633974483
  9
$DIMTFILL
 70
     0
  9
$DIMTFILLCLR
 70
     0
  9
$DIMARCSYM
 70
     0
  9
$DIMLTYPE
  6

  9
$DIMLTEX1
  6

  9
$DIMLTEX2
  6

  9
$DIMTXTDIRECTION
 70
     0
  9
$LUNITS
 70
     2
  9
$LUPREC
 70
     4
  9
$SKETCHINC
 40
0.1
  9
$FILLETRAD
 40
0.5
  9
$AUNITS
 70
     0
  9
$AUPREC
 70
     0
  9
$MENU
  1
.
  9
$ELEVATION
 40
0.0
  9
$PELEVATION
 40
0.0
  9
$THICKNESS
 40
0.0
  9
$LIMCHECK
 70
     0
  9
$CHAMFERA
 40
0.5
  9
$CHAMFERB
 40
0.5
  9
$CHAMFERC
 40
1.0
  9
$CHAMFERD
 40
0.0
  9
$SKPOLY
 70
     0
  9
$TDCREATE
 40
2457917.614351852
  9
$TDUCREATE
 40
2457917.239351852
  9
$TDUPDATE
 40
2457917.614363414
  9
$TDUUPDATE
 40
2457917.239363426
  9
$TDINDWG
 40
0.0000000116
  9
$TDUSRTIMER
 40
0.0000000116
  9
$USRTIMER
 70
     1
  9
$ANGBASE
 50
0.0
  9
$ANGDIR
 70
     0
  9
$PDMODE
 70
     0
  9
$PDSIZE
 40
0.0
  9
$PLINEWID
 40
0.0
  9
$SPLFRAME
 70
     0
  9
$SPLINETYPE
 70
     6
  9
$SPLINESEGS
 70
     8
  9
$HANDSEED
  5
10D
  9
$SURFTAB1
 70
     6
  9
$SURFTAB2
 70
     6
  9
$SURFTYPE
 70
     6
  9
$SURFU
 70
     6
  9
$SURFV
 70
     6
  9
$UCSBASE
  2

  9
$UCSNAME
  2

  9
$UCSORG
 10
0.0
 20
0.0
 30
0.0
  9
$UCSXDIR
 10
1.0
 20
0.0
 30
0.0
  9
$UCSYDIR
 10
0.0
 20
1.0
 30
0.0
  9
$UCSORTHOREF
  2

  9
$UCSORTHOVIEW
 70
     0
  9
$UCSORGTOP
 10
0.0
 20
0.0
 30
0.0
  9
$UCSORGBOTTOM
 10
0.0
 20
0.0
 30
0.0
  9
$UCSORGLEFT
 10
0.0
 20
0.0
 30
0.0
  9
$UCSORGRIGHT
 10
0.0
 20
0.0
 30
0.0
  9
$UCSORGFRONT
 10
0.0
 20
0.0
 30
0.0
  9
$UCSORGBACK
 10
0.0
 20
0.0
 30
0.0
  9
$PUCSBASE
  2

  9
$PUCSNAME
  2

  9
$PUCSORG
 10
0.0
 20
0.0
 30
0.0
  9
$PUCSXDIR
 10
1.0
 20
0.0
 30
0.0
  9
$PUCSYDIR
 10
0.0
 20
1.0
 30
0.0
  9
$PUCSORTHOREF
  2

  9
$PUCSORTHOVIEW
 70
     0
  9
$PUCSORGTOP
 10
0.0
 20
0.0
 30
0.0
  9
$PUCSORGBOTTOM
 10
0.0
 20
0.0
 30
0.0
  9
$PUCSORGLEFT
 10
0.0
 20
0.0
 30
0.0
  9
$PUCSORGRIGHT
 10
0.0
 20
0.0
 30
0.0
  9
$PUCSORGFRONT
 10
0.0
 20
0.0
 30
0.0
  9
$PUCSORGBACK
 10
0.0
 20
0.0
 30
0.0
  9
$USERI1
 70
     0
  9
$USERI2
 70
     0
  9
$USERI3
 70
     0
  9
$USERI4
 70
     0
  9
$USERI5
 70
     0
  9
$USERR1
 40
0.0
  9
$USERR2
 40
0.0
  9
$USERR3
 40
0.0
  9
$USERR4
 40
0.0
  9
$USERR5
 40
0.0
  9
$WORLDVIEW
 70
     1
  9
$SHADEDGE
 70
     3
  9
$SHADEDIF
 70
    70
  9
$TILEMODE
 70
     1
  9
$MAXACTVP
 70
    64
  9
$PINSBASE
 10
0.0
 20
0.0
 30
0.0
  9
$PLIMCHECK
 70
     0
  9
$PEXTMIN
 10
1.000000000000000E+20
 20
1.000000000000000E+20
 30
1.000000000000000E+20
  9
$PEXTMAX
 10
-1.000000000000000E+20
 20
-1.000000000000000E+20
 30
-1.000000000000000E+20
  9
$PLIMMIN
 10
0.0
 20
0.0
  9
$PLIMMAX
 10
12.0
 20
9.0
  9
$UNITMODE
 70
     0
  9
$VISRETAIN
 70
     1
  9
$PLINEGEN
 70
     0
  9
$PSLTSCALE
 70
     1
  9
$TREEDEPTH
 70
  3020
  9
$CMLSTYLE
  2
Standard
  9
$CMLJUST
 70
     0
  9
$CMLSCALE
 40
1.0
  9
$PROXYGRAPHICS
 70
     1
  9
$MEASUREMENT
 70
     0
  9
$CELWEIGHT
370
    -1
  9
$ENDCAPS
280
     0
  9
$JOINSTYLE
280
     0
  9
$LWDISPLAY
290
     1
  9
$INSUNITS
 70
     1
  9
$HYPERLINKBASE
  1

  9
$STYLESHEET
  1

  9
$XEDIT
290
     1
  9
$CEPSNTYPE
380
     0
  9
$PSTYLEMODE
290
     1
  9
$FINGERPRINTGUID
  2
{67EB44ED-B52E-3992-4DA7-7E690F213064}
  9
$VERSIONGUID
  2
{FAEB1C32-E019-11D5-929B-00C0DF256EC4}
  9
$EXTNAMES
290
     1
  9
$PSVPSCALE
 40
0.0
  9
$OLESTARTUP
290
     0
  9
$SORTENTS
280
   127
  9
$INDEXCTL
280
     0
  9
$HIDETEXT
280
     1
  9
$XCLIPFRAME
280
     2
  9
$HALOGAP
280
     0
  9
$OBSCOLOR
 70
   257
  9
$OBSLTYPE
280
     0
  9
$INTERSECTIONDISPLAY
280
     0
  9
$INTERSECTIONCOLOR
 70
   257
  9
$DIMASSOC
280
     2
  9
$PROJECTNAME
  1

  9
$CAMERADISPLAY
290
     0
  9
$LENSLENGTH
 40
50.0
  9
$CAMERAHEIGHT
 40
0.0
  9
$STEPSPERSEC
 40
2.0
  9
$STEPSIZE
 40
6.0
  9
$3DDWFPREC
 40
2.0
  9
$PSOLWIDTH
 40
0.25
  9
$PSOLHEIGHT
 40
4.0
  9
$LOFTANG1
 40
1.570796326794897
  9
$LOFTANG2
 40
1.570796326794897
  9
$LOFTMAG1
 40
0.0
  9
$LOFTMAG2
 40
0.0
  9
$LOFTPARAM
 70
     7
  9
$LOFTNORMALS
280
     1
  9
$LATITUDE
 40
37.795
  9
$LONGITUDE
 40
-122.394
  9
$NORTHDIRECTION
 40
0.0
  9
$TIMEZONE
 70
 -8000
  9
$LIGHTGLYPHDISPLAY
280
     1
  9
$TILEMODELIGHTSYNCH
280
     1
  9
$CMATERIAL
347
3C
  9
$SOLIDHIST
280
     1
  9
$SHOWHIST
280
     1
  9
$DWFFRAME
280
     2
  9
$DGNFRAME
280
     2
  9
$REALWORLDSCALE
290
     1
  9
$INTERFERECOLOR
 62
   256
  9
$CSHADOW
280
     0
  9
$SHADOWPLANELOCATION
 40
0.0
  0
ENDSEC
  0
SECTION
  2
CLASSES
  0
CLASS
  1
ACDBDICTIONARYWDFLT
  2
AcDbDictionaryWithDefault
  3
ObjectDBX Classes
 90
        0
 91
        4
280
     0
281
     0
  0
CLASS
  1
VISUALSTYLE
  2
AcDbVisualStyle
  3
ObjectDBX Classes
 90
     4095
 91
        4
280
     0
281
     0
  0
CLASS
  1
MATERIAL
  2
AcDbMaterial
  3
ObjectDBX Classes
 90
     1153
 91
        4
280
     0
281
     0
  0
CLASS
  1
SUN
  2
AcDbSun
  3
SCENEOE
 90
     1024
 91
        4
280
     0
281
     0
  0
ENDSEC
  0
SECTION
  2
TABLES
  0
TABLE
  2
VPORT
  5
8
330
0
100
AcDbSymbolTable
 70
     1
  0
VPORT
  5
29
330
8
100
AcDbSymbolTableRecord
100
AcDbViewportTableRecord
  2
*Active
 70
     0
 10
0.0
 20
0.0
 11
1.0
 21
1.0
 12
0.0
 22
0.0
 13
0.0
 23
0.0
 14
0.5
 24
0.5
 15
0.5
 25
0.5
 16
0.0
 26
0.0
 36
1.0
 17
91.00082462281999
 27
-128.4993055234307
 37
0.0
 40
256.9986110468615
 41
0.7081814508812795
 42
50.0
 43
0.0
 44
0.0
 50
0.0
 51
0.0
 71
     0
 72
   100
 73
     1
 74
     3
 75
     0
 76
     0
 77
     0
 78
     0
281
     0
 65
     1
110
0.0
120
0.0
130
0.0
111
1.0
121
0.0
131
0.0
112
0.0
122
1.0
132
0.0
 79
     0
146
0.0
 60
     3
 61
     5
292
     1
282
     1
141
0.0
142
0.0
 63
   250
361
3F
  0
ENDTAB
  0
TABLE
  2
LTYPE
  5
5
330
0
100
AcDbSymbolTable
 70
     1
  0
LTYPE
  5
14
330
5
100
AcDbSymbolTableRecord
100
AcDbLinetypeTableRecord
  2
ByBlock
 70
     0
  3

 72
    65
 73
     0
 40
0.0
  0
LTYPE
  5
15
330
5
100
AcDbSymbolTableRecord
100
AcDbLinetypeTableRecord
  2
ByLayer
 70
     0
  3

 72
    65
 73
     0
 40
0.0
  0
LTYPE
  5
16
330
5
100
AcDbSymbolTableRecord
100
AcDbLinetypeTableRecord
  2
Continuous
 70
     0
  3
Solid line
 72
    65
 73
     0
 40
0.0
  0
ENDTAB
  0
TABLE
  2
LAYER
  5
2
330
0
100
AcDbSymbolTable
 70
     2
  0
LAYER
  5
10
330
2
100
AcDbSymbolTableRecord
100
AcDbLayerTableRecord
  2
0
 70
     0
 62
     7
  6
Continuous
370
    -3
390
F
347
3E
  0
LAYER
  5
40
330
2
100
AcDbSymbolTableRecord
100
AcDbLayerTableRecord
  2
_U+30EC_U+30A4_U+30E4_U+30FC 1
 70
     0
 62
     7
  6
Continuous
370
    -3
390
F
347
3E
  0
ENDTAB
  0
TABLE
  2
STYLE
  5
3
330
0
100
AcDbSymbolTable
 70
     1
  0
STYLE
  5
11
330
3
100
AcDbSymbolTableRecord
100
AcDbTextStyleTableRecord
  2
Standard
 70
     0
 40
0.0
 41
1.0
 50
0.0
 71
     0
 42
0.2
  3
txt
  4

  0
ENDTAB
  0
TABLE
  2
VIEW
  5
6
330
0
100
AcDbSymbolTable
 70
     0
  0
ENDTAB
  0
TABLE
  2
UCS
  5
7
330
0
100
AcDbSymbolTable
 70
     0
  0
ENDTAB
  0
TABLE
  2
APPID
  5
9
330
0
100
AcDbSymbolTable
 70
     1
  0
APPID
  5
12
330
9
100
AcDbSymbolTableRecord
100
AcDbRegAppTableRecord
  2
ACAD
 70
     0
  0
ENDTAB
  0
TABLE
  2
DIMSTYLE
  5
A
330
0
100
AcDbSymbolTable
 70
     1
100
AcDbDimStyleTable
  0
DIMSTYLE
105
27
330
A
100
AcDbSymbolTableRecord
100
AcDbDimStyleTableRecord
  2
Standard
 70
     0
178
     0
340
11
  0
ENDTAB
  0
TABLE
  2
BLOCK_RECORD
  5
1
330
0
100
AcDbSymbolTable
 70
     7
  0
BLOCK_RECORD
  5
1F
330
1
100
AcDbSymbolTableRecord
100
AcDbBlockTableRecord
  2
*Model_Space
340
22
 70
     0
280
     1
281
     0
  0
BLOCK_RECORD
  5
1B
330
1
100
AcDbSymbolTableRecord
100
AcDbBlockTableRecord
  2
*Paper_Space
340
1E
 70
     0
280
     1
281
     0
  0
BLOCK_RECORD
  5
23
330
1
100
AcDbSymbolTableRecord
100
AcDbBlockTableRecord
  2
*Paper_Space0
340
26
 70
     0
280
     1
281
     0
  0
BLOCK_RECORD
  5
90
330
1
100
AcDbSymbolTableRecord
100
AcDbBlockTableRecord
  2
block 2
340
0
102
{BLKREFS
331
91
102
}
 70
     0
280
     1
281
     0
  0
BLOCK_RECORD
  5
A9
330
1
100
AcDbSymbolTableRecord
100
AcDbBlockTableRecord
  2
block 3
340
0
102
{BLKREFS
331
AA
102
}
 70
     0
280
     1
281
     0
  0
BLOCK_RECORD
  5
BB
330
1
100
AcDbSymbolTableRecord
100
AcDbBlockTableRecord
  2
block 4
340
0
102
{BLKREFS
331
BC
102
}
 70
     0
280
     1
281
     0
  0
BLOCK_RECORD
  5
CF
330
1
100
AcDbSymbolTableRecord
100
AcDbBlockTableRecord
  2
block 5
340
0
102
{BLKREFS
331
D0
102
}
 70
     0
280
     1
281
     0
  0
BLOCK_RECORD
  5
E5
330
1
100
AcDbSymbolTableRecord
100
AcDbBlockTableRecord
  2
block 6
340
0
102
{BLKREFS
331
E6
102
}
 70
     0
280
     1
281
     0
  0
BLOCK_RECORD
  5
EF
330
1
100
AcDbSymbolTableRecord
100
AcDbBlockTableRecord
  2
block 7
340
0
102
{BLKREFS
331
F0
102
}
 70
     0
280
     1
281
     0
  0
ENDTAB
  0
ENDSEC
  0
SECTION
  2
BLOCKS
  0
BLOCK
  5
20
330
1F
100
AcDbEntity
  8
0
100
AcDbBlockBegin
  2
*Model_Space
 70
     0
 10
0.0
 20
0.0
 30
0.0
  3
*Model_Space
  1

  0
ENDBLK
  5
21
330
1F
100
AcDbEntity
  8
0
100
AcDbBlockEnd
  0
BLOCK
  5
1C
330
1B
100
AcDbEntity
 67
     1
  8
0
100
AcDbBlockBegin
  2
*Paper_Space
 70
     0
 10
0.0
 20
0.0
 30
0.0
  3
*Paper_Space
  1

  0
ENDBLK
  5
1D
330
1B
100
AcDbEntity
 67
     1
  8
0
100
AcDbBlockEnd
  0
BLOCK
  5
24
330
23
100
AcDbEntity
  8
0
100
AcDbBlockBegin
  2
*Paper_Space0
 70
     0
 10
0.0
 20
0.0
 30
0.0
  3
*Paper_Space0
  1

  0
ENDBLK
  5
25
330
23
100
AcDbEntity
  8
0
100
AcDbBlockEnd
  0
BLOCK
  5
92
330
90
100
AcDbEntity
  8
0
100
AcDbBlockBegin
  2
block 2
 70
     0
 10
0.0
 20
0.0
 30
0.0
  3
block 2
  1

  0
SPLINE
  5
94
330
90
100
AcDbEntity
  8
_U+30EC_U+30A4_U+30E4_U+30FC 1
370
     0
100
AcDbSpline
210
0.0
220
0.0
230
1.0
 70
    11
 71
     3
 72
    26
 73
    22
 74
     0
 42
0.0000000001
 43
0.0000000001
 12
1.0
 22
0.0
 32
0.0
 13
1.0
 23
0.0
 33
0.0
 40
0.0
 40
0.0
 40
0.0
 40
0.0
 40
1.0
 40
1.0
 40
1.0
 40
2.0
 40
2.0
 40
2.0
 40
3.0
 40
3.0
 40
3.0
 40
4.0
 40
4.0
 40
4.0
 40
5.0
 40
5.0
 40
5.0
 40
6.0
 40
6.0
 40
6.0
 40
7.0
 40
7.0
 40
7.0
 40
7.0
 10
87.51352129973621
 20
-141.5817111191185
 30
0.0
 10
87.51352129973621
 20
-141.5817111191185
 30
0.0
 10
87.51352129973621
 20
-140.4775580160959
 30
0.0
 10
87.51352129973621
 20
-140.4775580160959
 30
0.0
 10
87.51352129973621
 20
-140.4775580160959
 30
0.0
 10
87.18348115224927
 20
-140.4775580160959
 30
0.0
 10
87.18348115224927
 20
-140.4775580160959
 30
0.0
 10
87.18348115224927
 20
-140.4775580160959
 30
0.0
 10
87.18348115224927
 20
-140.3294189102301
 30
0.0
 10
87.18348115224927
 20
-140.3294189102301
 30
0.0
 10
87.51558835702735
 20
-140.3146049996436
 30
0.0
 10
87.56209714607823
 20
-140.1516519831913
 30
0.0
 10
87.59172496725138
 20
-140.037274813081
 30
0.0
 10
87.59172496725138
 20
-140.037274813081
 30
0.0
 10
87.73779701582598
 20
-140.037274813081
 30
0.0
 10
87.73779701582598
 20
-140.037274813081
 30
0.0
 10
87.73779701582598
 20
-140.037274813081
 30
0.0
 10
87.73779701582598
 20
-141.5817111191185
 30
0.0
 10
87.73779701582598
 20
-141.5817111191185
 30
0.0
 10
87.73779701582598
 20
-141.5817111191185
 30
0.0
 10
87.51352129973621
 20
-141.5817111191185
 30
0.0
 10
87.51352129973621
 20
-141.5817111191185
 30
0.0
  0
HATCH
  5
95
330
90
100
AcDbEntity
  8
_U+30EC_U+30A4_U+30E4_U+30FC 1
 62
     7
420
 16777215
100
AcDbHatch
 10
0.0
 20
0.0
 30
0.0
210
0.0
220
0.0
230
1.0
  2
SOLID
 70
     1
 71
     0
 91
        1
 92
        1
 93
        1
 72
     4
 94
        3
 73
     0
 74
     1
 95
       26
 96
       22
 40
0.0
 40
0.0
 40
0.0
 40
0.0
 40
1.0
 40
1.0
 40
1.0
 40
2.0
 40
2.0
 40
2.0
 40
3.0
 40
3.0
 40
3.0
 40
4.0
 40
4.0
 40
4.0
 40
5.0
 40
5.0
 40
5.0
 40
6.0
 40
6.0
 40
6.0
 40
7.0
 40
7.0
 40
7.0
 40
7.0
 10
87.51352129973621
 20
-141.5817111191185
 10
87.51352129973621
 20
-141.5817111191185
 10
87.51352129973621
 20
-140.4775580160959
 10
87.51352129973621
 20
-140.4775580160959
 10
87.51352129973621
 20
-140.4775580160959
 10
87.18348115224927
 20
-140.4775580160959
 10
87.18348115224927
 20
-140.4775580160959
 10
87.18348115224927
 20
-140.4775580160959
 10
87.18348115224927
 20
-140.3294189102301
 10
87.18348115224927
 20
-140.3294189102301
 10
87.51558835702735
 20
-140.3146049996436
 10
87.56209714607823
 20
-140.1516519831913
 10
87.59172496725138
 20
-140.037274813081
 10
87.59172496725138
 20
-140.037274813081
 10
87.73779701582598
 20
-140.037274813081
 10
87.73779701582598
 20
-140.037274813081
 10
87.73779701582598
 20
-140.037274813081
 10
87.73779701582598
 20
-141.5817111191185
 10
87.73779701582598
 20
-141.5817111191185
 10
87.73779701582598
 20
-141.5817111191185
 10
87.51352129973621
 20
-141.5817111191185
 10
87.51352129973621
 20
-141.5817111191185
 97
        0
 97
        0
 75
     2
 76
     1
 98
        0
  0
SPLINE
  5
96
330
90
100
AcDbEntity
  8
_U+30EC_U+30A4_U+30E4_U+30FC 1
370
     0
100
AcDbSpline
210
0.0
220
0.0
230
1.0
 70
    11
 71
     3
 72
    29
 73
    25
 74
     0
 42
0.0000000001
 43
0.0000000001
 12
1.0
 22
0.0
 32
0.0
 13
1.0
 23
0.0
 33
0.0
 40
0.0
 40
0.0
 40
0.0
 40
0.0
 40
1.0
 40
1.0
 40
1.0
 40
2.0
 40
2.0
 40
2.0
 40
3.0
 40
3.0
 40
3.0
 40
4.0
 40
4.0
 40
4.0
 40
5.0
 40
5.0
 40
5.0
 40
6.0
 40
6.0
 40
6.0
 40
7.0
 40
7.0
 40
7.0
 40
8.0
 40
8.0
 40
8.0
 40
8.0
 10
89.13685029238593
 20
-141.4039441920796
 30
0.0
 10
89.02867429414908
 20
-141.6134059975828
 30
0.0
 10
88.85538599124102
 20
-141.6323540227516
 30
0.0
 10
88.73894176383958
 20
-141.6323540227516
 30
0.0
 10
88.57805580467841
 20
-141.6323540227516
 30
0.0
 10
88.43646238023464
 20
-141.5858452337008
 30
0.0
 10
88.34137774484174
 20
-141.4039441920796
 30
0.0
 10
88.23768037073572
 20
-141.209296297163
 30
0.0
 10
88.21838783601832
 20
-140.9722737277778
 30
0.0
 10
88.21838783601832
 20
-140.809665220874
 30
0.0
 10
88.21838783601832
 20
-140.6656602295905
 30
0.0
 10
88.23561331344457
 20
-140.4138237496188
 30
0.0
 10
88.34137774484174
 20
-140.2150417401199
 30
0.0
 10
88.44920923353007
 20
-140.0121256160386
 30
0.0
 10
88.61009519269123
 20
-139.988698966739
 30
0.0
 10
88.73894176383958
 20
-139.988698966739
 30
0.0
 10
88.8977606657096
 20
-139.988698966739
 30
0.0
 10
89.04142114744451
 20
-140.0331406984987
 30
0.0
 10
89.13685029238593
 20
-140.2150417401199
 30
0.0
 10
89.23606904236112
 20
-140.4076225777453
 30
0.0
 10
89.25949569166083
 20
-140.6360324084174
 30
0.0
 10
89.25949569166083
 20
-140.809665220874
 30
0.0
 10
89.25949569166083
 20
-140.9808864664909
 30
0.0
 10
89.23813609965228
 20
-141.2113633544541
 30
0.0
 10
89.13685029238593
 20
-141.4039441920796
 30
0.0
  0
SPLINE
  5
97
330
90
100
AcDbEntity
  8
_U+30EC_U+30A4_U+30E4_U+30FC 1
370
     0
100
AcDbSpline
210
0.0
220
0.0
230
1.0
 70
    11
 71
     3
 72
    17
 73
    13
 74
     0
 42
0.0000000001
 43
0.0000000001
 12
1.0
 22
0.0
 32
0.0
 13
1.0
 23
0.0
 33
0.0
 40
0.0
 40
0.0
 40
0.0
 40
0.0
 40
1.0
 40
1.0
 40
1.0
 40
2.0
 40
2.0
 40
2.0
 40
3.0
 40
3.0
 40
3.0
 40
4.0
 40
4.0
 40
4.0
 40
4.0
 10
88.73894176383958
 20
-140.1812798043644
 30
0.0
 10
88.48917234115896
 20
-140.1812798043644
 30
0.0
 10
88.44266355210809
 20
-140.4648111628005
 30
0.0
 10
88.44266355210809
 20
-140.809665220874
 30
0.0
 10
88.44266355210809
 20
-141.1290255723567
 30
0.0
 10
88.4788370547032
 20
-141.437706127835
 30
0.0
 10
88.73894176383958
 20
-141.437706127835
 30
0.0
 10
88.98664412922903
 20
-141.437706127835
 30
0.0
 10
89.03521997557107
 20
-141.1565863362386
 30
0.0
 10
89.03521997557107
 20
-140.809665220874
 30
0.0
 10
89.03521997557107
 20
-140.4899603598428
 30
0.0
 10
88.99697941568479
 20
-140.1812798043644
 30
0.0
 10
88.73894176383958
 20
-140.1812798043644
 30
0.0
  0
HATCH
  5
98
330
90
100
AcDbEntity
  8
_U+30EC_U+30A4_U+30E4_U+30FC 1
 62
     7
420
 16777215
100
AcDbHatch
 10
0.0
 20
0.0
 30
0.0
210
0.0
220
0.0
230
1.0
  2
SOLID
 70
     1
 71
     0
 91
        2
 92
        1
 93
        1
 72
     4
 94
        3
 73
     0
 74
     1
 95
       29
 96
       25
 40
0.0
 40
0.0
 40
0.0
 40
0.0
 40
1.0
 40
1.0
 40
1.0
 40
2.0
 40
2.0
 40
2.0
 40
3.0
 40
3.0
 40
3.0
 40
4.0
 40
4.0
 40
4.0
 40
5.0
 40
5.0
 40
5.0
 40
6.0
 40
6.0
 40
6.0
 40
7.0
 40
7.0
 40
7.0
 40
8.0
 40
8.0
 40
8.0
 40
8.0
 10
89.13685029238593
 20
-141.4039441920796
 10
89.02867429414908
 20
-141.6134059975828
 10
88.85538599124102
 20
-141.6323540227516
 10
88.73894176383958
 20
-141.6323540227516
 10
88.57805580467841
 20
-141.6323540227516
 10
88.43646238023464
 20
-141.5858452337008
 10
88.34137774484174
 20
-141.4039441920796
 10
88.23768037073572
 20
-141.209296297163
 10
88.21838783601832
 20
-140.9722737277778
 10
88.21838783601832
 20
-140.809665220874
 10
88.21838783601832
 20
-140.6656602295905
 10
88.23561331344457
 20
-140.4138237496188
 10
88.34137774484174
 20
-140.2150417401199
 10
88.44920923353007
 20
-140.0121256160386
 10
88.61009519269123
 20
-139.988698966739
 10
88.73894176383958
 20
-139.988698966739
 10
88.8977606657096
 20
-139.988698966739
 10
89.04142114744451
 20
-140.0331406984987
 10
89.13685029238593
 20
-140.2150417401199
 10
89.23606904236112
 20
-140.4076225777453
 10
89.25949569166083
 20
-140.6360324084174
 10
89.25949569166083
 20
-140.809665220874
 10
89.25949569166083
 20
-140.9808864664909
 10
89.23813609965228
 20
-141.2113633544541
 10
89.13685029238593
 20
-141.4039441920796
 97
        0
 97
        0
 92
        1
 93
        1
 72
     4
 94
        3
 73
     0
 74
     1
 95
       17
 96
       13
 40
0.0
 40
0.0
 40
0.0
 40
0.0
 40
1.0
 40
1.0
 40
1.0
 40
2.0
 40
2.0
 40
2.0
 40
3.0
 40
3.0
 40
3.0
 40
4.0
 40
4.0
 40
4.0
 40
4.0
 10
88.73894176383958
 20
-140.1812798043644
 10
88.48917234115896
 20
-140.1812798043644
 10
88.44266355210809
 20
-140.4648111628005
 10
88.44266355210809
 20
-140.809665220874
 10
88.44266355210809
 20
-141.1290255723567
 10
88.4788370547032
 20
-141.437706127835
 10
88.73894176383958
 20
-141.437706127835
 10
88.98664412922903
 20
-141.437706127835
 10
89.03521997557107
 20
-141.1565863362386
 10
89.03521997557107
 20
-140.809665220874
 10
89.03521997557107
 20
-140.4899603598428
 10
88.99697941568479
 20
-140.1812798043644
 10
88.73894176383958
 20
-140.1812798043644
 97
        0
 97
        0
 75
     2
 76
     1
 98
        0
  0
ENDBLK
  5
93
330
90
100
AcDbEntity
  8
0
100
AcDbBlockEnd
  0
BLOCK
  5
AB
330
A9
100
AcDbEntity
  8
0
100
AcDbBlockBegin
  2
block 3
 70
     0
 10
0.0
 20
0.0
 30
0.0
  3
block 3
  1

  0
SPLINE
  5
AD
330
A9
100
AcDbEntity
  8
_U+30EC_U+30A4_U+30E4_U+30FC 1
370
     0
100
AcDbSpline
210
0.0
220
0.0
230
1.0
 70
    11
 71
     3
 72
    26
 73
    22
 74
     0
 42
0.0000000001
 43
0.0000000001
 12
1.0
 22
0.0
 32
0.0
 13
1.0
 23
0.0
 33
0.0
 40
0.0
 40
0.0
 40
0.0
 40
0.0
 40
1.0
 40
1.0
 40
1.0
 40
2.0
 40
2.0
 40
2.0
 40
3.0
 40
3.0
 40
3.0
 40
4.0
 40
4.0
 40
4.0
 40
5.0
 40
5.0
 40
5.0
 40
6.0
 40
6.0
 40
6.0
 40
7.0
 40
7.0
 40
7.0
 40
7.0
 10
108.8522704805994
 20
-122.0273491448404
 30
0.0
 10
108.8522704805994
 20
-122.0273491448404
 30
0.0
 10
107.7481173775769
 20
-122.0273491448404
 30
0.0
 10
107.7481173775769
 20
-122.0273491448404
 30
0.0
 10
107.7481173775769
 20
-122.0273491448404
 30
0.0
 10
107.7481173775769
 20
-122.3573892923273
 30
0.0
 10
107.7481173775769
 20
-122.3573892923273
 30
0.0
 10
107.7481173775769
 20
-122.3573892923273
 30
0.0
 10
107.5999782717111
 20
-122.3573892923273
 30
0.0
 10
107.5999782717111
 20
-122.3573892923273
 30
0.0
 10
107.5851643611245
 20
-122.0252820875492
 30
0.0
 10
107.4222113446722
 20
-121.9787732984984
 30
0.0
 10
107.3078341745619
 20
-121.9491454773252
 30
0.0
 10
107.3078341745619
 20
-121.9491454773252
 30
0.0
 10
107.3078341745619
 20
-121.8030734287506
 30
0.0
 10
107.3078341745619
 20
-121.8030734287506
 30
0.0
 10
107.3078341745619
 20
-121.8030734287506
 30
0.0
 10
108.8522704805994
 20
-121.8030734287506
 30
0.0
 10
108.8522704805994
 20
-121.8030734287506
 30
0.0
 10
108.8522704805994
 20
-121.8030734287506
 30
0.0
 10
108.8522704805994
 20
-122.0273491448404
 30
0.0
 10
108.8522704805994
 20
-122.0273491448404
 30
0.0
  0
HATCH
  5
AE
330
A9
100
AcDbEntity
  8
_U+30EC_U+30A4_U+30E4_U+30FC 1
 62
     7
420
 16777215
100
AcDbHatch
 10
0.0
 20
0.0
 30
0.0
210
0.0
220
0.0
230
1.0
  2
SOLID
 70
     1
 71
     0
 91
        1
 92
        1
 93
        1
 72
     4
 94
        3
 73
     0
 74
     1
 95
       26
 96
       22
 40
0.0
 40
0.0
 40
0.0
 40
0.0
 40
1.0
 40
1.0
 40
1.0
 40
2.0
 40
2.0
 40
2.0
 40
3.0
 40
3.0
 40
3.0
 40
4.0
 40
4.0
 40
4.0
 40
5.0
 40
5.0
 40
5.0
 40
6.0
 40
6.0
 40
6.0
 40
7.0
 40
7.0
 40
7.0
 40
7.0
 10
108.8522704805994
 20
-122.0273491448404
 10
108.8522704805994
 20
-122.0273491448404
 10
107.7481173775769
 20
-122.0273491448404
 10
107.7481173775769
 20
-122.0273491448404
 10
107.7481173775769
 20
-122.0273491448404
 10
107.7481173775769
 20
-122.3573892923273
 10
107.7481173775769
 20
-122.3573892923273
 10
107.7481173775769
 20
-122.3573892923273
 10
107.5999782717111
 20
-122.3573892923273
 10
107.5999782717111
 20
-122.3573892923273
 10
107.5851643611245
 20
-122.0252820875492
 10
107.4222113446722
 20
-121.9787732984984
 10
107.3078341745619
 20
-121.9491454773252
 10
107.3078341745619
 20
-121.9491454773252
 10
107.3078341745619
 20
-121.8030734287506
 10
107.3078341745619
 20
-121.8030734287506
 10
107.3078341745619
 20
-121.8030734287506
 10
108.8522704805994
 20
-121.8030734287506
 10
108.8522704805994
 20
-121.8030734287506
 10
108.8522704805994
 20
-121.8030734287506
 10
108.8522704805994
 20
-122.0273491448404
 10
108.8522704805994
 20
-122.0273491448404
 97
        0
 97
        0
 75
     2
 76
     1
 98
        0
  0
ENDBLK
  5
AC
330
A9
100
AcDbEntity
  8
0
100
AcDbBlockEnd
  0
BLOCK
  5
BD
330
BB
100
AcDbEntity
  8
0
100
AcDbBlockBegin
  2
block 4
 70
     0
 10
0.0
 20
0.0
 30
0.0
  3
block 4
  1

  0
SPLINE
  5
BF
330
BB
100
AcDbEntity
  8
_U+30EC_U+30A4_U+30E4_U+30FC 1
370
     0
100
AcDbSpline
210
0.0
220
0.0
230
1.0
 70
    11
 71
     3
 72
    62
 73
    58
 74
     0
 42
0.0000000001
 43
0.0000000001
 12
1.0
 22
0.0
 32
0.0
 13
1.0
 23
0.0
 33
0.0
 40
0.0
 40
0.0
 40
0.0
 40
0.0
 40
1.0
 40
1.0
 40
1.0
 40
2.0
 40
2.0
 40
2.0
 40
3.0
 40
3.0
 40
3.0
 40
4.0
 40
4.0
 40
4.0
 40
5.0
 40
5.0
 40
5.0
 40
6.0
 40
6.0
 40
6.0
 40
7.0
 40
7.0
 40
7.0
 40
8.0
 40
8.0
 40
8.0
 40
9.0
 40
9.0
 40
9.0
 40
10.0
 40
10.0
 40
10.0
 40
11.0
 40
11.0
 40
11.0
 40
12.0
 40
12.0
 40
12.0
 40
13.0
 40
13.0
 40
13.0
 40
14.0
 40
14.0
 40
14.0
 40
15.0
 40
15.0
 40
15.0
 40
16.0
 40
16.0
 40
16.0
 40
17.0
 40
17.0
 40
17.0
 40
18.0
 40
18.0
 40
18.0
 40
19.0
 40
19.0
 40
19.0
 40
19.0
 10
87.36865503458145
 20
-116.7389553202076
 30
0.0
 10
87.27322588964003
 20
-116.7389553202076
 30
0.0
 10
87.05549585497224
 20
-116.7177679829733
 30
0.0
 10
86.93043888885767
 20
-116.5315605719956
 30
0.0
 10
86.8563693359248
 20
-116.4194227139507
 30
0.0
 10
86.8522352213425
 20
-116.3200317092012
 30
0.0
 10
86.8481011067602
 20
-116.2354546150384
 30
0.0
 10
86.8481011067602
 20
-116.2354546150384
 30
0.0
 10
87.06824270826766
 20
-116.2354546150384
 30
0.0
 10
87.06824270826766
 20
-116.2354546150384
 30
0.0
 10
87.07030976555882
 20
-116.3095241679712
 30
0.0
 10
87.08064505201456
 20
-116.544307425291
 30
0.0
 10
87.36417641045063
 20
-116.544307425291
 30
0.0
 10
87.5016357203121
 20
-116.544307425291
 30
0.0
 10
87.65425345030866
 20
-116.4745442417147
 30
0.0
 10
87.65425345030866
 20
-116.2459621562684
 30
0.0
 10
87.65425345030866
 20
-116.1296901836412
 30
0.0
 10
87.6160128904224
 20
-116.0809420825249
 30
0.0
 10
87.58431801195809
 20
-116.0492472040606
 30
0.0
 10
87.51024845902522
 20
-115.9751776511277
 30
0.0
 10
87.39380423162378
 20
-115.9626030526066
 30
0.0
 10
87.3390272134083
 20
-115.9626030526066
 30
0.0
 10
87.3197346786909
 20
-115.9626030526066
 30
0.0
 10
87.2839056856443
 20
-115.9646701098977
 30
0.0
 10
87.2563449217623
 20
-115.96880422448
 30
0.0
 10
87.2563449217623
 20
-115.96880422448
 30
0.0
 10
87.2563449217623
 20
-115.7741563295634
 30
0.0
 10
87.2563449217623
 20
-115.7741563295634
 30
0.0
 10
87.29458548164858
 20
-115.7805297562111
 30
0.0
 10
87.33661564656863
 20
-115.7827690682765
 30
0.0
 10
87.3431613279906
 20
-115.7827690682765
 30
0.0
 10
87.40861814221034
 20
-115.7827690682765
 30
0.0
 10
87.60740015170927
 20
-115.7615817310423
 30
0.0
 10
87.60740015170927
 20
-115.5245591616571
 30
0.0
 10
87.60740015170927
 20
-115.3469644893924
 30
0.0
 10
87.47648652326977
 20
-115.2918429616284
 30
0.0
 10
87.36624346774178
 20
-115.2918429616284
 30
0.0
 10
87.10200464402311
 20
-115.2918429616284
 30
0.0
 10
87.09339190530999
 20
-115.5245591616571
 30
0.0
 10
87.08925779072769
 20
-115.5965616572988
 30
0.0
 10
87.08925779072769
 20
-115.5965616572988
 30
0.0
 10
86.88599715709795
 20
-115.5965616572988
 30
0.0
 10
86.88599715709795
 20
-115.5965616572988
 30
0.0
 10
86.89460989581107
 20
-115.4716769459585
 30
0.0
 10
86.92217065969307
 20
-115.0951280094207
 30
0.0
 10
87.37899032103721
 20
-115.0951280094207
 30
0.0
 10
87.60326603712697
 20
-115.0951280094207
 30
0.0
 10
87.84442272109446
 20
-115.2220797780521
 30
0.0
 10
87.84442272109446
 20
-115.5181857350094
 30
0.0
 10
87.84442272109446
 20
-115.7043931459871
 30
0.0
 10
87.74933808570155
 20
-115.7869031828588
 30
0.0
 10
87.64977482617783
 20
-115.8482258824963
 30
0.0
 10
87.71109752581529
 20
-115.8757866463783
 30
0.0
 10
87.89299856743648
 20
-115.9562296259589
 30
0.0
 10
87.89299856743648
 20
-116.2333875577472
 30
0.0
 10
87.89299856743648
 20
-116.571868189173
 30
0.0
 10
87.64564071159553
 20
-116.7389553202076
 30
0.0
 10
87.36865503458145
 20
-116.7389553202076
 30
0.0
  0
HATCH
  5
C0
330
BB
100
AcDbEntity
  8
_U+30EC_U+30A4_U+30E4_U+30FC 1
 62
     7
420
 16777215
100
AcDbHatch
 10
0.0
 20
0.0
 30
0.0
210
0.0
220
0.0
230
1.0
  2
SOLID
 70
     1
 71
     0
 91
        1
 92
        1
 93
        1
 72
     4
 94
        3
 73
     0
 74
     1
 95
       62
 96
       58
 40
0.0
 40
0.0
 40
0.0
 40
0.0
 40
1.0
 40
1.0
 40
1.0
 40
2.0
 40
2.0
 40
2.0
 40
3.0
 40
3.0
 40
3.0
 40
4.0
 40
4.0
 40
4.0
 40
5.0
 40
5.0
 40
5.0
 40
6.0
 40
6.0
 40
6.0
 40
7.0
 40
7.0
 40
7.0
 40
8.0
 40
8.0
 40
8.0
 40
9.0
 40
9.0
 40
9.0
 40
10.0
 40
10.0
 40
10.0
 40
11.0
 40
11.0
 40
11.0
 40
12.0
 40
12.0
 40
12.0
 40
13.0
 40
13.0
 40
13.0
 40
14.0
 40
14.0
 40
14.0
 40
15.0
 40
15.0
 40
15.0
 40
16.0
 40
16.0
 40
16.0
 40
17.0
 40
17.0
 40
17.0
 40
18.0
 40
18.0
 40
18.0
 40
19.0
 40
19.0
 40
19.0
 40
19.0
 10
87.36865503458145
 20
-116.7389553202076
 10
87.27322588964003
 20
-116.7389553202076
 10
87.05549585497224
 20
-116.7177679829733
 10
86.93043888885767
 20
-116.5315605719956
 10
86.8563693359248
 20
-116.4194227139507
 10
86.8522352213425
 20
-116.3200317092012
 10
86.8481011067602
 20
-116.2354546150384
 10
86.8481011067602
 20
-116.2354546150384
 10
87.06824270826766
 20
-116.2354546150384
 10
87.06824270826766
 20
-116.2354546150384
 10
87.07030976555882
 20
-116.3095241679712
 10
87.08064505201456
 20
-116.544307425291
 10
87.36417641045063
 20
-116.544307425291
 10
87.5016357203121
 20
-116.544307425291
 10
87.65425345030866
 20
-116.4745442417147
 10
87.65425345030866
 20
-116.2459621562684
 10
87.65425345030866
 20
-116.1296901836412
 10
87.6160128904224
 20
-116.0809420825249
 10
87.58431801195809
 20
-116.0492472040606
 10
87.51024845902522
 20
-115.9751776511277
 10
87.39380423162378
 20
-115.9626030526066
 10
87.3390272134083
 20
-115.9626030526066
 10
87.3197346786909
 20
-115.9626030526066
 10
87.2839056856443
 20
-115.9646701098977
 10
87.2563449217623
 20
-115.96880422448
 10
87.2563449217623
 20
-115.96880422448
 10
87.2563449217623
 20
-115.7741563295634
 10
87.2563449217623
 20
-115.7741563295634
 10
87.29458548164858
 20
-115.7805297562111
 10
87.33661564656863
 20
-115.7827690682765
 10
87.3431613279906
 20
-115.7827690682765
 10
87.40861814221034
 20
-115.7827690682765
 10
87.60740015170927
 20
-115.7615817310423
 10
87.60740015170927
 20
-115.5245591616571
 10
87.60740015170927
 20
-115.3469644893924
 10
87.47648652326977
 20
-115.2918429616284
 10
87.36624346774178
 20
-115.2918429616284
 10
87.10200464402311
 20
-115.2918429616284
 10
87.09339190530999
 20
-115.5245591616571
 10
87.08925779072769
 20
-115.5965616572988
 10
87.08925779072769
 20
-115.5965616572988
 10
86.88599715709795
 20
-115.5965616572988
 10
86.88599715709795
 20
-115.5965616572988
 10
86.89460989581107
 20
-115.4716769459585
 10
86.92217065969307
 20
-115.0951280094207
 10
87.37899032103721
 20
-115.0951280094207
 10
87.60326603712697
 20
-115.0951280094207
 10
87.84442272109446
 20
-115.2220797780521
 10
87.84442272109446
 20
-115.5181857350094
 10
87.84442272109446
 20
-115.7043931459871
 10
87.74933808570155
 20
-115.7869031828588
 10
87.64977482617783
 20
-115.8482258824963
 10
87.71109752581529
 20
-115.8757866463783
 10
87.89299856743648
 20
-115.9562296259589
 10
87.89299856743648
 20
-116.2333875577472
 10
87.89299856743648
 20
-116.571868189173
 10
87.64564071159553
 20
-116.7389553202076
 10
87.36865503458145
 20
-116.7389553202076
 97
        0
 97
        0
 75
     2
 76
     1
 98
        0
  0
SPLINE
  5
C1
330
BB
100
AcDbEntity
  8
_U+30EC_U+30A4_U+30E4_U+30FC 1
370
     0
100
AcDbSpline
210
0.0
220
0.0
230
1.0
 70
    11
 71
     3
 72
    53
 73
    49
 74
     0
 42
0.0000000001
 43
0.0000000001
 12
1.0
 22
0.0
 32
0.0
 13
1.0
 23
0.0
 33
0.0
 40
0.0
 40
0.0
 40
0.0
 40
0.0
 40
1.0
 40
1.0
 40
1.0
 40
2.0
 40
2.0
 40
2.0
 40
3.0
 40
3.0
 40
3.0
 40
4.0
 40
4.0
 40
4.0
 40
5.0
 40
5.0
 40
5.0
 40
6.0
 40
6.0
 40
6.0
 40
7.0
 40
7.0
 40
7.0
 40
8.0
 40
8.0
 40
8.0
 40
9.0
 40
9.0
 40
9.0
 40
10.0
 40
10.0
 40
10.0
 40
11.0
 40
11.0
 40
11.0
 40
12.0
 40
12.0
 40
12.0
 40
13.0
 40
13.0
 40
13.0
 40
14.0
 40
14.0
 40
14.0
 40
15.0
 40
15.0
 40
15.0
 40
16.0
 40
16.0
 40
16.0
 40
16.0
 10
88.53481985633852
 20
-116.7389553202076
 30
0.0
 10
88.45661618882335
 20
-116.7389553202076
 30
0.0
 10
88.35498587200848
 20
-116.7219020975556
 30
0.0
 10
88.25335555519361
 20
-116.658512340627
 30
0.0
 10
88.08006725228555
 20
-116.5484415398733
 30
0.0
 10
88.058707660277
 20
-116.4173556566596
 30
0.0
 10
88.03975963510813
 20
-116.3095241679712
 30
0.0
 10
88.03975963510813
 20
-116.3095241679712
 30
0.0
 10
88.26196829390673
 20
-116.3095241679712
 30
0.0
 10
88.26196829390673
 20
-116.3095241679712
 30
0.0
 10
88.31674531212221
 20
-116.5083061774701
 30
0.0
 10
88.44386933552792
 20
-116.5379339986433
 30
0.0
 10
88.53688691362967
 20
-116.5379339986433
 30
0.0
 10
88.67641328078228
 20
-116.5379339986433
 30
0.0
 10
88.82868650123034
 20
-116.4385429938938
 30
0.0
 10
88.82868650123034
 20
-116.2058267938652
 30
0.0
 10
88.82868650123034
 20
-115.9498561993112
 30
0.0
 10
88.64885251690029
 20
-115.8800930157348
 30
0.0
 10
88.52827417491655
 20
-115.8800930157348
 30
0.0
 10
88.49657929645225
 20
-115.8800930157348
 30
0.0
 10
88.35498587200848
 20
-115.8800930157348
 30
0.0
 10
88.26610240848903
 20
-116.0091118416574
 30
0.0
 10
88.26610240848903
 20
-116.0091118416574
 30
0.0
 10
88.09040253874129
 20
-115.9899915617143
 30
0.0
 10
88.09040253874129
 20
-115.9899915617143
 30
0.0
 10
88.09040253874129
 20
-115.9899915617143
 30
0.0
 10
88.21098088072503
 20
-115.143876110537
 30
0.0
 10
88.21098088072503
 20
-115.143876110537
 30
0.0
 10
88.21098088072503
 20
-115.143876110537
 30
0.0
 10
88.9895724603915
 20
-115.143876110537
 30
0.0
 10
88.9895724603915
 20
-115.143876110537
 30
0.0
 10
88.9895724603915
 20
-115.143876110537
 30
0.0
 10
88.9895724603915
 20
-115.3385240054536
 30
0.0
 10
88.9895724603915
 20
-115.3385240054536
 30
0.0
 10
88.9895724603915
 20
-115.3385240054536
 30
0.0
 10
88.37393389717735
 20
-115.3385240054536
 30
0.0
 10
88.37393389717735
 20
-115.3385240054536
 30
0.0
 10
88.37393389717735
 20
-115.3385240054536
 30
0.0
 10
88.30847708295761
 20
-115.7615817310423
 30
0.0
 10
88.30847708295761
 20
-115.7615817310423
 30
0.0
 10
88.36979978259505
 20
-115.7276475405125
 30
0.0
 10
88.45213756469252
 20
-115.6875121781094
 30
0.0
 10
88.57064884938512
 20
-115.6875121781094
 30
0.0
 10
88.82455238664804
 20
-115.6875121781094
 30
0.0
 10
89.06157495603323
 20
-115.8737195890871
 30
0.0
 10
89.06157495603323
 20
-116.1867065139221
 30
0.0
 10
89.06157495603323
 20
-116.5041720628878
 30
0.0
 10
88.83729923994346
 20
-116.7389553202076
 30
0.0
 10
88.53481985633852
 20
-116.7389553202076
 30
0.0
  0
HATCH
  5
C2
330
BB
100
AcDbEntity
  8
_U+30EC_U+30A4_U+30E4_U+30FC 1
 62
     7
420
 16777215
100
AcDbHatch
 10
0.0
 20
0.0
 30
0.0
210
0.0
220
0.0
230
1.0
  2
SOLID
 70
     1
 71
     0
 91
        1
 92
        1
 93
        1
 72
     4
 94
        3
 73
     0
 74
     1
 95
       53
 96
       49
 40
0.0
 40
0.0
 40
0.0
 40
0.0
 40
1.0
 40
1.0
 40
1.0
 40
2.0
 40
2.0
 40
2.0
 40
3.0
 40
3.0
 40
3.0
 40
4.0
 40
4.0
 40
4.0
 40
5.0
 40
5.0
 40
5.0
 40
6.0
 40
6.0
 40
6.0
 40
7.0
 40
7.0
 40
7.0
 40
8.0
 40
8.0
 40
8.0
 40
9.0
 40
9.0
 40
9.0
 40
10.0
 40
10.0
 40
10.0
 40
11.0
 40
11.0
 40
11.0
 40
12.0
 40
12.0
 40
12.0
 40
13.0
 40
13.0
 40
13.0
 40
14.0
 40
14.0
 40
14.0
 40
15.0
 40
15.0
 40
15.0
 40
16.0
 40
16.0
 40
16.0
 40
16.0
 10
88.53481985633852
 20
-116.7389553202076
 10
88.45661618882335
 20
-116.7389553202076
 10
88.35498587200848
 20
-116.7219020975556
 10
88.25335555519361
 20
-116.658512340627
 10
88.08006725228555
 20
-116.5484415398733
 10
88.058707660277
 20
-116.4173556566596
 10
88.03975963510813
 20
-116.3095241679712
 10
88.03975963510813
 20
-116.3095241679712
 10
88.26196829390673
 20
-116.3095241679712
 10
88.26196829390673
 20
-116.3095241679712
 10
88.31674531212221
 20
-116.5083061774701
 10
88.44386933552792
 20
-116.5379339986433
 10
88.53688691362967
 20
-116.5379339986433
 10
88.67641328078228
 20
-116.5379339986433
 10
88.82868650123034
 20
-116.4385429938938
 10
88.82868650123034
 20
-116.2058267938652
 10
88.82868650123034
 20
-115.9498561993112
 10
88.64885251690029
 20
-115.8800930157348
 10
88.52827417491655
 20
-115.8800930157348
 10
88.49657929645225
 20
-115.8800930157348
 10
88.35498587200848
 20
-115.8800930157348
 10
88.26610240848903
 20
-116.0091118416574
 10
88.26610240848903
 20
-116.0091118416574
 10
88.09040253874129
 20
-115.9899915617143
 10
88.09040253874129
 20
-115.9899915617143
 10
88.09040253874129
 20
-115.9899915617143
 10
88.21098088072503
 20
-115.143876110537
 10
88.21098088072503
 20
-115.143876110537
 10
88.21098088072503
 20
-115.143876110537
 10
88.9895724603915
 20
-115.143876110537
 10
88.9895724603915
 20
-115.143876110537
 10
88.9895724603915
 20
-115.143876110537
 10
88.9895724603915
 20
-115.3385240054536
 10
88.9895724603915
 20
-115.3385240054536
 10
88.9895724603915
 20
-115.3385240054536
 10
88.37393389717735
 20
-115.3385240054536
 10
88.37393389717735
 20
-115.3385240054536
 10
88.37393389717735
 20
-115.3385240054536
 10
88.30847708295761
 20
-115.7615817310423
 10
88.30847708295761
 20
-115.7615817310423
 10
88.36979978259505
 20
-115.7276475405125
 10
88.45213756469252
 20
-115.6875121781094
 10
88.57064884938512
 20
-115.6875121781094
 10
88.82455238664804
 20
-115.6875121781094
 10
89.06157495603323
 20
-115.8737195890871
 10
89.06157495603323
 20
-116.1867065139221
 10
89.06157495603323
 20
-116.5041720628878
 10
88.83729923994346
 20
-116.7389553202076
 10
88.53481985633852
 20
-116.7389553202076
 97
        0
 97
        0
 75
     2
 76
     1
 98
        0
  0
ENDBLK
  5
BE
330
BB
100
AcDbEntity
  8
0
100
AcDbBlockEnd
  0
BLOCK
  5
D1
330
CF
100
AcDbEntity
  8
0
100
AcDbBlockBegin
  2
block 5
 70
     0
 10
0.0
 20
0.0
 30
0.0
  3
block 5
  1

  0
SPLINE
  5
D3
330
CF
100
AcDbEntity
  8
_U+30EC_U+30A4_U+30E4_U+30FC 1
370
     0
100
AcDbSpline
210
0.0
220
0.0
230
1.0
 70
    11
 71
     3
 72
    26
 73
    22
 74
     0
 42
0.0000000001
 43
0.0000000001
 12
1.0
 22
0.0
 32
0.0
 13
1.0
 23
0.0
 33
0.0
 40
0.0
 40
0.0
 40
0.0
 40
0.0
 40
1.0
 40
1.0
 40
1.0
 40
2.0
 40
2.0
 40
2.0
 40
3.0
 40
3.0
 40
3.0
 40
4.0
 40
4.0
 40
4.0
 40
5.0
 40
5.0
 40
5.0
 40
6.0
 40
6.0
 40
6.0
 40
7.0
 40
7.0
 40
7.0
 40
7.0
 10
76.17433401958489
 20
-141.5817111191185
 30
0.0
 10
76.17433401958489
 20
-141.5817111191185
 30
0.0
 10
76.17433401958489
 20
-140.4775580160959
 30
0.0
 10
76.17433401958489
 20
-140.4775580160959
 30
0.0
 10
76.17433401958489
 20
-140.4775580160959
 30
0.0
 10
75.84429387209796
 20
-140.4775580160959
 30
0.0
 10
75.84429387209796
 20
-140.4775580160959
 30
0.0
 10
75.84429387209796
 20
-140.4775580160959
 30
0.0
 10
75.84429387209796
 20
-140.3294189102301
 30
0.0
 10
75.84429387209796
 20
-140.3294189102301
 30
0.0
 10
76.17640107687605
 20
-140.3146049996436
 30
0.0
 10
76.22290986592691
 20
-140.1516519831913
 30
0.0
 10
76.25253768710006
 20
-140.037274813081
 30
0.0
 10
76.25253768710006
 20
-140.037274813081
 30
0.0
 10
76.39860973567465
 20
-140.037274813081
 30
0.0
 10
76.39860973567465
 20
-140.037274813081
 30
0.0
 10
76.39860973567465
 20
-140.037274813081
 30
0.0
 10
76.39860973567465
 20
-141.5817111191185
 30
0.0
 10
76.39860973567465
 20
-141.5817111191185
 30
0.0
 10
76.39860973567465
 20
-141.5817111191185
 30
0.0
 10
76.17433401958489
 20
-141.5817111191185
 30
0.0
 10
76.17433401958489
 20
-141.5817111191185
 30
0.0
  0
HATCH
  5
D4
330
CF
100
AcDbEntity
  8
_U+30EC_U+30A4_U+30E4_U+30FC 1
 62
     7
420
 16777215
100
AcDbHatch
 10
0.0
 20
0.0
 30
0.0
210
0.0
220
0.0
230
1.0
  2
SOLID
 70
     1
 71
     0
 91
        1
 92
        1
 93
        1
 72
     4
 94
        3
 73
     0
 74
     1
 95
       26
 96
       22
 40
0.0
 40
0.0
 40
0.0
 40
0.0
 40
1.0
 40
1.0
 40
1.0
 40
2.0
 40
2.0
 40
2.0
 40
3.0
 40
3.0
 40
3.0
 40
4.0
 40
4.0
 40
4.0
 40
5.0
 40
5.0
 40
5.0
 40
6.0
 40
6.0
 40
6.0
 40
7.0
 40
7.0
 40
7.0
 40
7.0
 10
76.17433401958489
 20
-141.5817111191185
 10
76.17433401958489
 20
-141.5817111191185
 10
76.17433401958489
 20
-140.4775580160959
 10
76.17433401958489
 20
-140.4775580160959
 10
76.17433401958489
 20
-140.4775580160959
 10
75.84429387209796
 20
-140.4775580160959
 10
75.84429387209796
 20
-140.4775580160959
 10
75.84429387209796
 20
-140.4775580160959
 10
75.84429387209796
 20
-140.3294189102301
 10
75.84429387209796
 20
-140.3294189102301
 10
76.17640107687605
 20
-140.3146049996436
 10
76.22290986592691
 20
-140.1516519831913
 10
76.25253768710006
 20
-140.037274813081
 10
76.25253768710006
 20
-140.037274813081
 10
76.39860973567465
 20
-140.037274813081
 10
76.39860973567465
 20
-140.037274813081
 10
76.39860973567465
 20
-140.037274813081
 10
76.39860973567465
 20
-141.5817111191185
 10
76.39860973567465
 20
-141.5817111191185
 10
76.39860973567465
 20
-141.5817111191185
 10
76.17433401958489
 20
-141.5817111191185
 10
76.17433401958489
 20
-141.5817111191185
 97
        0
 97
        0
 75
     2
 76
     1
 98
        0
  0
SPLINE
  5
D5
330
CF
100
AcDbEntity
  8
_U+30EC_U+30A4_U+30E4_U+30FC 1
370
     0
100
AcDbSpline
210
0.0
220
0.0
230
1.0
 70
    11
 71
     3
 72
    44
 73
    40
 74
     0
 42
0.0000000001
 43
0.0000000001
 12
1.0
 22
0.0
 32
0.0
 13
1.0
 23
0.0
 33
0.0
 40
0.0
 40
0.0
 40
0.0
 40
0.0
 40
1.0
 40
1.0
 40
1.0
 40
2.0
 40
2.0
 40
2.0
 40
3.0
 40
3.0
 40
3.0
 40
4.0
 40
4.0
 40
4.0
 40
5.0
 40
5.0
 40
5.0
 40
6.0
 40
6.0
 40
6.0
 40
7.0
 40
7.0
 40
7.0
 40
8.0
 40
8.0
 40
8.0
 40
9.0
 40
9.0
 40
9.0
 40
10.0
 40
10.0
 40
10.0
 40
11.0
 40
11.0
 40
11.0
 40
12.0
 40
12.0
 40
12.0
 40
13.0
 40
13.0
 40
13.0
 40
13.0
 10
77.49294431656426
 20
-140.9998344916598
 30
0.0
 10
77.27504202712221
 20
-141.1586533935298
 30
0.0
 10
77.1818521942462
 20
-141.2327229464627
 30
0.0
 10
77.13327634790419
 20
-141.3763834281976
 30
0.0
 10
77.13327634790419
 20
-141.3763834281976
 30
0.0
 10
77.91169567279638
 20
-141.3763834281976
 30
0.0
 10
77.91169567279638
 20
-141.3763834281976
 30
0.0
 10
77.91169567279638
 20
-141.3763834281976
 30
0.0
 10
77.91169567279638
 20
-141.5817111191185
 30
0.0
 10
77.91169567279638
 20
-141.5817111191185
 30
0.0
 10
77.91169567279638
 20
-141.5817111191185
 30
0.0
 10
76.88367917999783
 20
-141.5817111191185
 30
0.0
 10
76.88367917999783
 20
-141.5817111191185
 30
0.0
 10
76.91537405846213
 20
-141.2241102077495
 30
0.0
 10
76.98083087268188
 20
-141.1459065402344
 30
0.0
 10
77.3659925479328
 20
-140.8475612712117
 30
0.0
 10
77.62196314248688
 20
-140.6487792617128
 30
0.0
 10
77.68741995670662
 20
-140.5809108806534
 30
0.0
 10
77.68741995670662
 20
-140.4434515707919
 30
0.0
 10
77.68741995670662
 20
-140.3249402860993
 30
0.0
 10
77.61558971583916
 20
-140.1940266576598
 30
0.0
 10
77.4188747636314
 20
-140.1940266576598
 30
0.0
 10
77.15859779972077
 20
-140.1940266576598
 30
0.0
 10
77.15015731578191
 20
-140.4245035456231
 30
0.0
 10
77.14585094642534
 20
-140.5409477730245
 30
0.0
 10
77.14585094642534
 20
-140.5409477730245
 30
0.0
 10
76.92174748510985
 20
-140.5409477730245
 30
0.0
 10
76.92174748510985
 20
-140.5409477730245
 30
0.0
 10
76.9301879690487
 20
-140.4138237496188
 30
0.0
 10
76.94069551027872
 20
-140.3018581463482
 30
0.0
 10
77.0211384898593
 20
-140.1833468616556
 30
0.0
 10
77.13103703583877
 20
-140.0228054120429
 30
0.0
 10
77.31724444681653
 20
-139.988698966739
 30
0.0
 10
77.43368867421798
 20
-139.988698966739
 30
0.0
 10
77.71084660600631
 20
-139.988698966739
 30
0.0
 10
77.9180690994441
 20
-140.1726670656513
 30
0.0
 10
77.9180690994441
 20
-140.4455186280831
 30
0.0
 10
77.9180690994441
 20
-140.6742729683037
 30
0.0
 10
77.80179712681692
 20
-140.7734917182788
 30
0.0
 10
77.49294431656426
 20
-140.9998344916598
 30
0.0
  0
HATCH
  5
D6
330
CF
100
AcDbEntity
  8
_U+30EC_U+30A4_U+30E4_U+30FC 1
 62
     7
420
 16777215
100
AcDbHatch
 10
0.0
 20
0.0
 30
0.0
210
0.0
220
0.0
230
1.0
  2
SOLID
 70
     1
 71
     0
 91
        1
 92
        1
 93
        1
 72
     4
 94
        3
 73
     0
 74
     1
 95
       44
 96
       40
 40
0.0
 40
0.0
 40
0.0
 40
0.0
 40
1.0
 40
1.0
 40
1.0
 40
2.0
 40
2.0
 40
2.0
 40
3.0
 40
3.0
 40
3.0
 40
4.0
 40
4.0
 40
4.0
 40
5.0
 40
5.0
 40
5.0
 40
6.0
 40
6.0
 40
6.0
 40
7.0
 40
7.0
 40
7.0
 40
8.0
 40
8.0
 40
8.0
 40
9.0
 40
9.0
 40
9.0
 40
10.0
 40
10.0
 40
10.0
 40
11.0
 40
11.0
 40
11.0
 40
12.0
 40
12.0
 40
12.0
 40
13.0
 40
13.0
 40
13.0
 40
13.0
 10
77.49294431656426
 20
-140.9998344916598
 10
77.27504202712221
 20
-141.1586533935298
 10
77.1818521942462
 20
-141.2327229464627
 10
77.13327634790419
 20
-141.3763834281976
 10
77.13327634790419
 20
-141.3763834281976
 10
77.91169567279638
 20
-141.3763834281976
 10
77.91169567279638
 20
-141.3763834281976
 10
77.91169567279638
 20
-141.3763834281976
 10
77.91169567279638
 20
-141.5817111191185
 10
77.91169567279638
 20
-141.5817111191185
 10
77.91169567279638
 20
-141.5817111191185
 10
76.88367917999783
 20
-141.5817111191185
 10
76.88367917999783
 20
-141.5817111191185
 10
76.91537405846213
 20
-141.2241102077495
 10
76.98083087268188
 20
-141.1459065402344
 10
77.3659925479328
 20
-140.8475612712117
 10
77.62196314248688
 20
-140.6487792617128
 10
77.68741995670662
 20
-140.5809108806534
 10
77.68741995670662
 20
-140.4434515707919
 10
77.68741995670662
 20
-140.3249402860993
 10
77.61558971583916
 20
-140.1940266576598
 10
77.4188747636314
 20
-140.1940266576598
 10
77.15859779972077
 20
-140.1940266576598
 10
77.15015731578191
 20
-140.4245035456231
 10
77.14585094642534
 20
-140.5409477730245
 10
77.14585094642534
 20
-140.5409477730245
 10
76.92174748510985
 20
-140.5409477730245
 10
76.92174748510985
 20
-140.5409477730245
 10
76.9301879690487
 20
-140.4138237496188
 10
76.94069551027872
 20
-140.3018581463482
 10
77.0211384898593
 20
-140.1833468616556
 10
77.13103703583877
 20
-140.0228054120429
 10
77.31724444681653
 20
-139.988698966739
 10
77.43368867421798
 20
-139.988698966739
 10
77.71084660600631
 20
-139.988698966739
 10
77.9180690994441
 20
-140.1726670656513
 10
77.9180690994441
 20
-140.4455186280831
 10
77.9180690994441
 20
-140.6742729683037
 10
77.80179712681692
 20
-140.7734917182788
 10
77.49294431656426
 20
-140.9998344916598
 97
        0
 97
        0
 75
     2
 76
     1
 98
        0
  0
ENDBLK
  5
D2
330
CF
100
AcDbEntity
  8
0
100
AcDbBlockEnd
  0
BLOCK
  5
E7
330
E5
100
AcDbEntity
  8
0
100
AcDbBlockBegin
  2
block 6
 70
     0
 10
0.0
 20
0.0
 30
0.0
  3
block 6
  1

  0
SPLINE
  5
E9
330
E5
100
AcDbEntity
  8
_U+30EC_U+30A4_U+30E4_U+30FC 1
370
     0
100
AcDbSpline
210
0.0
220
0.0
230
1.0
 70
    11
 71
     3
 72
    62
 73
    58
 74
     0
 42
0.0000000001
 43
0.0000000001
 12
1.0
 22
0.0
 32
0.0
 13
1.0
 23
0.0
 33
0.0
 40
0.0
 40
0.0
 40
0.0
 40
0.0
 40
1.0
 40
1.0
 40
1.0
 40
2.0
 40
2.0
 40
2.0
 40
3.0
 40
3.0
 40
3.0
 40
4.0
 40
4.0
 40
4.0
 40
5.0
 40
5.0
 40
5.0
 40
6.0
 40
6.0
 40
6.0
 40
7.0
 40
7.0
 40
7.0
 40
8.0
 40
8.0
 40
8.0
 40
9.0
 40
9.0
 40
9.0
 40
10.0
 40
10.0
 40
10.0
 40
11.0
 40
11.0
 40
11.0
 40
12.0
 40
12.0
 40
12.0
 40
13.0
 40
13.0
 40
13.0
 40
14.0
 40
14.0
 40
14.0
 40
15.0
 40
15.0
 40
15.0
 40
16.0
 40
16.0
 40
16.0
 40
17.0
 40
17.0
 40
17.0
 40
18.0
 40
18.0
 40
18.0
 40
19.0
 40
19.0
 40
19.0
 40
19.0
 10
108.9029133842326
 20
-136.3816839936824
 30
0.0
 10
108.9029133842326
 20
-136.4771131386238
 30
0.0
 10
108.8818983017726
 20
-136.6948431732916
 30
0.0
 10
108.6958631455691
 20
-136.8199001394061
 30
0.0
 10
108.5835530327499
 20
-136.8936251827905
 30
0.0
 10
108.4843342827748
 20
-136.8981038069213
 30
0.0
 10
108.3995849338376
 20
-136.9022379215036
 30
0.0
 10
108.3995849338376
 20
-136.9022379215036
 30
0.0
 10
108.3995849338376
 20
-136.6820963199962
 30
0.0
 10
108.3995849338376
 20
-136.6820963199962
 30
0.0
 10
108.4736544867705
 20
-136.680029262705
 30
0.0
 10
108.708265489316
 20
-136.6696939762492
 30
0.0
 10
108.708265489316
 20
-136.3861626178132
 30
0.0
 10
108.708265489316
 20
-136.2487033079517
 30
0.0
 10
108.6386745605139
 20
-136.0960855779552
 30
0.0
 10
108.4102647298419
 20
-136.0960855779552
 30
0.0
 10
108.2938205024404
 20
-136.0960855779552
 30
0.0
 10
108.2452446560984
 20
-136.1343261378414
 30
0.0
 10
108.2135497776341
 20
-136.1660210163057
 30
0.0
 10
108.1394802247012
 20
-136.2400905692386
 30
0.0
 10
108.1267333714058
 20
-136.35653479664
 30
0.0
 10
108.1267333714058
 20
-136.4113118148555
 30
0.0
 10
108.1267333714058
 20
-136.4306043495729
 30
0.0
 10
108.128800428697
 20
-136.4664333426195
 30
0.0
 10
108.1329345432793
 20
-136.4939941065015
 30
0.0
 10
108.1329345432793
 20
-136.4939941065015
 30
0.0
 10
107.9382866483626
 20
-136.4939941065015
 30
0.0
 10
107.9382866483626
 20
-136.4939941065015
 30
0.0
 10
107.9448323297846
 20
-136.4557535466152
 30
0.0
 10
107.9468993870758
 20
-136.4137233816952
 30
0.0
 10
107.9468993870758
 20
-136.4071777002732
 30
0.0
 10
107.9468993870758
 20
-136.3417208860535
 30
0.0
 10
107.9255397950672
 20
-136.1429388765546
 30
0.0
 10
107.6888617352306
 20
-136.1429388765546
 30
0.0
 10
107.5110948081917
 20
-136.1429388765546
 30
0.0
 10
107.4559732804277
 20
-136.273852504994
 30
0.0
 10
107.4559732804277
 20
-136.384095560522
 30
0.0
 10
107.4559732804277
 20
-136.6483343842407
 30
0.0
 10
107.6888617352306
 20
-136.6569471229538
 30
0.0
 10
107.7605197213238
 20
-136.6610812375361
 30
0.0
 10
107.7605197213238
 20
-136.6610812375361
 30
0.0
 10
107.7605197213238
 20
-136.8643418711659
 30
0.0
 10
107.7605197213238
 20
-136.8643418711659
 30
0.0
 10
107.6358072647577
 20
-136.8557291324528
 30
0.0
 10
107.2592583282199
 20
-136.8281683685707
 30
0.0
 10
107.2592583282199
 20
-136.3713487072266
 30
0.0
 10
107.2592583282199
 20
-136.1470729911368
 30
0.0
 10
107.3863823516256
 20
-135.9059163071693
 30
0.0
 10
107.6823160538086
 20
-135.9059163071693
 30
0.0
 10
107.8686957195606
 20
-135.9059163071693
 30
0.0
 10
107.9510335016581
 20
-136.0010009425623
 30
0.0
 10
108.0123562012955
 20
-136.100564202086
 30
0.0
 10
108.0399169651775
 20
-136.0392415024485
 30
0.0
 10
108.1201876899839
 20
-135.8573404608273
 30
0.0
 10
108.3975178765465
 20
-135.8573404608273
 30
0.0
 10
108.735826253198
 20
-135.8573404608273
 30
0.0
 10
108.9029133842326
 20
-136.1046983166683
 30
0.0
 10
108.9029133842326
 20
-136.3816839936824
 30
0.0
  0
HATCH
  5
EA
330
E5
100
AcDbEntity
  8
_U+30EC_U+30A4_U+30E4_U+30FC 1
 62
     7
420
 16777215
100
AcDbHatch
 10
0.0
 20
0.0
 30
0.0
210
0.0
220
0.0
230
1.0
  2
SOLID
 70
     1
 71
     0
 91
        1
 92
        1
 93
        1
 72
     4
 94
        3
 73
     0
 74
     1
 95
       62
 96
       58
 40
0.0
 40
0.0
 40
0.0
 40
0.0
 40
1.0
 40
1.0
 40
1.0
 40
2.0
 40
2.0
 40
2.0
 40
3.0
 40
3.0
 40
3.0
 40
4.0
 40
4.0
 40
4.0
 40
5.0
 40
5.0
 40
5.0
 40
6.0
 40
6.0
 40
6.0
 40
7.0
 40
7.0
 40
7.0
 40
8.0
 40
8.0
 40
8.0
 40
9.0
 40
9.0
 40
9.0
 40
10.0
 40
10.0
 40
10.0
 40
11.0
 40
11.0
 40
11.0
 40
12.0
 40
12.0
 40
12.0
 40
13.0
 40
13.0
 40
13.0
 40
14.0
 40
14.0
 40
14.0
 40
15.0
 40
15.0
 40
15.0
 40
16.0
 40
16.0
 40
16.0
 40
17.0
 40
17.0
 40
17.0
 40
18.0
 40
18.0
 40
18.0
 40
19.0
 40
19.0
 40
19.0
 40
19.0
 10
108.9029133842326
 20
-136.3816839936824
 10
108.9029133842326
 20
-136.4771131386238
 10
108.8818983017726
 20
-136.6948431732916
 10
108.6958631455691
 20
-136.8199001394061
 10
108.5835530327499
 20
-136.8936251827905
 10
108.4843342827748
 20
-136.8981038069213
 10
108.3995849338376
 20
-136.9022379215036
 10
108.3995849338376
 20
-136.9022379215036
 10
108.3995849338376
 20
-136.6820963199962
 10
108.3995849338376
 20
-136.6820963199962
 10
108.4736544867705
 20
-136.680029262705
 10
108.708265489316
 20
-136.6696939762492
 10
108.708265489316
 20
-136.3861626178132
 10
108.708265489316
 20
-136.2487033079517
 10
108.6386745605139
 20
-136.0960855779552
 10
108.4102647298419
 20
-136.0960855779552
 10
108.2938205024404
 20
-136.0960855779552
 10
108.2452446560984
 20
-136.1343261378414
 10
108.2135497776341
 20
-136.1660210163057
 10
108.1394802247012
 20
-136.2400905692386
 10
108.1267333714058
 20
-136.35653479664
 10
108.1267333714058
 20
-136.4113118148555
 10
108.1267333714058
 20
-136.4306043495729
 10
108.128800428697
 20
-136.4664333426195
 10
108.1329345432793
 20
-136.4939941065015
 10
108.1329345432793
 20
-136.4939941065015
 10
107.9382866483626
 20
-136.4939941065015
 10
107.9382866483626
 20
-136.4939941065015
 10
107.9448323297846
 20
-136.4557535466152
 10
107.9468993870758
 20
-136.4137233816952
 10
107.9468993870758
 20
-136.4071777002732
 10
107.9468993870758
 20
-136.3417208860535
 10
107.9255397950672
 20
-136.1429388765546
 10
107.6888617352306
 20
-136.1429388765546
 10
107.5110948081917
 20
-136.1429388765546
 10
107.4559732804277
 20
-136.273852504994
 10
107.4559732804277
 20
-136.384095560522
 10
107.4559732804277
 20
-136.6483343842407
 10
107.6888617352306
 20
-136.6569471229538
 10
107.7605197213238
 20
-136.6610812375361
 10
107.7605197213238
 20
-136.6610812375361
 10
107.7605197213238
 20
-136.8643418711659
 10
107.7605197213238
 20
-136.8643418711659
 10
107.6358072647577
 20
-136.8557291324528
 10
107.2592583282199
 20
-136.8281683685707
 10
107.2592583282199
 20
-136.3713487072266
 10
107.2592583282199
 20
-136.1470729911368
 10
107.3863823516256
 20
-135.9059163071693
 10
107.6823160538086
 20
-135.9059163071693
 10
107.8686957195606
 20
-135.9059163071693
 10
107.9510335016581
 20
-136.0010009425623
 10
108.0123562012955
 20
-136.100564202086
 10
108.0399169651775
 20
-136.0392415024485
 10
108.1201876899839
 20
-135.8573404608273
 10
108.3975178765465
 20
-135.8573404608273
 10
108.735826253198
 20
-135.8573404608273
 10
108.9029133842326
 20
-136.1046983166683
 10
108.9029133842326
 20
-136.3816839936824
 97
        0
 97
        0
 75
     2
 76
     1
 98
        0
  0
ENDBLK
  5
E8
330
E5
100
AcDbEntity
  8
0
100
AcDbBlockEnd
  0
BLOCK
  5
F1
330
EF
100
AcDbEntity
  8
0
100
AcDbBlockBegin
  2
block 7
 70
     0
 10
0.0
 20
0.0
 30
0.0
  3
block 7
  1

  0
SPLINE
  5
F3
330
EF
100
AcDbEntity
  8
_U+30EC_U+30A4_U+30E4_U+30FC 1
370
     0
100
AcDbSpline
210
0.0
220
0.0
230
1.0
 70
    11
 71
     3
 72
    26
 73
    22
 74
     0
 42
0.0000000001
 43
0.0000000001
 12
1.0
 22
0.0
 32
0.0
 13
1.0
 23
0.0
 33
0.0
 40
0.0
 40
0.0
 40
0.0
 40
0.0
 40
1.0
 40
1.0
 40
1.0
 40
2.0
 40
2.0
 40
2.0
 40
3.0
 40
3.0
 40
3.0
 40
4.0
 40
4.0
 40
4.0
 40
5.0
 40
5.0
 40
5.0
 40
6.0
 40
6.0
 40
6.0
 40
7.0
 40
7.0
 40
7.0
 40
7.0
 10
108.8522704805994
 20
-131.1544406139128
 30
0.0
 10
108.8522704805994
 20
-131.1544406139128
 30
0.0
 10
107.7481173775769
 20
-131.1544406139128
 30
0.0
 10
107.7481173775769
 20
-131.1544406139128
 30
0.0
 10
107.7481173775769
 20
-131.1544406139128
 30
0.0
 10
107.7481173775769
 20
-131.4844807613997
 30
0.0
 10
107.7481173775769
 20
-131.4844807613997
 30
0.0
 10
107.7481173775769
 20
-131.4844807613997
 30
0.0
 10
107.5999782717111
 20
-131.4844807613997
 30
0.0
 10
107.5999782717111
 20
-131.4844807613997
 30
0.0
 10
107.5851643611245
 20
-131.1523735566216
 30
0.0
 10
107.4222113446722
 20
-131.1058647675708
 30
0.0
 10
107.3078341745619
 20
-131.0762369463976
 30
0.0
 10
107.3078341745619
 20
-131.0762369463976
 30
0.0
 10
107.3078341745619
 20
-130.930164897823
 30
0.0
 10
107.3078341745619
 20
-130.930164897823
 30
0.0
 10
107.3078341745619
 20
-130.930164897823
 30
0.0
 10
108.8522704805994
 20
-130.930164897823
 30
0.0
 10
108.8522704805994
 20
-130.930164897823
 30
0.0
 10
108.8522704805994
 20
-130.930164897823
 30
0.0
 10
108.8522704805994
 20
-131.1544406139128
 30
0.0
 10
108.8522704805994
 20
-131.1544406139128
 30
0.0
  0
HATCH
  5
F4
330
EF
100
AcDbEntity
  8
_U+30EC_U+30A4_U+30E4_U+30FC 1
 62
     7
420
 16777215
100
AcDbHatch
 10
0.0
 20
0.0
 30
0.0
210
0.0
220
0.0
230
1.0
  2
SOLID
 70
     1
 71
     0
 91
        1
 92
        1
 93
        1
 72
     4
 94
        3
 73
     0
 74
     1
 95
       26
 96
       22
 40
0.0
 40
0.0
 40
0.0
 40
0.0
 40
1.0
 40
1.0
 40
1.0
 40
2.0
 40
2.0
 40
2.0
 40
3.0
 40
3.0
 40
3.0
 40
4.0
 40
4.0
 40
4.0
 40
5.0
 40
5.0
 40
5.0
 40
6.0
 40
6.0
 40
6.0
 40
7.0
 40
7.0
 40
7.0
 40
7.0
 10
108.8522704805994
 20
-131.1544406139128
 10
108.8522704805994
 20
-131.1544406139128
 10
107.7481173775769
 20
-131.1544406139128
 10
107.7481173775769
 20
-131.1544406139128
 10
107.7481173775769
 20
-131.1544406139128
 10
107.7481173775769
 20
-131.4844807613997
 10
107.7481173775769
 20
-131.4844807613997
 10
107.7481173775769
 20
-131.4844807613997
 10
107.5999782717111
 20
-131.4844807613997
 10
107.5999782717111
 20
-131.4844807613997
 10
107.5851643611245
 20
-131.1523735566216
 10
107.4222113446722
 20
-131.1058647675708
 10
107.3078341745619
 20
-131.0762369463976
 10
107.3078341745619
 20
-131.0762369463976
 10
107.3078341745619
 20
-130.930164897823
 10
107.3078341745619
 20
-130.930164897823
 10
107.3078341745619
 20
-130.930164897823
 10
108.8522704805994
 20
-130.930164897823
 10
108.8522704805994
 20
-130.930164897823
 10
108.8522704805994
 20
-130.930164897823
 10
108.8522704805994
 20
-131.1544406139128
 10
108.8522704805994
 20
-131.1544406139128
 97
        0
 97
        0
 75
     2
 76
     1
 98
        0
  0
SPLINE
  5
F5
330
EF
100
AcDbEntity
  8
_U+30EC_U+30A4_U+30E4_U+30FC 1
370
     0
100
AcDbSpline
210
0.0
220
0.0
230
1.0
 70
    11
 71
     3
 72
    44
 73
    40
 74
     0
 42
0.0000000001
 43
0.0000000001
 12
1.0
 22
0.0
 32
0.0
 13
1.0
 23
0.0
 33
0.0
 40
0.0
 40
0.0
 40
0.0
 40
0.0
 40
1.0
 40
1.0
 40
1.0
 40
2.0
 40
2.0
 40
2.0
 40
3.0
 40
3.0
 40
3.0
 40
4.0
 40
4.0
 40
4.0
 40
5.0
 40
5.0
 40
5.0
 40
6.0
 40
6.0
 40
6.0
 40
7.0
 40
7.0
 40
7.0
 40
8.0
 40
8.0
 40
8.0
 40
9.0
 40
9.0
 40
9.0
 40
10.0
 40
10.0
 40
10.0
 40
11.0
 40
11.0
 40
11.0
 40
12.0
 40
12.0
 40
12.0
 40
13.0
 40
13.0
 40
13.0
 40
13.0
 10
108.2703938531407
 20
-129.8360025717077
 30
0.0
 10
108.4292127550108
 20
-130.0537326063755
 30
0.0
 10
108.5032823079436
 20
-130.1467501844772
 30
0.0
 10
108.6469427896785
 20
-130.1956705403678
 30
0.0
 10
108.6469427896785
 20
-130.1956705403678
 30
0.0
 10
108.6469427896785
 20
-129.4170789607013
 30
0.0
 10
108.6469427896785
 20
-129.4170789607013
 30
0.0
 10
108.6469427896785
 20
-129.4170789607013
 30
0.0
 10
108.8522704805994
 20
-129.4170789607013
 30
0.0
 10
108.8522704805994
 20
-129.4170789607013
 30
0.0
 10
108.8522704805994
 20
-129.4170789607013
 30
0.0
 10
108.8522704805994
 20
-130.4450954534998
 30
0.0
 10
108.8522704805994
 20
-130.4450954534998
 30
0.0
 10
108.4946695692305
 20
-130.4134005750356
 30
0.0
 10
108.4164659017153
 20
-130.3479437608158
 30
0.0
 10
108.1181206326927
 20
-129.9627820855649
 30
0.0
 10
107.9193386231938
 20
-129.7068114910108
 30
0.0
 10
107.8514702421344
 20
-129.6413546767911
 30
0.0
 10
107.7140109322729
 20
-129.6413546767911
 30
0.0
 10
107.5954996475803
 20
-129.6413546767911
 30
0.0
 10
107.4645860191408
 20
-129.7133571724328
 30
0.0
 10
107.4645860191408
 20
-129.9100721246405
 30
0.0
 10
107.4645860191408
 20
-130.1701768337769
 30
0.0
 10
107.695062907104
 20
-130.1784450629415
 30
0.0
 10
107.8115071345055
 20
-130.1829236870723
 30
0.0
 10
107.8115071345055
 20
-130.1829236870723
 30
0.0
 10
107.8115071345055
 20
-130.4071994031621
 30
0.0
 10
107.8115071345055
 20
-130.4071994031621
 30
0.0
 10
107.6843831110997
 20
-130.398586664449
 30
0.0
 10
107.5724175078291
 20
-130.3879068684447
 30
0.0
 10
107.4539062231365
 20
-130.3076361436384
 30
0.0
 10
107.2930202639754
 20
-130.1977375976589
 30
0.0
 10
107.2592583282199
 20
-130.0113579319069
 30
0.0
 10
107.2592583282199
 20
-129.895258214054
 30
0.0
 10
107.2592583282199
 20
-129.6179280274914
 30
0.0
 10
107.4432264271323
 20
-129.4105332792793
 30
0.0
 10
107.716077989564
 20
-129.4105332792793
 30
0.0
 10
107.9448323297846
 20
-129.4105332792793
 30
0.0
 10
108.0440510797598
 20
-129.5269775066808
 30
0.0
 10
108.2703938531407
 20
-129.8360025717077
 30
0.0
  0
HATCH
  5
F6
330
EF
100
AcDbEntity
  8
_U+30EC_U+30A4_U+30E4_U+30FC 1
 62
     7
420
 16777215
100
AcDbHatch
 10
0.0
 20
0.0
 30
0.0
210
0.0
220
0.0
230
1.0
  2
SOLID
 70
     1
 71
     0
 91
        1
 92
        1
 93
        1
 72
     4
 94
        3
 73
     0
 74
     1
 95
       44
 96
       40
 40
0.0
 40
0.0
 40
0.0
 40
0.0
 40
1.0
 40
1.0
 40
1.0
 40
2.0
 40
2.0
 40
2.0
 40
3.0
 40
3.0
 40
3.0
 40
4.0
 40
4.0
 40
4.0
 40
5.0
 40
5.0
 40
5.0
 40
6.0
 40
6.0
 40
6.0
 40
7.0
 40
7.0
 40
7.0
 40
8.0
 40
8.0
 40
8.0
 40
9.0
 40
9.0
 40
9.0
 40
10.0
 40
10.0
 40
10.0
 40
11.0
 40
11.0
 40
11.0
 40
12.0
 40
12.0
 40
12.0
 40
13.0
 40
13.0
 40
13.0
 40
13.0
 10
108.2703938531407
 20
-129.8360025717077
 10
108.4292127550108
 20
-130.0537326063755
 10
108.5032823079436
 20
-130.1467501844772
 10
108.6469427896785
 20
-130.1956705403678
 10
108.6469427896785
 20
-130.1956705403678
 10
108.6469427896785
 20
-129.4170789607013
 10
108.6469427896785
 20
-129.4170789607013
 10
108.6469427896785
 20
-129.4170789607013
 10
108.8522704805994
 20
-129.4170789607013
 10
108.8522704805994
 20
-129.4170789607013
 10
108.8522704805994
 20
-129.4170789607013
 10
108.8522704805994
 20
-130.4450954534998
 10
108.8522704805994
 20
-130.4450954534998
 10
108.4946695692305
 20
-130.4134005750356
 10
108.4164659017153
 20
-130.3479437608158
 10
108.1181206326927
 20
-129.9627820855649
 10
107.9193386231938
 20
-129.7068114910108
 10
107.8514702421344
 20
-129.6413546767911
 10
107.7140109322729
 20
-129.6413546767911
 10
107.5954996475803
 20
-129.6413546767911
 10
107.4645860191408
 20
-129.7133571724328
 10
107.4645860191408
 20
-129.9100721246405
 10
107.4645860191408
 20
-130.1701768337769
 10
107.695062907104
 20
-130.1784450629415
 10
107.8115071345055
 20
-130.1829236870723
 10
107.8115071345055
 20
-130.1829236870723
 10
107.8115071345055
 20
-130.4071994031621
 10
107.8115071345055
 20
-130.4071994031621
 10
107.6843831110997
 20
-130.398586664449
 10
107.5724175078291
 20
-130.3879068684447
 10
107.4539062231365
 20
-130.3076361436384
 10
107.2930202639754
 20
-130.1977375976589
 10
107.2592583282199
 20
-130.0113579319069
 10
107.2592583282199
 20
-129.895258214054
 10
107.2592583282199
 20
-129.6179280274914
 10
107.4432264271323
 20
-129.4105332792793
 10
107.716077989564
 20
-129.4105332792793
 10
107.9448323297846
 20
-129.4105332792793
 10
108.0440510797598
 20
-129.5269775066808
 10
108.2703938531407
 20
-129.8360025717077
 97
        0
 97
        0
 75
     2
 76
     1
 98
        0
  0
POLYLINE
  5
F7
330
EF
100
AcDbEntity
  8
_U+30EC_U+30A4_U+30E4_U+30FC 1
370
     0
100
AcDb2dPolyline
 66
     1
 10
0.0
 20
0.0
 30
0.0
  0
VERTEX
  5
F8
330
F7
100
AcDbEntity
  8
_U+30EC_U+30A4_U+30E4_U+30FC 1
370
     0
100
AcDbVertex
100
AcDb2dVertex
 10
108.8522704805994
 20
-129.1921142255145
 30
0.0
  0
VERTEX
  5
F9
330
F7
100
AcDbEntity
  8
_U+30EC_U+30A4_U+30E4_U+30FC 1
370
     0
100
AcDbVertex
100
AcDb2dVertex
 10
108.6004340006277
 20
-129.1921142255145
 30
0.0
  0
VERTEX
  5
FA
330
F7
100
AcDbEntity
  8
_U+30EC_U+30A4_U+30E4_U+30FC 1
370
     0
100
AcDbVertex
100
AcDb2dVertex
 10
108.6004340006277
 20
-128.9402777455427
 30
0.0
  0
VERTEX
  5
FB
330
F7
100
AcDbEntity
  8
_U+30EC_U+30A4_U+30E4_U+30FC 1
370
     0
100
AcDbVertex
100
AcDb2dVertex
 10
108.8522704805994
 20
-128.9402777455427
 30
0.0
  0
VERTEX
  5
FC
330
F7
100
AcDbEntity
  8
_U+30EC_U+30A4_U+30E4_U+30FC 1
370
     0
100
AcDbVertex
100
AcDb2dVertex
 10
108.8522704805994
 20
-129.1921142255145
 30
0.0
  0
SEQEND
  5
FD
330
F7
100
AcDbEntity
  8
_U+30EC_U+30A4_U+30E4_U+30FC 1
370
     0
  0
HATCH
  5
FE
330
EF
100
AcDbEntity
  8
_U+30EC_U+30A4_U+30E4_U+30FC 1
 62
     7
420
 16777215
100
AcDbHatch
 10
0.0
 20
0.0
 30
0.0
210
0.0
220
0.0
230
1.0
  2
SOLID
 70
     1
 71
     0
 91
        1
 92
        1
 93
        4
 72
     1
 10
108.8522704805994
 20
-129.1921142255145
 11
108.6004340006277
 21
-129.1921142255145
 72
     1
 10
108.6004340006277
 20
-129.1921142255145
 11
108.6004340006277
 21
-128.9402777455427
 72
     1
 10
108.6004340006277
 20
-128.9402777455427
 11
108.8522704805994
 21
-128.9402777455427
 72
     1
 10
108.8522704805994
 20
-128.9402777455427
 11
108.8522704805994
 21
-129.1921142255145
 97
        0
 75
     2
 76
     1
 98
        0
  0
SPLINE
  5
FF
330
EF
100
AcDbEntity
  8
_U+30EC_U+30A4_U+30E4_U+30FC 1
370
     0
100
AcDbSpline
210
0.0
220
0.0
230
1.0
 70
    11
 71
     3
 72
    53
 73
    49
 74
     0
 42
0.0000000001
 43
0.0000000001
 12
1.0
 22
0.0
 32
0.0
 13
1.0
 23
0.0
 33
0.0
 40
0.0
 40
0.0
 40
0.0
 40
0.0
 40
1.0
 40
1.0
 40
1.0
 40
2.0
 40
2.0
 40
2.0
 40
3.0
 40
3.0
 40
3.0
 40
4.0
 40
4.0
 40
4.0
 40
5.0
 40
5.0
 40
5.0
 40
6.0
 40
6.0
 40
6.0
 40
7.0
 40
7.0
 40
7.0
 40
8.0
 40
8.0
 40
8.0
 40
9.0
 40
9.0
 40
9.0
 40
10.0
 40
10.0
 40
10.0
 40
11.0
 40
11.0
 40
11.0
 40
12.0
 40
12.0
 40
12.0
 40
13.0
 40
13.0
 40
13.0
 40
14.0
 40
14.0
 40
14.0
 40
15.0
 40
15.0
 40
15.0
 40
16.0
 40
16.0
 40
16.0
 40
16.0
 10
108.9029133842326
 20
-128.2230088655137
 30
0.0
 10
108.9029133842326
 20
-128.3012125330289
 30
0.0
 10
108.8860324163549
 20
-128.4028428498438
 30
0.0
 10
108.8226426594263
 20
-128.5044731666586
 30
0.0
 10
108.7127441134468
 20
-128.6777614695667
 30
0.0
 10
108.5814859754588
 20
-128.6991210615752
 30
0.0
 10
108.4736544867705
 20
-128.7180690867441
 30
0.0
 10
108.4736544867705
 20
-128.7180690867441
 30
0.0
 10
108.4736544867705
 20
-128.4958604279455
 30
0.0
 10
108.4736544867705
 20
-128.4958604279455
 30
0.0
 10
108.6724364962694
 20
-128.44108340973
 30
0.0
 10
108.7020643174425
 20
-128.3139593863243
 30
0.0
 10
108.7020643174425
 20
-128.2209418082225
 30
0.0
 10
108.7020643174425
 20
-128.0814154410699
 30
0.0
 10
108.6025010579188
 20
-127.9291422206219
 30
0.0
 10
108.3699571126645
 20
-127.9291422206219
 30
0.0
 10
108.1139865181104
 20
-127.9291422206219
 30
0.0
 10
108.0440510797598
 20
-128.1089762049519
 30
0.0
 10
108.0440510797598
 20
-128.2295545469357
 30
0.0
 10
108.0440510797598
 20
-128.2612494254
 30
0.0
 10
108.0440510797598
 20
-128.4028428498438
 30
0.0
 10
108.1732421604567
 20
-128.4917263133632
 30
0.0
 10
108.1732421604567
 20
-128.4917263133632
 30
0.0
 10
108.1542941352878
 20
-128.6674261831109
 30
0.0
 10
108.1542941352878
 20
-128.6674261831109
 30
0.0
 10
108.1542941352878
 20
-128.6674261831109
 30
0.0
 10
107.3078341745619
 20
-128.5468478411272
 30
0.0
 10
107.3078341745619
 20
-128.5468478411272
 30
0.0
 10
107.3078341745619
 20
-128.5468478411272
 30
0.0
 10
107.3078341745619
 20
-127.7682562614607
 30
0.0
 10
107.3078341745619
 20
-127.7682562614607
 30
0.0
 10
107.3078341745619
 20
-127.7682562614607
 30
0.0
 10
107.5024820694785
 20
-127.7682562614607
 30
0.0
 10
107.5024820694785
 20
-127.7682562614607
 30
0.0
 10
107.5024820694785
 20
-127.7682562614607
 30
0.0
 10
107.5024820694785
 20
-128.3838948246749
 30
0.0
 10
107.5024820694785
 20
-128.3838948246749
 30
0.0
 10
107.5024820694785
 20
-128.3838948246749
 30
0.0
 10
107.9255397950672
 20
-128.4493516388946
 30
0.0
 10
107.9255397950672
 20
-128.4493516388946
 30
0.0
 10
107.8917778593118
 20
-128.3880289392572
 30
0.0
 10
107.8514702421344
 20
-128.3056911571597
 30
0.0
 10
107.8514702421344
 20
-128.1871798724671
 30
0.0
 10
107.8514702421344
 20
-127.9332763352042
 30
0.0
 10
108.0378499078864
 20
-127.696253765819
 30
0.0
 10
108.3510090874956
 20
-127.696253765819
 30
0.0
 10
108.6683023816871
 20
-127.696253765819
 30
0.0
 10
108.9029133842326
 20
-127.9205294819088
 30
0.0
 10
108.9029133842326
 20
-128.2230088655137
 30
0.0
  0
HATCH
  5
100
330
EF
100
AcDbEntity
  8
_U+30EC_U+30A4_U+30E4_U+30FC 1
 62
     7
420
 16777215
100
AcDbHatch
 10
0.0
 20
0.0
 30
0.0
210
0.0
220
0.0
230
1.0
  2
SOLID
 70
     1
 71
     0
 91
        1
 92
        1
 93
        1
 72
     4
 94
        3
 73
     0
 74
     1
 95
       53
 96
       49
 40
0.0
 40
0.0
 40
0.0
 40
0.0
 40
1.0
 40
1.0
 40
1.0
 40
2.0
 40
2.0
 40
2.0
 40
3.0
 40
3.0
 40
3.0
 40
4.0
 40
4.0
 40
4.0
 40
5.0
 40
5.0
 40
5.0
 40
6.0
 40
6.0
 40
6.0
 40
7.0
 40
7.0
 40
7.0
 40
8.0
 40
8.0
 40
8.0
 40
9.0
 40
9.0
 40
9.0
 40
10.0
 40
10.0
 40
10.0
 40
11.0
 40
11.0
 40
11.0
 40
12.0
 40
12.0
 40
12.0
 40
13.0
 40
13.0
 40
13.0
 40
14.0
 40
14.0
 40
14.0
 40
15.0
 40
15.0
 40
15.0
 40
16.0
 40
16.0
 40
16.0
 40
16.0
 10
108.9029133842326
 20
-128.2230088655137
 10
108.9029133842326
 20
-128.3012125330289
 10
108.8860324163549
 20
-128.4028428498438
 10
108.8226426594263
 20
-128.5044731666586
 10
108.7127441134468
 20
-128.6777614695667
 10
108.5814859754588
 20
-128.6991210615752
 10
108.4736544867705
 20
-128.7180690867441
 10
108.4736544867705
 20
-128.7180690867441
 10
108.4736544867705
 20
-128.4958604279455
 10
108.4736544867705
 20
-128.4958604279455
 10
108.6724364962694
 20
-128.44108340973
 10
108.7020643174425
 20
-128.3139593863243
 10
108.7020643174425
 20
-128.2209418082225
 10
108.7020643174425
 20
-128.0814154410699
 10
108.6025010579188
 20
-127.9291422206219
 10
108.3699571126645
 20
-127.9291422206219
 10
108.1139865181104
 20
-127.9291422206219
 10
108.0440510797598
 20
-128.1089762049519
 10
108.0440510797598
 20
-128.2295545469357
 10
108.0440510797598
 20
-128.2612494254
 10
108.0440510797598
 20
-128.4028428498438
 10
108.1732421604567
 20
-128.4917263133632
 10
108.1732421604567
 20
-128.4917263133632
 10
108.1542941352878
 20
-128.6674261831109
 10
108.1542941352878
 20
-128.6674261831109
 10
108.1542941352878
 20
-128.6674261831109
 10
107.3078341745619
 20
-128.5468478411272
 10
107.3078341745619
 20
-128.5468478411272
 10
107.3078341745619
 20
-128.5468478411272
 10
107.3078341745619
 20
-127.7682562614607
 10
107.3078341745619
 20
-127.7682562614607
 10
107.3078341745619
 20
-127.7682562614607
 10
107.5024820694785
 20
-127.7682562614607
 10
107.5024820694785
 20
-127.7682562614607
 10
107.5024820694785
 20
-127.7682562614607
 10
107.5024820694785
 20
-128.3838948246749
 10
107.5024820694785
 20
-128.3838948246749
 10
107.5024820694785
 20
-128.3838948246749
 10
107.9255397950672
 20
-128.4493516388946
 10
107.9255397950672
 20
-128.4493516388946
 10
107.8917778593118
 20
-128.3880289392572
 10
107.8514702421344
 20
-128.3056911571597
 10
107.8514702421344
 20
-128.1871798724671
 10
107.8514702421344
 20
-127.9332763352042
 10
108.0378499078864
 20
-127.696253765819
 10
108.3510090874956
 20
-127.696253765819
 10
108.6683023816871
 20
-127.696253765819
 10
108.9029133842326
 20
-127.9205294819088
 10
108.9029133842326
 20
-128.2230088655137
 97
        0
 97
        0
 75
     2
 76
     1
 98
        0
  0
ENDBLK
  5
F2
330
EF
100
AcDbEntity
  8
0
100
AcDbBlockEnd
  0
ENDSEC
  0
SECTION
  2
ENTITIES
  0
POLYLINE
  5
41
330
1F
100
AcDbEntity
  8
_U+30EC_U+30A4_U+30E4_U+30FC 1
 62
   253
420
 11711154
370
     9
100
AcDb2dPolyline
 66
     1
 10
0.0
 20
0.0
 30
0.0
  0
VERTEX
  5
42
330
41
100
AcDbEntity
  8
_U+30EC_U+30A4_U+30E4_U+30FC 1
 62
   253
420
 11711154
370
     9
100
AcDbVertex
100
AcDb2dVertex
 10
70.88818791371388
 20
-121.3648688585476
 30
0.0
  0
VERTEX
  5
43
330
41
100
AcDbEntity
  8
_U+30EC_U+30A4_U+30E4_U+30FC 1
 62
   253
420
 11711154
370
     9
100
AcDbVertex
100
AcDb2dVertex
 10
70.88818791371388
 20
-122.2798685805412
 30
0.0
  0
VERTEX
  5
44
330
41
100
AcDbEntity
  8
_U+30EC_U+30A4_U+30E4_U+30FC 1
 62
   253
420
 11711154
370
     9
100
AcDbVertex
100
AcDb2dVertex
 10
82.78304288802863
 20
-122.2798685805412
 30
0.0
  0
VERTEX
  5
45
330
41
100
AcDbEntity
  8
_U+30EC_U+30A4_U+30E4_U+30FC 1
 62
   253
420
 11711154
370
     9
100
AcDbVertex
100
AcDb2dVertex
 10
82.78304288802863
 20
-137.9095821877451
 30
0.0
  0
VERTEX
  5
46
330
41
100
AcDbEntity
  8
_U+30EC_U+30A4_U+30E4_U+30FC 1
 62
   253
420
 11711154
370
     9
100
AcDbVertex
100
AcDb2dVertex
 10
92.994830405282
 20
-137.9095821877451
 30
0.0
  0
VERTEX
  5
47
330
41
100
AcDbEntity
  8
_U+30EC_U+30A4_U+30E4_U+30FC 1
 62
   253
420
 11711154
370
     9
100
AcDbVertex
100
AcDb2dVertex
 10
92.994830405282
 20
-134.9447319107085
 30
0.0
  0
VERTEX
  5
48
330
41
100
AcDbEntity
  8
_U+30EC_U+30A4_U+30E4_U+30FC 1
 62
   253
420
 11711154
370
     9
100
AcDbVertex
100
AcDb2dVertex
 10
91.96958765366034
 20
-134.9447319107085
 30
0.0
  0
VERTEX
  5
49
330
41
100
AcDbEntity
  8
_U+30EC_U+30A4_U+30E4_U+30FC 1
 62
   253
420
 11711154
370
     9
100
AcDbVertex
100
AcDb2dVertex
 10
91.96958765366034
 20
-136.958034687983
 30
0.0
  0
VERTEX
  5
4A
330
41
100
AcDbEntity
  8
_U+30EC_U+30A4_U+30E4_U+30FC 1
 62
   253
420
 11711154
370
     9
100
AcDbVertex
100
AcDb2dVertex
 10
83.80796813965839
 20
-136.958034687983
 30
0.0
  0
VERTEX
  5
4B
330
41
100
AcDbEntity
  8
_U+30EC_U+30A4_U+30E4_U+30FC 1
 62
   253
420
 11711154
370
     9
100
AcDbVertex
100
AcDb2dVertex
 10
83.80796813965839
 20
-122.3170866360873
 30
0.0
  0
VERTEX
  5
4C
330
41
100
AcDbEntity
  8
_U+30EC_U+30A4_U+30E4_U+30FC 1
 62
   253
420
 11711154
370
     9
100
AcDbVertex
100
AcDb2dVertex
 10
105.9876709071404
 20
-122.3170866360873
 30
0.0
  0
VERTEX
  5
4D
330
41
100
AcDbEntity
  8
_U+30EC_U+30A4_U+30E4_U+30FC 1
 62
   253
420
 11711154
370
     9
100
AcDbVertex
100
AcDb2dVertex
 10
105.9876709071404
 20
-121.3283563585567
 30
0.0
  0
VERTEX
  5
4E
330
41
100
AcDbEntity
  8
_U+30EC_U+30A4_U+30E4_U+30FC 1
 62
   253
420
 11711154
370
     9
100
AcDbVertex
100
AcDb2dVertex
 10
70.88818791371388
 20
-121.3648688585476
 30
0.0
  0
SEQEND
  5
50
330
41
100
AcDbEntity
  8
_U+30EC_U+30A4_U+30E4_U+30FC 1
 62
   253
420
 11711154
370
     9
  0
HATCH
  5
4F
330
1F
100
AcDbEntity
  8
_U+30EC_U+30A4_U+30E4_U+30FC 1
 62
   253
420
 11711154
100
AcDbHatch
 10
0.0
 20
0.0
 30
0.0
210
0.0
220
0.0
230
1.0
  2
SOLID
 70
     1
 71
     0
 91
        1
 92
        1
 93
       12
 72
     1
 10
70.88818791371388
 20
-121.3648688585476
 11
70.88818791371388
 21
-122.2798685805412
 72
     1
 10
70.88818791371388
 20
-122.2798685805412
 11
82.78304288802863
 21
-122.2798685805412
 72
     1
 10
82.78304288802863
 20
-122.2798685805412
 11
82.78304288802863
 21
-137.9095821877451
 72
     1
 10
82.78304288802863
 20
-137.9095821877451
 11
92.994830405282
 21
-137.9095821877451
 72
     1
 10
92.994830405282
 20
-137.9095821877451
 11
92.994830405282
 21
-134.9447319107085
 72
     1
 10
92.994830405282
 20
-134.9447319107085
 11
91.96958765366034
 21
-134.9447319107085
 72
     1
 10
91.96958765366034
 20
-134.9447319107085
 11
91.96958765366034
 21
-136.958034687983
 72
     1
 10
91.96958765366034
 20
-136.958034687983
 11
83.80796813965839
 21
-136.958034687983
 72
     1
 10
83.80796813965839
 20
-136.958034687983
 11
83.80796813965839
 21
-122.3170866360873
 72
     1
 10
83.80796813965839
 20
-122.3170866360873
 11
105.9876709071404
 21
-122.3170866360873
 72
     1
 10
105.9876709071404
 20
-122.3170866360873
 11
105.9876709071404
 21
-121.3283563585567
 72
     1
 10
105.9876709071404
 20
-121.3283563585567
 11
70.88818791371388
 21
-121.3648688585476
 97
        0
 75
     2
 76
     1
 98
        0
  0
POLYLINE
  5
51
330
1F
100
AcDbEntity
  8
_U+30EC_U+30A4_U+30E4_U+30FC 1
 62
     7
420
 16777215
370
    25
100
AcDb2dPolyline
 66
     1
 10
0.0
 20
0.0
 30
0.0
  0
VERTEX
  5
52
330
51
100
AcDbEntity
  8
_U+30EC_U+30A4_U+30E4_U+30FC 1
 62
     7
420
 16777215
370
    25
100
AcDbVertex
100
AcDb2dVertex
 10
70.90025291340608
 20
-121.3338596918888
 30
0.0
  0
VERTEX
  5
53
330
51
100
AcDbEntity
  8
_U+30EC_U+30A4_U+30E4_U+30FC 1
 62
     7
420
 16777215
370
    25
100
AcDbVertex
100
AcDb2dVertex
 10
105.9001820204835
 20
-121.3338596918888
 30
0.0
  0
SEQEND
  5
54
330
51
100
AcDbEntity
  8
_U+30EC_U+30A4_U+30E4_U+30FC 1
 62
     7
420
 16777215
370
    25
  0
POLYLINE
  5
55
330
1F
100
AcDbEntity
  8
_U+30EC_U+30A4_U+30E4_U+30FC 1
 62
     7
420
 16777215
370
    25
100
AcDb2dPolyline
 66
     1
 10
0.0
 20
0.0
 30
0.0
  0
VERTEX
  5
56
330
55
100
AcDbEntity
  8
_U+30EC_U+30A4_U+30E4_U+30FC 1
 62
     7
420
 16777215
370
    25
100
AcDbVertex
100
AcDb2dVertex
 10
70.90025291340608
 20
-122.3336319138611
 30
0.0
  0
VERTEX
  5
57
330
55
100
AcDbEntity
  8
_U+30EC_U+30A4_U+30E4_U+30FC 1
 62
     7
420
 16777215
370
    25
100
AcDbVertex
100
AcDb2dVertex
 10
82.9002003850397
 20
-122.3336319138611
 30
0.0
  0
SEQEND
  5
58
330
55
100
AcDbEntity
  8
_U+30EC_U+30A4_U+30E4_U+30FC 1
 62
     7
420
 16777215
370
    25
  0
POLYLINE
  5
59
330
1F
100
AcDbEntity
  8
_U+30EC_U+30A4_U+30E4_U+30FC 1
 62
     7
420
 16777215
370
    25
100
AcDb2dPolyline
 66
     1
 10
0.0
 20
0.0
 30
0.0
  0
VERTEX
  5
5A
330
59
100
AcDbEntity
  8
_U+30EC_U+30A4_U+30E4_U+30FC 1
 62
     7
420
 16777215
370
    25
100
AcDbVertex
100
AcDb2dVertex
 10
105.9518286858326
 20
-122.3336319138611
 30
0.0
  0
VERTEX
  5
5B
330
59
100
AcDbEntity
  8
_U+30EC_U+30A4_U+30E4_U+30FC 1
 62
     7
420
 16777215
370
    25
100
AcDbVertex
100
AcDb2dVertex
 10
105.9518286858326
 20
-121.3338596918888
 30
0.0
  0
SEQEND
  5
5C
330
59
100
AcDbEntity
  8
_U+30EC_U+30A4_U+30E4_U+30FC 1
 62
     7
420
 16777215
370
    25
  0
POLYLINE
  5
5D
330
1F
100
AcDbEntity
  8
_U+30EC_U+30A4_U+30E4_U+30FC 1
 62
     7
420
 16777215
370
    25
100
AcDb2dPolyline
 66
     1
 10
0.0
 20
0.0
 30
0.0
  0
VERTEX
  5
5E
330
5D
100
AcDbEntity
  8
_U+30EC_U+30A4_U+30E4_U+30FC 1
 62
     7
420
 16777215
370
    25
100
AcDbVertex
100
AcDb2dVertex
 10
83.80038341762966
 20
-122.3336319138611
 30
0.0
  0
VERTEX
  5
5F
330
5D
100
AcDbEntity
  8
_U+30EC_U+30A4_U+30E4_U+30FC 1
 62
     7
420
 16777215
370
    25
100
AcDbVertex
100
AcDb2dVertex
 10
105.9518286858326
 20
-122.3336319138611
 30
0.0
  0
SEQEND
  5
60
330
5D
100
AcDbEntity
  8
_U+30EC_U+30A4_U+30E4_U+30FC 1
 62
     7
420
 16777215
370
    25
  0
POLYLINE
  5
61
330
1F
100
AcDbEntity
  8
_U+30EC_U+30A4_U+30E4_U+30FC 1
 62
     7
420
 16777215
370
    25
100
AcDb2dPolyline
 66
     1
 10
0.0
 20
0.0
 30
0.0
  0
VERTEX
  5
62
330
61
100
AcDbEntity
  8
_U+30EC_U+30A4_U+30E4_U+30FC 1
 62
     7
420
 16777215
370
    25
100
AcDbVertex
100
AcDb2dVertex
 10
70.94089291236926
 20
-122.3336319138611
 30
0.0
  0
VERTEX
  5
63
330
61
100
AcDbEntity
  8
_U+30EC_U+30A4_U+30E4_U+30FC 1
 62
     7
420
 16777215
370
    25
100
AcDbVertex
100
AcDb2dVertex
 10
70.94089291236926
 20
-121.3338596918888
 30
0.0
  0
SEQEND
  5
64
330
61
100
AcDbEntity
  8
_U+30EC_U+30A4_U+30E4_U+30FC 1
 62
     7
420
 16777215
370
    25
  0
POLYLINE
  5
65
330
1F
100
AcDbEntity
  8
_U+30EC_U+30A4_U+30E4_U+30FC 1
 62
     7
420
 16777215
370
    25
100
AcDb2dPolyline
 66
     1
 10
0.0
 20
0.0
 30
0.0
  0
VERTEX
  5
66
330
65
100
AcDbEntity
  8
_U+30EC_U+30A4_U+30E4_U+30FC 1
 62
     7
420
 16777215
370
    25
100
AcDbVertex
100
AcDb2dVertex
 10
82.9002003850397
 20
-138.0019041321661
 30
0.0
  0
VERTEX
  5
67
330
65
100
AcDbEntity
  8
_U+30EC_U+30A4_U+30E4_U+30FC 1
 62
     7
420
 16777215
370
    25
100
AcDbVertex
100
AcDb2dVertex
 10
82.9002003850397
 20
-122.3336319138611
 30
0.0
  0
SEQEND
  5
68
330
65
100
AcDbEntity
  8
_U+30EC_U+30A4_U+30E4_U+30FC 1
 62
     7
420
 16777215
370
    25
  0
POLYLINE
  5
69
330
1F
100
AcDbEntity
  8
_U+30EC_U+30A4_U+30E4_U+30FC 1
 62
     7
420
 16777215
370
    25
100
AcDb2dPolyline
 66
     1
 10
0.0
 20
0.0
 30
0.0
  0
VERTEX
  5
6A
330
69
100
AcDbEntity
  8
_U+30EC_U+30A4_U+30E4_U+30FC 1
 62
     7
420
 16777215
370
    25
100
AcDbVertex
100
AcDb2dVertex
 10
82.9002003850397
 20
-138.0019041321661
 30
0.0
  0
VERTEX
  5
6B
330
69
100
AcDbEntity
  8
_U+30EC_U+30A4_U+30E4_U+30FC 1
 62
     7
420
 16777215
370
    25
100
AcDbVertex
100
AcDb2dVertex
 10
92.9004270743571
 20
-138.0019041321661
 30
0.0
  0
SEQEND
  5
6C
330
69
100
AcDbEntity
  8
_U+30EC_U+30A4_U+30E4_U+30FC 1
 62
     7
420
 16777215
370
    25
  0
POLYLINE
  5
6D
330
1F
100
AcDbEntity
  8
_U+30EC_U+30A4_U+30E4_U+30FC 1
 62
     7
420
 16777215
370
    25
100
AcDb2dPolyline
 66
     1
 10
0.0
 20
0.0
 30
0.0
  0
VERTEX
  5
6E
330
6D
100
AcDbEntity
  8
_U+30EC_U+30A4_U+30E4_U+30FC 1
 62
     7
420
 16777215
370
    25
100
AcDbVertex
100
AcDb2dVertex
 10
83.80038341762966
 20
-137.0021319101942
 30
0.0
  0
VERTEX
  5
6F
330
6D
100
AcDbEntity
  8
_U+30EC_U+30A4_U+30E4_U+30FC 1
 62
     7
420
 16777215
370
    25
100
AcDbVertex
100
AcDb2dVertex
 10
91.99026043091071
 20
-137.0021319101942
 30
0.0
  0
SEQEND
  5
70
330
6D
100
AcDbEntity
  8
_U+30EC_U+30A4_U+30E4_U+30FC 1
 62
     7
420
 16777215
370
    25
  0
POLYLINE
  5
71
330
1F
100
AcDbEntity
  8
_U+30EC_U+30A4_U+30E4_U+30FC 1
 62
     7
420
 16777215
370
    25
100
AcDb2dPolyline
 66
     1
 10
0.0
 20
0.0
 30
0.0
  0
VERTEX
  5
72
330
71
100
AcDbEntity
  8
_U+30EC_U+30A4_U+30E4_U+30FC 1
 62
     7
420
 16777215
370
    25
100
AcDbVertex
100
AcDb2dVertex
 10
91.96546015376565
 20
-135.0019171884718
 30
0.0
  0
VERTEX
  5
73
330
71
100
AcDbEntity
  8
_U+30EC_U+30A4_U+30E4_U+30FC 1
 62
     7
420
 16777215
370
    25
100
AcDbVertex
100
AcDb2dVertex
 10
92.96590262824223
 20
-135.0019171884718
 30
0.0
  0
SEQEND
  5
74
330
71
100
AcDbEntity
  8
_U+30EC_U+30A4_U+30E4_U+30FC 1
 62
     7
420
 16777215
370
    25
  0
POLYLINE
  5
75
330
1F
100
AcDbEntity
  8
_U+30EC_U+30A4_U+30E4_U+30FC 1
 62
     7
420
 16777215
370
    25
100
AcDb2dPolyline
 66
     1
 10
0.0
 20
0.0
 30
0.0
  0
VERTEX
  5
76
330
75
100
AcDbEntity
  8
_U+30EC_U+30A4_U+30E4_U+30FC 1
 62
     7
420
 16777215
370
    25
100
AcDbVertex
100
AcDb2dVertex
 10
92.96590262824223
 20
-138.0019041321661
 30
0.0
  0
VERTEX
  5
77
330
75
100
AcDbEntity
  8
_U+30EC_U+30A4_U+30E4_U+30FC 1
 62
     7
420
 16777215
370
    25
100
AcDbVertex
100
AcDb2dVertex
 10
92.96590262824223
 20
-135.0019171884718
 30
0.0
  0
SEQEND
  5
78
330
75
100
AcDbEntity
  8
_U+30EC_U+30A4_U+30E4_U+30FC 1
 62
     7
420
 16777215
370
    25
  0
POLYLINE
  5
79
330
1F
100
AcDbEntity
  8
_U+30EC_U+30A4_U+30E4_U+30FC 1
 62
     7
420
 16777215
370
    25
100
AcDb2dPolyline
 66
     1
 10
0.0
 20
0.0
 30
0.0
  0
VERTEX
  5
7A
330
79
100
AcDbEntity
  8
_U+30EC_U+30A4_U+30E4_U+30FC 1
 62
     7
420
 16777215
370
    25
100
AcDbVertex
100
AcDb2dVertex
 10
91.96546015376565
 20
-137.0021319101942
 30
0.0
  0
VERTEX
  5
7B
330
79
100
AcDbEntity
  8
_U+30EC_U+30A4_U+30E4_U+30FC 1
 62
     7
420
 16777215
370
    25
100
AcDbVertex
100
AcDb2dVertex
 10
91.96546015376565
 20
-135.0019171884718
 30
0.0
  0
SEQEND
  5
7C
330
79
100
AcDbEntity
  8
_U+30EC_U+30A4_U+30E4_U+30FC 1
 62
     7
420
 16777215
370
    25
  0
POLYLINE
  5
7D
330
1F
100
AcDbEntity
  8
_U+30EC_U+30A4_U+30E4_U+30FC 1
 62
     7
420
 16777215
370
    25
100
AcDb2dPolyline
 66
     1
 10
0.0
 20
0.0
 30
0.0
  0
VERTEX
  5
7E
330
7D
100
AcDbEntity
  8
_U+30EC_U+30A4_U+30E4_U+30FC 1
 62
     7
420
 16777215
370
    25
100
AcDbVertex
100
AcDb2dVertex
 10
83.80038341762966
 20
-128.2105921901695
 30
0.0
  0
VERTEX
  5
7F
330
7D
100
AcDbEntity
  8
_U+30EC_U+30A4_U+30E4_U+30FC 1
 62
     7
420
 16777215
370
    25
100
AcDbVertex
100
AcDb2dVertex
 10
83.80038341762966
 20
-122.3336319138611
 30
0.0
  0
SEQEND
  5
80
330
7D
100
AcDbEntity
  8
_U+30EC_U+30A4_U+30E4_U+30FC 1
 62
     7
420
 16777215
370
    25
  0
SPLINE
  5
81
330
1F
100
AcDbEntity
  8
_U+30EC_U+30A4_U+30E4_U+30FC 1
 62
     7
420
 16777215
370
     9
100
AcDbSpline
210
0.0
220
0.0
230
1.0
 70
    11
 71
     3
 72
    17
 73
    13
 74
     0
 42
0.0000000001
 43
0.0000000001
 12
1.0
 22
0.0
 32
0.0
 13
1.0
 23
0.0
 33
0.0
 40
0.0
 40
0.0
 40
0.0
 40
0.0
 40
1.0
 40
1.0
 40
1.0
 40
2.0
 40
2.0
 40
2.0
 40
3.0
 40
3.0
 40
3.0
 40
4.0
 40
4.0
 40
4.0
 40
4.0
 10
70.96844485611079
 20
-117.3333949706667
 30
0.0
 10
70.96844485611079
 20
-117.2782910817915
 30
0.0
 10
70.92367735725291
 20
-117.2334883040251
 30
0.0
 10
70.86853819199297
 20
-117.2334883040251
 30
0.0
 10
70.81343609340767
 20
-117.2334883040251
 30
0.0
 10
70.76863331564127
 20
-117.2782910817915
 30
0.0
 10
70.76863331564127
 20
-117.3333949706667
 30
0.0
 10
70.76863331564127
 20
-117.3892044150972
 30
0.0
 10
70.81343609340767
 20
-117.4340071928636
 30
0.0
 10
70.86853819199297
 20
-117.4340071928636
 30
0.0
 10
70.92367735725291
 20
-117.4340071928636
 30
0.0
 10
70.96844485611079
 20
-117.3892044150972
 30
0.0
 10
70.96844485611079
 20
-117.3333949706667
 30
0.0
  0
SPLINE
  5
82
330
1F
100
AcDbEntity
  8
_U+30EC_U+30A4_U+30E4_U+30FC 1
 62
     7
420
 16777215
370
     9
100
AcDbSpline
210
0.0
220
0.0
230
1.0
 70
    11
 71
     3
 72
    17
 73
    13
 74
     0
 42
0.0000000001
 43
0.0000000001
 12
1.0
 22
0.0
 32
0.0
 13
1.0
 23
0.0
 33
0.0
 40
0.0
 40
0.0
 40
0.0
 40
0.0
 40
1.0
 40
1.0
 40
1.0
 40
2.0
 40
2.0
 40
2.0
 40
3.0
 40
3.0
 40
3.0
 40
4.0
 40
4.0
 40
4.0
 40
4.0
 10
105.8684672990704
 20
-117.3333949706667
 30
0.0
 10
105.8684672990704
 20
-117.2782910817915
 30
0.0
 10
105.8236998002125
 20
-117.2334883040251
 30
0.0
 10
105.7685606349526
 20
-117.2334883040251
 30
0.0
 10
105.7134567474695
 20
-117.2334883040251
 30
0.0
 10
105.6686539708347
 20
-117.2782910817915
 30
0.0
 10
105.6686539708347
 20
-117.3333949706667
 30
0.0
 10
105.6686539708347
 20
-117.3892044150972
 30
0.0
 10
105.7134567474695
 20
-117.4340071928636
 30
0.0
 10
105.7685606349526
 20
-117.4340071928636
 30
0.0
 10
105.8236998002125
 20
-117.4340071928636
 30
0.0
 10
105.8684672990704
 20
-117.3892044150972
 30
0.0
 10
105.8684672990704
 20
-117.3333949706667
 30
0.0
  0
SPLINE
  5
83
330
1F
100
AcDbEntity
  8
_U+30EC_U+30A4_U+30E4_U+30FC 1
 62
     7
420
 16777215
370
     9
100
AcDbSpline
210
0.0
220
0.0
230
1.0
 70
    11
 71
     3
 72
    17
 73
    13
 74
     0
 42
0.0000000001
 43
0.0000000001
 12
1.0
 22
0.0
 32
0.0
 13
1.0
 23
0.0
 33
0.0
 40
0.0
 40
0.0
 40
0.0
 40
0.0
 40
1.0
 40
1.0
 40
1.0
 40
2.0
 40
2.0
 40
2.0
 40
3.0
 40
3.0
 40
3.0
 40
4.0
 40
4.0
 40
4.0
 40
4.0
 10
110.0687452474679
 20
-121.3338596918888
 30
0.0
 10
110.0687452474679
 20
-121.2787205252358
 30
0.0
 10
110.0239424708332
 20
-121.2339530252472
 30
0.0
 10
109.9688385833501
 20
-121.2339530252472
 30
0.0
 10
109.9136994180901
 20
-121.2339530252472
 30
0.0
 10
109.8689319192323
 20
-121.2787205252358
 30
0.0
 10
109.8689319192323
 20
-121.3338596918888
 30
0.0
 10
109.8689319192323
 20
-121.3889635807638
 30
0.0
 10
109.9136994180901
 20
-121.4337663585305
 30
0.0
 10
109.9688385833501
 20
-121.4337663585305
 30
0.0
 10
110.0239424708332
 20
-121.4337663585305
 30
0.0
 10
110.0687452474679
 20
-121.3889635807638
 30
0.0
 10
110.0687452474679
 20
-121.3338596918888
 30
0.0
  0
SPLINE
  5
84
330
1F
100
AcDbEntity
  8
_U+30EC_U+30A4_U+30E4_U+30FC 1
 62
     7
420
 16777215
370
     9
100
AcDbSpline
210
0.0
220
0.0
230
1.0
 70
    11
 71
     3
 72
    17
 73
    13
 74
     0
 42
0.0000000001
 43
0.0000000001
 12
1.0
 22
0.0
 32
0.0
 13
1.0
 23
0.0
 33
0.0
 40
0.0
 40
0.0
 40
0.0
 40
0.0
 40
1.0
 40
1.0
 40
1.0
 40
2.0
 40
2.0
 40
2.0
 40
3.0
 40
3.0
 40
3.0
 40
4.0
 40
4.0
 40
4.0
 40
4.0
 10
110.0687452474679
 20
-122.3336319138611
 30
0.0
 10
110.0687452474679
 20
-122.2784927472083
 30
0.0
 10
110.0239424708332
 20
-122.2337252472194
 30
0.0
 10
109.9688385833501
 20
-122.2337252472194
 30
0.0
 10
109.9136994180901
 20
-122.2337252472194
 30
0.0
 10
109.8689319192323
 20
-122.2784927472083
 30
0.0
 10
109.8689319192323
 20
-122.3336319138611
 30
0.0
 10
109.8689319192323
 20
-122.3887358027363
 30
0.0
 10
109.9136994180901
 20
-122.4335385805027
 30
0.0
 10
109.9688385833501
 20
-122.4335385805027
 30
0.0
 10
110.0239424708332
 20
-122.4335385805027
 30
0.0
 10
110.0687452474679
 20
-122.3887358027363
 30
0.0
 10
110.0687452474679
 20
-122.3336319138611
 30
0.0
  0
SPLINE
  5
85
330
1F
100
AcDbEntity
  8
_U+30EC_U+30A4_U+30E4_U+30FC 1
 62
     7
420
 16777215
370
     9
100
AcDbSpline
210
0.0
220
0.0
230
1.0
 70
    11
 71
     3
 72
    17
 73
    13
 74
     0
 42
0.0000000001
 43
0.0000000001
 12
1.0
 22
0.0
 32
0.0
 13
1.0
 23
0.0
 33
0.0
 40
0.0
 40
0.0
 40
0.0
 40
0.0
 40
1.0
 40
1.0
 40
1.0
 40
2.0
 40
2.0
 40
2.0
 40
3.0
 40
3.0
 40
3.0
 40
4.0
 40
4.0
 40
4.0
 40
4.0
 10
83.0004598269263
 20
-142.2276527422212
 30
0.0
 10
83.0004598269263
 20
-142.1725488533456
 30
0.0
 10
82.95565705029153
 20
-142.1277460755789
 30
0.0
 10
82.9002003850397
 20
-142.1277460755789
 30
0.0
 10
82.84506121977974
 20
-142.1277460755789
 30
0.0
 10
82.80029372092186
 20
-142.1725488533456
 30
0.0
 10
82.80029372092186
 20
-142.2276527422212
 30
0.0
 10
82.80029372092186
 20
-142.2827919088736
 30
0.0
 10
82.84506121977974
 20
-142.3275594088628
 30
0.0
 10
82.9002003850397
 20
-142.3275594088628
 30
0.0
 10
82.95565705029153
 20
-142.3275594088628
 30
0.0
 10
83.0004598269263
 20
-142.2827919088736
 30
0.0
 10
83.0004598269263
 20
-142.2276527422212
 30
0.0
  0
SPLINE
  5
86
330
1F
100
AcDbEntity
  8
_U+30EC_U+30A4_U+30E4_U+30FC 1
 62
     7
420
 16777215
370
     9
100
AcDbSpline
210
0.0
220
0.0
230
1.0
 70
    11
 71
     3
 72
    17
 73
    13
 74
     0
 42
0.0000000001
 43
0.0000000001
 12
1.0
 22
0.0
 32
0.0
 13
1.0
 23
0.0
 33
0.0
 40
0.0
 40
0.0
 40
0.0
 40
0.0
 40
1.0
 40
1.0
 40
1.0
 40
2.0
 40
2.0
 40
2.0
 40
3.0
 40
3.0
 40
3.0
 40
4.0
 40
4.0
 40
4.0
 40
4.0
 10
93.15125206795801
 20
-142.2276527422212
 30
0.0
 10
93.15125206795801
 20
-142.1725488533456
 30
0.0
 10
93.10644929132326
 20
-142.1277460755789
 30
0.0
 10
93.05134540384019
 20
-142.1277460755789
 30
0.0
 10
92.99620623858023
 20
-142.1277460755789
 30
0.0
 10
92.95143873972235
 20
-142.1725488533456
 30
0.0
 10
92.95143873972235
 20
-142.2276527422212
 30
0.0
 10
92.95143873972235
 20
-142.2827919088736
 30
0.0
 10
92.99620623858023
 20
-142.3275594088628
 30
0.0
 10
93.05134540384019
 20
-142.3275594088628
 30
0.0
 10
93.10644929132326
 20
-142.3275594088628
 30
0.0
 10
93.15125206795801
 20
-142.2827919088736
 30
0.0
 10
93.15125206795801
 20
-142.2276527422212
 30
0.0
  0
SPLINE
  5
87
330
1F
100
AcDbEntity
  8
_U+30EC_U+30A4_U+30E4_U+30FC 1
 62
     7
420
 16777215
370
     9
100
AcDbSpline
210
0.0
220
0.0
230
1.0
 70
    11
 71
     3
 72
    17
 73
    13
 74
     0
 42
0.0000000001
 43
0.0000000001
 12
1.0
 22
0.0
 32
0.0
 13
1.0
 23
0.0
 33
0.0
 40
0.0
 40
0.0
 40
0.0
 40
0.0
 40
1.0
 40
1.0
 40
1.0
 40
2.0
 40
2.0
 40
2.0
 40
3.0
 40
3.0
 40
3.0
 40
4.0
 40
4.0
 40
4.0
 40
4.0
 10
71.1134717968553
 20
-142.2276527422212
 30
0.0
 10
71.1134717968553
 20
-142.1725488533456
 30
0.0
 10
71.06870429799741
 20
-142.1277460755789
 30
0.0
 10
71.01356513273747
 20
-142.1277460755789
 30
0.0
 10
70.95810846748562
 20
-142.1277460755789
 30
0.0
 10
70.91334096862772
 20
-142.1725488533456
 30
0.0
 10
70.91334096862772
 20
-142.2276527422212
 30
0.0
 10
70.91334096862772
 20
-142.2827919088736
 30
0.0
 10
70.95810846748562
 20
-142.3275594088628
 30
0.0
 10
71.01356513273747
 20
-142.3275594088628
 30
0.0
 10
71.06870429799741
 20
-142.3275594088628
 30
0.0
 10
71.1134717968553
 20
-142.2827919088736
 30
0.0
 10
71.1134717968553
 20
-142.2276527422212
 30
0.0
  0
POLYLINE
  5
88
330
1F
100
AcDbEntity
  8
_U+30EC_U+30A4_U+30E4_U+30FC 1
 62
     7
420
 16777215
370
     9
100
AcDb2dPolyline
 66
     1
 10
0.0
 20
0.0
 30
0.0
  0
VERTEX
  5
89
330
88
100
AcDbEntity
  8
_U+30EC_U+30A4_U+30E4_U+30FC 1
 62
     7
420
 16777215
370
     9
100
AcDbVertex
100
AcDb2dVertex
 10
82.9002003850397
 20
-142.2276527422212
 30
0.0
  0
VERTEX
  5
8A
330
88
100
AcDbEntity
  8
_U+30EC_U+30A4_U+30E4_U+30FC 1
 62
     7
420
 16777215
370
     9
100
AcDbVertex
100
AcDb2dVertex
 10
92.9004270743571
 20
-142.2276527422212
 30
0.0
  0
SEQEND
  5
8B
330
88
100
AcDbEntity
  8
_U+30EC_U+30A4_U+30E4_U+30FC 1
 62
     7
420
 16777215
370
     9
  0
POLYLINE
  5
8C
330
1F
100
AcDbEntity
  8
_U+30EC_U+30A4_U+30E4_U+30FC 1
 62
     7
420
 16777215
370
     9
100
AcDb2dPolyline
 66
     1
 10
0.0
 20
0.0
 30
0.0
  0
VERTEX
  5
8D
330
8C
100
AcDbEntity
  8
_U+30EC_U+30A4_U+30E4_U+30FC 1
 62
     7
420
 16777215
370
     9
100
AcDbVertex
100
AcDb2dVertex
 10
93.05134540384019
 20
-140.767646631475
 30
0.0
  0
VERTEX
  5
8E
330
8C
100
AcDbEntity
  8
_U+30EC_U+30A4_U+30E4_U+30FC 1
 62
     7
420
 16777215
370
     9
100
AcDbVertex
100
AcDb2dVertex
 10
93.05134540384019
 20
-143.2274249641931
 30
0.0
  0
SEQEND
  5
8F
330
8C
100
AcDbEntity
  8
_U+30EC_U+30A4_U+30E4_U+30FC 1
 62
     7
420
 16777215
370
     9
  0
INSERT
  5
91
330
1F
100
AcDbEntity
  8
_U+30EC_U+30A4_U+30E4_U+30FC 1
100
AcDbBlockReference
  2
block 2
 10
0.0
 20
0.0
 30
0.0
  0
POLYLINE
  5
99
330
1F
100
AcDbEntity
  8
_U+30EC_U+30A4_U+30E4_U+30FC 1
 62
     7
420
 16777215
370
     9
100
AcDb2dPolyline
 66
     1
 10
0.0
 20
0.0
 30
0.0
  0
VERTEX
  5
9A
330
99
100
AcDbEntity
  8
_U+30EC_U+30A4_U+30E4_U+30FC 1
 62
     7
420
 16777215
370
     9
100
AcDbVertex
100
AcDb2dVertex
 10
109.9688385833501
 20
-121.3338596918888
 30
0.0
  0
VERTEX
  5
9B
330
99
100
AcDbEntity
  8
_U+30EC_U+30A4_U+30E4_U+30FC 1
 62
     7
420
 16777215
370
     9
100
AcDbVertex
100
AcDb2dVertex
 10
109.9688385833501
 20
-117.5635471928314
 30
0.0
  0
SEQEND
  5
9C
330
99
100
AcDbEntity
  8
_U+30EC_U+30A4_U+30E4_U+30FC 1
 62
     7
420
 16777215
370
     9
  0
POLYLINE
  5
9D
330
1F
100
AcDbEntity
  8
_U+30EC_U+30A4_U+30E4_U+30FC 1
 62
     7
420
 16777215
370
     9
100
AcDb2dPolyline
 66
     1
 10
0.0
 20
0.0
 30
0.0
  0
VERTEX
  5
9E
330
9D
100
AcDbEntity
  8
_U+30EC_U+30A4_U+30E4_U+30FC 1
 62
     7
420
 16777215
370
     9
100
AcDbVertex
100
AcDb2dVertex
 10
109.9688385833501
 20
-121.3338596918888
 30
0.0
  0
VERTEX
  5
9F
330
9D
100
AcDbEntity
  8
_U+30EC_U+30A4_U+30E4_U+30FC 1
 62
     7
420
 16777215
370
     9
100
AcDbVertex
100
AcDb2dVertex
 10
109.9688385833501
 20
-122.3336319138611
 30
0.0
  0
SEQEND
  5
A0
330
9D
100
AcDbEntity
  8
_U+30EC_U+30A4_U+30E4_U+30FC 1
 62
     7
420
 16777215
370
     9
  0
POLYLINE
  5
A1
330
1F
100
AcDbEntity
  8
_U+30EC_U+30A4_U+30E4_U+30FC 1
 62
     7
420
 16777215
370
     9
100
AcDb2dPolyline
 66
     1
 10
0.0
 20
0.0
 30
0.0
  0
VERTEX
  5
A2
330
A1
100
AcDbEntity
  8
_U+30EC_U+30A4_U+30E4_U+30FC 1
 62
     7
420
 16777215
370
     9
100
AcDbVertex
100
AcDb2dVertex
 10
108.5087999728731
 20
-121.3338596918888
 30
0.0
  0
VERTEX
  5
A3
330
A1
100
AcDbEntity
  8
_U+30EC_U+30A4_U+30E4_U+30FC 1
 62
     7
420
 16777215
370
     9
100
AcDbVertex
100
AcDb2dVertex
 10
110.9685755022891
 20
-121.3338596918888
 30
0.0
  0
SEQEND
  5
A4
330
A1
100
AcDbEntity
  8
_U+30EC_U+30A4_U+30E4_U+30FC 1
 62
     7
420
 16777215
370
     9
  0
POLYLINE
  5
A5
330
1F
100
AcDbEntity
  8
_U+30EC_U+30A4_U+30E4_U+30FC 1
 62
     7
420
 16777215
370
     9
100
AcDb2dPolyline
 66
     1
 10
0.0
 20
0.0
 30
0.0
  0
VERTEX
  5
A6
330
A5
100
AcDbEntity
  8
_U+30EC_U+30A4_U+30E4_U+30FC 1
 62
     7
420
 16777215
370
     9
100
AcDbVertex
100
AcDb2dVertex
 10
108.5087999728731
 20
-122.3336319138611
 30
0.0
  0
VERTEX
  5
A7
330
A5
100
AcDbEntity
  8
_U+30EC_U+30A4_U+30E4_U+30FC 1
 62
     7
420
 16777215
370
     9
100
AcDbVertex
100
AcDb2dVertex
 10
110.9685755022891
 20
-122.3336319138611
 30
0.0
  0
SEQEND
  5
A8
330
A5
100
AcDbEntity
  8
_U+30EC_U+30A4_U+30E4_U+30FC 1
 62
     7
420
 16777215
370
     9
  0
INSERT
  5
AA
330
1F
100
AcDbEntity
  8
_U+30EC_U+30A4_U+30E4_U+30FC 1
100
AcDbBlockReference
  2
block 3
 10
0.0
 20
0.0
 30
0.0
  0
POLYLINE
  5
AF
330
1F
100
AcDbEntity
  8
_U+30EC_U+30A4_U+30E4_U+30FC 1
 62
     7
420
 16777215
370
     9
100
AcDb2dPolyline
 66
     1
 10
0.0
 20
0.0
 30
0.0
  0
VERTEX
  5
B0
330
AF
100
AcDbEntity
  8
_U+30EC_U+30A4_U+30E4_U+30FC 1
 62
     7
420
 16777215
370
     9
100
AcDbVertex
100
AcDb2dVertex
 10
70.86853819199297
 20
-117.3333949706667
 30
0.0
  0
VERTEX
  5
B1
330
AF
100
AcDbEntity
  8
_U+30EC_U+30A4_U+30E4_U+30FC 1
 62
     7
420
 16777215
370
     9
100
AcDbVertex
100
AcDb2dVertex
 10
105.8684672990704
 20
-117.3333949706667
 30
0.0
  0
SEQEND
  5
B2
330
AF
100
AcDbEntity
  8
_U+30EC_U+30A4_U+30E4_U+30FC 1
 62
     7
420
 16777215
370
     9
  0
POLYLINE
  5
B3
330
1F
100
AcDbEntity
  8
_U+30EC_U+30A4_U+30E4_U+30FC 1
 62
     7
420
 16777215
370
     9
100
AcDb2dPolyline
 66
     1
 10
0.0
 20
0.0
 30
0.0
  0
VERTEX
  5
B4
330
B3
100
AcDbEntity
  8
_U+30EC_U+30A4_U+30E4_U+30FC 1
 62
     7
420
 16777215
370
     9
100
AcDbVertex
100
AcDb2dVertex
 10
70.86853819199297
 20
-118.7934363591905
 30
0.0
  0
VERTEX
  5
B5
330
B3
100
AcDbEntity
  8
_U+30EC_U+30A4_U+30E4_U+30FC 1
 62
     7
420
 16777215
370
     9
100
AcDbVertex
100
AcDb2dVertex
 10
70.86853819199297
 20
-116.3336227486945
 30
0.0
  0
SEQEND
  5
B6
330
B3
100
AcDbEntity
  8
_U+30EC_U+30A4_U+30E4_U+30FC 1
 62
     7
420
 16777215
370
     9
  0
POLYLINE
  5
B7
330
1F
100
AcDbEntity
  8
_U+30EC_U+30A4_U+30E4_U+30FC 1
 62
     7
420
 16777215
370
     9
100
AcDb2dPolyline
 66
     1
 10
0.0
 20
0.0
 30
0.0
  0
VERTEX
  5
B8
330
B7
100
AcDbEntity
  8
_U+30EC_U+30A4_U+30E4_U+30FC 1
 62
     7
420
 16777215
370
     9
100
AcDbVertex
100
AcDb2dVertex
 10
105.7685606349526
 20
-118.7934363591905
 30
0.0
  0
VERTEX
  5
B9
330
B7
100
AcDbEntity
  8
_U+30EC_U+30A4_U+30E4_U+30FC 1
 62
     7
420
 16777215
370
     9
100
AcDbVertex
100
AcDb2dVertex
 10
105.7685606349526
 20
-116.3336227486945
 30
0.0
  0
SEQEND
  5
BA
330
B7
100
AcDbEntity
  8
_U+30EC_U+30A4_U+30E4_U+30FC 1
 62
     7
420
 16777215
370
     9
  0
INSERT
  5
BC
330
1F
100
AcDbEntity
  8
_U+30EC_U+30A4_U+30E4_U+30FC 1
100
AcDbBlockReference
  2
block 4
 10
0.0
 20
0.0
 30
0.0
  0
POLYLINE
  5
C3
330
1F
100
AcDbEntity
  8
_U+30EC_U+30A4_U+30E4_U+30FC 1
 62
     7
420
 16777215
370
     9
100
AcDb2dPolyline
 66
     1
 10
0.0
 20
0.0
 30
0.0
  0
VERTEX
  5
C4
330
C3
100
AcDbEntity
  8
_U+30EC_U+30A4_U+30E4_U+30FC 1
 62
     7
420
 16777215
370
     9
100
AcDbVertex
100
AcDb2dVertex
 10
70.90025291340608
 20
-142.2276527422212
 30
0.0
  0
VERTEX
  5
C5
330
C3
100
AcDbEntity
  8
_U+30EC_U+30A4_U+30E4_U+30FC 1
 62
     7
420
 16777215
370
     9
100
AcDbVertex
100
AcDb2dVertex
 10
82.9002003850397
 20
-142.2276527422212
 30
0.0
  0
SEQEND
  5
C6
330
C3
100
AcDbEntity
  8
_U+30EC_U+30A4_U+30E4_U+30FC 1
 62
     7
420
 16777215
370
     9
  0
POLYLINE
  5
C7
330
1F
100
AcDbEntity
  8
_U+30EC_U+30A4_U+30E4_U+30FC 1
 62
     7
420
 16777215
370
     9
100
AcDb2dPolyline
 66
     1
 10
0.0
 20
0.0
 30
0.0
  0
VERTEX
  5
C8
330
C7
100
AcDbEntity
  8
_U+30EC_U+30A4_U+30E4_U+30FC 1
 62
     7
420
 16777215
370
     9
100
AcDbVertex
100
AcDb2dVertex
 10
71.01356513273747
 20
-124.8740199687816
 30
0.0
  0
VERTEX
  5
C9
330
C7
100
AcDbEntity
  8
_U+30EC_U+30A4_U+30E4_U+30FC 1
 62
     7
420
 16777215
370
     9
100
AcDbVertex
100
AcDb2dVertex
 10
71.01356513273747
 20
-143.2274249641931
 30
0.0
  0
SEQEND
  5
CA
330
C7
100
AcDbEntity
  8
_U+30EC_U+30A4_U+30E4_U+30FC 1
 62
     7
420
 16777215
370
     9
  0
POLYLINE
  5
CB
330
1F
100
AcDbEntity
  8
_U+30EC_U+30A4_U+30E4_U+30FC 1
 62
     7
420
 16777215
370
     9
100
AcDb2dPolyline
 66
     1
 10
0.0
 20
0.0
 30
0.0
  0
VERTEX
  5
CC
330
CB
100
AcDbEntity
  8
_U+30EC_U+30A4_U+30E4_U+30FC 1
 62
     7
420
 16777215
370
     9
100
AcDbVertex
100
AcDb2dVertex
 10
82.9002003850397
 20
-140.767646631475
 30
0.0
  0
VERTEX
  5
CD
330
CB
100
AcDbEntity
  8
_U+30EC_U+30A4_U+30E4_U+30FC 1
 62
     7
420
 16777215
370
     9
100
AcDbVertex
100
AcDb2dVertex
 10
82.9002003850397
 20
-143.2274249641931
 30
0.0
  0
SEQEND
  5
CE
330
CB
100
AcDbEntity
  8
_U+30EC_U+30A4_U+30E4_U+30FC 1
 62
     7
420
 16777215
370
     9
  0
INSERT
  5
D0
330
1F
100
AcDbEntity
  8
_U+30EC_U+30A4_U+30E4_U+30FC 1
100
AcDbBlockReference
  2
block 5
 10
0.0
 20
0.0
 30
0.0
  0
POLYLINE
  5
D7
330
1F
100
AcDbEntity
  8
_U+30EC_U+30A4_U+30E4_U+30FC 1
 62
     7
420
 16777215
370
     9
100
AcDb2dPolyline
 66
     1
 10
0.0
 20
0.0
 30
0.0
  0
VERTEX
  5
D8
330
D7
100
AcDbEntity
  8
_U+30EC_U+30A4_U+30E4_U+30FC 1
 62
     7
420
 16777215
370
     9
100
AcDbVertex
100
AcDb2dVertex
 10
109.9688385833501
 20
-134.8338185774025
 30
0.0
  0
VERTEX
  5
D9
330
D7
100
AcDbEntity
  8
_U+30EC_U+30A4_U+30E4_U+30FC 1
 62
     7
420
 16777215
370
     9
100
AcDbVertex
100
AcDb2dVertex
 10
109.9688385833501
 20
-122.3336319138611
 30
0.0
  0
SEQEND
  5
DA
330
D7
100
AcDbEntity
  8
_U+30EC_U+30A4_U+30E4_U+30FC 1
 62
     7
420
 16777215
370
     9
  0
SPLINE
  5
DB
330
1F
100
AcDbEntity
  8
_U+30EC_U+30A4_U+30E4_U+30FC 1
 62
     7
420
 16777215
370
     9
100
AcDbSpline
210
0.0
220
0.0
230
1.0
 70
    11
 71
     3
 72
    17
 73
    13
 74
     0
 42
0.0000000001
 43
0.0000000001
 12
1.0
 22
0.0
 32
0.0
 13
1.0
 23
0.0
 33
0.0
 40
0.0
 40
0.0
 40
0.0
 40
0.0
 40
1.0
 40
1.0
 40
1.0
 40
2.0
 40
2.0
 40
2.0
 40
3.0
 40
3.0
 40
3.0
 40
4.0
 40
4.0
 40
4.0
 40
4.0
 10
110.0687452474679
 20
-134.8737530218368
 30
0.0
 10
110.0687452474679
 20
-134.8179435774064
 30
0.0
 10
110.0239424708332
 20
-134.7731760774178
 30
0.0
 10
109.9688385833501
 20
-134.7731760774178
 30
0.0
 10
109.9136994180901
 20
-134.7731760774178
 30
0.0
 10
109.8689319192323
 20
-134.8179435774064
 30
0.0
 10
109.8689319192323
 20
-134.8737530218368
 30
0.0
 10
109.8689319192323
 20
-134.9288921884899
 30
0.0
 10
109.9136994180901
 20
-134.9736596884791
 30
0.0
 10
109.9688385833501
 20
-134.9736596884791
 30
0.0
 10
110.0239424708332
 20
-134.9736596884791
 30
0.0
 10
110.0687452474679
 20
-134.9288921884899
 30
0.0
 10
110.0687452474679
 20
-134.8737530218368
 30
0.0
  0
SPLINE
  5
DC
330
1F
100
AcDbEntity
  8
_U+30EC_U+30A4_U+30E4_U+30FC 1
 62
     7
420
 16777215
370
     9
100
AcDbSpline
210
0.0
220
0.0
230
1.0
 70
    11
 71
     3
 72
    17
 73
    13
 74
     0
 42
0.0000000001
 43
0.0000000001
 12
1.0
 22
0.0
 32
0.0
 13
1.0
 23
0.0
 33
0.0
 40
0.0
 40
0.0
 40
0.0
 40
0.0
 40
1.0
 40
1.0
 40
1.0
 40
2.0
 40
2.0
 40
2.0
 40
3.0
 40
3.0
 40
3.0
 40
4.0
 40
4.0
 40
4.0
 40
4.0
 10
110.0687452474679
 20
-137.8737399655318
 30
0.0
 10
110.0687452474679
 20
-137.8179305211014
 30
0.0
 10
110.0239424708332
 20
-137.7731630211122
 30
0.0
 10
109.9688385833501
 20
-137.7731630211122
 30
0.0
 10
109.9136994180901
 20
-137.7731630211122
 30
0.0
 10
109.8689319192323
 20
-137.8179305211014
 30
0.0
 10
109.8689319192323
 20
-137.8737399655318
 30
0.0
 10
109.8689319192323
 20
-137.9288791321842
 30
0.0
 10
109.9136994180901
 20
-137.9736466321735
 30
0.0
 10
109.9688385833501
 20
-137.9736466321735
 30
0.0
 10
110.0239424708332
 20
-137.9736466321735
 30
0.0
 10
110.0687452474679
 20
-137.9288791321842
 30
0.0
 10
110.0687452474679
 20
-137.8737399655318
 30
0.0
  0
POLYLINE
  5
DD
330
1F
100
AcDbEntity
  8
_U+30EC_U+30A4_U+30E4_U+30FC 1
 62
     7
420
 16777215
370
     9
100
AcDb2dPolyline
 66
     1
 10
0.0
 20
0.0
 30
0.0
  0
VERTEX
  5
DE
330
DD
100
AcDbEntity
  8
_U+30EC_U+30A4_U+30E4_U+30FC 1
 62
     7
420
 16777215
370
     9
100
AcDbVertex
100
AcDb2dVertex
 10
109.9688385833501
 20
-137.8737399655318
 30
0.0
  0
VERTEX
  5
DF
330
DD
100
AcDbEntity
  8
_U+30EC_U+30A4_U+30E4_U+30FC 1
 62
     7
420
 16777215
370
     9
100
AcDbVertex
100
AcDb2dVertex
 10
109.9688385833501
 20
-134.8737530218368
 30
0.0
  0
SEQEND
  5
E0
330
DD
100
AcDbEntity
  8
_U+30EC_U+30A4_U+30E4_U+30FC 1
 62
     7
420
 16777215
370
     9
  0
POLYLINE
  5
E1
330
1F
100
AcDbEntity
  8
_U+30EC_U+30A4_U+30E4_U+30FC 1
 62
     7
420
 16777215
370
     9
100
AcDb2dPolyline
 66
     1
 10
0.0
 20
0.0
 30
0.0
  0
VERTEX
  5
E2
330
E1
100
AcDbEntity
  8
_U+30EC_U+30A4_U+30E4_U+30FC 1
 62
     7
420
 16777215
370
     9
100
AcDbVertex
100
AcDb2dVertex
 10
95.52975275389522
 20
-137.8737399655318
 30
0.0
  0
VERTEX
  5
E3
330
E1
100
AcDbEntity
  8
_U+30EC_U+30A4_U+30E4_U+30FC 1
 62
     7
420
 16777215
370
     9
100
AcDbVertex
100
AcDb2dVertex
 10
110.9685755022891
 20
-137.8737399655318
 30
0.0
  0
SEQEND
  5
E4
330
E1
100
AcDbEntity
  8
_U+30EC_U+30A4_U+30E4_U+30FC 1
 62
     7
420
 16777215
370
     9
  0
INSERT
  5
E6
330
1F
100
AcDbEntity
  8
_U+30EC_U+30A4_U+30E4_U+30FC 1
100
AcDbBlockReference
  2
block 6
 10
0.0
 20
0.0
 30
0.0
  0
POLYLINE
  5
EB
330
1F
100
AcDbEntity
  8
_U+30EC_U+30A4_U+30E4_U+30FC 1
 62
     7
420
 16777215
370
     9
100
AcDb2dPolyline
 66
     1
 10
0.0
 20
0.0
 30
0.0
  0
VERTEX
  5
EC
330
EB
100
AcDbEntity
  8
_U+30EC_U+30A4_U+30E4_U+30FC 1
 62
     7
420
 16777215
370
     9
100
AcDbVertex
100
AcDb2dVertex
 10
95.52975275389522
 20
-134.8737530218368
 30
0.0
  0
VERTEX
  5
ED
330
EB
100
AcDbEntity
  8
_U+30EC_U+30A4_U+30E4_U+30FC 1
 62
     7
420
 16777215
370
     9
100
AcDbVertex
100
AcDb2dVertex
 10
110.9685755022891
 20
-134.8737530218368
 30
0.0
  0
SEQEND
  5
EE
330
EB
100
AcDbEntity
  8
_U+30EC_U+30A4_U+30E4_U+30FC 1
 62
     7
420
 16777215
370
     9
  0
INSERT
  5
F0
330
1F
100
AcDbEntity
  8
_U+30EC_U+30A4_U+30E4_U+30FC 1
100
AcDbBlockReference
  2
block 7
 10
0.0
 20
0.0
 30
0.0
  0
POLYLINE
  5
101
330
1F
100
AcDbEntity
  8
_U+30EC_U+30A4_U+30E4_U+30FC 1
 62
     7
420
 16777215
370
    25
100
AcDb2dPolyline
 66
     1
 10
0.0
 20
0.0
 30
0.0
  0
VERTEX
  5
102
330
101
100
AcDbEntity
  8
_U+30EC_U+30A4_U+30E4_U+30FC 1
 62
     7
420
 16777215
370
    25
100
AcDbVertex
100
AcDb2dVertex
 10
83.80038341762966
 20
-137.0021319101942
 30
0.0
  0
VERTEX
  5
103
330
101
100
AcDbEntity
  8
_U+30EC_U+30A4_U+30E4_U+30FC 1
 62
     7
420
 16777215
370
    25
100
AcDbVertex
100
AcDb2dVertex
 10
83.80038341762966
 20
-128.9568230233161
 30
0.0
  0
SEQEND
  5
104
330
101
100
AcDbEntity
  8
_U+30EC_U+30A4_U+30E4_U+30FC 1
 62
     7
420
 16777215
370
    25
  0
POLYLINE
  5
105
330
1F
100
AcDbEntity
  8
_U+30EC_U+30A4_U+30E4_U+30FC 1
 62
   179
420
  2234388
370
    25
100
AcDb2dPolyline
 66
     1
 10
0.0
 20
0.0
 30
0.0
  0
VERTEX
  5
106
330
105
100
AcDbEntity
  8
_U+30EC_U+30A4_U+30E4_U+30FC 1
 62
   179
420
  2234388
370
    25
100
AcDbVertex
100
AcDb2dVertex
 10
83.80038341762966
 20
-128.9568230233161
 30
0.0
  0
VERTEX
  5
107
330
105
100
AcDbEntity
  8
_U+30EC_U+30A4_U+30E4_U+30FC 1
 62
   179
420
  2234388
370
    25
100
AcDbVertex
100
AcDb2dVertex
 10
84.10045831230838
 20
-128.5840427456318
 30
0.0
  0
VERTEX
  5
108
330
105
100
AcDbEntity
  8
_U+30EC_U+30A4_U+30E4_U+30FC 1
 62
   179
420
  2234388
370
    25
100
AcDbVertex
100
AcDb2dVertex
 10
83.80038341762966
 20
-128.2105921901695
 30
0.0
  0
SEQEND
  5
10A
330
105
100
AcDbEntity
  8
_U+30EC_U+30A4_U+30E4_U+30FC 1
 62
   179
420
  2234388
370
    25
  0
HATCH
  5
109
330
1F
100
AcDbEntity
  8
_U+30EC_U+30A4_U+30E4_U+30FC 1
 62
   253
420
 11711154
100
AcDbHatch
 10
0.0
 20
0.0
 30
0.0
210
0.0
220
0.0
230
1.0
  2
SOLID
 70
     1
 71
     0
 91
        1
 92
        1
 93
        3
 72
     1
 10
83.80038341762966
 20
-128.9568230233161
 11
84.10045831230838
 21
-128.5840427456318
 72
     1
 10
84.10045831230838
 20
-128.5840427456318
 11
83.80038341762966
 21
-128.2105921901696
 72
     1
 10
83.80038341762966
 20
-128.2105921901695
 11
83.80038341762966
 21
-128.9568230233161
 97
        0
 75
     2
 76
     1
 98
        0
  0
ENDSEC
  0
SECTION
  2
OBJECTS
  0
DICTIONARY
  5
C
330
0
100
AcDbDictionary
281
     1
  3
ACAD_GROUP
350
D
  3
ACAD_LAYOUT
350
1A
  3
ACAD_MATERIAL
350
3B
  3
ACAD_MLEADERSTYLE
350
10C
  3
ACAD_MLINESTYLE
350
17
  3
ACAD_PLOTSETTINGS
350
19
  3
ACAD_PLOTSTYLENAME
350
E
  3
ACAD_TABLESTYLE
350
10B
  3
ACAD_VISUALSTYLE
350
2A
  0
SUN
  5
3F
330
29
100
AcDbSun
 90
        1
290
     0
 63
     7
421
 16777215
 40
1.0
291
     1
 91
  2455826
 92
 54000000
292
     0
 70
     2
 71
   256
280
     1
  0
DICTIONARY
  5
D
102
{ACAD_REACTORS
330
C
102
}
330
C
100
AcDbDictionary
281
     1
  0
DICTIONARY
  5
1A
102
{ACAD_REACTORS
330
C
102
}
330
C
100
AcDbDictionary
281
     1
  3
Layout1
350
1E
  3
Layout2
350
26
  3
Model
350
22
  0
DICTIONARY
  5
3B
102
{ACAD_REACTORS
330
C
102
}
330
C
100
AcDbDictionary
281
     1
  3
ByBlock
350
3D
  3
ByLayer
350
3C
  3
Global
350
3E
  0
DICTIONARY
  5
10C
102
{ACAD_REACTORS
330
C
102
}
330
C
100
AcDbDictionary
281
     1
  0
DICTIONARY
  5
17
102
{ACAD_REACTORS
330
C
102
}
330
C
100
AcDbDictionary
281
     1
  3
Standard
350
18
  0
DICTIONARY
  5
19
102
{ACAD_REACTORS
330
C
102
}
330
C
100
AcDbDictionary
281
     1
  0
ACDBDICTIONARYWDFLT
  5
E
102
{ACAD_REACTORS
330
C
102
}
330
C
100
AcDbDictionary
281
     1
  3
Normal
350
F
100
AcDbDictionaryWithDefault
340
F
  0
DICTIONARY
  5
10B
102
{ACAD_REACTORS
330
C
102
}
330
C
100
AcDbDictionary
281
     1
  0
DICTIONARY
  5
2A
102
{ACAD_REACTORS
330
C
102
}
330
C
100
AcDbDictionary
281
     1
  3
2dWireframe
350
2F
  3
3D Hidden
350
31
  3
3dWireframe
350
30
  3
Basic
350
32
  3
Brighten
350
36
  3
ColorChange
350
3A
  3
Conceptual
350
34
  3
Dim
350
35
  3
Facepattern
350
39
  3
Flat
350
2B
  3
FlatWithEdges
350
2C
  3
Gouraud
350
2D
  3
GouraudWithEdges
350
2E
  3
Linepattern
350
38
  3
Realistic
350
33
  3
Thicken
350
37
  0
LAYOUT
  5
1E
102
{ACAD_REACTORS
330
1A
102
}
330
1A
100
AcDbPlotSettings
  1

  2
none_device
  4

  6

 40
0.0
 41
0.0
 42
0.0
 43
0.0
 44
0.0
 45
0.0
 46
0.0
 47
0.0
 48
0.0
 49
0.0
140
0.0
141
0.0
142
1.0
143
1.0
 70
   688
 72
     0
 73
     0
 74
     5
  7

 75
    16
 76
     0
 77
     2
 78
   300
147
1.0
148
0.0
149
0.0
100
AcDbLayout
  1
Layout1
 70
     1
 71
     1
 10
0.0
 20
0.0
 11
12.0
 21
9.0
 12
0.0
 22
0.0
 32
0.0
 14
1.000000000000000E+20
 24
1.000000000000000E+20
 34
1.000000000000000E+20
 15
-1.000000000000000E+20
 25
-1.000000000000000E+20
 35
-1.000000000000000E+20
146
0.0
 13
0.0
 23
0.0
 33
0.0
 16
1.0
 26
0.0
 36
0.0
 17
0.0
 27
1.0
 37
0.0
 76
     0
330
1B
  0
LAYOUT
  5
26
102
{ACAD_REACTORS
330
1A
102
}
330
1A
100
AcDbPlotSettings
  1

  2
none_device
  4

  6

 40
0.0
 41
0.0
 42
0.0
 43
0.0
 44
0.0
 45
0.0
 46
0.0
 47
0.0
 48
0.0
 49
0.0
140
0.0
141
0.0
142
1.0
143
1.0
 70
   688
 72
     0
 73
     0
 74
     5
  7

 75
    16
 76
     0
 77
     2
 78
   300
147
1.0
148
0.0
149
0.0
100
AcDbLayout
  1
Layout2
 70
     1
 71
     2
 10
0.0
 20
0.0
 11
0.0
 21
0.0
 12
0.0
 22
0.0
 32
0.0
 14
0.0
 24
0.0
 34
0.0
 15
0.0
 25
0.0
 35
0.0
146
0.0
 13
0.0
 23
0.0
 33
0.0
 16
1.0
 26
0.0
 36
0.0
 17
0.0
 27
1.0
 37
0.0
 76
     0
330
23
  0
LAYOUT
  5
22
102
{ACAD_REACTORS
330
1A
102
}
330
1A
100
AcDbPlotSettings
  1

  2
none_device
  4

  6

 40
0.0
 41
0.0
 42
0.0
 43
0.0
 44
0.0
 45
0.0
 46
0.0
 47
0.0
 48
0.0
 49
0.0
140
0.0
141
0.0
142
1.0
143
1.0
 70
  1712
 72
     0
 73
     0
 74
     0
  7

 75
     0
 76
     0
 77
     2
 78
   300
147
1.0
148
0.0
149
0.0
100
AcDbLayout
  1
Model
 70
     1
 71
     0
 10
0.0
 20
0.0
 11
12.0
 21
9.0
 12
0.0
 22
0.0
 32
0.0
 14
1.000000000000000E+20
 24
1.000000000000000E+20
 34
1.000000000000000E+20
 15
-1.000000000000000E+20
 25
-1.000000000000000E+20
 35
-1.000000000000000E+20
146
0.0
 13
0.0
 23
0.0
 33
0.0
 16
1.0
 26
0.0
 36
0.0
 17
0.0
 27
1.0
 37
0.0
 76
     0
330
1F
331
29
  0
MATERIAL
  5
3D
102
{ACAD_REACTORS
330
3B
102
}
330
3B
100
AcDbMaterial
  1
ByBlock
 72
     1
 94
      127
  0
MATERIAL
  5
3C
102
{ACAD_REACTORS
330
3B
102
}
330
3B
100
AcDbMaterial
  1
ByLayer
 72
     1
 94
      127
  0
MATERIAL
  5
3E
102
{ACAD_REACTORS
330
3B
102
}
330
3B
100
AcDbMaterial
  1
Global
 72
     1
 94
      127
  0
MLINESTYLE
  5
18
102
{ACAD_REACTORS
330
17
102
}
330
17
100
AcDbMlineStyle
  2
Standard
 70
     0
  3

 62
   256
 51
90.0
 52
90.0
 71
     2
 49
0.5
 62
   256
  6
BYLAYER
 49
-0.5
 62
   256
  6
BYLAYER
  0
ACDBPLACEHOLDER
  5
F
102
{ACAD_REACTORS
330
E
102
}
330
E
  0
VISUALSTYLE
  5
2F
102
{ACAD_REACTORS
330
2A
102
}
330
2A
100
AcDbVisualStyle
  2
2dWireframe
 70
     4
177
     2
291
     0
 71
     0
176
     1
 72
     2
176
     1
 73
     0
176
     1
 90
        0
176
     1
 40
-0.6
176
     1
 41
-30.0
176
     1
 62
     5
 63
     7
421
 16777215
176
     1
 74
     1
176
     1
 91
        4
176
     1
 64
     7
176
     1
 65
   257
176
     1
 75
     1
176
     1
175
     1
176
     1
 42
1.0
176
     1
 92
        0
176
     1
 66
   257
176
     1
 43
1.0
176
     1
 76
     1
176
     1
 77
     6
176
     1
 78
     2
176
     1
 67
     7
176
     1
 79
     5
176
     1
170
     0
176
     1
171
     0
176
     1
290
     0
176
     1
 93
        1
176
     1
 44
0.0
176
     1
173
     0
176
     1
  0
VISUALSTYLE
  5
31
102
{ACAD_REACTORS
330
2A
102
}
330
2A
100
AcDbVisualStyle
  2
3D Hidden
 70
     6
177
     2
291
     0
 71
     1
176
     1
 72
     2
176
     1
 73
     2
176
     1
 90
        0
176
     1
 40
-0.6
176
     1
 41
-30.0
176
     1
 62
     5
 63
     7
421
 16777215
176
     1
 74
     2
176
     1
 91
        2
176
     1
 64
     7
176
     1
 65
   257
176
     1
 75
     2
176
     1
175
     1
176
     1
 42
40.0
176
     1
 92
        0
176
     1
 66
   257
176
     1
 43
1.0
176
     1
 76
     1
176
     1
 77
     6
176
     1
 78
     2
176
     1
 67
     7
176
     1
 79
     3
176
     1
170
     0
176
     1
171
     0
176
     1
290
     0
176
     1
 93
        1
176
     1
 44
0.0
176
     1
173
     0
176
     1
  0
VISUALSTYLE
  5
30
102
{ACAD_REACTORS
330
2A
102
}
330
2A
100
AcDbVisualStyle
  2
3dWireframe
 70
     5
177
     2
291
     0
 71
     0
176
     1
 72
     2
176
     1
 73
     0
176
     1
 90
        0
176
     1
 40
-0.6
176
     1
 41
-30.0
176
     1
 62
     5
 63
     7
421
 16777215
176
     1
 74
     1
176
     1
 91
        4
176
     1
 64
     7
176
     1
 65
   257
176
     1
 75
     1
176
     1
175
     1
176
     1
 42
1.0
176
     1
 92
        0
176
     1
 66
   257
176
     1
 43
1.0
176
     1
 76
     1
176
     1
 77
     6
176
     1
 78
     2
176
     1
 67
     7
176
     1
 79
     5
176
     1
170
     0
176
     1
171
     0
176
     1
290
     0
176
     1
 93
        1
176
     1
 44
0.0
176
     1
173
     0
176
     1
  0
VISUALSTYLE
  5
32
102
{ACAD_REACTORS
330
2A
102
}
330
2A
100
AcDbVisualStyle
  2
Basic
 70
     7
177
     2
291
     1
 71
     1
176
     1
 72
     0
176
     1
 73
     1
176
     1
 90
        0
176
     1
 40
-0.6
176
     1
 41
-30.0
176
     1
 62
     5
 63
     7
421
 16777215
176
     1
 74
     0
176
     1
 91
        4
176
     1
 64
     7
176
     1
 65
   257
176
     1
 75
     1
176
     1
175
     1
176
     1
 42
1.0
176
     1
 92
        8
176
     1
 66
     7
176
     1
 43
1.0
176
     1
 76
     1
176
     1
 77
     6
176
     1
 78
     2
176
     1
 67
     7
176
     1
 79
     5
176
     1
170
     0
176
     1
171
     0
176
     1
290
     0
176
     1
 93
        1
176
     1
 44
0.0
176
     1
173
     0
176
     1
  0
VISUALSTYLE
  5
36
102
{ACAD_REACTORS
330
2A
102
}
330
2A
100
AcDbVisualStyle
  2
Brighten
 70
    12
177
     2
291
     1
 71
     2
176
     1
 72
     2
176
     1
 73
     0
176
     1
 90
        0
176
     1
 40
-0.6
176
     1
 41
-30.0
176
     1
 62
     5
 63
     7
421
 16777215
176
     1
 74
     1
176
     1
 91
        4
176
     1
 64
     7
176
     1
 65
   257
176
     1
 75
     1
176
     1
175
     1
176
     1
 42
1.0
176
     1
 92
        8
176
     1
 66
     7
176
     1
 43
1.0
176
     1
 76
     1
176
     1
 77
     6
176
     1
 78
     2
176
     1
 67
     7
176
     1
 79
     5
176
     1
170
     0
176
     1
171
     0
176
     1
290
     0
176
     1
 93
        1
176
     1
 44
50.0
176
     1
173
     0
176
     1
  0
VISUALSTYLE
  5
3A
102
{ACAD_REACTORS
330
2A
102
}
330
2A
100
AcDbVisualStyle
  2
ColorChange
 70
    16
177
     2
291
     1
 71
     2
176
     1
 72
     2
176
     1
 73
     3
176
     1
 90
        0
176
     1
 40
-0.6
176
     1
 41
-30.0
176
     1
 62
     5
 63
     8
421
  8421504
176
     1
 74
     1
176
     1
 91
        4
176
     1
 64
     7
176
     1
 65
   257
176
     1
 75
     1
176
     1
175
     1
176
     1
 42
1.0
176
     1
 92
        8
176
     1
 66
     8
424
  8421504
176
     1
 43
1.0
176
     1
 76
     1
176
     1
 77
     6
176
     1
 78
     2
176
     1
 67
     7
176
     1
 79
     5
176
     1
170
     0
176
     1
171
     0
176
     1
290
     0
176
     1
 93
        1
176
     1
 44
0.0
176
     1
173
     0
176
     1
  0
VISUALSTYLE
  5
34
102
{ACAD_REACTORS
330
2A
102
}
330
2A
100
AcDbVisualStyle
  2
Conceptual
 70
     9
177
     2
291
     0
 71
     3
176
     1
 72
     2
176
     1
 73
     0
176
     1
 90
        0
176
     1
 40
-0.6
176
     1
 41
-30.0
176
     1
 62
     5
 63
     7
421
 16777215
176
     1
 74
     2
176
     1
 91
        2
176
     1
 64
     7
176
     1
 65
   257
176
     1
 75
     1
176
     1
175
     1
176
     1
 42
40.0
176
     1
 92
        8
176
     1
 66
     7
176
     1
 43
1.0
176
     1
 76
     1
176
     1
 77
     6
176
     1
 78
     2
176
     1
 67
     7
176
     1
 79
     3
176
     1
170
     0
176
     1
171
     0
176
     1
290
     0
176
     1
 93
        1
176
     1
 44
0.0
176
     1
173
     0
176
     1
  0
VISUALSTYLE
  5
35
102
{ACAD_REACTORS
330
2A
102
}
330
2A
100
AcDbVisualStyle
  2
Dim
 70
    11
177
     2
291
     1
 71
     2
176
     1
 72
     2
176
     1
 73
     0
176
     1
 90
        0
176
     1
 40
-0.6
176
     1
 41
-30.0
176
     1
 62
     5
 63
     7
421
 16777215
176
     1
 74
     1
176
     1
 91
        4
176
     1
 64
     7
176
     1
 65
   257
176
     1
 75
     1
176
     1
175
     1
176
     1
 42
1.0
176
     1
 92
        8
176
     1
 66
     7
176
     1
 43
1.0
176
     1
 76
     1
176
     1
 77
     6
176
     1
 78
     2
176
     1
 67
     7
176
     1
 79
     5
176
     1
170
     0
176
     1
171
     0
176
     1
290
     0
176
     1
 93
        1
176
     1
 44
-50.0
176
     1
173
     0
176
     1
  0
VISUALSTYLE
  5
39
102
{ACAD_REACTORS
330
2A
102
}
330
2A
100
AcDbVisualStyle
  2
Facepattern
 70
    15
177
     2
291
     1
 71
     2
176
     1
 72
     2
176
     1
 73
     0
176
     1
 90
        0
176
     1
 40
-0.6
176
     1
 41
-30.0
176
     1
 62
     5
 63
     7
421
 16777215
176
     1
 74
     1
176
     1
 91
        4
176
     1
 64
     7
176
     1
 65
   257
176
     1
 75
     1
176
     1
175
     1
176
     1
 42
1.0
176
     1
 92
        8
176
     1
 66
     7
176
     1
 43
1.0
176
     1
 76
     1
176
     1
 77
     6
176
     1
 78
     2
176
     1
 67
     7
176
     1
 79
     5
176
     1
170
     0
176
     1
171
     0
176
     1
290
     0
176
     1
 93
        1
176
     1
 44
0.0
176
     1
173
     0
176
     1
  0
VISUALSTYLE
  5
2B
102
{ACAD_REACTORS
330
2A
102
}
330
2A
100
AcDbVisualStyle
  2
Flat
 70
     0
177
     2
291
     1
 71
     2
176
     1
 72
     1
176
     1
 73
     1
176
     1
 90
        2
176
     1
 40
-0.6
176
     1
 41
30.0
176
     1
 62
     5
 63
     7
421
 16777215
176
     1
 74
     0
176
     1
 91
        4
176
     1
 64
     7
176
     1
 65
   257
176
     1
 75
     1
176
     1
175
     1
176
     1
 42
1.0
176
     1
 92
        8
176
     1
 66
     7
176
     1
 43
1.0
176
     1
 76
     1
176
     1
 77
     6
176
     1
 78
     2
176
     1
 67
     7
176
     1
 79
     5
176
     1
170
     0
176
     1
171
     0
176
     1
290
     0
176
     1
 93
       13
176
     1
 44
0.0
176
     1
173
     0
176
     1
  0
VISUALSTYLE
  5
2C
102
{ACAD_REACTORS
330
2A
102
}
330
2A
100
AcDbVisualStyle
  2
FlatWithEdges
 70
     1
177
     2
291
     1
 71
     2
176
     1
 72
     1
176
     1
 73
     1
176
     1
 90
        2
176
     1
 40
-0.6
176
     1
 41
30.0
176
     1
 62
     5
 63
     7
421
 16777215
176
     1
 74
     1
176
     1
 91
        4
176
     1
 64
     7
176
     1
 65
   257
176
     1
 75
     1
176
     1
175
     1
176
     1
 42
1.0
176
     1
 92
        0
176
     1
 66
   257
176
     1
 43
1.0
176
     1
 76
     1
176
     1
 77
     6
176
     1
 78
     2
176
     1
 67
     7
176
     1
 79
     5
176
     1
170
     0
176
     1
171
     0
176
     1
290
     0
176
     1
 93
       13
176
     1
 44
0.0
176
     1
173
     0
176
     1
  0
VISUALSTYLE
  5
2D
102
{ACAD_REACTORS
330
2A
102
}
330
2A
100
AcDbVisualStyle
  2
Gouraud
 70
     2
177
     2
291
     1
 71
     2
176
     1
 72
     2
176
     1
 73
     1
176
     1
 90
        2
176
     1
 40
-0.6
176
     1
 41
30.0
176
     1
 62
     5
 63
     7
421
 16777215
176
     1
 74
     0
176
     1
 91
        4
176
     1
 64
     7
176
     1
 65
   257
176
     1
 75
     1
176
     1
175
     1
176
     1
 42
1.0
176
     1
 92
        0
176
     1
 66
     7
176
     1
 43
1.0
176
     1
 76
     1
176
     1
 77
     6
176
     1
 78
     2
176
     1
 67
     7
176
     1
 79
     5
176
     1
170
     0
176
     1
171
     0
176
     1
290
     0
176
     1
 93
       13
176
     1
 44
0.0
176
     1
173
     0
176
     1
  0
VISUALSTYLE
  5
2E
102
{ACAD_REACTORS
330
2A
102
}
330
2A
100
AcDbVisualStyle
  2
GouraudWithEdges
 70
     3
177
     2
291
     1
 71
     2
176
     1
 72
     2
176
     1
 73
     1
176
     1
 90
        2
176
     1
 40
-0.6
176
     1
 41
30.0
176
     1
 62
     5
 63
     7
421
 16777215
176
     1
 74
     1
176
     1
 91
        4
176
     1
 64
     7
176
     1
 65
   257
176
     1
 75
     1
176
     1
175
     1
176
     1
 42
1.0
176
     1
 92
        0
176
     1
 66
   257
176
     1
 43
1.0
176
     1
 76
     1
176
     1
 77
     6
176
     1
 78
     2
176
     1
 67
     7
176
     1
 79
     5
176
     1
170
     0
176
     1
171
     0
176
     1
290
     0
176
     1
 93
       13
176
     1
 44
0.0
176
     1
173
     0
176
     1
  0
VISUALSTYLE
  5
38
102
{ACAD_REACTORS
330
2A
102
}
330
2A
100
AcDbVisualStyle
  2
Linepattern
 70
    14
177
     2
291
     1
 71
     2
176
     1
 72
     2
176
     1
 73
     0
176
     1
 90
        0
176
     1
 40
-0.6
176
     1
 41
-30.0
176
     1
 62
     5
 63
     7
421
 16777215
176
     1
 74
     1
176
     1
 91
        4
176
     1
 64
     7
176
     1
 65
   257
176
     1
 75
     7
176
     1
175
     7
176
     1
 42
1.0
176
     1
 92
        8
176
     1
 66
     7
176
     1
 43
1.0
176
     1
 76
     1
176
     1
 77
     6
176
     1
 78
     2
176
     1
 67
     7
176
     1
 79
     5
176
     1
170
     0
176
     1
171
     0
176
     1
290
     0
176
     1
 93
        1
176
     1
 44
0.0
176
     1
173
     0
176
     1
  0
VISUALSTYLE
  5
33
102
{ACAD_REACTORS
330
2A
102
}
330
2A
100
AcDbVisualStyle
  2
Realistic
 70
     8
177
     2
291
     0
 71
     2
176
     1
 72
     2
176
     1
 73
     0
176
     1
 90
        0
176
     1
 40
-0.6
176
     1
 41
-30.0
176
     1
 62
     5
 63
     7
421
 16777215
176
     1
 74
     1
176
     1
 91
        0
176
     1
 64
     7
176
     1
 65
   257
176
     1
 75
     1
176
     1
175
     1
176
     1
 42
1.0
176
     1
 92
        8
176
     1
 66
     8
424
  7895160
176
     1
 43
1.0
176
     1
 76
     1
176
     1
 77
     6
176
     1
 78
     2
176
     1
 67
     7
176
     1
 79
     5
176
     1
170
     0
176
     1
171
     0
176
     1
290
     0
176
     1
 93
       13
176
     1
 44
0.0
176
     1
173
     0
176
     1
  0
VISUALSTYLE
  5
37
102
{ACAD_REACTORS
330
2A
102
}
330
2A
100
AcDbVisualStyle
  2
Thicken
 70
    13
177
     2
291
     1
 71
     2
176
     1
 72
     2
176
     1
 73
     0
176
     1
 90
        0
176
     1
 40
-0.6
176
     1
 41
-30.0
176
     1
 62
     5
 63
     7
421
 16777215
176
     1
 74
     1
176
     1
 91
        4
176
     1
 64
     7
176
     1
 65
   257
176
     1
 75
     1
176
     1
175
     1
176
     1
 42
1.0
176
     1
 92
       12
176
     1
 66
     7
176
     1
 43
1.0
176
     1
 76
     1
176
     1
 77
     6
176
     1
 78
     2
176
     1
 67
     7
176
     1
 79
     5
176
     1
170
     0
176
     1
171
     0
176
     1
290
     0
176
     1
 93
        1
176
     1
 44
0.0
176
     1
173
     0
176
     1
  0
ENDSEC
  0
EOF
