  0
SECTION
  2
HEADER
  9
$ACADVER
  1
AC1024
  9
$ACADMAINTVER
 70
     6
  9
$DWGCODEPAGE
  3
UNDEFINED
  9
$INSBASE
 10
0.0
 20
0.0
 30
0.0
  9
$EXTMIN
 10
1.000000000000000E+20
 20
1.000000000000000E+20
 30
1.000000000000000E+20
  9
$EXTMAX
 10
-1.000000000000000E+20
 20
-1.000000000000000E+20
 30
-1.000000000000000E+20
  9
$LIMMIN
 10
0.0
 20
0.0
  9
$LIMMAX
 10
12.0
 20
9.0
  9
$ORTHOMODE
 70
     0
  9
$REGENMODE
 70
     1
  9
$FILLMODE
 70
     1
  9
$QTEXTMODE
 70
     0
  9
$MIRRTEXT
 70
     1
  9
$LTSCALE
 40
1.0
  9
$ATTMODE
 70
     1
  9
$TEXTSIZE
 40
0.2
  9
$TRACEWID
 40
0.05
  9
$TEXTSTYLE
  7
Standard
  9
$CLAYER
  8
0
  9
$CELTYPE
  6
ByLayer
  9
$CECOLOR
 62
   256
  9
$CELTSCALE
 40
1.0
  9
$DISPSILH
 70
     0
  9
$DIMSCALE
 40
1.0
  9
$DIMASZ
 40
0.18
  9
$DIMEXO
 40
0.0625
  9
$DIMDLI
 40
0.38
  9
$DIMRND
 40
0.0
  9
$DIMDLE
 40
0.0
  9
$DIMEXE
 40
0.18
  9
$DIMTP
 40
0.0
  9
$DIMTM
 40
0.0
  9
$DIMTXT
 40
0.18
  9
$DIMCEN
 40
0.09
  9
$DIMTSZ
 40
0.0
  9
$DIMTOL
 70
     0
  9
$DIMLIM
 70
     0
  9
$DIMTIH
 70
     1
  9
$DIMTOH
 70
     1
  9
$DIMSE1
 70
     0
  9
$DIMSE2
 70
     0
  9
$DIMTAD
 70
     0
  9
$DIMZIN
 70
     0
  9
$DIMBLK
  1

  9
$DIMASO
 70
     1
  9
$DIMSHO
 70
     1
  9
$DIMPOST
  1

  9
$DIMAPOST
  1

  9
$DIMALT
 70
     0
  9
$DIMALTD
 70
     2
  9
$DIMALTF
 40
25.4
  9
$DIMLFAC
 40
1.0
  9
$DIMTOFL
 70
     0
  9
$DIMTVP
 40
0.0
  9
$DIMTIX
 70
     0
  9
$DIMSOXD
 70
     0
  9
$DIMSAH
 70
     0
  9
$DIMBLK1
  1

  9
$DIMBLK2
  1

  9
$DIMSTYLE
  2
Standard
  9
$DIMCLRD
 70
     0
  9
$DIMCLRE
 70
     0
  9
$DIMCLRT
 70
     0
  9
$DIMTFAC
 40
1.0
  9
$DIMGAP
 40
0.09
  9
$DIMJUST
 70
     0
  9
$DIMSD1
 70
     0
  9
$DIMSD2
 70
     0
  9
$DIMTOLJ
 70
     1
  9
$DIMTZIN
 70
     0
  9
$DIMALTZ
 70
     0
  9
$DIMALTTZ
 70
     0
  9
$DIMUPT
 70
     0
  9
$DIMDEC
 70
     4
  9
$DIMTDEC
 70
     4
  9
$DIMALTU
 70
     2
  9
$DIMALTTD
 70
     2
  9
$DIMTXSTY
  7
Standard
  9
$DIMAUNIT
 70
     0
  9
$DIMADEC
 70
     0
  9
$DIMALTRND
 40
0.0
  9
$DIMAZIN
 70
     0
  9
$DIMDSEP
 70
    46
  9
$DIMATFIT
 70
     3
  9
$DIMFRAC
 70
     0
  9
$DIMLDRBLK
  1

  9
$DIMLUNIT
 70
     2
  9
$DIMLWD
 70
    -2
  9
$DIMLWE
 70
    -2
  9
$DIMTMOVE
 70
     0
  9
$DIMFXL
 40
1.0
  9
$DIMFXLON
 70
     0
  9
$DIMJOGANG
 40
0.7853981633974483
  9
$DIMTFILL
 70
     0
  9
$DIMTFILLCLR
 70
     0
  9
$DIMARCSYM
 70
     0
  9
$DIMLTYPE
  6

  9
$DIMLTEX1
  6

  9
$DIMLTEX2
  6

  9
$DIMTXTDIRECTION
 70
     0
  9
$LUNITS
 70
     2
  9
$LUPREC
 70
     4
  9
$SKETCHINC
 40
0.1
  9
$FILLETRAD
 40
0.5
  9
$AUNITS
 70
     0
  9
$AUPREC
 70
     0
  9
$MENU
  1
.
  9
$ELEVATION
 40
0.0
  9
$PELEVATION
 40
0.0
  9
$THICKNESS
 40
0.0
  9
$LIMCHECK
 70
     0
  9
$CHAMFERA
 40
0.5
  9
$CHAMFERB
 40
0.5
  9
$CHAMFERC
 40
1.0
  9
$CHAMFERD
 40
0.0
  9
$SKPOLY
 70
     0
  9
$TDCREATE
 40
2457917.61431713
  9
$TDUCREATE
 40
2457917.23931713
  9
$TDUPDATE
 40
2457917.61431713
  9
$TDUUPDATE
 40
2457917.23931713
  9
$TDINDWG
 40
0.0000000116
  9
$TDUSRTIMER
 40
0.0000000116
  9
$USRTIMER
 70
     1
  9
$ANGBASE
 50
0.0
  9
$ANGDIR
 70
     0
  9
$PDMODE
 70
     0
  9
$PDSIZE
 40
0.0
  9
$PLINEWID
 40
0.0
  9
$SPLFRAME
 70
     0
  9
$SPLINETYPE
 70
     6
  9
$SPLINESEGS
 70
     8
  9
$HANDSEED
  5
EA
  9
$SURFTAB1
 70
     6
  9
$SURFTAB2
 70
     6
  9
$SURFTYPE
 70
     6
  9
$SURFU
 70
     6
  9
$SURFV
 70
     6
  9
$UCSBASE
  2

  9
$UCSNAME
  2

  9
$UCSORG
 10
0.0
 20
0.0
 30
0.0
  9
$UCSXDIR
 10
1.0
 20
0.0
 30
0.0
  9
$UCSYDIR
 10
0.0
 20
1.0
 30
0.0
  9
$UCSORTHOREF
  2

  9
$UCSORTHOVIEW
 70
     0
  9
$UCSORGTOP
 10
0.0
 20
0.0
 30
0.0
  9
$UCSORGBOTTOM
 10
0.0
 20
0.0
 30
0.0
  9
$UCSORGLEFT
 10
0.0
 20
0.0
 30
0.0
  9
$UCSORGRIGHT
 10
0.0
 20
0.0
 30
0.0
  9
$UCSORGFRONT
 10
0.0
 20
0.0
 30
0.0
  9
$UCSORGBACK
 10
0.0
 20
0.0
 30
0.0
  9
$PUCSBASE
  2

  9
$PUCSNAME
  2

  9
$PUCSORG
 10
0.0
 20
0.0
 30
0.0
  9
$PUCSXDIR
 10
1.0
 20
0.0
 30
0.0
  9
$PUCSYDIR
 10
0.0
 20
1.0
 30
0.0
  9
$PUCSORTHOREF
  2

  9
$PUCSORTHOVIEW
 70
     0
  9
$PUCSORGTOP
 10
0.0
 20
0.0
 30
0.0
  9
$PUCSORGBOTTOM
 10
0.0
 20
0.0
 30
0.0
  9
$PUCSORGLEFT
 10
0.0
 20
0.0
 30
0.0
  9
$PUCSORGRIGHT
 10
0.0
 20
0.0
 30
0.0
  9
$PUCSORGFRONT
 10
0.0
 20
0.0
 30
0.0
  9
$PUCSORGBACK
 10
0.0
 20
0.0
 30
0.0
  9
$USERI1
 70
     0
  9
$USERI2
 70
     0
  9
$USERI3
 70
     0
  9
$USERI4
 70
     0
  9
$USERI5
 70
     0
  9
$USERR1
 40
0.0
  9
$USERR2
 40
0.0
  9
$USERR3
 40
0.0
  9
$USERR4
 40
0.0
  9
$USERR5
 40
0.0
  9
$WORLDVIEW
 70
     1
  9
$SHADEDGE
 70
     3
  9
$SHADEDIF
 70
    70
  9
$TILEMODE
 70
     1
  9
$MAXACTVP
 70
    64
  9
$PINSBASE
 10
0.0
 20
0.0
 30
0.0
  9
$PLIMCHECK
 70
     0
  9
$PEXTMIN
 10
1.000000000000000E+20
 20
1.000000000000000E+20
 30
1.000000000000000E+20
  9
$PEXTMAX
 10
-1.000000000000000E+20
 20
-1.000000000000000E+20
 30
-1.000000000000000E+20
  9
$PLIMMIN
 10
0.0
 20
0.0
  9
$PLIMMAX
 10
12.0
 20
9.0
  9
$UNITMODE
 70
     0
  9
$VISRETAIN
 70
     1
  9
$PLINEGEN
 70
     0
  9
$PSLTSCALE
 70
     1
  9
$TREEDEPTH
 70
  3020
  9
$CMLSTYLE
  2
Standard
  9
$CMLJUST
 70
     0
  9
$CMLSCALE
 40
1.0
  9
$PROXYGRAPHICS
 70
     1
  9
$MEASUREMENT
 70
     0
  9
$CELWEIGHT
370
    -1
  9
$ENDCAPS
280
     0
  9
$JOINSTYLE
280
     0
  9
$LWDISPLAY
290
     1
  9
$INSUNITS
 70
     1
  9
$HYPERLINKBASE
  1

  9
$STYLESHEET
  1

  9
$XEDIT
290
     1
  9
$CEPSNTYPE
380
     0
  9
$PSTYLEMODE
290
     1
  9
$FINGERPRINTGUID
  2
{522FB620-2433-FB27-F748-75DC07C6DD5C}
  9
$VERSIONGUID
  2
{FAEB1C32-E019-11D5-929B-00C0DF256EC4}
  9
$EXTNAMES
290
     1
  9
$PSVPSCALE
 40
0.0
  9
$OLESTARTUP
290
     0
  9
$SORTENTS
280
   127
  9
$INDEXCTL
280
     0
  9
$HIDETEXT
280
     1
  9
$XCLIPFRAME
280
     2
  9
$HALOGAP
280
     0
  9
$OBSCOLOR
 70
   257
  9
$OBSLTYPE
280
     0
  9
$INTERSECTIONDISPLAY
280
     0
  9
$INTERSECTIONCOLOR
 70
   257
  9
$DIMASSOC
280
     2
  9
$PROJECTNAME
  1

  9
$CAMERADISPLAY
290
     0
  9
$LENSLENGTH
 40
50.0
  9
$CAMERAHEIGHT
 40
0.0
  9
$STEPSPERSEC
 40
2.0
  9
$STEPSIZE
 40
6.0
  9
$3DDWFPREC
 40
2.0
  9
$PSOLWIDTH
 40
0.25
  9
$PSOLHEIGHT
 40
4.0
  9
$LOFTANG1
 40
1.570796326794897
  9
$LOFTANG2
 40
1.570796326794897
  9
$LOFTMAG1
 40
0.0
  9
$LOFTMAG2
 40
0.0
  9
$LOFTPARAM
 70
     7
  9
$LOFTNORMALS
280
     1
  9
$LATITUDE
 40
37.795
  9
$LONGITUDE
 40
-122.394
  9
$NORTHDIRECTION
 40
0.0
  9
$TIMEZONE
 70
 -8000
  9
$LIGHTGLYPHDISPLAY
280
     1
  9
$TILEMODELIGHTSYNCH
280
     1
  9
$CMATERIAL
347
3C
  9
$SOLIDHIST
280
     1
  9
$SHOWHIST
280
     1
  9
$DWFFRAME
280
     2
  9
$DGNFRAME
280
     2
  9
$REALWORLDSCALE
290
     1
  9
$INTERFERECOLOR
 62
   256
  9
$CSHADOW
280
     0
  9
$SHADOWPLANELOCATION
 40
0.0
  0
ENDSEC
  0
SECTION
  2
CLASSES
  0
CLASS
  1
ACDBDICTIONARYWDFLT
  2
AcDbDictionaryWithDefault
  3
ObjectDBX Classes
 90
        0
 91
        4
280
     0
281
     0
  0
CLASS
  1
VISUALSTYLE
  2
AcDbVisualStyle
  3
ObjectDBX Classes
 90
     4095
 91
        4
280
     0
281
     0
  0
CLASS
  1
MATERIAL
  2
AcDbMaterial
  3
ObjectDBX Classes
 90
     1153
 91
        4
280
     0
281
     0
  0
CLASS
  1
SUN
  2
AcDbSun
  3
SCENEOE
 90
     1024
 91
        4
280
     0
281
     0
  0
ENDSEC
  0
SECTION
  2
TABLES
  0
TABLE
  2
VPORT
  5
8
330
0
100
AcDbSymbolTable
 70
     1
  0
VPORT
  5
29
330
8
100
AcDbSymbolTableRecord
100
AcDbViewportTableRecord
  2
*Active
 70
     0
 10
0.0
 20
0.0
 11
1.0
 21
1.0
 12
0.0
 22
0.0
 13
0.0
 23
0.0
 14
0.5
 24
0.5
 15
0.5
 25
0.5
 16
0.0
 26
0.0
 36
1.0
 17
91.00082462281999
 27
-128.4993055234307
 37
0.0
 40
256.9986110468615
 41
0.7081814508812795
 42
50.0
 43
0.0
 44
0.0
 50
0.0
 51
0.0
 71
     0
 72
   100
 73
     1
 74
     3
 75
     0
 76
     0
 77
     0
 78
     0
281
     0
 65
     1
110
0.0
120
0.0
130
0.0
111
1.0
121
0.0
131
0.0
112
0.0
122
1.0
132
0.0
 79
     0
146
0.0
 60
     3
 61
     5
292
     1
282
     1
141
0.0
142
0.0
 63
   250
361
3F
  0
ENDTAB
  0
TABLE
  2
LTYPE
  5
5
330
0
100
AcDbSymbolTable
 70
     1
  0
LTYPE
  5
14
330
5
100
AcDbSymbolTableRecord
100
AcDbLinetypeTableRecord
  2
ByBlock
 70
     0
  3

 72
    65
 73
     0
 40
0.0
  0
LTYPE
  5
15
330
5
100
AcDbSymbolTableRecord
100
AcDbLinetypeTableRecord
  2
ByLayer
 70
     0
  3

 72
    65
 73
     0
 40
0.0
  0
LTYPE
  5
16
330
5
100
AcDbSymbolTableRecord
100
AcDbLinetypeTableRecord
  2
Continuous
 70
     0
  3
Solid line
 72
    65
 73
     0
 40
0.0
  0
ENDTAB
  0
TABLE
  2
LAYER
  5
2
330
0
100
AcDbSymbolTable
 70
     2
  0
LAYER
  5
10
330
2
100
AcDbSymbolTableRecord
100
AcDbLayerTableRecord
  2
0
 70
     0
 62
     7
  6
Continuous
370
    -3
390
F
347
3E
  0
LAYER
  5
40
330
2
100
AcDbSymbolTableRecord
100
AcDbLayerTableRecord
  2
_U+30EC_U+30A4_U+30E4_U+30FC 1
 70
     0
 62
     7
  6
Continuous
370
    -3
390
F
347
3E
  0
ENDTAB
  0
TABLE
  2
STYLE
  5
3
330
0
100
AcDbSymbolTable
 70
     1
  0
STYLE
  5
11
330
3
100
AcDbSymbolTableRecord
100
AcDbTextStyleTableRecord
  2
Standard
 70
     0
 40
0.0
 41
1.0
 50
0.0
 71
     0
 42
0.2
  3
txt
  4

  0
ENDTAB
  0
TABLE
  2
VIEW
  5
6
330
0
100
AcDbSymbolTable
 70
     0
  0
ENDTAB
  0
TABLE
  2
UCS
  5
7
330
0
100
AcDbSymbolTable
 70
     0
  0
ENDTAB
  0
TABLE
  2
APPID
  5
9
330
0
100
AcDbSymbolTable
 70
     1
  0
APPID
  5
12
330
9
100
AcDbSymbolTableRecord
100
AcDbRegAppTableRecord
  2
ACAD
 70
     0
  0
ENDTAB
  0
TABLE
  2
DIMSTYLE
  5
A
330
0
100
AcDbSymbolTable
 70
     1
100
AcDbDimStyleTable
  0
DIMSTYLE
105
27
330
A
100
AcDbSymbolTableRecord
100
AcDbDimStyleTableRecord
  2
Standard
 70
     0
178
     0
340
11
  0
ENDTAB
  0
TABLE
  2
BLOCK_RECORD
  5
1
330
0
100
AcDbSymbolTable
 70
    11
  0
BLOCK_RECORD
  5
1F
330
1
100
AcDbSymbolTableRecord
100
AcDbBlockTableRecord
  2
*Model_Space
340
22
 70
     0
280
     1
281
     0
  0
BLOCK_RECORD
  5
1B
330
1
100
AcDbSymbolTableRecord
100
AcDbBlockTableRecord
  2
*Paper_Space
340
1E
 70
     0
280
     1
281
     0
  0
BLOCK_RECORD
  5
23
330
1
100
AcDbSymbolTableRecord
100
AcDbBlockTableRecord
  2
*Paper_Space0
340
26
 70
     0
280
     1
281
     0
  0
BLOCK_RECORD
  5
41
330
1
100
AcDbSymbolTableRecord
100
AcDbBlockTableRecord
  2
block 2
340
0
102
{BLKREFS
331
42
102
}
 70
     0
280
     1
281
     0
  0
BLOCK_RECORD
  5
53
330
1
100
AcDbSymbolTableRecord
100
AcDbBlockTableRecord
  2
block 3
340
0
102
{BLKREFS
331
54
102
}
 70
     0
280
     1
281
     0
  0
BLOCK_RECORD
  5
6E
330
1
100
AcDbSymbolTableRecord
100
AcDbBlockTableRecord
  2
block 4
340
0
102
{BLKREFS
331
6F
102
}
 70
     0
280
     1
281
     0
  0
BLOCK_RECORD
  5
82
330
1
100
AcDbSymbolTableRecord
100
AcDbBlockTableRecord
  2
block 5
340
0
102
{BLKREFS
331
83
102
}
 70
     0
280
     1
281
     0
  0
BLOCK_RECORD
  5
94
330
1
100
AcDbSymbolTableRecord
100
AcDbBlockTableRecord
  2
block 6
340
0
102
{BLKREFS
331
95
102
}
 70
     0
280
     1
281
     0
  0
BLOCK_RECORD
  5
A9
330
1
100
AcDbSymbolTableRecord
100
AcDbBlockTableRecord
  2
block 7
340
0
102
{BLKREFS
331
AA
102
}
 70
     0
280
     1
281
     0
  0
BLOCK_RECORD
  5
B2
330
1
100
AcDbSymbolTableRecord
100
AcDbBlockTableRecord
  2
block 8
340
0
102
{BLKREFS
331
B3
102
}
 70
     0
280
     1
281
     0
  0
BLOCK_RECORD
  5
C2
330
1
100
AcDbSymbolTableRecord
100
AcDbBlockTableRecord
  2
block 9
340
0
102
{BLKREFS
331
C3
102
}
 70
     0
280
     1
281
     0
  0
BLOCK_RECORD
  5
CA
330
1
100
AcDbSymbolTableRecord
100
AcDbBlockTableRecord
  2
block 10
340
0
102
{BLKREFS
331
CB
102
}
 70
     0
280
     1
281
     0
  0
BLOCK_RECORD
  5
D6
330
1
100
AcDbSymbolTableRecord
100
AcDbBlockTableRecord
  2
block 11
340
0
102
{BLKREFS
331
D7
102
}
 70
     0
280
     1
281
     0
  0
ENDTAB
  0
ENDSEC
  0
SECTION
  2
BLOCKS
  0
BLOCK
  5
20
330
1F
100
AcDbEntity
  8
0
100
AcDbBlockBegin
  2
*Model_Space
 70
     0
 10
0.0
 20
0.0
 30
0.0
  3
*Model_Space
  1

  0
ENDBLK
  5
21
330
1F
100
AcDbEntity
  8
0
100
AcDbBlockEnd
  0
BLOCK
  5
1C
330
1B
100
AcDbEntity
 67
     1
  8
0
100
AcDbBlockBegin
  2
*Paper_Space
 70
     0
 10
0.0
 20
0.0
 30
0.0
  3
*Paper_Space
  1

  0
ENDBLK
  5
1D
330
1B
100
AcDbEntity
 67
     1
  8
0
100
AcDbBlockEnd
  0
BLOCK
  5
24
330
23
100
AcDbEntity
  8
0
100
AcDbBlockBegin
  2
*Paper_Space0
 70
     0
 10
0.0
 20
0.0
 30
0.0
  3
*Paper_Space0
  1

  0
ENDBLK
  5
25
330
23
100
AcDbEntity
  8
0
100
AcDbBlockEnd
  0
BLOCK
  5
43
330
41
100
AcDbEntity
  8
0
100
AcDbBlockBegin
  2
block 2
 70
     0
 10
0.0
 20
0.0
 30
0.0
  3
block 2
  1

  0
POLYLINE
  5
45
330
41
100
AcDbEntity
  8
_U+30EC_U+30A4_U+30E4_U+30FC 1
370
     0
100
AcDb2dPolyline
 66
     1
 10
0.0
 20
0.0
 30
0.0
  0
VERTEX
  5
46
330
45
100
AcDbEntity
  8
_U+30EC_U+30A4_U+30E4_U+30FC 1
370
     0
100
AcDbVertex
100
AcDb2dVertex
 10
73.06048758051612
 20
-123.3202808025033
 30
0.0
  0
VERTEX
  5
47
330
45
100
AcDbEntity
  8
_U+30EC_U+30A4_U+30E4_U+30FC 1
370
     0
100
AcDbVertex
100
AcDb2dVertex
 10
83.02406065965752
 20
-123.3202808025033
 30
0.0
  0
VERTEX
  5
48
330
45
100
AcDbEntity
  8
_U+30EC_U+30A4_U+30E4_U+30FC 1
370
     0
100
AcDbVertex
100
AcDb2dVertex
 10
83.02406065965752
 20
-137.0200530213005
 30
0.0
  0
VERTEX
  5
49
330
45
100
AcDbEntity
  8
_U+30EC_U+30A4_U+30E4_U+30FC 1
370
     0
100
AcDbVertex
100
AcDb2dVertex
 10
91.02389628889806
 20
-137.0200530213005
 30
0.0
  0
VERTEX
  5
4A
330
45
100
AcDbEntity
  8
_U+30EC_U+30A4_U+30E4_U+30FC 1
370
     0
100
AcDbVertex
100
AcDb2dVertex
 10
91.02389628889806
 20
-136.0196105215506
 30
0.0
  0
VERTEX
  5
4B
330
45
100
AcDbEntity
  8
_U+30EC_U+30A4_U+30E4_U+30FC 1
370
     0
100
AcDbVertex
100
AcDb2dVertex
 10
83.9242436922475
 20
-136.0196105215506
 30
0.0
  0
VERTEX
  5
4C
330
45
100
AcDbEntity
  8
_U+30EC_U+30A4_U+30E4_U+30FC 1
370
     0
100
AcDbVertex
100
AcDb2dVertex
 10
83.9242436922475
 20
-123.3202808025033
 30
0.0
  0
VERTEX
  5
4D
330
45
100
AcDbEntity
  8
_U+30EC_U+30A4_U+30E4_U+30FC 1
370
     0
100
AcDbVertex
100
AcDb2dVertex
 10
103.0238437605317
 20
-123.3202808025033
 30
0.0
  0
VERTEX
  5
4E
330
45
100
AcDbEntity
  8
_U+30EC_U+30A4_U+30E4_U+30FC 1
370
     0
100
AcDbVertex
100
AcDb2dVertex
 10
103.0238437605317
 20
-122.3201910805312
 30
0.0
  0
VERTEX
  5
4F
330
45
100
AcDbEntity
  8
_U+30EC_U+30A4_U+30E4_U+30FC 1
370
     0
100
AcDbVertex
100
AcDb2dVertex
 10
73.06048758051612
 20
-122.3201910805312
 30
0.0
  0
VERTEX
  5
50
330
45
100
AcDbEntity
  8
_U+30EC_U+30A4_U+30E4_U+30FC 1
370
     0
100
AcDbVertex
100
AcDb2dVertex
 10
73.06048758051612
 20
-123.3202808025033
 30
0.0
  0
SEQEND
  5
52
330
45
100
AcDbEntity
  8
_U+30EC_U+30A4_U+30E4_U+30FC 1
370
     0
  0
HATCH
  5
51
330
41
100
AcDbEntity
  8
_U+30EC_U+30A4_U+30E4_U+30FC 1
 62
   253
420
 11711154
100
AcDbHatch
 10
0.0
 20
0.0
 30
0.0
210
0.0
220
0.0
230
1.0
  2
SOLID
 70
     1
 71
     0
 91
        1
 92
        1
 93
       10
 72
     1
 10
73.06048758051612
 20
-123.3202808025033
 11
83.02406065965752
 21
-123.3202808025033
 72
     1
 10
83.02406065965752
 20
-123.3202808025033
 11
83.02406065965752
 21
-137.0200530213005
 72
     1
 10
83.02406065965752
 20
-137.0200530213005
 11
91.02389628889806
 21
-137.0200530213005
 72
     1
 10
91.02389628889806
 20
-137.0200530213005
 11
91.02389628889806
 21
-136.0196105215506
 72
     1
 10
91.02389628889806
 20
-136.0196105215506
 11
83.9242436922475
 21
-136.0196105215506
 72
     1
 10
83.9242436922475
 20
-136.0196105215506
 11
83.9242436922475
 21
-123.3202808025033
 72
     1
 10
83.9242436922475
 20
-123.3202808025033
 11
103.0238437605317
 21
-123.3202808025033
 72
     1
 10
103.0238437605317
 20
-123.3202808025033
 11
103.0238437605317
 21
-122.3201910805312
 72
     1
 10
103.0238437605317
 20
-122.3201910805312
 11
73.06048758051612
 21
-122.3201910805312
 72
     1
 10
73.06048758051612
 20
-122.3201910805312
 11
73.06048758051612
 21
-123.3202808025033
 97
        0
 75
     2
 76
     1
 98
        0
  0
INSERT
  5
54
330
41
100
AcDbEntity
  8
_U+30EC_U+30A4_U+30E4_U+30FC 1
100
AcDbBlockReference
  2
block 3
 10
0.0
 20
0.0
 30
0.0
  0
ENDBLK
  5
44
330
41
100
AcDbEntity
  8
0
100
AcDbBlockEnd
  0
BLOCK
  5
55
330
53
100
AcDbEntity
  8
0
100
AcDbBlockBegin
  2
block 3
 70
     0
 10
0.0
 20
0.0
 30
0.0
  3
block 3
  1

  0
POLYLINE
  5
57
330
53
100
AcDbEntity
  8
_U+30EC_U+30A4_U+30E4_U+30FC 1
 62
     7
420
 16777215
370
    25
100
AcDb2dPolyline
 66
     1
 10
0.0
 20
0.0
 30
0.0
  0
VERTEX
  5
58
330
57
100
AcDbEntity
  8
_U+30EC_U+30A4_U+30E4_U+30FC 1
 62
     7
420
 16777215
370
    25
100
AcDbVertex
100
AcDb2dVertex
 10
91.02389628889806
 20
-137.0200530213005
 30
0.0
  0
VERTEX
  5
59
330
57
100
AcDbEntity
  8
_U+30EC_U+30A4_U+30E4_U+30FC 1
 62
     7
420
 16777215
370
    25
100
AcDbVertex
100
AcDb2dVertex
 10
83.02406065965752
 20
-137.0200530213005
 30
0.0
  0
VERTEX
  5
5A
330
57
100
AcDbEntity
  8
_U+30EC_U+30A4_U+30E4_U+30FC 1
 62
     7
420
 16777215
370
    25
100
AcDbVertex
100
AcDb2dVertex
 10
83.02406065965752
 20
-123.3202808025033
 30
0.0
  0
VERTEX
  5
5B
330
57
100
AcDbEntity
  8
_U+30EC_U+30A4_U+30E4_U+30FC 1
 62
     7
420
 16777215
370
    25
100
AcDbVertex
100
AcDb2dVertex
 10
73.02397508144763
 20
-123.3202808025033
 30
0.0
  0
VERTEX
  5
5C
330
57
100
AcDbEntity
  8
_U+30EC_U+30A4_U+30E4_U+30FC 1
 62
     7
420
 16777215
370
    25
100
AcDbVertex
100
AcDb2dVertex
 10
72.99779897100433
 20
-123.3202808025033
 30
0.0
  0
VERTEX
  5
5D
330
57
100
AcDbEntity
  8
_U+30EC_U+30A4_U+30E4_U+30FC 1
 62
     7
420
 16777215
370
    25
100
AcDbVertex
100
AcDb2dVertex
 10
72.99779897100433
 20
-122.3201910805312
 30
0.0
  0
VERTEX
  5
5E
330
57
100
AcDbEntity
  8
_U+30EC_U+30A4_U+30E4_U+30FC 1
 62
     7
420
 16777215
370
    25
100
AcDbVertex
100
AcDb2dVertex
 10
73.02326952591008
 20
-122.3201910805312
 30
0.0
  0
VERTEX
  5
5F
330
57
100
AcDbEntity
  8
_U+30EC_U+30A4_U+30E4_U+30FC 1
 62
     7
420
 16777215
370
    25
100
AcDbVertex
100
AcDb2dVertex
 10
103.0238437605317
 20
-122.3201910805312
 30
0.0
  0
VERTEX
  5
60
330
57
100
AcDbEntity
  8
_U+30EC_U+30A4_U+30E4_U+30FC 1
 62
     7
420
 16777215
370
    25
100
AcDbVertex
100
AcDb2dVertex
 10
103.0238437605317
 20
-123.3202808025033
 30
0.0
  0
VERTEX
  5
61
330
57
100
AcDbEntity
  8
_U+30EC_U+30A4_U+30E4_U+30FC 1
 62
     7
420
 16777215
370
    25
100
AcDbVertex
100
AcDb2dVertex
 10
83.9242436922475
 20
-123.3202808025033
 30
0.0
  0
VERTEX
  5
62
330
57
100
AcDbEntity
  8
_U+30EC_U+30A4_U+30E4_U+30FC 1
 62
     7
420
 16777215
370
    25
100
AcDbVertex
100
AcDb2dVertex
 10
83.9242436922475
 20
-136.0196105215506
 30
0.0
  0
VERTEX
  5
63
330
57
100
AcDbEntity
  8
_U+30EC_U+30A4_U+30E4_U+30FC 1
 62
     7
420
 16777215
370
    25
100
AcDbVertex
100
AcDb2dVertex
 10
91.02389628889806
 20
-136.0196105215506
 30
0.0
  0
VERTEX
  5
64
330
57
100
AcDbEntity
  8
_U+30EC_U+30A4_U+30E4_U+30FC 1
 62
     7
420
 16777215
370
    25
100
AcDbVertex
100
AcDb2dVertex
 10
91.02389628889806
 20
-137.0200530213005
 30
0.0
  0
SEQEND
  5
65
330
57
100
AcDbEntity
  8
_U+30EC_U+30A4_U+30E4_U+30FC 1
 62
     7
420
 16777215
370
    25
  0
SPLINE
  5
66
330
53
100
AcDbEntity
  8
_U+30EC_U+30A4_U+30E4_U+30FC 1
 62
     7
420
 16777215
370
     9
100
AcDbSpline
210
0.0
220
0.0
230
1.0
 70
    11
 71
     3
 72
    17
 73
    13
 74
     0
 42
0.0000000001
 43
0.0000000001
 12
1.0
 22
0.0
 32
0.0
 13
1.0
 23
0.0
 33
0.0
 40
0.0
 40
0.0
 40
0.0
 40
0.0
 40
1.0
 40
1.0
 40
1.0
 40
2.0
 40
2.0
 40
2.0
 40
3.0
 40
3.0
 40
3.0
 40
4.0
 40
4.0
 40
4.0
 40
4.0
 10
73.09770563512217
 20
-118.3200791370865
 30
0.0
 10
73.09770563512217
 20
-118.2649752482116
 30
0.0
 10
73.0529028584874
 20
-118.2201724704449
 30
0.0
 10
72.99779897100433
 20
-118.2201724704449
 30
0.0
 10
72.94265980574438
 20
-118.2201724704449
 30
0.0
 10
72.89785702910962
 20
-118.2649752482116
 30
0.0
 10
72.89785702910962
 20
-118.3200791370865
 30
0.0
 10
72.89785702910962
 20
-118.3752183037396
 30
0.0
 10
72.94265980574438
 20
-118.4199858037285
 30
0.0
 10
72.99779897100433
 20
-118.4199858037285
 30
0.0
 10
73.0529028584874
 20
-118.4199858037285
 30
0.0
 10
73.09770563512217
 20
-118.3752183037396
 30
0.0
 10
73.09770563512217
 20
-118.3200791370865
 30
0.0
  0
SPLINE
  5
67
330
53
100
AcDbEntity
  8
_U+30EC_U+30A4_U+30E4_U+30FC 1
 62
     7
420
 16777215
370
     9
100
AcDbSpline
210
0.0
220
0.0
230
1.0
 70
    11
 71
     3
 72
    17
 73
    13
 74
     0
 42
0.0000000001
 43
0.0000000001
 12
1.0
 22
0.0
 32
0.0
 13
1.0
 23
0.0
 33
0.0
 40
0.0
 40
0.0
 40
0.0
 40
0.0
 40
1.0
 40
1.0
 40
1.0
 40
2.0
 40
2.0
 40
2.0
 40
3.0
 40
3.0
 40
3.0
 40
4.0
 40
4.0
 40
4.0
 40
4.0
 10
103.1237504246495
 20
-118.3200791370865
 30
0.0
 10
103.1237504246495
 20
-118.2649752482116
 30
0.0
 10
103.0796532035523
 20
-118.2201724704449
 30
0.0
 10
103.0238437605317
 20
-118.2201724704449
 30
0.0
 10
102.9687398730486
 20
-118.2201724704449
 30
0.0
 10
102.9239370964138
 20
-118.2649752482116
 30
0.0
 10
102.9239370964138
 20
-118.3200791370865
 30
0.0
 10
102.9239370964138
 20
-118.3752183037396
 30
0.0
 10
102.9687398730486
 20
-118.4199858037285
 30
0.0
 10
103.0238437605317
 20
-118.4199858037285
 30
0.0
 10
103.0796532035523
 20
-118.4199858037285
 30
0.0
 10
103.1237504246495
 20
-118.3752183037396
 30
0.0
 10
103.1237504246495
 20
-118.3200791370865
 30
0.0
  0
SPLINE
  5
68
330
53
100
AcDbEntity
  8
_U+30EC_U+30A4_U+30E4_U+30FC 1
 62
     7
420
 16777215
370
     9
100
AcDbSpline
210
0.0
220
0.0
230
1.0
 70
    11
 71
     3
 72
    17
 73
    13
 74
     0
 42
0.0000000001
 43
0.0000000001
 12
1.0
 22
0.0
 32
0.0
 13
1.0
 23
0.0
 33
0.0
 40
0.0
 40
0.0
 40
0.0
 40
0.0
 40
1.0
 40
1.0
 40
1.0
 40
2.0
 40
2.0
 40
2.0
 40
3.0
 40
3.0
 40
3.0
 40
4.0
 40
4.0
 40
4.0
 40
4.0
 10
107.1242150448114
 20
-123.3202808025033
 30
0.0
 10
107.1242150448114
 20
-123.2651769136281
 30
0.0
 10
107.0794122681766
 20
-123.2203741358617
 30
0.0
 10
107.0243110843551
 20
-123.2203741358617
 30
0.0
 10
106.9691692154336
 20
-123.2203741358617
 30
0.0
 10
106.9244017165757
 20
-123.2651769136281
 30
0.0
 10
106.9244017165757
 20
-123.3202808025033
 30
0.0
 10
106.9244017165757
 20
-123.3754199691561
 30
0.0
 10
106.9691692154336
 20
-123.4201874691449
 30
0.0
 10
107.0243110843551
 20
-123.4201874691449
 30
0.0
 10
107.0794122681766
 20
-123.4201874691449
 30
0.0
 10
107.1242150448114
 20
-123.3754199691561
 30
0.0
 10
107.1242150448114
 20
-123.3202808025033
 30
0.0
  0
SPLINE
  5
69
330
53
100
AcDbEntity
  8
_U+30EC_U+30A4_U+30E4_U+30FC 1
 62
     7
420
 16777215
370
     9
100
AcDbSpline
210
0.0
220
0.0
230
1.0
 70
    11
 71
     3
 72
    17
 73
    13
 74
     0
 42
0.0000000001
 43
0.0000000001
 12
1.0
 22
0.0
 32
0.0
 13
1.0
 23
0.0
 33
0.0
 40
0.0
 40
0.0
 40
0.0
 40
0.0
 40
1.0
 40
1.0
 40
1.0
 40
2.0
 40
2.0
 40
2.0
 40
3.0
 40
3.0
 40
3.0
 40
4.0
 40
4.0
 40
4.0
 40
4.0
 10
107.1242150448114
 20
-122.3201910805312
 30
0.0
 10
107.1242150448114
 20
-122.2646991361006
 30
0.0
 10
107.0794122681766
 20
-122.2199316361118
 30
0.0
 10
107.0243110843551
 20
-122.2199316361118
 30
0.0
 10
106.9691692154336
 20
-122.2199316361118
 30
0.0
 10
106.9244017165757
 20
-122.2646991361006
 30
0.0
 10
106.9244017165757
 20
-122.3201910805312
 30
0.0
 10
106.9244017165757
 20
-122.3756477471838
 30
0.0
 10
106.9691692154336
 20
-122.4200977471728
 30
0.0
 10
107.0243110843551
 20
-122.4200977471728
 30
0.0
 10
107.0794122681766
 20
-122.4200977471728
 30
0.0
 10
107.1242150448114
 20
-122.3756477471838
 30
0.0
 10
107.1242150448114
 20
-122.3201910805312
 30
0.0
  0
SPLINE
  5
6A
330
53
100
AcDbEntity
  8
_U+30EC_U+30A4_U+30E4_U+30FC 1
 62
     7
420
 16777215
370
     9
100
AcDbSpline
210
0.0
220
0.0
230
1.0
 70
    11
 71
     3
 72
    17
 73
    13
 74
     0
 42
0.0000000001
 43
0.0000000001
 12
1.0
 22
0.0
 32
0.0
 13
1.0
 23
0.0
 33
0.0
 40
0.0
 40
0.0
 40
0.0
 40
0.0
 40
1.0
 40
1.0
 40
1.0
 40
2.0
 40
2.0
 40
2.0
 40
3.0
 40
3.0
 40
3.0
 40
4.0
 40
4.0
 40
4.0
 40
4.0
 10
107.1242150448114
 20
-136.0196105215506
 30
0.0
 10
107.1242150448114
 20
-135.9644713548975
 30
0.0
 10
107.0794122681766
 20
-135.919703854909
 30
0.0
 10
107.0243110843551
 20
-135.919703854909
 30
0.0
 10
106.9691692154336
 20
-135.919703854909
 30
0.0
 10
106.9244017165757
 20
-135.9644713548975
 30
0.0
 10
106.9244017165757
 20
-136.0196105215506
 30
0.0
 10
106.9244017165757
 20
-136.0747144104255
 30
0.0
 10
106.9691692154336
 20
-136.1195171881923
 30
0.0
 10
107.0243110843551
 20
-136.1195171881923
 30
0.0
 10
107.0794122681766
 20
-136.1195171881923
 30
0.0
 10
107.1242150448114
 20
-136.0747144104255
 30
0.0
 10
107.1242150448114
 20
-136.0196105215506
 30
0.0
  0
SPLINE
  5
6B
330
53
100
AcDbEntity
  8
_U+30EC_U+30A4_U+30E4_U+30FC 1
 62
     7
420
 16777215
370
     9
100
AcDbSpline
210
0.0
220
0.0
230
1.0
 70
    11
 71
     3
 72
    17
 73
    13
 74
     0
 42
0.0000000001
 43
0.0000000001
 12
1.0
 22
0.0
 32
0.0
 13
1.0
 23
0.0
 33
0.0
 40
0.0
 40
0.0
 40
0.0
 40
0.0
 40
1.0
 40
1.0
 40
1.0
 40
2.0
 40
2.0
 40
2.0
 40
3.0
 40
3.0
 40
3.0
 40
4.0
 40
4.0
 40
4.0
 40
4.0
 10
83.12428482376727
 20
-141.0198121869674
 30
0.0
 10
83.12428482376727
 20
-140.9647082980919
 30
0.0
 10
83.07951942367464
 20
-140.9199055203258
 30
0.0
 10
83.02406065965752
 20
-140.9199055203258
 30
0.0
 10
82.96892149439758
 20
-140.9199055203258
 30
0.0
 10
82.92411871776281
 20
-140.9647082980919
 30
0.0
 10
82.92411871776281
 20
-141.0198121869674
 30
0.0
 10
82.92411871776281
 20
-141.0749513536198
 30
0.0
 10
82.96892149439758
 20
-141.119718853609
 30
0.0
 10
83.02406065965752
 20
-141.119718853609
 30
0.0
 10
83.07951942367464
 20
-141.119718853609
 30
0.0
 10
83.12428482376727
 20
-141.0749513536198
 30
0.0
 10
83.12428482376727
 20
-141.0198121869674
 30
0.0
  0
SPLINE
  5
6C
330
53
100
AcDbEntity
  8
_U+30EC_U+30A4_U+30E4_U+30FC 1
 62
     7
420
 16777215
370
     9
100
AcDbSpline
210
0.0
220
0.0
230
1.0
 70
    11
 71
     3
 72
    17
 73
    13
 74
     0
 42
0.0000000001
 43
0.0000000001
 12
1.0
 22
0.0
 32
0.0
 13
1.0
 23
0.0
 33
0.0
 40
0.0
 40
0.0
 40
0.0
 40
0.0
 40
1.0
 40
1.0
 40
1.0
 40
2.0
 40
2.0
 40
2.0
 40
3.0
 40
3.0
 40
3.0
 40
4.0
 40
4.0
 40
4.0
 40
4.0
 10
91.12380295301588
 20
-141.0198121869674
 30
0.0
 10
91.12380295301588
 20
-140.9647082980919
 30
0.0
 10
91.079035454158
 20
-140.9199055203258
 30
0.0
 10
91.02389628889806
 20
-140.9199055203258
 30
0.0
 10
90.96879240141497
 20
-140.9199055203258
 30
0.0
 10
90.92398962478022
 20
-140.9647082980919
 30
0.0
 10
90.92398962478022
 20
-141.0198121869674
 30
0.0
 10
90.92398962478022
 20
-141.0749513536198
 30
0.0
 10
90.96879240141497
 20
-141.119718853609
 30
0.0
 10
91.02389628889806
 20
-141.119718853609
 30
0.0
 10
91.079035454158
 20
-141.119718853609
 30
0.0
 10
91.12380295301588
 20
-141.0749513536198
 30
0.0
 10
91.12380295301588
 20
-141.0198121869674
 30
0.0
  0
SPLINE
  5
6D
330
53
100
AcDbEntity
  8
_U+30EC_U+30A4_U+30E4_U+30FC 1
 62
     7
420
 16777215
370
     9
100
AcDbSpline
210
0.0
220
0.0
230
1.0
 70
    11
 71
     3
 72
    17
 73
    13
 74
     0
 42
0.0000000001
 43
0.0000000001
 12
1.0
 22
0.0
 32
0.0
 13
1.0
 23
0.0
 33
0.0
 40
0.0
 40
0.0
 40
0.0
 40
0.0
 40
1.0
 40
1.0
 40
1.0
 40
2.0
 40
2.0
 40
2.0
 40
3.0
 40
3.0
 40
3.0
 40
4.0
 40
4.0
 40
4.0
 40
4.0
 10
73.15626674473926
 20
-141.0198121869674
 30
0.0
 10
73.15626674473926
 20
-140.9647082980919
 30
0.0
 10
73.11146396810449
 20
-140.9199055203258
 30
0.0
 10
73.05636008062142
 20
-140.9199055203258
 30
0.0
 10
73.00122091536147
 20
-140.9199055203258
 30
0.0
 10
72.95645341650359
 20
-140.9647082980919
 30
0.0
 10
72.95645341650359
 20
-141.0198121869674
 30
0.0
 10
72.95645341650359
 20
-141.0749513536198
 30
0.0
 10
73.00122091536147
 20
-141.119718853609
 30
0.0
 10
73.05636008062142
 20
-141.119718853609
 30
0.0
 10
73.11146396810449
 20
-141.119718853609
 30
0.0
 10
73.15626674473926
 20
-141.0749513536198
 30
0.0
 10
73.15626674473926
 20
-141.0198121869674
 30
0.0
  0
INSERT
  5
6F
330
53
100
AcDbEntity
  8
_U+30EC_U+30A4_U+30E4_U+30FC 1
100
AcDbBlockReference
  2
block 4
 10
0.0
 20
0.0
 30
0.0
  0
POLYLINE
  5
88
330
53
100
AcDbEntity
  8
_U+30EC_U+30A4_U+30E4_U+30FC 1
 62
     7
420
 16777215
370
     9
100
AcDb2dPolyline
 66
     1
 10
0.0
 20
0.0
 30
0.0
  0
VERTEX
  5
89
330
88
100
AcDbEntity
  8
_U+30EC_U+30A4_U+30E4_U+30FC 1
 62
     7
420
 16777215
370
     9
100
AcDbVertex
100
AcDb2dVertex
 10
73.02326952591008
 20
-118.3200791370865
 30
0.0
  0
VERTEX
  5
8A
330
88
100
AcDbEntity
  8
_U+30EC_U+30A4_U+30E4_U+30FC 1
 62
     7
420
 16777215
370
     9
100
AcDbVertex
100
AcDb2dVertex
 10
103.0238437605317
 20
-118.3200791370865
 30
0.0
  0
SEQEND
  5
8B
330
88
100
AcDbEntity
  8
_U+30EC_U+30A4_U+30E4_U+30FC 1
 62
     7
420
 16777215
370
     9
  0
POLYLINE
  5
8C
330
53
100
AcDbEntity
  8
_U+30EC_U+30A4_U+30E4_U+30FC 1
 62
     7
420
 16777215
370
     9
100
AcDb2dPolyline
 66
     1
 10
0.0
 20
0.0
 30
0.0
  0
VERTEX
  5
8D
330
8C
100
AcDbEntity
  8
_U+30EC_U+30A4_U+30E4_U+30FC 1
 62
     7
420
 16777215
370
     9
100
AcDbVertex
100
AcDb2dVertex
 10
72.99779897100433
 20
-119.7801205256106
 30
0.0
  0
VERTEX
  5
8E
330
8C
100
AcDbEntity
  8
_U+30EC_U+30A4_U+30E4_U+30FC 1
 62
     7
420
 16777215
370
     9
100
AcDbVertex
100
AcDb2dVertex
 10
72.99779897100433
 20
-117.3203069151143
 30
0.0
  0
SEQEND
  5
8F
330
8C
100
AcDbEntity
  8
_U+30EC_U+30A4_U+30E4_U+30FC 1
 62
     7
420
 16777215
370
     9
  0
POLYLINE
  5
90
330
53
100
AcDbEntity
  8
_U+30EC_U+30A4_U+30E4_U+30FC 1
 62
     7
420
 16777215
370
     9
100
AcDb2dPolyline
 66
     1
 10
0.0
 20
0.0
 30
0.0
  0
VERTEX
  5
91
330
90
100
AcDbEntity
  8
_U+30EC_U+30A4_U+30E4_U+30FC 1
 62
     7
420
 16777215
370
     9
100
AcDbVertex
100
AcDb2dVertex
 10
103.0238437605317
 20
-119.7801205256106
 30
0.0
  0
VERTEX
  5
92
330
90
100
AcDbEntity
  8
_U+30EC_U+30A4_U+30E4_U+30FC 1
 62
     7
420
 16777215
370
     9
100
AcDbVertex
100
AcDb2dVertex
 10
103.0238437605317
 20
-117.3203069151143
 30
0.0
  0
SEQEND
  5
93
330
90
100
AcDbEntity
  8
_U+30EC_U+30A4_U+30E4_U+30FC 1
 62
     7
420
 16777215
370
     9
  0
INSERT
  5
95
330
53
100
AcDbEntity
  8
_U+30EC_U+30A4_U+30E4_U+30FC 1
100
AcDbBlockReference
  2
block 6
 10
0.0
 20
0.0
 30
0.0
  0
POLYLINE
  5
9D
330
53
100
AcDbEntity
  8
_U+30EC_U+30A4_U+30E4_U+30FC 1
 62
     7
420
 16777215
370
     9
100
AcDb2dPolyline
 66
     1
 10
0.0
 20
0.0
 30
0.0
  0
VERTEX
  5
9E
330
9D
100
AcDbEntity
  8
_U+30EC_U+30A4_U+30E4_U+30FC 1
 62
     7
420
 16777215
370
     9
100
AcDbVertex
100
AcDb2dVertex
 10
83.02406065965752
 20
-141.0198121869674
 30
0.0
  0
VERTEX
  5
9F
330
9D
100
AcDbEntity
  8
_U+30EC_U+30A4_U+30E4_U+30FC 1
 62
     7
420
 16777215
370
     9
100
AcDbVertex
100
AcDb2dVertex
 10
73.02397508144763
 20
-141.0198121869674
 30
0.0
  0
SEQEND
  5
A0
330
9D
100
AcDbEntity
  8
_U+30EC_U+30A4_U+30E4_U+30FC 1
 62
     7
420
 16777215
370
     9
  0
POLYLINE
  5
A1
330
53
100
AcDbEntity
  8
_U+30EC_U+30A4_U+30E4_U+30FC 1
 62
     7
420
 16777215
370
     9
100
AcDb2dPolyline
 66
     1
 10
0.0
 20
0.0
 30
0.0
  0
VERTEX
  5
A2
330
A1
100
AcDbEntity
  8
_U+30EC_U+30A4_U+30E4_U+30FC 1
 62
     7
420
 16777215
370
     9
100
AcDbVertex
100
AcDb2dVertex
 10
83.02406065965752
 20
-139.5597707984437
 30
0.0
  0
VERTEX
  5
A3
330
A1
100
AcDbEntity
  8
_U+30EC_U+30A4_U+30E4_U+30FC 1
 62
     7
420
 16777215
370
     9
100
AcDbVertex
100
AcDb2dVertex
 10
83.02406065965752
 20
-142.0195844089393
 30
0.0
  0
SEQEND
  5
A4
330
A1
100
AcDbEntity
  8
_U+30EC_U+30A4_U+30E4_U+30FC 1
 62
     7
420
 16777215
370
     9
  0
POLYLINE
  5
A5
330
53
100
AcDbEntity
  8
_U+30EC_U+30A4_U+30E4_U+30FC 1
 62
     7
420
 16777215
370
     9
100
AcDb2dPolyline
 66
     1
 10
0.0
 20
0.0
 30
0.0
  0
VERTEX
  5
A6
330
A5
100
AcDbEntity
  8
_U+30EC_U+30A4_U+30E4_U+30FC 1
 62
     7
420
 16777215
370
     9
100
AcDbVertex
100
AcDb2dVertex
 10
73.05636008062142
 20
-125.8596810796462
 30
0.0
  0
VERTEX
  5
A7
330
A5
100
AcDbEntity
  8
_U+30EC_U+30A4_U+30E4_U+30FC 1
 62
     7
420
 16777215
370
     9
100
AcDbVertex
100
AcDb2dVertex
 10
73.05636008062142
 20
-142.0195844089393
 30
0.0
  0
SEQEND
  5
A8
330
A5
100
AcDbEntity
  8
_U+30EC_U+30A4_U+30E4_U+30FC 1
 62
     7
420
 16777215
370
     9
  0
INSERT
  5
AA
330
53
100
AcDbEntity
  8
_U+30EC_U+30A4_U+30E4_U+30FC 1
100
AcDbBlockReference
  2
block 7
 10
0.0
 20
0.0
 30
0.0
  0
INSERT
  5
B3
330
53
100
AcDbEntity
  8
_U+30EC_U+30A4_U+30E4_U+30FC 1
100
AcDbBlockReference
  2
block 8
 10
0.0
 20
0.0
 30
0.0
  0
INSERT
  5
CB
330
53
100
AcDbEntity
  8
_U+30EC_U+30A4_U+30E4_U+30FC 1
100
AcDbBlockReference
  2
block 10
 10
0.0
 20
0.0
 30
0.0
  0
ENDBLK
  5
56
330
53
100
AcDbEntity
  8
0
100
AcDbBlockEnd
  0
BLOCK
  5
70
330
6E
100
AcDbEntity
  8
0
100
AcDbBlockBegin
  2
block 4
 70
     0
 10
0.0
 20
0.0
 30
0.0
  3
block 4
  1

  0
POLYLINE
  5
72
330
6E
100
AcDbEntity
  8
_U+30EC_U+30A4_U+30E4_U+30FC 1
 62
     7
420
 16777215
370
     9
100
AcDb2dPolyline
 66
     1
 10
0.0
 20
0.0
 30
0.0
  0
VERTEX
  5
73
330
72
100
AcDbEntity
  8
_U+30EC_U+30A4_U+30E4_U+30FC 1
 62
     7
420
 16777215
370
     9
100
AcDbVertex
100
AcDb2dVertex
 10
107.0243110843551
 20
-122.3201910805312
 30
0.0
  0
VERTEX
  5
74
330
72
100
AcDbEntity
  8
_U+30EC_U+30A4_U+30E4_U+30FC 1
 62
     7
420
 16777215
370
     9
100
AcDbVertex
100
AcDb2dVertex
 10
107.0243110843551
 20
-118.5498785814737
 30
0.0
  0
SEQEND
  5
75
330
72
100
AcDbEntity
  8
_U+30EC_U+30A4_U+30E4_U+30FC 1
 62
     7
420
 16777215
370
     9
  0
POLYLINE
  5
76
330
6E
100
AcDbEntity
  8
_U+30EC_U+30A4_U+30E4_U+30FC 1
 62
     7
420
 16777215
370
     9
100
AcDb2dPolyline
 66
     1
 10
0.0
 20
0.0
 30
0.0
  0
VERTEX
  5
77
330
76
100
AcDbEntity
  8
_U+30EC_U+30A4_U+30E4_U+30FC 1
 62
     7
420
 16777215
370
     9
100
AcDbVertex
100
AcDb2dVertex
 10
107.0243110843551
 20
-123.3202808025033
 30
0.0
  0
VERTEX
  5
78
330
76
100
AcDbEntity
  8
_U+30EC_U+30A4_U+30E4_U+30FC 1
 62
     7
420
 16777215
370
     9
100
AcDbVertex
100
AcDb2dVertex
 10
107.0243110843551
 20
-122.3201910805312
 30
0.0
  0
SEQEND
  5
79
330
76
100
AcDbEntity
  8
_U+30EC_U+30A4_U+30E4_U+30FC 1
 62
     7
420
 16777215
370
     9
  0
POLYLINE
  5
7A
330
6E
100
AcDbEntity
  8
_U+30EC_U+30A4_U+30E4_U+30FC 1
 62
     7
420
 16777215
370
     9
100
AcDb2dPolyline
 66
     1
 10
0.0
 20
0.0
 30
0.0
  0
VERTEX
  5
7B
330
7A
100
AcDbEntity
  8
_U+30EC_U+30A4_U+30E4_U+30FC 1
 62
     7
420
 16777215
370
     9
100
AcDbVertex
100
AcDb2dVertex
 10
105.5642670290534
 20
-123.3202808025033
 30
0.0
  0
VERTEX
  5
7C
330
7A
100
AcDbEntity
  8
_U+30EC_U+30A4_U+30E4_U+30FC 1
 62
     7
420
 16777215
370
     9
100
AcDbVertex
100
AcDb2dVertex
 10
108.024083306327
 20
-123.3202808025033
 30
0.0
  0
SEQEND
  5
7D
330
7A
100
AcDbEntity
  8
_U+30EC_U+30A4_U+30E4_U+30FC 1
 62
     7
420
 16777215
370
     9
  0
POLYLINE
  5
7E
330
6E
100
AcDbEntity
  8
_U+30EC_U+30A4_U+30E4_U+30FC 1
 62
     7
420
 16777215
370
     9
100
AcDb2dPolyline
 66
     1
 10
0.0
 20
0.0
 30
0.0
  0
VERTEX
  5
7F
330
7E
100
AcDbEntity
  8
_U+30EC_U+30A4_U+30E4_U+30FC 1
 62
     7
420
 16777215
370
     9
100
AcDbVertex
100
AcDb2dVertex
 10
105.5642670290534
 20
-122.3201910805312
 30
0.0
  0
VERTEX
  5
80
330
7E
100
AcDbEntity
  8
_U+30EC_U+30A4_U+30E4_U+30FC 1
 62
     7
420
 16777215
370
     9
100
AcDbVertex
100
AcDb2dVertex
 10
108.024083306327
 20
-122.3201910805312
 30
0.0
  0
SEQEND
  5
81
330
7E
100
AcDbEntity
  8
_U+30EC_U+30A4_U+30E4_U+30FC 1
 62
     7
420
 16777215
370
     9
  0
INSERT
  5
83
330
6E
100
AcDbEntity
  8
_U+30EC_U+30A4_U+30E4_U+30FC 1
100
AcDbBlockReference
  2
block 5
 10
0.0
 20
0.0
 30
0.0
  0
ENDBLK
  5
71
330
6E
100
AcDbEntity
  8
0
100
AcDbBlockEnd
  0
BLOCK
  5
84
330
82
100
AcDbEntity
  8
0
100
AcDbBlockBegin
  2
block 5
 70
     0
 10
0.0
 20
0.0
 30
0.0
  3
block 5
  1

  0
SPLINE
  5
86
330
82
100
AcDbEntity
  8
_U+30EC_U+30A4_U+30E4_U+30FC 1
370
     0
100
AcDbSpline
210
0.0
220
0.0
230
1.0
 70
    11
 71
     3
 72
    26
 73
    22
 74
     0
 42
0.0000000001
 43
0.0000000001
 12
1.0
 22
0.0
 32
0.0
 13
1.0
 23
0.0
 33
0.0
 40
0.0
 40
0.0
 40
0.0
 40
0.0
 40
1.0
 40
1.0
 40
1.0
 40
2.0
 40
2.0
 40
2.0
 40
3.0
 40
3.0
 40
3.0
 40
4.0
 40
4.0
 40
4.0
 40
5.0
 40
5.0
 40
5.0
 40
6.0
 40
6.0
 40
6.0
 40
7.0
 40
7.0
 40
7.0
 40
7.0
 10
106.0248806158549
 20
-122.9792290274149
 30
0.0
 10
106.0248806158549
 20
-122.9792290274149
 30
0.0
 10
104.9207275128323
 20
-122.9792290274149
 30
0.0
 10
104.9207275128323
 20
-122.9792290274149
 30
0.0
 10
104.9207275128323
 20
-122.9792290274149
 30
0.0
 10
104.9207275128323
 20
-123.3092691749019
 30
0.0
 10
104.9207275128323
 20
-123.3092691749019
 30
0.0
 10
104.9207275128323
 20
-123.3092691749019
 30
0.0
 10
104.7725884069666
 20
-123.3092691749019
 30
0.0
 10
104.7725884069666
 20
-123.3092691749019
 30
0.0
 10
104.75777449638
 20
-122.9771619701238
 30
0.0
 10
104.5948214799277
 20
-122.9306531810729
 30
0.0
 10
104.4804443098174
 20
-122.9010253598997
 30
0.0
 10
104.4804443098174
 20
-122.9010253598997
 30
0.0
 10
104.4804443098174
 20
-122.7549533113252
 30
0.0
 10
104.4804443098174
 20
-122.7549533113252
 30
0.0
 10
104.4804443098174
 20
-122.7549533113252
 30
0.0
 10
106.0248806158549
 20
-122.7549533113252
 30
0.0
 10
106.0248806158549
 20
-122.7549533113252
 30
0.0
 10
106.0248806158549
 20
-122.7549533113252
 30
0.0
 10
106.0248806158549
 20
-122.9792290274149
 30
0.0
 10
106.0248806158549
 20
-122.9792290274149
 30
0.0
  0
HATCH
  5
87
330
82
100
AcDbEntity
  8
_U+30EC_U+30A4_U+30E4_U+30FC 1
 62
     7
420
 16777215
100
AcDbHatch
 10
0.0
 20
0.0
 30
0.0
210
0.0
220
0.0
230
1.0
  2
SOLID
 70
     1
 71
     0
 91
        1
 92
        1
 93
        1
 72
     4
 94
        3
 73
     0
 74
     1
 95
       26
 96
       22
 40
0.0
 40
0.0
 40
0.0
 40
0.0
 40
1.0
 40
1.0
 40
1.0
 40
2.0
 40
2.0
 40
2.0
 40
3.0
 40
3.0
 40
3.0
 40
4.0
 40
4.0
 40
4.0
 40
5.0
 40
5.0
 40
5.0
 40
6.0
 40
6.0
 40
6.0
 40
7.0
 40
7.0
 40
7.0
 40
7.0
 10
106.0248806158549
 20
-122.9792290274149
 10
106.0248806158549
 20
-122.9792290274149
 10
104.9207275128323
 20
-122.9792290274149
 10
104.9207275128323
 20
-122.9792290274149
 10
104.9207275128323
 20
-122.9792290274149
 10
104.9207275128323
 20
-123.3092691749019
 10
104.9207275128323
 20
-123.3092691749019
 10
104.9207275128323
 20
-123.3092691749019
 10
104.7725884069666
 20
-123.3092691749019
 10
104.7725884069666
 20
-123.3092691749019
 10
104.75777449638
 20
-122.9771619701238
 10
104.5948214799277
 20
-122.9306531810729
 10
104.4804443098174
 20
-122.9010253598997
 10
104.4804443098174
 20
-122.9010253598997
 10
104.4804443098174
 20
-122.7549533113252
 10
104.4804443098174
 20
-122.7549533113252
 10
104.4804443098174
 20
-122.7549533113252
 10
106.0248806158549
 20
-122.7549533113252
 10
106.0248806158549
 20
-122.7549533113252
 10
106.0248806158549
 20
-122.7549533113252
 10
106.0248806158549
 20
-122.9792290274149
 10
106.0248806158549
 20
-122.9792290274149
 97
        0
 97
        0
 75
     2
 76
     1
 98
        0
  0
ENDBLK
  5
85
330
82
100
AcDbEntity
  8
0
100
AcDbBlockEnd
  0
BLOCK
  5
96
330
94
100
AcDbEntity
  8
0
100
AcDbBlockBegin
  2
block 6
 70
     0
 10
0.0
 20
0.0
 30
0.0
  3
block 6
  1

  0
SPLINE
  5
98
330
94
100
AcDbEntity
  8
_U+30EC_U+30A4_U+30E4_U+30FC 1
370
     0
100
AcDbSpline
210
0.0
220
0.0
230
1.0
 70
    11
 71
     3
 72
    62
 73
    58
 74
     0
 42
0.0000000001
 43
0.0000000001
 12
1.0
 22
0.0
 32
0.0
 13
1.0
 23
0.0
 33
0.0
 40
0.0
 40
0.0
 40
0.0
 40
0.0
 40
1.0
 40
1.0
 40
1.0
 40
2.0
 40
2.0
 40
2.0
 40
3.0
 40
3.0
 40
3.0
 40
4.0
 40
4.0
 40
4.0
 40
5.0
 40
5.0
 40
5.0
 40
6.0
 40
6.0
 40
6.0
 40
7.0
 40
7.0
 40
7.0
 40
8.0
 40
8.0
 40
8.0
 40
9.0
 40
9.0
 40
9.0
 40
10.0
 40
10.0
 40
10.0
 40
11.0
 40
11.0
 40
11.0
 40
12.0
 40
12.0
 40
12.0
 40
13.0
 40
13.0
 40
13.0
 40
14.0
 40
14.0
 40
14.0
 40
15.0
 40
15.0
 40
15.0
 40
16.0
 40
16.0
 40
16.0
 40
17.0
 40
17.0
 40
17.0
 40
18.0
 40
18.0
 40
18.0
 40
19.0
 40
19.0
 40
19.0
 40
19.0
 10
87.42670489350792
 20
-117.7240803742148
 30
0.0
 10
87.33144800334075
 20
-117.7240803742148
 30
0.0
 10
87.1135457138987
 20
-117.7028930369805
 30
0.0
 10
86.98883325733266
 20
-117.5166856260028
 30
0.0
 10
86.91476370439979
 20
-117.4045477679579
 30
0.0
 10
86.91045733504322
 20
-117.3051567632084
 30
0.0
 10
86.90632322046092
 20
-117.2205796690455
 30
0.0
 10
86.90632322046092
 20
-117.2205796690455
 30
0.0
 10
87.12629256719413
 20
-117.2205796690455
 30
0.0
 10
87.12629256719413
 20
-117.2205796690455
 30
0.0
 10
87.12835962448527
 20
-117.2946492219784
 30
0.0
 10
87.13903942048955
 20
-117.5294324792982
 30
0.0
 10
87.42239852415135
 20
-117.5294324792982
 30
0.0
 10
87.56003008878707
 20
-117.5294324792982
 30
0.0
 10
87.71230330923512
 20
-117.4596692957219
 30
0.0
 10
87.71230330923512
 20
-117.2310872102756
 30
0.0
 10
87.71230330923512
 20
-117.1148152376484
 30
0.0
 10
87.6742350041231
 20
-117.0660671365321
 30
0.0
 10
87.64254012565881
 20
-117.0343722580678
 30
0.0
 10
87.56847057272594
 20
-116.9603027051349
 30
0.0
 10
87.4520263453245
 20
-116.9477281066138
 30
0.0
 10
87.39707707233477
 20
-116.9477281066138
 30
0.0
 10
87.37812904716588
 20
-116.9477281066138
 30
0.0
 10
87.34212779934502
 20
-116.9497951639049
 30
0.0
 10
87.31456703546303
 20
-116.9539292784872
 30
0.0
 10
87.31456703546303
 20
-116.9539292784872
 30
0.0
 10
87.31456703546303
 20
-116.7592813835706
 30
0.0
 10
87.31456703546303
 20
-116.7592813835706
 30
0.0
 10
87.35263534057503
 20
-116.7656548102183
 30
0.0
 10
87.39501001504361
 20
-116.7678941222837
 30
0.0
 10
87.40138344169132
 20
-116.7678941222837
 30
0.0
 10
87.46684025591107
 20
-116.7678941222837
 30
0.0
 10
87.66579452018425
 20
-116.7467067850494
 30
0.0
 10
87.66579452018425
 20
-116.5096842156643
 30
0.0
 10
87.66579452018425
 20
-116.3320895433996
 30
0.0
 10
87.53453638219624
 20
-116.2769680156356
 30
0.0
 10
87.42463783621676
 20
-116.2769680156356
 30
0.0
 10
87.16022675772383
 20
-116.2769680156356
 30
0.0
 10
87.15161401901071
 20
-116.5096842156643
 30
0.0
 10
87.14747990442841
 20
-116.581686711306
 30
0.0
 10
87.14747990442841
 20
-116.581686711306
 30
0.0
 10
86.94439152557294
 20
-116.581686711306
 30
0.0
 10
86.94439152557294
 20
-116.581686711306
 30
0.0
 10
86.9528320095118
 20
-116.4568019999657
 30
0.0
 10
86.98039277339379
 20
-116.0802530634279
 30
0.0
 10
87.43721243473793
 20
-116.0802530634279
 30
0.0
 10
87.6614881508277
 20
-116.0802530634279
 30
0.0
 10
87.90264483479518
 20
-116.2072048320593
 30
0.0
 10
87.90264483479518
 20
-116.5033107890165
 30
0.0
 10
87.90264483479518
 20
-116.6895181999943
 30
0.0
 10
87.80756019940227
 20
-116.772028236866
 30
0.0
 10
87.70799693987856
 20
-116.8333509365035
 30
0.0
 10
87.76949189429027
 20
-116.8609117003855
 30
0.0
 10
87.95139293591146
 20
-116.9413546799661
 30
0.0
 10
87.95139293591146
 20
-117.2185126117544
 30
0.0
 10
87.95139293591146
 20
-117.5569932431802
 30
0.0
 10
87.70386282529626
 20
-117.7240803742148
 30
0.0
 10
87.42670489350792
 20
-117.7240803742148
 30
0.0
  0
HATCH
  5
99
330
94
100
AcDbEntity
  8
_U+30EC_U+30A4_U+30E4_U+30FC 1
 62
     7
420
 16777215
100
AcDbHatch
 10
0.0
 20
0.0
 30
0.0
210
0.0
220
0.0
230
1.0
  2
SOLID
 70
     1
 71
     0
 91
        1
 92
        1
 93
        1
 72
     4
 94
        3
 73
     0
 74
     1
 95
       62
 96
       58
 40
0.0
 40
0.0
 40
0.0
 40
0.0
 40
1.0
 40
1.0
 40
1.0
 40
2.0
 40
2.0
 40
2.0
 40
3.0
 40
3.0
 40
3.0
 40
4.0
 40
4.0
 40
4.0
 40
5.0
 40
5.0
 40
5.0
 40
6.0
 40
6.0
 40
6.0
 40
7.0
 40
7.0
 40
7.0
 40
8.0
 40
8.0
 40
8.0
 40
9.0
 40
9.0
 40
9.0
 40
10.0
 40
10.0
 40
10.0
 40
11.0
 40
11.0
 40
11.0
 40
12.0
 40
12.0
 40
12.0
 40
13.0
 40
13.0
 40
13.0
 40
14.0
 40
14.0
 40
14.0
 40
15.0
 40
15.0
 40
15.0
 40
16.0
 40
16.0
 40
16.0
 40
17.0
 40
17.0
 40
17.0
 40
18.0
 40
18.0
 40
18.0
 40
19.0
 40
19.0
 40
19.0
 40
19.0
 10
87.42670489350792
 20
-117.7240803742148
 10
87.33144800334075
 20
-117.7240803742148
 10
87.1135457138987
 20
-117.7028930369805
 10
86.98883325733266
 20
-117.5166856260028
 10
86.91476370439979
 20
-117.4045477679579
 10
86.91045733504322
 20
-117.3051567632084
 10
86.90632322046092
 20
-117.2205796690455
 10
86.90632322046092
 20
-117.2205796690455
 10
87.12629256719413
 20
-117.2205796690455
 10
87.12629256719413
 20
-117.2205796690455
 10
87.12835962448527
 20
-117.2946492219784
 10
87.13903942048955
 20
-117.5294324792982
 10
87.42239852415135
 20
-117.5294324792982
 10
87.56003008878707
 20
-117.5294324792982
 10
87.71230330923512
 20
-117.4596692957219
 10
87.71230330923512
 20
-117.2310872102756
 10
87.71230330923512
 20
-117.1148152376484
 10
87.6742350041231
 20
-117.0660671365321
 10
87.64254012565881
 20
-117.0343722580678
 10
87.56847057272594
 20
-116.9603027051349
 10
87.4520263453245
 20
-116.9477281066138
 10
87.39707707233477
 20
-116.9477281066138
 10
87.37812904716588
 20
-116.9477281066138
 10
87.34212779934502
 20
-116.9497951639049
 10
87.31456703546303
 20
-116.9539292784872
 10
87.31456703546303
 20
-116.9539292784872
 10
87.31456703546303
 20
-116.7592813835706
 10
87.31456703546303
 20
-116.7592813835706
 10
87.35263534057503
 20
-116.7656548102183
 10
87.39501001504361
 20
-116.7678941222837
 10
87.40138344169132
 20
-116.7678941222837
 10
87.46684025591107
 20
-116.7678941222837
 10
87.66579452018425
 20
-116.7467067850494
 10
87.66579452018425
 20
-116.5096842156643
 10
87.66579452018425
 20
-116.3320895433996
 10
87.53453638219624
 20
-116.2769680156356
 10
87.42463783621676
 20
-116.2769680156356
 10
87.16022675772383
 20
-116.2769680156356
 10
87.15161401901071
 20
-116.5096842156643
 10
87.14747990442841
 20
-116.581686711306
 10
87.14747990442841
 20
-116.581686711306
 10
86.94439152557294
 20
-116.581686711306
 10
86.94439152557294
 20
-116.581686711306
 10
86.9528320095118
 20
-116.4568019999657
 10
86.98039277339379
 20
-116.0802530634279
 10
87.43721243473793
 20
-116.0802530634279
 10
87.6614881508277
 20
-116.0802530634279
 10
87.90264483479518
 20
-116.2072048320593
 10
87.90264483479518
 20
-116.5033107890165
 10
87.90264483479518
 20
-116.6895181999943
 10
87.80756019940227
 20
-116.772028236866
 10
87.70799693987856
 20
-116.8333509365035
 10
87.76949189429027
 20
-116.8609117003855
 10
87.95139293591146
 20
-116.9413546799661
 10
87.95139293591146
 20
-117.2185126117544
 10
87.95139293591146
 20
-117.5569932431802
 10
87.70386282529626
 20
-117.7240803742148
 10
87.42670489350792
 20
-117.7240803742148
 97
        0
 97
        0
 75
     2
 76
     1
 98
        0
  0
SPLINE
  5
9A
330
94
100
AcDbEntity
  8
_U+30EC_U+30A4_U+30E4_U+30FC 1
370
     0
100
AcDbSpline
210
0.0
220
0.0
230
1.0
 70
    11
 71
     3
 72
    29
 73
    25
 74
     0
 42
0.0000000001
 43
0.0000000001
 12
1.0
 22
0.0
 32
0.0
 13
1.0
 23
0.0
 33
0.0
 40
0.0
 40
0.0
 40
0.0
 40
0.0
 40
1.0
 40
1.0
 40
1.0
 40
2.0
 40
2.0
 40
2.0
 40
3.0
 40
3.0
 40
3.0
 40
4.0
 40
4.0
 40
4.0
 40
5.0
 40
5.0
 40
5.0
 40
6.0
 40
6.0
 40
6.0
 40
7.0
 40
7.0
 40
7.0
 40
8.0
 40
8.0
 40
8.0
 40
8.0
 10
89.00972626898022
 20
-117.4954982887685
 30
0.0
 10
88.9018947802919
 20
-117.7049600942717
 30
0.0
 10
88.72843422260956
 20
-117.7240803742148
 30
0.0
 10
88.61198999520812
 20
-117.7240803742148
 30
0.0
 10
88.45127629082121
 20
-117.7240803742148
 30
0.0
 10
88.30951061160319
 20
-117.6775715851639
 30
0.0
 10
88.21425372143602
 20
-117.4954982887685
 30
0.0
 10
88.11072860210426
 20
-117.3008503938519
 30
0.0
 10
88.09160832216114
 20
-117.064000079241
 30
0.0
 10
88.09160832216114
 20
-116.9010470627886
 30
0.0
 10
88.09160832216114
 20
-116.7572143262795
 30
0.0
 10
88.10848929003886
 20
-116.505550101082
 30
0.0
 10
88.21425372143602
 20
-116.3065958368088
 30
0.0
 10
88.32225746489861
 20
-116.1035074579533
 30
0.0
 10
88.4829711692855
 20
-116.0802530634279
 30
0.0
 10
88.61198999520812
 20
-116.0802530634279
 30
0.0
 10
88.77063664230387
 20
-116.0802530634279
 30
0.0
 10
88.91446937881305
 20
-116.1246947951876
 30
0.0
 10
89.00972626898022
 20
-116.3065958368088
 30
0.0
 10
89.10911727372967
 20
-116.4991766744342
 30
0.0
 10
89.1323716682551
 20
-116.7275865051063
 30
0.0
 10
89.1323716682551
 20
-116.9010470627886
 30
0.0
 10
89.1323716682551
 20
-117.0724405631798
 30
0.0
 10
89.11135658579508
 20
-117.3030897059173
 30
0.0
 10
89.00972626898022
 20
-117.4954982887685
 30
0.0
  0
SPLINE
  5
9B
330
94
100
AcDbEntity
  8
_U+30EC_U+30A4_U+30E4_U+30FC 1
370
     0
100
AcDbSpline
210
0.0
220
0.0
230
1.0
 70
    11
 71
     3
 72
    17
 73
    13
 74
     0
 42
0.0000000001
 43
0.0000000001
 12
1.0
 22
0.0
 32
0.0
 13
1.0
 23
0.0
 33
0.0
 40
0.0
 40
0.0
 40
0.0
 40
0.0
 40
1.0
 40
1.0
 40
1.0
 40
2.0
 40
2.0
 40
2.0
 40
3.0
 40
3.0
 40
3.0
 40
4.0
 40
4.0
 40
4.0
 40
4.0
 10
88.61198999520812
 20
-116.2728339010533
 30
0.0
 10
88.36239282730176
 20
-116.2728339010533
 30
0.0
 10
88.3158840382509
 20
-116.5563652594894
 30
0.0
 10
88.3158840382509
 20
-116.9010470627886
 30
0.0
 10
88.3158840382509
 20
-117.2205796690455
 30
0.0
 10
88.35188528607175
 20
-117.5294324792982
 30
0.0
 10
88.61198999520812
 20
-117.5294324792982
 30
0.0
 10
88.85952010582332
 20
-117.5294324792982
 30
0.0
 10
88.90826820693961
 20
-117.2479681781533
 30
0.0
 10
88.90826820693961
 20
-116.9010470627886
 30
0.0
 10
88.90826820693961
 20
-116.581686711306
 30
0.0
 10
88.87002764705333
 20
-116.2728339010533
 30
0.0
 10
88.61198999520812
 20
-116.2728339010533
 30
0.0
  0
HATCH
  5
9C
330
94
100
AcDbEntity
  8
_U+30EC_U+30A4_U+30E4_U+30FC 1
 62
     7
420
 16777215
100
AcDbHatch
 10
0.0
 20
0.0
 30
0.0
210
0.0
220
0.0
230
1.0
  2
SOLID
 70
     1
 71
     0
 91
        2
 92
        1
 93
        1
 72
     4
 94
        3
 73
     0
 74
     1
 95
       29
 96
       25
 40
0.0
 40
0.0
 40
0.0
 40
0.0
 40
1.0
 40
1.0
 40
1.0
 40
2.0
 40
2.0
 40
2.0
 40
3.0
 40
3.0
 40
3.0
 40
4.0
 40
4.0
 40
4.0
 40
5.0
 40
5.0
 40
5.0
 40
6.0
 40
6.0
 40
6.0
 40
7.0
 40
7.0
 40
7.0
 40
8.0
 40
8.0
 40
8.0
 40
8.0
 10
89.00972626898022
 20
-117.4954982887685
 10
88.9018947802919
 20
-117.7049600942717
 10
88.72843422260956
 20
-117.7240803742148
 10
88.61198999520812
 20
-117.7240803742148
 10
88.45127629082121
 20
-117.7240803742148
 10
88.30951061160319
 20
-117.6775715851639
 10
88.21425372143602
 20
-117.4954982887685
 10
88.11072860210426
 20
-117.3008503938519
 10
88.09160832216114
 20
-117.064000079241
 10
88.09160832216114
 20
-116.9010470627886
 10
88.09160832216114
 20
-116.7572143262795
 10
88.10848929003886
 20
-116.505550101082
 10
88.21425372143602
 20
-116.3065958368088
 10
88.32225746489861
 20
-116.1035074579533
 10
88.4829711692855
 20
-116.0802530634279
 10
88.61198999520812
 20
-116.0802530634279
 10
88.77063664230387
 20
-116.0802530634279
 10
88.91446937881305
 20
-116.1246947951876
 10
89.00972626898022
 20
-116.3065958368088
 10
89.10911727372967
 20
-116.4991766744342
 10
89.1323716682551
 20
-116.7275865051063
 10
89.1323716682551
 20
-116.9010470627886
 10
89.1323716682551
 20
-117.0724405631798
 10
89.11135658579508
 20
-117.3030897059173
 10
89.00972626898022
 20
-117.4954982887685
 97
        0
 97
        0
 92
        1
 93
        1
 72
     4
 94
        3
 73
     0
 74
     1
 95
       17
 96
       13
 40
0.0
 40
0.0
 40
0.0
 40
0.0
 40
1.0
 40
1.0
 40
1.0
 40
2.0
 40
2.0
 40
2.0
 40
3.0
 40
3.0
 40
3.0
 40
4.0
 40
4.0
 40
4.0
 40
4.0
 10
88.61198999520812
 20
-116.2728339010533
 10
88.36239282730176
 20
-116.2728339010533
 10
88.3158840382509
 20
-116.5563652594894
 10
88.3158840382509
 20
-116.9010470627886
 10
88.3158840382509
 20
-117.2205796690455
 10
88.35188528607175
 20
-117.5294324792982
 10
88.61198999520812
 20
-117.5294324792982
 10
88.85952010582332
 20
-117.5294324792982
 10
88.90826820693961
 20
-117.2479681781533
 10
88.90826820693961
 20
-116.9010470627886
 10
88.90826820693961
 20
-116.581686711306
 10
88.87002764705333
 20
-116.2728339010533
 10
88.61198999520812
 20
-116.2728339010533
 97
        0
 97
        0
 75
     2
 76
     1
 98
        0
  0
ENDBLK
  5
97
330
94
100
AcDbEntity
  8
0
100
AcDbBlockEnd
  0
BLOCK
  5
AB
330
A9
100
AcDbEntity
  8
0
100
AcDbBlockBegin
  2
block 7
 70
     0
 10
0.0
 20
0.0
 30
0.0
  3
block 7
  1

  0
SPLINE
  5
AD
330
A9
100
AcDbEntity
  8
_U+30EC_U+30A4_U+30E4_U+30FC 1
370
     0
100
AcDbSpline
210
0.0
220
0.0
230
1.0
 70
    11
 71
     3
 72
    26
 73
    22
 74
     0
 42
0.0000000001
 43
0.0000000001
 12
1.0
 22
0.0
 32
0.0
 13
1.0
 23
0.0
 33
0.0
 40
0.0
 40
0.0
 40
0.0
 40
0.0
 40
1.0
 40
1.0
 40
1.0
 40
2.0
 40
2.0
 40
2.0
 40
3.0
 40
3.0
 40
3.0
 40
4.0
 40
4.0
 40
4.0
 40
5.0
 40
5.0
 40
5.0
 40
6.0
 40
6.0
 40
6.0
 40
7.0
 40
7.0
 40
7.0
 40
7.0
 10
77.40302732439925
 20
-140.3735161324414
 30
0.0
 10
77.40302732439925
 20
-140.3735161324414
 30
0.0
 10
77.40302732439925
 20
-139.2693630294188
 30
0.0
 10
77.40302732439925
 20
-139.2693630294188
 30
0.0
 10
77.40302732439925
 20
-139.2693630294188
 30
0.0
 10
77.0729871769123
 20
-139.2693630294188
 30
0.0
 10
77.0729871769123
 20
-139.2693630294188
 30
0.0
 10
77.0729871769123
 20
-139.2693630294188
 30
0.0
 10
77.0729871769123
 20
-139.121223923553
 30
0.0
 10
77.0729871769123
 20
-139.121223923553
 30
0.0
 10
77.40509438169039
 20
-139.1064100129664
 30
0.0
 10
77.45160317074127
 20
-138.9434569965141
 30
0.0
 10
77.48123099191442
 20
-138.8290798264038
 30
0.0
 10
77.48123099191442
 20
-138.8290798264038
 30
0.0
 10
77.62730304048901
 20
-138.8290798264038
 30
0.0
 10
77.62730304048901
 20
-138.8290798264038
 30
0.0
 10
77.62730304048901
 20
-138.8290798264038
 30
0.0
 10
77.62730304048901
 20
-140.3735161324414
 30
0.0
 10
77.62730304048901
 20
-140.3735161324414
 30
0.0
 10
77.62730304048901
 20
-140.3735161324414
 30
0.0
 10
77.40302732439925
 20
-140.3735161324414
 30
0.0
 10
77.40302732439925
 20
-140.3735161324414
 30
0.0
  0
HATCH
  5
AE
330
A9
100
AcDbEntity
  8
_U+30EC_U+30A4_U+30E4_U+30FC 1
 62
     7
420
 16777215
100
AcDbHatch
 10
0.0
 20
0.0
 30
0.0
210
0.0
220
0.0
230
1.0
  2
SOLID
 70
     1
 71
     0
 91
        1
 92
        1
 93
        1
 72
     4
 94
        3
 73
     0
 74
     1
 95
       26
 96
       22
 40
0.0
 40
0.0
 40
0.0
 40
0.0
 40
1.0
 40
1.0
 40
1.0
 40
2.0
 40
2.0
 40
2.0
 40
3.0
 40
3.0
 40
3.0
 40
4.0
 40
4.0
 40
4.0
 40
5.0
 40
5.0
 40
5.0
 40
6.0
 40
6.0
 40
6.0
 40
7.0
 40
7.0
 40
7.0
 40
7.0
 10
77.40302732439925
 20
-140.3735161324414
 10
77.40302732439925
 20
-140.3735161324414
 10
77.40302732439925
 20
-139.2693630294188
 10
77.40302732439925
 20
-139.2693630294188
 10
77.40302732439925
 20
-139.2693630294188
 10
77.0729871769123
 20
-139.2693630294188
 10
77.0729871769123
 20
-139.2693630294188
 10
77.0729871769123
 20
-139.2693630294188
 10
77.0729871769123
 20
-139.121223923553
 10
77.0729871769123
 20
-139.121223923553
 10
77.40509438169039
 20
-139.1064100129664
 10
77.45160317074127
 20
-138.9434569965141
 10
77.48123099191442
 20
-138.8290798264038
 10
77.48123099191442
 20
-138.8290798264038
 10
77.62730304048901
 20
-138.8290798264038
 10
77.62730304048901
 20
-138.8290798264038
 10
77.62730304048901
 20
-138.8290798264038
 10
77.62730304048901
 20
-140.3735161324414
 10
77.62730304048901
 20
-140.3735161324414
 10
77.62730304048901
 20
-140.3735161324414
 10
77.40302732439925
 20
-140.3735161324414
 10
77.40302732439925
 20
-140.3735161324414
 97
        0
 97
        0
 75
     2
 76
     1
 98
        0
  0
SPLINE
  5
AF
330
A9
100
AcDbEntity
  8
_U+30EC_U+30A4_U+30E4_U+30FC 1
370
     0
100
AcDbSpline
210
0.0
220
0.0
230
1.0
 70
    11
 71
     3
 72
    29
 73
    25
 74
     0
 42
0.0000000001
 43
0.0000000001
 12
1.0
 22
0.0
 32
0.0
 13
1.0
 23
0.0
 33
0.0
 40
0.0
 40
0.0
 40
0.0
 40
0.0
 40
1.0
 40
1.0
 40
1.0
 40
2.0
 40
2.0
 40
2.0
 40
3.0
 40
3.0
 40
3.0
 40
4.0
 40
4.0
 40
4.0
 40
5.0
 40
5.0
 40
5.0
 40
6.0
 40
6.0
 40
6.0
 40
7.0
 40
7.0
 40
7.0
 40
8.0
 40
8.0
 40
8.0
 40
8.0
 10
79.02618406227471
 20
-140.1957492054024
 30
0.0
 10
78.91835257358639
 20
-140.4052110109056
 30
0.0
 10
78.74489201590406
 20
-140.4241590360745
 30
0.0
 10
78.62844778850261
 20
-140.4241590360745
 30
0.0
 10
78.4677340841157
 20
-140.4241590360745
 30
0.0
 10
78.32596840489768
 20
-140.3776502470236
 30
0.0
 10
78.23071151473052
 20
-140.1957492054024
 30
0.0
 10
78.12718639539877
 20
-140.0011013104858
 30
0.0
 10
78.10806611545563
 20
-139.7640787411007
 30
0.0
 10
78.10806611545563
 20
-139.6014702341969
 30
0.0
 10
78.10806611545563
 20
-139.4574652429134
 30
0.0
 10
78.12494708333335
 20
-139.2056287629416
 30
0.0
 10
78.23071151473052
 20
-139.0068467534427
 30
0.0
 10
78.3387152581931
 20
-138.8039306293615
 30
0.0
 10
78.49942896258001
 20
-138.7805039800618
 30
0.0
 10
78.62844778850261
 20
-138.7805039800618
 30
0.0
 10
78.78709443559836
 20
-138.7805039800618
 30
0.0
 10
78.93092717210754
 20
-138.8249457118216
 30
0.0
 10
79.02618406227471
 20
-139.0068467534427
 30
0.0
 10
79.12557506702417
 20
-139.1994275910682
 30
0.0
 10
79.1488294615496
 20
-139.4278374217403
 30
0.0
 10
79.1488294615496
 20
-139.6014702341969
 30
0.0
 10
79.1488294615496
 20
-139.7726914798138
 30
0.0
 10
79.12781437908957
 20
-140.003168367777
 30
0.0
 10
79.02618406227471
 20
-140.1957492054024
 30
0.0
  0
SPLINE
  5
B0
330
A9
100
AcDbEntity
  8
_U+30EC_U+30A4_U+30E4_U+30FC 1
370
     0
100
AcDbSpline
210
0.0
220
0.0
230
1.0
 70
    11
 71
     3
 72
    17
 73
    13
 74
     0
 42
0.0000000001
 43
0.0000000001
 12
1.0
 22
0.0
 32
0.0
 13
1.0
 23
0.0
 33
0.0
 40
0.0
 40
0.0
 40
0.0
 40
0.0
 40
1.0
 40
1.0
 40
1.0
 40
2.0
 40
2.0
 40
2.0
 40
3.0
 40
3.0
 40
3.0
 40
4.0
 40
4.0
 40
4.0
 40
4.0
 10
78.62844778850261
 20
-138.9730848176873
 30
0.0
 10
78.37885062059627
 20
-138.9730848176873
 30
0.0
 10
78.33234183154539
 20
-139.2566161761233
 30
0.0
 10
78.33234183154539
 20
-139.6014702341969
 30
0.0
 10
78.33234183154539
 20
-139.9208305856795
 30
0.0
 10
78.36834307936626
 20
-140.2295111411579
 30
0.0
 10
78.62844778850261
 20
-140.2295111411579
 30
0.0
 10
78.87597789911781
 20
-140.2295111411579
 30
0.0
 10
78.9247260002341
 20
-139.9483913495615
 30
0.0
 10
78.9247260002341
 20
-139.6014702341969
 30
0.0
 10
78.9247260002341
 20
-139.2817653731657
 30
0.0
 10
78.88665769512208
 20
-138.9730848176873
 30
0.0
 10
78.62844778850261
 20
-138.9730848176873
 30
0.0
  0
HATCH
  5
B1
330
A9
100
AcDbEntity
  8
_U+30EC_U+30A4_U+30E4_U+30FC 1
 62
     7
420
 16777215
100
AcDbHatch
 10
0.0
 20
0.0
 30
0.0
210
0.0
220
0.0
230
1.0
  2
SOLID
 70
     1
 71
     0
 91
        2
 92
        1
 93
        1
 72
     4
 94
        3
 73
     0
 74
     1
 95
       29
 96
       25
 40
0.0
 40
0.0
 40
0.0
 40
0.0
 40
1.0
 40
1.0
 40
1.0
 40
2.0
 40
2.0
 40
2.0
 40
3.0
 40
3.0
 40
3.0
 40
4.0
 40
4.0
 40
4.0
 40
5.0
 40
5.0
 40
5.0
 40
6.0
 40
6.0
 40
6.0
 40
7.0
 40
7.0
 40
7.0
 40
8.0
 40
8.0
 40
8.0
 40
8.0
 10
79.02618406227471
 20
-140.1957492054024
 10
78.91835257358639
 20
-140.4052110109056
 10
78.74489201590406
 20
-140.4241590360745
 10
78.62844778850261
 20
-140.4241590360745
 10
78.4677340841157
 20
-140.4241590360745
 10
78.32596840489768
 20
-140.3776502470236
 10
78.23071151473052
 20
-140.1957492054024
 10
78.12718639539877
 20
-140.0011013104858
 10
78.10806611545563
 20
-139.7640787411007
 10
78.10806611545563
 20
-139.6014702341969
 10
78.10806611545563
 20
-139.4574652429134
 10
78.12494708333335
 20
-139.2056287629416
 10
78.23071151473052
 20
-139.0068467534427
 10
78.3387152581931
 20
-138.8039306293615
 10
78.49942896258001
 20
-138.7805039800618
 10
78.62844778850261
 20
-138.7805039800618
 10
78.78709443559836
 20
-138.7805039800618
 10
78.93092717210754
 20
-138.8249457118216
 10
79.02618406227471
 20
-139.0068467534427
 10
79.12557506702417
 20
-139.1994275910682
 10
79.1488294615496
 20
-139.4278374217403
 10
79.1488294615496
 20
-139.6014702341969
 10
79.1488294615496
 20
-139.7726914798138
 10
79.12781437908957
 20
-140.003168367777
 10
79.02618406227471
 20
-140.1957492054024
 97
        0
 97
        0
 92
        1
 93
        1
 72
     4
 94
        3
 73
     0
 74
     1
 95
       17
 96
       13
 40
0.0
 40
0.0
 40
0.0
 40
0.0
 40
1.0
 40
1.0
 40
1.0
 40
2.0
 40
2.0
 40
2.0
 40
3.0
 40
3.0
 40
3.0
 40
4.0
 40
4.0
 40
4.0
 40
4.0
 10
78.62844778850261
 20
-138.9730848176873
 10
78.37885062059627
 20
-138.9730848176873
 10
78.33234183154539
 20
-139.2566161761233
 10
78.33234183154539
 20
-139.6014702341969
 10
78.33234183154539
 20
-139.9208305856795
 10
78.36834307936626
 20
-140.2295111411579
 10
78.62844778850261
 20
-140.2295111411579
 10
78.87597789911781
 20
-140.2295111411579
 10
78.9247260002341
 20
-139.9483913495615
 10
78.9247260002341
 20
-139.6014702341969
 10
78.9247260002341
 20
-139.2817653731657
 10
78.88665769512208
 20
-138.9730848176873
 10
78.62844778850261
 20
-138.9730848176873
 97
        0
 97
        0
 75
     2
 76
     1
 98
        0
  0
ENDBLK
  5
AC
330
A9
100
AcDbEntity
  8
0
100
AcDbBlockEnd
  0
BLOCK
  5
B4
330
B2
100
AcDbEntity
  8
0
100
AcDbBlockBegin
  2
block 8
 70
     0
 10
0.0
 20
0.0
 30
0.0
  3
block 8
  1

  0
POLYLINE
  5
B6
330
B2
100
AcDbEntity
  8
_U+30EC_U+30A4_U+30E4_U+30FC 1
 62
     7
420
 16777215
370
     9
100
AcDb2dPolyline
 66
     1
 10
0.0
 20
0.0
 30
0.0
  0
VERTEX
  5
B7
330
B6
100
AcDbEntity
  8
_U+30EC_U+30A4_U+30E4_U+30FC 1
 62
     7
420
 16777215
370
     9
100
AcDbVertex
100
AcDb2dVertex
 10
83.02406065965752
 20
-141.0198121869674
 30
0.0
  0
VERTEX
  5
B8
330
B6
100
AcDbEntity
  8
_U+30EC_U+30A4_U+30E4_U+30FC 1
 62
     7
420
 16777215
370
     9
100
AcDbVertex
100
AcDb2dVertex
 10
91.02389628889806
 20
-141.0198121869674
 30
0.0
  0
SEQEND
  5
B9
330
B6
100
AcDbEntity
  8
_U+30EC_U+30A4_U+30E4_U+30FC 1
 62
     7
420
 16777215
370
     9
  0
POLYLINE
  5
BA
330
B2
100
AcDbEntity
  8
_U+30EC_U+30A4_U+30E4_U+30FC 1
 62
     7
420
 16777215
370
     9
100
AcDb2dPolyline
 66
     1
 10
0.0
 20
0.0
 30
0.0
  0
VERTEX
  5
BB
330
BA
100
AcDbEntity
  8
_U+30EC_U+30A4_U+30E4_U+30FC 1
 62
     7
420
 16777215
370
     9
100
AcDbVertex
100
AcDb2dVertex
 10
83.02406065965752
 20
-139.5597707984437
 30
0.0
  0
VERTEX
  5
BC
330
BA
100
AcDbEntity
  8
_U+30EC_U+30A4_U+30E4_U+30FC 1
 62
     7
420
 16777215
370
     9
100
AcDbVertex
100
AcDb2dVertex
 10
83.02406065965752
 20
-142.0195844089393
 30
0.0
  0
SEQEND
  5
BD
330
BA
100
AcDbEntity
  8
_U+30EC_U+30A4_U+30E4_U+30FC 1
 62
     7
420
 16777215
370
     9
  0
POLYLINE
  5
BE
330
B2
100
AcDbEntity
  8
_U+30EC_U+30A4_U+30E4_U+30FC 1
 62
     7
420
 16777215
370
     9
100
AcDb2dPolyline
 66
     1
 10
0.0
 20
0.0
 30
0.0
  0
VERTEX
  5
BF
330
BE
100
AcDbEntity
  8
_U+30EC_U+30A4_U+30E4_U+30FC 1
 62
     7
420
 16777215
370
     9
100
AcDbVertex
100
AcDb2dVertex
 10
91.02389628889806
 20
-139.5597707984437
 30
0.0
  0
VERTEX
  5
C0
330
BE
100
AcDbEntity
  8
_U+30EC_U+30A4_U+30E4_U+30FC 1
 62
     7
420
 16777215
370
     9
100
AcDbVertex
100
AcDb2dVertex
 10
91.02389628889806
 20
-142.0195844089393
 30
0.0
  0
SEQEND
  5
C1
330
BE
100
AcDbEntity
  8
_U+30EC_U+30A4_U+30E4_U+30FC 1
 62
     7
420
 16777215
370
     9
  0
INSERT
  5
C3
330
B2
100
AcDbEntity
  8
_U+30EC_U+30A4_U+30E4_U+30FC 1
100
AcDbBlockReference
  2
block 9
 10
0.0
 20
0.0
 30
0.0
  0
ENDBLK
  5
B5
330
B2
100
AcDbEntity
  8
0
100
AcDbBlockEnd
  0
BLOCK
  5
C4
330
C2
100
AcDbEntity
  8
0
100
AcDbBlockBegin
  2
block 9
 70
     0
 10
0.0
 20
0.0
 30
0.0
  3
block 9
  1

  0
SPLINE
  5
C6
330
C2
100
AcDbEntity
  8
_U+30EC_U+30A4_U+30E4_U+30FC 1
370
     0
100
AcDbSpline
210
0.0
220
0.0
230
1.0
 70
    11
 71
     3
 72
    29
 73
    25
 74
     0
 42
0.0000000001
 43
0.0000000001
 12
1.0
 22
0.0
 32
0.0
 13
1.0
 23
0.0
 33
0.0
 40
0.0
 40
0.0
 40
0.0
 40
0.0
 40
1.0
 40
1.0
 40
1.0
 40
2.0
 40
2.0
 40
2.0
 40
3.0
 40
3.0
 40
3.0
 40
4.0
 40
4.0
 40
4.0
 40
5.0
 40
5.0
 40
5.0
 40
6.0
 40
6.0
 40
6.0
 40
7.0
 40
7.0
 40
7.0
 40
8.0
 40
8.0
 40
8.0
 40
8.0
 10
87.02345646695942
 20
-140.4241590360745
 30
0.0
 10
86.75697833117535
 20
-140.4241590360745
 30
0.0
 10
86.50307479391243
 20
-140.286699726213
 30
0.0
 10
86.50307479391243
 20
-139.9377115535572
 30
0.0
 10
86.50307479391243
 20
-139.6817409590032
 30
0.0
 10
86.64484047313046
 20
-139.5866563236103
 30
0.0
 10
86.75060490452763
 20
-139.5253336239728
 30
0.0
 10
86.62572019318732
 20
-139.4660779816265
 30
0.0
 10
86.54958358296331
 20
-139.3517008115163
 30
0.0
 10
86.54958358296331
 20
-139.1908148523551
 30
0.0
 10
86.54958358296331
 20
-138.9158962326322
 30
0.0
 10
86.74853784723648
 20
-138.7805039800618
 30
0.0
 10
87.02345646695942
 20
-138.7805039800618
 30
0.0
 10
87.30698782539548
 20
-138.7805039800618
 30
0.0
 10
87.49732935095554
 20
-138.9245089713453
 30
0.0
 10
87.49732935095554
 20
-139.1908148523551
 30
0.0
 10
87.49732935095554
 20
-139.3517008115163
 30
0.0
 10
87.41912568344036
 20
-139.4660779816265
 30
0.0
 10
87.29424097210006
 20
-139.5253336239728
 30
0.0
 10
87.38312443561951
 20
-139.575976527606
 30
0.0
 10
87.54177108271526
 20
-139.6710611629989
 30
0.0
 10
87.54177108271526
 20
-139.9335774389749
 30
0.0
 10
87.54177108271526
 20
-140.3080593182216
 30
0.0
 10
87.26254609363576
 20
-140.4241590360745
 30
0.0
 10
87.02345646695942
 20
-140.4241590360745
 30
0.0
  0
SPLINE
  5
C7
330
C2
100
AcDbEntity
  8
_U+30EC_U+30A4_U+30E4_U+30FC 1
370
     0
100
AcDbSpline
210
0.0
220
0.0
230
1.0
 70
    11
 71
     3
 72
    17
 73
    13
 74
     0
 42
0.0000000001
 43
0.0000000001
 12
1.0
 22
0.0
 32
0.0
 13
1.0
 23
0.0
 33
0.0
 40
0.0
 40
0.0
 40
0.0
 40
0.0
 40
1.0
 40
1.0
 40
1.0
 40
2.0
 40
2.0
 40
2.0
 40
3.0
 40
3.0
 40
3.0
 40
4.0
 40
4.0
 40
4.0
 40
4.0
 10
87.02345646695942
 20
-139.6331651126611
 30
0.0
 10
86.87962373045023
 20
-139.6331651126611
 30
0.0
 10
86.7273505100022
 20
-139.7199815188895
 30
0.0
 10
86.7273505100022
 20
-139.9228976429707
 30
0.0
 10
86.7273505100022
 20
-140.1282253338915
 30
0.0
 10
86.85430227863365
 20
-140.2295111411579
 30
0.0
 10
87.02345646695942
 20
-140.2295111411579
 30
0.0
 10
87.20966387793717
 20
-140.2295111411579
 30
0.0
 10
87.3197346786909
 20
-140.106865741883
 30
0.0
 10
87.3197346786909
 20
-139.9290988148441
 30
0.0
 10
87.3197346786909
 20
-139.707234665594
 30
0.0
 10
87.15678166223859
 20
-139.6331651126611
 30
0.0
 10
87.02345646695942
 20
-139.6331651126611
 30
0.0
  0
SPLINE
  5
C8
330
C2
100
AcDbEntity
  8
_U+30EC_U+30A4_U+30E4_U+30FC 1
370
     0
100
AcDbSpline
210
0.0
220
0.0
230
1.0
 70
    11
 71
     3
 72
    17
 73
    13
 74
     0
 42
0.0000000001
 43
0.0000000001
 12
1.0
 22
0.0
 32
0.0
 13
1.0
 23
0.0
 33
0.0
 40
0.0
 40
0.0
 40
0.0
 40
0.0
 40
1.0
 40
1.0
 40
1.0
 40
2.0
 40
2.0
 40
2.0
 40
3.0
 40
3.0
 40
3.0
 40
4.0
 40
4.0
 40
4.0
 40
4.0
 10
87.02345646695942
 20
-138.9730848176873
 30
0.0
 10
86.85843639321595
 20
-138.9730848176873
 30
0.0
 10
86.77385929905307
 20
-139.0681694530802
 30
0.0
 10
86.77385929905307
 20
-139.2035617056505
 30
0.0
 10
86.77385929905307
 20
-139.3262071049254
 30
0.0
 10
86.84586179469478
 20
-139.444718389618
 30
0.0
 10
87.02345646695942
 20
-139.444718389618
 30
0.0
 10
87.2012233939983
 20
-139.444718389618
 30
0.0
 10
87.27305363486578
 20
-139.3262071049254
 30
0.0
 10
87.27305363486578
 20
-139.2035617056505
 30
0.0
 10
87.27305363486578
 20
-139.0681694530802
 30
0.0
 10
87.18640948341174
 20
-138.9730848176873
 30
0.0
 10
87.02345646695942
 20
-138.9730848176873
 30
0.0
  0
HATCH
  5
C9
330
C2
100
AcDbEntity
  8
_U+30EC_U+30A4_U+30E4_U+30FC 1
 62
     7
420
 16777215
100
AcDbHatch
 10
0.0
 20
0.0
 30
0.0
210
0.0
220
0.0
230
1.0
  2
SOLID
 70
     1
 71
     0
 91
        3
 92
        1
 93
        1
 72
     4
 94
        3
 73
     0
 74
     1
 95
       29
 96
       25
 40
0.0
 40
0.0
 40
0.0
 40
0.0
 40
1.0
 40
1.0
 40
1.0
 40
2.0
 40
2.0
 40
2.0
 40
3.0
 40
3.0
 40
3.0
 40
4.0
 40
4.0
 40
4.0
 40
5.0
 40
5.0
 40
5.0
 40
6.0
 40
6.0
 40
6.0
 40
7.0
 40
7.0
 40
7.0
 40
8.0
 40
8.0
 40
8.0
 40
8.0
 10
87.02345646695942
 20
-140.4241590360745
 10
86.75697833117535
 20
-140.4241590360745
 10
86.50307479391243
 20
-140.286699726213
 10
86.50307479391243
 20
-139.9377115535572
 10
86.50307479391243
 20
-139.6817409590032
 10
86.64484047313046
 20
-139.5866563236103
 10
86.75060490452763
 20
-139.5253336239728
 10
86.62572019318732
 20
-139.4660779816265
 10
86.54958358296331
 20
-139.3517008115163
 10
86.54958358296331
 20
-139.1908148523551
 10
86.54958358296331
 20
-138.9158962326322
 10
86.74853784723648
 20
-138.7805039800618
 10
87.02345646695942
 20
-138.7805039800618
 10
87.30698782539548
 20
-138.7805039800618
 10
87.49732935095554
 20
-138.9245089713453
 10
87.49732935095554
 20
-139.1908148523551
 10
87.49732935095554
 20
-139.3517008115163
 10
87.41912568344036
 20
-139.4660779816265
 10
87.29424097210006
 20
-139.5253336239728
 10
87.38312443561951
 20
-139.575976527606
 10
87.54177108271526
 20
-139.6710611629989
 10
87.54177108271526
 20
-139.9335774389749
 10
87.54177108271526
 20
-140.3080593182216
 10
87.26254609363576
 20
-140.4241590360745
 10
87.02345646695942
 20
-140.4241590360745
 97
        0
 97
        0
 92
        1
 93
        1
 72
     4
 94
        3
 73
     0
 74
     1
 95
       17
 96
       13
 40
0.0
 40
0.0
 40
0.0
 40
0.0
 40
1.0
 40
1.0
 40
1.0
 40
2.0
 40
2.0
 40
2.0
 40
3.0
 40
3.0
 40
3.0
 40
4.0
 40
4.0
 40
4.0
 40
4.0
 10
87.02345646695942
 20
-139.6331651126611
 10
86.87962373045023
 20
-139.6331651126611
 10
86.7273505100022
 20
-139.7199815188895
 10
86.7273505100022
 20
-139.9228976429707
 10
86.7273505100022
 20
-140.1282253338915
 10
86.85430227863365
 20
-140.2295111411579
 10
87.02345646695942
 20
-140.2295111411579
 10
87.20966387793717
 20
-140.2295111411579
 10
87.3197346786909
 20
-140.106865741883
 10
87.3197346786909
 20
-139.9290988148441
 10
87.3197346786909
 20
-139.707234665594
 10
87.15678166223859
 20
-139.6331651126611
 10
87.02345646695942
 20
-139.6331651126611
 97
        0
 97
        0
 92
        1
 93
        1
 72
     4
 94
        3
 73
     0
 74
     1
 95
       17
 96
       13
 40
0.0
 40
0.0
 40
0.0
 40
0.0
 40
1.0
 40
1.0
 40
1.0
 40
2.0
 40
2.0
 40
2.0
 40
3.0
 40
3.0
 40
3.0
 40
4.0
 40
4.0
 40
4.0
 40
4.0
 10
87.02345646695942
 20
-138.9730848176873
 10
86.85843639321595
 20
-138.9730848176873
 10
86.77385929905307
 20
-139.0681694530802
 10
86.77385929905307
 20
-139.2035617056505
 10
86.77385929905307
 20
-139.3262071049254
 10
86.84586179469478
 20
-139.444718389618
 10
87.02345646695942
 20
-139.444718389618
 10
87.2012233939983
 20
-139.444718389618
 10
87.27305363486578
 20
-139.3262071049254
 10
87.27305363486578
 20
-139.2035617056505
 10
87.27305363486578
 20
-139.0681694530802
 10
87.18640948341174
 20
-138.9730848176873
 10
87.02345646695942
 20
-138.9730848176873
 97
        0
 97
        0
 75
     2
 76
     1
 98
        0
  0
ENDBLK
  5
C5
330
C2
100
AcDbEntity
  8
0
100
AcDbBlockEnd
  0
BLOCK
  5
CC
330
CA
100
AcDbEntity
  8
0
100
AcDbBlockBegin
  2
block 10
 70
     0
 10
0.0
 20
0.0
 30
0.0
  3
block 10
  1

  0
POLYLINE
  5
CE
330
CA
100
AcDbEntity
  8
_U+30EC_U+30A4_U+30E4_U+30FC 1
 62
     7
420
 16777215
370
     9
100
AcDb2dPolyline
 66
     1
 10
0.0
 20
0.0
 30
0.0
  0
VERTEX
  5
CF
330
CE
100
AcDbEntity
  8
_U+30EC_U+30A4_U+30E4_U+30FC 1
 62
     7
420
 16777215
370
     9
100
AcDbVertex
100
AcDb2dVertex
 10
107.0243110843551
 20
-136.0196105215506
 30
0.0
  0
VERTEX
  5
D0
330
CE
100
AcDbEntity
  8
_U+30EC_U+30A4_U+30E4_U+30FC 1
 62
     7
420
 16777215
370
     9
100
AcDbVertex
100
AcDb2dVertex
 10
107.0243110843551
 20
-123.3202808025033
 30
0.0
  0
SEQEND
  5
D1
330
CE
100
AcDbEntity
  8
_U+30EC_U+30A4_U+30E4_U+30FC 1
 62
     7
420
 16777215
370
     9
  0
POLYLINE
  5
D2
330
CA
100
AcDbEntity
  8
_U+30EC_U+30A4_U+30E4_U+30FC 1
 62
     7
420
 16777215
370
     9
100
AcDb2dPolyline
 66
     1
 10
0.0
 20
0.0
 30
0.0
  0
VERTEX
  5
D3
330
D2
100
AcDbEntity
  8
_U+30EC_U+30A4_U+30E4_U+30FC 1
 62
     7
420
 16777215
370
     9
100
AcDbVertex
100
AcDb2dVertex
 10
93.56361400188223
 20
-136.0196105215506
 30
0.0
  0
VERTEX
  5
D4
330
D2
100
AcDbEntity
  8
_U+30EC_U+30A4_U+30E4_U+30FC 1
 62
     7
420
 16777215
370
     9
100
AcDbVertex
100
AcDb2dVertex
 10
108.024083306327
 20
-136.0196105215506
 30
0.0
  0
SEQEND
  5
D5
330
D2
100
AcDbEntity
  8
_U+30EC_U+30A4_U+30E4_U+30FC 1
 62
     7
420
 16777215
370
     9
  0
INSERT
  5
D7
330
CA
100
AcDbEntity
  8
_U+30EC_U+30A4_U+30E4_U+30FC 1
100
AcDbBlockReference
  2
block 11
 10
0.0
 20
0.0
 30
0.0
  0
ENDBLK
  5
CD
330
CA
100
AcDbEntity
  8
0
100
AcDbBlockEnd
  0
BLOCK
  5
D8
330
D6
100
AcDbEntity
  8
0
100
AcDbBlockBegin
  2
block 11
 70
     0
 10
0.0
 20
0.0
 30
0.0
  3
block 11
  1

  0
SPLINE
  5
DA
330
D6
100
AcDbEntity
  8
_U+30EC_U+30A4_U+30E4_U+30FC 1
370
     0
100
AcDbSpline
210
0.0
220
0.0
230
1.0
 70
    11
 71
     3
 72
    26
 73
    22
 74
     0
 42
0.0000000001
 43
0.0000000001
 12
1.0
 22
0.0
 32
0.0
 13
1.0
 23
0.0
 33
0.0
 40
0.0
 40
0.0
 40
0.0
 40
0.0
 40
1.0
 40
1.0
 40
1.0
 40
2.0
 40
2.0
 40
2.0
 40
3.0
 40
3.0
 40
3.0
 40
4.0
 40
4.0
 40
4.0
 40
5.0
 40
5.0
 40
5.0
 40
6.0
 40
6.0
 40
6.0
 40
7.0
 40
7.0
 40
7.0
 40
7.0
 10
106.3776583935445
 20
-131.1699435435964
 30
0.0
 10
106.3776583935445
 20
-131.1699435435964
 30
0.0
 10
105.2735052905219
 20
-131.1699435435964
 30
0.0
 10
105.2735052905219
 20
-131.1699435435964
 30
0.0
 10
105.2735052905219
 20
-131.1699435435964
 30
0.0
 10
105.2735052905219
 20
-131.4999836910833
 30
0.0
 10
105.2735052905219
 20
-131.4999836910833
 30
0.0
 10
105.2735052905219
 20
-131.4999836910833
 30
0.0
 10
105.1253661846562
 20
-131.4999836910833
 30
0.0
 10
105.1253661846562
 20
-131.4999836910833
 30
0.0
 10
105.1105522740696
 20
-131.1678764863053
 30
0.0
 10
104.9475992576173
 20
-131.1213676972544
 30
0.0
 10
104.833222087507
 20
-131.0917398760812
 30
0.0
 10
104.833222087507
 20
-131.0917398760812
 30
0.0
 10
104.833222087507
 20
-130.9456678275066
 30
0.0
 10
104.833222087507
 20
-130.9456678275066
 30
0.0
 10
104.833222087507
 20
-130.9456678275066
 30
0.0
 10
106.3776583935445
 20
-130.9456678275066
 30
0.0
 10
106.3776583935445
 20
-130.9456678275066
 30
0.0
 10
106.3776583935445
 20
-130.9456678275066
 30
0.0
 10
106.3776583935445
 20
-131.1699435435964
 30
0.0
 10
106.3776583935445
 20
-131.1699435435964
 30
0.0
  0
HATCH
  5
DB
330
D6
100
AcDbEntity
  8
_U+30EC_U+30A4_U+30E4_U+30FC 1
 62
     7
420
 16777215
100
AcDbHatch
 10
0.0
 20
0.0
 30
0.0
210
0.0
220
0.0
230
1.0
  2
SOLID
 70
     1
 71
     0
 91
        1
 92
        1
 93
        1
 72
     4
 94
        3
 73
     0
 74
     1
 95
       26
 96
       22
 40
0.0
 40
0.0
 40
0.0
 40
0.0
 40
1.0
 40
1.0
 40
1.0
 40
2.0
 40
2.0
 40
2.0
 40
3.0
 40
3.0
 40
3.0
 40
4.0
 40
4.0
 40
4.0
 40
5.0
 40
5.0
 40
5.0
 40
6.0
 40
6.0
 40
6.0
 40
7.0
 40
7.0
 40
7.0
 40
7.0
 10
106.3776583935445
 20
-131.1699435435964
 10
106.3776583935445
 20
-131.1699435435964
 10
105.2735052905219
 20
-131.1699435435964
 10
105.2735052905219
 20
-131.1699435435964
 10
105.2735052905219
 20
-131.1699435435964
 10
105.2735052905219
 20
-131.4999836910833
 10
105.2735052905219
 20
-131.4999836910833
 10
105.2735052905219
 20
-131.4999836910833
 10
105.1253661846562
 20
-131.4999836910833
 10
105.1253661846562
 20
-131.4999836910833
 10
105.1105522740696
 20
-131.1678764863053
 10
104.9475992576173
 20
-131.1213676972544
 10
104.833222087507
 20
-131.0917398760812
 10
104.833222087507
 20
-131.0917398760812
 10
104.833222087507
 20
-130.9456678275066
 10
104.833222087507
 20
-130.9456678275066
 10
104.833222087507
 20
-130.9456678275066
 10
106.3776583935445
 20
-130.9456678275066
 10
106.3776583935445
 20
-130.9456678275066
 10
106.3776583935445
 20
-130.9456678275066
 10
106.3776583935445
 20
-131.1699435435964
 10
106.3776583935445
 20
-131.1699435435964
 97
        0
 97
        0
 75
     2
 76
     1
 98
        0
  0
SPLINE
  5
DC
330
D6
100
AcDbEntity
  8
_U+30EC_U+30A4_U+30E4_U+30FC 1
370
     0
100
AcDbSpline
210
0.0
220
0.0
230
1.0
 70
    11
 71
     3
 72
    44
 73
    40
 74
     0
 42
0.0000000001
 43
0.0000000001
 12
1.0
 22
0.0
 32
0.0
 13
1.0
 23
0.0
 33
0.0
 40
0.0
 40
0.0
 40
0.0
 40
0.0
 40
1.0
 40
1.0
 40
1.0
 40
2.0
 40
2.0
 40
2.0
 40
3.0
 40
3.0
 40
3.0
 40
4.0
 40
4.0
 40
4.0
 40
5.0
 40
5.0
 40
5.0
 40
6.0
 40
6.0
 40
6.0
 40
7.0
 40
7.0
 40
7.0
 40
8.0
 40
8.0
 40
8.0
 40
9.0
 40
9.0
 40
9.0
 40
10.0
 40
10.0
 40
10.0
 40
11.0
 40
11.0
 40
11.0
 40
12.0
 40
12.0
 40
12.0
 40
13.0
 40
13.0
 40
13.0
 40
13.0
 10
105.7957817660858
 20
-129.8515055013913
 30
0.0
 10
105.9546006679558
 20
-130.0692355360591
 30
0.0
 10
106.0286702208887
 20
-130.1622531141608
 30
0.0
 10
106.1723307026236
 20
-130.2111734700514
 30
0.0
 10
106.1723307026236
 20
-130.2111734700514
 30
0.0
 10
106.1723307026236
 20
-129.4325818903849
 30
0.0
 10
106.1723307026236
 20
-129.4325818903849
 30
0.0
 10
106.1723307026236
 20
-129.4325818903849
 30
0.0
 10
106.3776583935445
 20
-129.4325818903849
 30
0.0
 10
106.3776583935445
 20
-129.4325818903849
 30
0.0
 10
106.3776583935445
 20
-129.4325818903849
 30
0.0
 10
106.3776583935445
 20
-130.4605983831835
 30
0.0
 10
106.3776583935445
 20
-130.4605983831835
 30
0.0
 10
106.0200574821755
 20
-130.4289035047192
 30
0.0
 10
105.9418538146604
 20
-130.3634466904994
 30
0.0
 10
105.6435085456377
 20
-129.9782850152485
 30
0.0
 10
105.4447265361388
 20
-129.7223144206944
 30
0.0
 10
105.3768581550794
 20
-129.6568576064747
 30
0.0
 10
105.2393988452179
 20
-129.6568576064747
 30
0.0
 10
105.1208875605253
 20
-129.6568576064747
 30
0.0
 10
104.9899739320858
 20
-129.7288601021164
 30
0.0
 10
104.9899739320858
 20
-129.9255750543242
 30
0.0
 10
104.9899739320858
 20
-130.1856797634605
 30
0.0
 10
105.2204508200491
 20
-130.1942925021737
 30
0.0
 10
105.3368950474505
 20
-130.198426616756
 30
0.0
 10
105.3368950474505
 20
-130.198426616756
 30
0.0
 10
105.3368950474505
 20
-130.4227023328457
 30
0.0
 10
105.3368950474505
 20
-130.4227023328457
 30
0.0
 10
105.2097710240448
 20
-130.4140895941326
 30
0.0
 10
105.0978054207742
 20
-130.4034097981283
 30
0.0
 10
104.9792941360816
 20
-130.323139073322
 30
0.0
 10
104.8184081769204
 20
-130.2132405273425
 30
0.0
 10
104.7846462411649
 20
-130.0268608615905
 30
0.0
 10
104.7846462411649
 20
-129.9107611437376
 30
0.0
 10
104.7846462411649
 20
-129.633430957175
 30
0.0
 10
104.9686143400773
 20
-129.426036208963
 30
0.0
 10
105.2414659025091
 20
-129.426036208963
 30
0.0
 10
105.4702202427297
 20
-129.426036208963
 30
0.0
 10
105.5694389927049
 20
-129.5424804363644
 30
0.0
 10
105.7957817660858
 20
-129.8515055013913
 30
0.0
  0
HATCH
  5
DD
330
D6
100
AcDbEntity
  8
_U+30EC_U+30A4_U+30E4_U+30FC 1
 62
     7
420
 16777215
100
AcDbHatch
 10
0.0
 20
0.0
 30
0.0
210
0.0
220
0.0
230
1.0
  2
SOLID
 70
     1
 71
     0
 91
        1
 92
        1
 93
        1
 72
     4
 94
        3
 73
     0
 74
     1
 95
       44
 96
       40
 40
0.0
 40
0.0
 40
0.0
 40
0.0
 40
1.0
 40
1.0
 40
1.0
 40
2.0
 40
2.0
 40
2.0
 40
3.0
 40
3.0
 40
3.0
 40
4.0
 40
4.0
 40
4.0
 40
5.0
 40
5.0
 40
5.0
 40
6.0
 40
6.0
 40
6.0
 40
7.0
 40
7.0
 40
7.0
 40
8.0
 40
8.0
 40
8.0
 40
9.0
 40
9.0
 40
9.0
 40
10.0
 40
10.0
 40
10.0
 40
11.0
 40
11.0
 40
11.0
 40
12.0
 40
12.0
 40
12.0
 40
13.0
 40
13.0
 40
13.0
 40
13.0
 10
105.7957817660858
 20
-129.8515055013913
 10
105.9546006679558
 20
-130.0692355360591
 10
106.0286702208887
 20
-130.1622531141608
 10
106.1723307026236
 20
-130.2111734700514
 10
106.1723307026236
 20
-130.2111734700514
 10
106.1723307026236
 20
-129.4325818903849
 10
106.1723307026236
 20
-129.4325818903849
 10
106.1723307026236
 20
-129.4325818903849
 10
106.3776583935445
 20
-129.4325818903849
 10
106.3776583935445
 20
-129.4325818903849
 10
106.3776583935445
 20
-129.4325818903849
 10
106.3776583935445
 20
-130.4605983831835
 10
106.3776583935445
 20
-130.4605983831835
 10
106.0200574821755
 20
-130.4289035047192
 10
105.9418538146604
 20
-130.3634466904994
 10
105.6435085456377
 20
-129.9782850152485
 10
105.4447265361388
 20
-129.7223144206944
 10
105.3768581550794
 20
-129.6568576064747
 10
105.2393988452179
 20
-129.6568576064747
 10
105.1208875605253
 20
-129.6568576064747
 10
104.9899739320858
 20
-129.7288601021164
 10
104.9899739320858
 20
-129.9255750543242
 10
104.9899739320858
 20
-130.1856797634605
 10
105.2204508200491
 20
-130.1942925021737
 10
105.3368950474505
 20
-130.198426616756
 10
105.3368950474505
 20
-130.198426616756
 10
105.3368950474505
 20
-130.4227023328457
 10
105.3368950474505
 20
-130.4227023328457
 10
105.2097710240448
 20
-130.4140895941326
 10
105.0978054207742
 20
-130.4034097981283
 10
104.9792941360816
 20
-130.323139073322
 10
104.8184081769204
 20
-130.2132405273425
 10
104.7846462411649
 20
-130.0268608615905
 10
104.7846462411649
 20
-129.9107611437376
 10
104.7846462411649
 20
-129.633430957175
 10
104.9686143400773
 20
-129.426036208963
 10
105.2414659025091
 20
-129.426036208963
 10
105.4702202427297
 20
-129.426036208963
 10
105.5694389927049
 20
-129.5424804363644
 10
105.7957817660858
 20
-129.8515055013913
 97
        0
 97
        0
 75
     2
 76
     1
 98
        0
  0
POLYLINE
  5
DE
330
D6
100
AcDbEntity
  8
_U+30EC_U+30A4_U+30E4_U+30FC 1
370
     0
100
AcDb2dPolyline
 66
     1
 10
0.0
 20
0.0
 30
0.0
  0
VERTEX
  5
DF
330
DE
100
AcDbEntity
  8
_U+30EC_U+30A4_U+30E4_U+30FC 1
370
     0
100
AcDbVertex
100
AcDb2dVertex
 10
106.3776583935445
 20
-129.2076171551981
 30
0.0
  0
VERTEX
  5
E0
330
DE
100
AcDbEntity
  8
_U+30EC_U+30A4_U+30E4_U+30FC 1
370
     0
100
AcDbVertex
100
AcDb2dVertex
 10
106.1258219135727
 20
-129.2076171551981
 30
0.0
  0
VERTEX
  5
E1
330
DE
100
AcDbEntity
  8
_U+30EC_U+30A4_U+30E4_U+30FC 1
370
     0
100
AcDbVertex
100
AcDb2dVertex
 10
106.1258219135727
 20
-128.9557806752264
 30
0.0
  0
VERTEX
  5
E2
330
DE
100
AcDbEntity
  8
_U+30EC_U+30A4_U+30E4_U+30FC 1
370
     0
100
AcDbVertex
100
AcDb2dVertex
 10
106.3776583935445
 20
-128.9557806752264
 30
0.0
  0
VERTEX
  5
E3
330
DE
100
AcDbEntity
  8
_U+30EC_U+30A4_U+30E4_U+30FC 1
370
     0
100
AcDbVertex
100
AcDb2dVertex
 10
106.3776583935445
 20
-129.2076171551981
 30
0.0
  0
SEQEND
  5
E4
330
DE
100
AcDbEntity
  8
_U+30EC_U+30A4_U+30E4_U+30FC 1
370
     0
  0
HATCH
  5
E5
330
D6
100
AcDbEntity
  8
_U+30EC_U+30A4_U+30E4_U+30FC 1
 62
     7
420
 16777215
100
AcDbHatch
 10
0.0
 20
0.0
 30
0.0
210
0.0
220
0.0
230
1.0
  2
SOLID
 70
     1
 71
     0
 91
        1
 92
        1
 93
        4
 72
     1
 10
106.3776583935445
 20
-129.2076171551981
 11
106.1258219135727
 21
-129.2076171551981
 72
     1
 10
106.1258219135727
 20
-129.2076171551981
 11
106.1258219135727
 21
-128.9557806752264
 72
     1
 10
106.1258219135727
 20
-128.9557806752264
 11
106.3776583935445
 21
-128.9557806752264
 72
     1
 10
106.3776583935445
 20
-128.9557806752264
 11
106.3776583935445
 21
-129.2076171551981
 97
        0
 75
     2
 76
     1
 98
        0
  0
SPLINE
  5
E6
330
D6
100
AcDbEntity
  8
_U+30EC_U+30A4_U+30E4_U+30FC 1
370
     0
100
AcDbSpline
210
0.0
220
0.0
230
1.0
 70
    11
 71
     3
 72
    26
 73
    22
 74
     0
 42
0.0000000001
 43
0.0000000001
 12
1.0
 22
0.0
 32
0.0
 13
1.0
 23
0.0
 33
0.0
 40
0.0
 40
0.0
 40
0.0
 40
0.0
 40
1.0
 40
1.0
 40
1.0
 40
2.0
 40
2.0
 40
2.0
 40
3.0
 40
3.0
 40
3.0
 40
4.0
 40
4.0
 40
4.0
 40
5.0
 40
5.0
 40
5.0
 40
6.0
 40
6.0
 40
6.0
 40
7.0
 40
7.0
 40
7.0
 40
7.0
 10
106.3776583935445
 20
-128.3084472335479
 30
0.0
 10
106.3776583935445
 20
-128.3084472335479
 30
0.0
 10
106.3776583935445
 20
-128.5454698029331
 30
0.0
 10
106.3776583935445
 20
-128.5454698029331
 30
0.0
 10
106.0686333285176
 20
-128.5199760963422
 30
0.0
 10
105.550490967536
 20
-128.3273952587168
 30
0.0
 10
105.0447509503013
 20
-127.9212185010058
 30
0.0
 10
105.0447509503013
 20
-127.9212185010058
 30
0.0
 10
105.0447509503013
 20
-128.7590657230186
 30
0.0
 10
105.0447509503013
 20
-128.7590657230186
 30
0.0
 10
105.0447509503013
 20
-128.7590657230186
 30
0.0
 10
104.833222087507
 20
-128.7590657230186
 30
0.0
 10
104.833222087507
 20
-128.7590657230186
 30
0.0
 10
104.833222087507
 20
-128.7590657230186
 30
0.0
 10
104.833222087507
 20
-127.6841959316206
 30
0.0
 10
104.833222087507
 20
-127.6841959316206
 30
0.0
 10
104.833222087507
 20
-127.6841959316206
 30
0.0
 10
105.0447509503013
 20
-127.6841959316206
 30
0.0
 10
105.0447509503013
 20
-127.6841959316206
 30
0.0
 10
105.3348279901594
 20
-128.0080349072341
 30
0.0
 10
105.9270399040738
 20
-128.2746852977924
 30
0.0
 10
106.3776583935445
 20
-128.3084472335479
 30
0.0
  0
HATCH
  5
E7
330
D6
100
AcDbEntity
  8
_U+30EC_U+30A4_U+30E4_U+30FC 1
 62
     7
420
 16777215
100
AcDbHatch
 10
0.0
 20
0.0
 30
0.0
210
0.0
220
0.0
230
1.0
  2
SOLID
 70
     1
 71
     0
 91
        1
 92
        1
 93
        1
 72
     4
 94
        3
 73
     0
 74
     1
 95
       26
 96
       22
 40
0.0
 40
0.0
 40
0.0
 40
0.0
 40
1.0
 40
1.0
 40
1.0
 40
2.0
 40
2.0
 40
2.0
 40
3.0
 40
3.0
 40
3.0
 40
4.0
 40
4.0
 40
4.0
 40
5.0
 40
5.0
 40
5.0
 40
6.0
 40
6.0
 40
6.0
 40
7.0
 40
7.0
 40
7.0
 40
7.0
 10
106.3776583935445
 20
-128.3084472335479
 10
106.3776583935445
 20
-128.3084472335479
 10
106.3776583935445
 20
-128.5454698029331
 10
106.3776583935445
 20
-128.5454698029331
 10
106.0686333285176
 20
-128.5199760963422
 10
105.550490967536
 20
-128.3273952587168
 10
105.0447509503013
 20
-127.9212185010058
 10
105.0447509503013
 20
-127.9212185010058
 10
105.0447509503013
 20
-128.7590657230186
 10
105.0447509503013
 20
-128.7590657230186
 10
105.0447509503013
 20
-128.7590657230186
 10
104.833222087507
 20
-128.7590657230186
 10
104.833222087507
 20
-128.7590657230186
 10
104.833222087507
 20
-128.7590657230186
 10
104.833222087507
 20
-127.6841959316206
 10
104.833222087507
 20
-127.6841959316206
 10
104.833222087507
 20
-127.6841959316206
 10
105.0447509503013
 20
-127.6841959316206
 10
105.0447509503013
 20
-127.6841959316206
 10
105.3348279901594
 20
-128.0080349072341
 10
105.9270399040738
 20
-128.2746852977924
 10
106.3776583935445
 20
-128.3084472335479
 97
        0
 97
        0
 75
     2
 76
     1
 98
        0
  0
ENDBLK
  5
D9
330
D6
100
AcDbEntity
  8
0
100
AcDbBlockEnd
  0
ENDSEC
  0
SECTION
  2
ENTITIES
  0
INSERT
  5
42
330
1F
100
AcDbEntity
  8
_U+30EC_U+30A4_U+30E4_U+30FC 1
100
AcDbBlockReference
  2
block 2
 10
0.0
 20
0.0
 30
0.0
  0
ENDSEC
  0
SECTION
  2
OBJECTS
  0
DICTIONARY
  5
C
330
0
100
AcDbDictionary
281
     1
  3
ACAD_GROUP
350
D
  3
ACAD_LAYOUT
350
1A
  3
ACAD_MATERIAL
350
3B
  3
ACAD_MLEADERSTYLE
350
E9
  3
ACAD_MLINESTYLE
350
17
  3
ACAD_PLOTSETTINGS
350
19
  3
ACAD_PLOTSTYLENAME
350
E
  3
ACAD_TABLESTYLE
350
E8
  3
ACAD_VISUALSTYLE
350
2A
  0
SUN
  5
3F
330
29
100
AcDbSun
 90
        1
290
     0
 63
     7
421
 16777215
 40
1.0
291
     1
 91
  2455826
 92
 54000000
292
     0
 70
     2
 71
   256
280
     1
  0
DICTIONARY
  5
D
102
{ACAD_REACTORS
330
C
102
}
330
C
100
AcDbDictionary
281
     1
  0
DICTIONARY
  5
1A
102
{ACAD_REACTORS
330
C
102
}
330
C
100
AcDbDictionary
281
     1
  3
Layout1
350
1E
  3
Layout2
350
26
  3
Model
350
22
  0
DICTIONARY
  5
3B
102
{ACAD_REACTORS
330
C
102
}
330
C
100
AcDbDictionary
281
     1
  3
ByBlock
350
3D
  3
ByLayer
350
3C
  3
Global
350
3E
  0
DICTIONARY
  5
E9
102
{ACAD_REACTORS
330
C
102
}
330
C
100
AcDbDictionary
281
     1
  0
DICTIONARY
  5
17
102
{ACAD_REACTORS
330
C
102
}
330
C
100
AcDbDictionary
281
     1
  3
Standard
350
18
  0
DICTIONARY
  5
19
102
{ACAD_REACTORS
330
C
102
}
330
C
100
AcDbDictionary
281
     1
  0
ACDBDICTIONARYWDFLT
  5
E
102
{ACAD_REACTORS
330
C
102
}
330
C
100
AcDbDictionary
281
     1
  3
Normal
350
F
100
AcDbDictionaryWithDefault
340
F
  0
DICTIONARY
  5
E8
102
{ACAD_REACTORS
330
C
102
}
330
C
100
AcDbDictionary
281
     1
  0
DICTIONARY
  5
2A
102
{ACAD_REACTORS
330
C
102
}
330
C
100
AcDbDictionary
281
     1
  3
2dWireframe
350
2F
  3
3D Hidden
350
31
  3
3dWireframe
350
30
  3
Basic
350
32
  3
Brighten
350
36
  3
ColorChange
350
3A
  3
Conceptual
350
34
  3
Dim
350
35
  3
Facepattern
350
39
  3
Flat
350
2B
  3
FlatWithEdges
350
2C
  3
Gouraud
350
2D
  3
GouraudWithEdges
350
2E
  3
Linepattern
350
38
  3
Realistic
350
33
  3
Thicken
350
37
  0
LAYOUT
  5
1E
102
{ACAD_REACTORS
330
1A
102
}
330
1A
100
AcDbPlotSettings
  1

  2
none_device
  4

  6

 40
0.0
 41
0.0
 42
0.0
 43
0.0
 44
0.0
 45
0.0
 46
0.0
 47
0.0
 48
0.0
 49
0.0
140
0.0
141
0.0
142
1.0
143
1.0
 70
   688
 72
     0
 73
     0
 74
     5
  7

 75
    16
 76
     0
 77
     2
 78
   300
147
1.0
148
0.0
149
0.0
100
AcDbLayout
  1
Layout1
 70
     1
 71
     1
 10
0.0
 20
0.0
 11
12.0
 21
9.0
 12
0.0
 22
0.0
 32
0.0
 14
1.000000000000000E+20
 24
1.000000000000000E+20
 34
1.000000000000000E+20
 15
-1.000000000000000E+20
 25
-1.000000000000000E+20
 35
-1.000000000000000E+20
146
0.0
 13
0.0
 23
0.0
 33
0.0
 16
1.0
 26
0.0
 36
0.0
 17
0.0
 27
1.0
 37
0.0
 76
     0
330
1B
  0
LAYOUT
  5
26
102
{ACAD_REACTORS
330
1A
102
}
330
1A
100
AcDbPlotSettings
  1

  2
none_device
  4

  6

 40
0.0
 41
0.0
 42
0.0
 43
0.0
 44
0.0
 45
0.0
 46
0.0
 47
0.0
 48
0.0
 49
0.0
140
0.0
141
0.0
142
1.0
143
1.0
 70
   688
 72
     0
 73
     0
 74
     5
  7

 75
    16
 76
     0
 77
     2
 78
   300
147
1.0
148
0.0
149
0.0
100
AcDbLayout
  1
Layout2
 70
     1
 71
     2
 10
0.0
 20
0.0
 11
0.0
 21
0.0
 12
0.0
 22
0.0
 32
0.0
 14
0.0
 24
0.0
 34
0.0
 15
0.0
 25
0.0
 35
0.0
146
0.0
 13
0.0
 23
0.0
 33
0.0
 16
1.0
 26
0.0
 36
0.0
 17
0.0
 27
1.0
 37
0.0
 76
     0
330
23
  0
LAYOUT
  5
22
102
{ACAD_REACTORS
330
1A
102
}
330
1A
100
AcDbPlotSettings
  1

  2
none_device
  4

  6

 40
0.0
 41
0.0
 42
0.0
 43
0.0
 44
0.0
 45
0.0
 46
0.0
 47
0.0
 48
0.0
 49
0.0
140
0.0
141
0.0
142
1.0
143
1.0
 70
  1712
 72
     0
 73
     0
 74
     0
  7

 75
     0
 76
     0
 77
     2
 78
   300
147
1.0
148
0.0
149
0.0
100
AcDbLayout
  1
Model
 70
     1
 71
     0
 10
0.0
 20
0.0
 11
12.0
 21
9.0
 12
0.0
 22
0.0
 32
0.0
 14
1.000000000000000E+20
 24
1.000000000000000E+20
 34
1.000000000000000E+20
 15
-1.000000000000000E+20
 25
-1.000000000000000E+20
 35
-1.000000000000000E+20
146
0.0
 13
0.0
 23
0.0
 33
0.0
 16
1.0
 26
0.0
 36
0.0
 17
0.0
 27
1.0
 37
0.0
 76
     0
330
1F
331
29
  0
MATERIAL
  5
3D
102
{ACAD_REACTORS
330
3B
102
}
330
3B
100
AcDbMaterial
  1
ByBlock
 72
     1
 94
      127
  0
MATERIAL
  5
3C
102
{ACAD_REACTORS
330
3B
102
}
330
3B
100
AcDbMaterial
  1
ByLayer
 72
     1
 94
      127
  0
MATERIAL
  5
3E
102
{ACAD_REACTORS
330
3B
102
}
330
3B
100
AcDbMaterial
  1
Global
 72
     1
 94
      127
  0
MLINESTYLE
  5
18
102
{ACAD_REACTORS
330
17
102
}
330
17
100
AcDbMlineStyle
  2
Standard
 70
     0
  3

 62
   256
 51
90.0
 52
90.0
 71
     2
 49
0.5
 62
   256
  6
BYLAYER
 49
-0.5
 62
   256
  6
BYLAYER
  0
ACDBPLACEHOLDER
  5
F
102
{ACAD_REACTORS
330
E
102
}
330
E
  0
VISUALSTYLE
  5
2F
102
{ACAD_REACTORS
330
2A
102
}
330
2A
100
AcDbVisualStyle
  2
2dWireframe
 70
     4
177
     2
291
     0
 71
     0
176
     1
 72
     2
176
     1
 73
     0
176
     1
 90
        0
176
     1
 40
-0.6
176
     1
 41
-30.0
176
     1
 62
     5
 63
     7
421
 16777215
176
     1
 74
     1
176
     1
 91
        4
176
     1
 64
     7
176
     1
 65
   257
176
     1
 75
     1
176
     1
175
     1
176
     1
 42
1.0
176
     1
 92
        0
176
     1
 66
   257
176
     1
 43
1.0
176
     1
 76
     1
176
     1
 77
     6
176
     1
 78
     2
176
     1
 67
     7
176
     1
 79
     5
176
     1
170
     0
176
     1
171
     0
176
     1
290
     0
176
     1
 93
        1
176
     1
 44
0.0
176
     1
173
     0
176
     1
  0
VISUALSTYLE
  5
31
102
{ACAD_REACTORS
330
2A
102
}
330
2A
100
AcDbVisualStyle
  2
3D Hidden
 70
     6
177
     2
291
     0
 71
     1
176
     1
 72
     2
176
     1
 73
     2
176
     1
 90
        0
176
     1
 40
-0.6
176
     1
 41
-30.0
176
     1
 62
     5
 63
     7
421
 16777215
176
     1
 74
     2
176
     1
 91
        2
176
     1
 64
     7
176
     1
 65
   257
176
     1
 75
     2
176
     1
175
     1
176
     1
 42
40.0
176
     1
 92
        0
176
     1
 66
   257
176
     1
 43
1.0
176
     1
 76
     1
176
     1
 77
     6
176
     1
 78
     2
176
     1
 67
     7
176
     1
 79
     3
176
     1
170
     0
176
     1
171
     0
176
     1
290
     0
176
     1
 93
        1
176
     1
 44
0.0
176
     1
173
     0
176
     1
  0
VISUALSTYLE
  5
30
102
{ACAD_REACTORS
330
2A
102
}
330
2A
100
AcDbVisualStyle
  2
3dWireframe
 70
     5
177
     2
291
     0
 71
     0
176
     1
 72
     2
176
     1
 73
     0
176
     1
 90
        0
176
     1
 40
-0.6
176
     1
 41
-30.0
176
     1
 62
     5
 63
     7
421
 16777215
176
     1
 74
     1
176
     1
 91
        4
176
     1
 64
     7
176
     1
 65
   257
176
     1
 75
     1
176
     1
175
     1
176
     1
 42
1.0
176
     1
 92
        0
176
     1
 66
   257
176
     1
 43
1.0
176
     1
 76
     1
176
     1
 77
     6
176
     1
 78
     2
176
     1
 67
     7
176
     1
 79
     5
176
     1
170
     0
176
     1
171
     0
176
     1
290
     0
176
     1
 93
        1
176
     1
 44
0.0
176
     1
173
     0
176
     1
  0
VISUALSTYLE
  5
32
102
{ACAD_REACTORS
330
2A
102
}
330
2A
100
AcDbVisualStyle
  2
Basic
 70
     7
177
     2
291
     1
 71
     1
176
     1
 72
     0
176
     1
 73
     1
176
     1
 90
        0
176
     1
 40
-0.6
176
     1
 41
-30.0
176
     1
 62
     5
 63
     7
421
 16777215
176
     1
 74
     0
176
     1
 91
        4
176
     1
 64
     7
176
     1
 65
   257
176
     1
 75
     1
176
     1
175
     1
176
     1
 42
1.0
176
     1
 92
        8
176
     1
 66
     7
176
     1
 43
1.0
176
     1
 76
     1
176
     1
 77
     6
176
     1
 78
     2
176
     1
 67
     7
176
     1
 79
     5
176
     1
170
     0
176
     1
171
     0
176
     1
290
     0
176
     1
 93
        1
176
     1
 44
0.0
176
     1
173
     0
176
     1
  0
VISUALSTYLE
  5
36
102
{ACAD_REACTORS
330
2A
102
}
330
2A
100
AcDbVisualStyle
  2
Brighten
 70
    12
177
     2
291
     1
 71
     2
176
     1
 72
     2
176
     1
 73
     0
176
     1
 90
        0
176
     1
 40
-0.6
176
     1
 41
-30.0
176
     1
 62
     5
 63
     7
421
 16777215
176
     1
 74
     1
176
     1
 91
        4
176
     1
 64
     7
176
     1
 65
   257
176
     1
 75
     1
176
     1
175
     1
176
     1
 42
1.0
176
     1
 92
        8
176
     1
 66
     7
176
     1
 43
1.0
176
     1
 76
     1
176
     1
 77
     6
176
     1
 78
     2
176
     1
 67
     7
176
     1
 79
     5
176
     1
170
     0
176
     1
171
     0
176
     1
290
     0
176
     1
 93
        1
176
     1
 44
50.0
176
     1
173
     0
176
     1
  0
VISUALSTYLE
  5
3A
102
{ACAD_REACTORS
330
2A
102
}
330
2A
100
AcDbVisualStyle
  2
ColorChange
 70
    16
177
     2
291
     1
 71
     2
176
     1
 72
     2
176
     1
 73
     3
176
     1
 90
        0
176
     1
 40
-0.6
176
     1
 41
-30.0
176
     1
 62
     5
 63
     8
421
  8421504
176
     1
 74
     1
176
     1
 91
        4
176
     1
 64
     7
176
     1
 65
   257
176
     1
 75
     1
176
     1
175
     1
176
     1
 42
1.0
176
     1
 92
        8
176
     1
 66
     8
424
  8421504
176
     1
 43
1.0
176
     1
 76
     1
176
     1
 77
     6
176
     1
 78
     2
176
     1
 67
     7
176
     1
 79
     5
176
     1
170
     0
176
     1
171
     0
176
     1
290
     0
176
     1
 93
        1
176
     1
 44
0.0
176
     1
173
     0
176
     1
  0
VISUALSTYLE
  5
34
102
{ACAD_REACTORS
330
2A
102
}
330
2A
100
AcDbVisualStyle
  2
Conceptual
 70
     9
177
     2
291
     0
 71
     3
176
     1
 72
     2
176
     1
 73
     0
176
     1
 90
        0
176
     1
 40
-0.6
176
     1
 41
-30.0
176
     1
 62
     5
 63
     7
421
 16777215
176
     1
 74
     2
176
     1
 91
        2
176
     1
 64
     7
176
     1
 65
   257
176
     1
 75
     1
176
     1
175
     1
176
     1
 42
40.0
176
     1
 92
        8
176
     1
 66
     7
176
     1
 43
1.0
176
     1
 76
     1
176
     1
 77
     6
176
     1
 78
     2
176
     1
 67
     7
176
     1
 79
     3
176
     1
170
     0
176
     1
171
     0
176
     1
290
     0
176
     1
 93
        1
176
     1
 44
0.0
176
     1
173
     0
176
     1
  0
VISUALSTYLE
  5
35
102
{ACAD_REACTORS
330
2A
102
}
330
2A
100
AcDbVisualStyle
  2
Dim
 70
    11
177
     2
291
     1
 71
     2
176
     1
 72
     2
176
     1
 73
     0
176
     1
 90
        0
176
     1
 40
-0.6
176
     1
 41
-30.0
176
     1
 62
     5
 63
     7
421
 16777215
176
     1
 74
     1
176
     1
 91
        4
176
     1
 64
     7
176
     1
 65
   257
176
     1
 75
     1
176
     1
175
     1
176
     1
 42
1.0
176
     1
 92
        8
176
     1
 66
     7
176
     1
 43
1.0
176
     1
 76
     1
176
     1
 77
     6
176
     1
 78
     2
176
     1
 67
     7
176
     1
 79
     5
176
     1
170
     0
176
     1
171
     0
176
     1
290
     0
176
     1
 93
        1
176
     1
 44
-50.0
176
     1
173
     0
176
     1
  0
VISUALSTYLE
  5
39
102
{ACAD_REACTORS
330
2A
102
}
330
2A
100
AcDbVisualStyle
  2
Facepattern
 70
    15
177
     2
291
     1
 71
     2
176
     1
 72
     2
176
     1
 73
     0
176
     1
 90
        0
176
     1
 40
-0.6
176
     1
 41
-30.0
176
     1
 62
     5
 63
     7
421
 16777215
176
     1
 74
     1
176
     1
 91
        4
176
     1
 64
     7
176
     1
 65
   257
176
     1
 75
     1
176
     1
175
     1
176
     1
 42
1.0
176
     1
 92
        8
176
     1
 66
     7
176
     1
 43
1.0
176
     1
 76
     1
176
     1
 77
     6
176
     1
 78
     2
176
     1
 67
     7
176
     1
 79
     5
176
     1
170
     0
176
     1
171
     0
176
     1
290
     0
176
     1
 93
        1
176
     1
 44
0.0
176
     1
173
     0
176
     1
  0
VISUALSTYLE
  5
2B
102
{ACAD_REACTORS
330
2A
102
}
330
2A
100
AcDbVisualStyle
  2
Flat
 70
     0
177
     2
291
     1
 71
     2
176
     1
 72
     1
176
     1
 73
     1
176
     1
 90
        2
176
     1
 40
-0.6
176
     1
 41
30.0
176
     1
 62
     5
 63
     7
421
 16777215
176
     1
 74
     0
176
     1
 91
        4
176
     1
 64
     7
176
     1
 65
   257
176
     1
 75
     1
176
     1
175
     1
176
     1
 42
1.0
176
     1
 92
        8
176
     1
 66
     7
176
     1
 43
1.0
176
     1
 76
     1
176
     1
 77
     6
176
     1
 78
     2
176
     1
 67
     7
176
     1
 79
     5
176
     1
170
     0
176
     1
171
     0
176
     1
290
     0
176
     1
 93
       13
176
     1
 44
0.0
176
     1
173
     0
176
     1
  0
VISUALSTYLE
  5
2C
102
{ACAD_REACTORS
330
2A
102
}
330
2A
100
AcDbVisualStyle
  2
FlatWithEdges
 70
     1
177
     2
291
     1
 71
     2
176
     1
 72
     1
176
     1
 73
     1
176
     1
 90
        2
176
     1
 40
-0.6
176
     1
 41
30.0
176
     1
 62
     5
 63
     7
421
 16777215
176
     1
 74
     1
176
     1
 91
        4
176
     1
 64
     7
176
     1
 65
   257
176
     1
 75
     1
176
     1
175
     1
176
     1
 42
1.0
176
     1
 92
        0
176
     1
 66
   257
176
     1
 43
1.0
176
     1
 76
     1
176
     1
 77
     6
176
     1
 78
     2
176
     1
 67
     7
176
     1
 79
     5
176
     1
170
     0
176
     1
171
     0
176
     1
290
     0
176
     1
 93
       13
176
     1
 44
0.0
176
     1
173
     0
176
     1
  0
VISUALSTYLE
  5
2D
102
{ACAD_REACTORS
330
2A
102
}
330
2A
100
AcDbVisualStyle
  2
Gouraud
 70
     2
177
     2
291
     1
 71
     2
176
     1
 72
     2
176
     1
 73
     1
176
     1
 90
        2
176
     1
 40
-0.6
176
     1
 41
30.0
176
     1
 62
     5
 63
     7
421
 16777215
176
     1
 74
     0
176
     1
 91
        4
176
     1
 64
     7
176
     1
 65
   257
176
     1
 75
     1
176
     1
175
     1
176
     1
 42
1.0
176
     1
 92
        0
176
     1
 66
     7
176
     1
 43
1.0
176
     1
 76
     1
176
     1
 77
     6
176
     1
 78
     2
176
     1
 67
     7
176
     1
 79
     5
176
     1
170
     0
176
     1
171
     0
176
     1
290
     0
176
     1
 93
       13
176
     1
 44
0.0
176
     1
173
     0
176
     1
  0
VISUALSTYLE
  5
2E
102
{ACAD_REACTORS
330
2A
102
}
330
2A
100
AcDbVisualStyle
  2
GouraudWithEdges
 70
     3
177
     2
291
     1
 71
     2
176
     1
 72
     2
176
     1
 73
     1
176
     1
 90
        2
176
     1
 40
-0.6
176
     1
 41
30.0
176
     1
 62
     5
 63
     7
421
 16777215
176
     1
 74
     1
176
     1
 91
        4
176
     1
 64
     7
176
     1
 65
   257
176
     1
 75
     1
176
     1
175
     1
176
     1
 42
1.0
176
     1
 92
        0
176
     1
 66
   257
176
     1
 43
1.0
176
     1
 76
     1
176
     1
 77
     6
176
     1
 78
     2
176
     1
 67
     7
176
     1
 79
     5
176
     1
170
     0
176
     1
171
     0
176
     1
290
     0
176
     1
 93
       13
176
     1
 44
0.0
176
     1
173
     0
176
     1
  0
VISUALSTYLE
  5
38
102
{ACAD_REACTORS
330
2A
102
}
330
2A
100
AcDbVisualStyle
  2
Linepattern
 70
    14
177
     2
291
     1
 71
     2
176
     1
 72
     2
176
     1
 73
     0
176
     1
 90
        0
176
     1
 40
-0.6
176
     1
 41
-30.0
176
     1
 62
     5
 63
     7
421
 16777215
176
     1
 74
     1
176
     1
 91
        4
176
     1
 64
     7
176
     1
 65
   257
176
     1
 75
     7
176
     1
175
     7
176
     1
 42
1.0
176
     1
 92
        8
176
     1
 66
     7
176
     1
 43
1.0
176
     1
 76
     1
176
     1
 77
     6
176
     1
 78
     2
176
     1
 67
     7
176
     1
 79
     5
176
     1
170
     0
176
     1
171
     0
176
     1
290
     0
176
     1
 93
        1
176
     1
 44
0.0
176
     1
173
     0
176
     1
  0
VISUALSTYLE
  5
33
102
{ACAD_REACTORS
330
2A
102
}
330
2A
100
AcDbVisualStyle
  2
Realistic
 70
     8
177
     2
291
     0
 71
     2
176
     1
 72
     2
176
     1
 73
     0
176
     1
 90
        0
176
     1
 40
-0.6
176
     1
 41
-30.0
176
     1
 62
     5
 63
     7
421
 16777215
176
     1
 74
     1
176
     1
 91
        0
176
     1
 64
     7
176
     1
 65
   257
176
     1
 75
     1
176
     1
175
     1
176
     1
 42
1.0
176
     1
 92
        8
176
     1
 66
     8
424
  7895160
176
     1
 43
1.0
176
     1
 76
     1
176
     1
 77
     6
176
     1
 78
     2
176
     1
 67
     7
176
     1
 79
     5
176
     1
170
     0
176
     1
171
     0
176
     1
290
     0
176
     1
 93
       13
176
     1
 44
0.0
176
     1
173
     0
176
     1
  0
VISUALSTYLE
  5
37
102
{ACAD_REACTORS
330
2A
102
}
330
2A
100
AcDbVisualStyle
  2
Thicken
 70
    13
177
     2
291
     1
 71
     2
176
     1
 72
     2
176
     1
 73
     0
176
     1
 90
        0
176
     1
 40
-0.6
176
     1
 41
-30.0
176
     1
 62
     5
 63
     7
421
 16777215
176
     1
 74
     1
176
     1
 91
        4
176
     1
 64
     7
176
     1
 65
   257
176
     1
 75
     1
176
     1
175
     1
176
     1
 42
1.0
176
     1
 92
       12
176
     1
 66
     7
176
     1
 43
1.0
176
     1
 76
     1
176
     1
 77
     6
176
     1
 78
     2
176
     1
 67
     7
176
     1
 79
     5
176
     1
170
     0
176
     1
171
     0
176
     1
290
     0
176
     1
 93
        1
176
     1
 44
0.0
176
     1
173
     0
176
     1
  0
ENDSEC
  0
EOF
